  0
SECTION
  2
HEADER
  9
$ACADVER
  1
AC1021
  9
$DWGCODEPAGE
  3
ANSI_1252
  9
$EXTMAX
 10
297.0
 20
210.0
 30
0.0
  9
$EXTMIN
 10
0.0
 20
0.0
 30
0.0
  9
$LIMMIN
 10
0.0
 20
0.0
  9
$LIMMAX
 10
297.0
 20
210.0
  9
$VIEWCTR
 10
148.5
 20
105.0
  9
$VIEWSIZE
 40
210.0
  9
$CLAYER
  8
0
  9
$LTSCALE
 40
16.335
  9
$CELTYPE
  6
BYLAYER
  9
$DIMSCALE
 40
1.0
  9
$DIMASZ
 40
3.0
  9
$DIMEXO
 40
0.5
  9
$DIMDLI
 40
11.286
  9
$DIMEXE
 40
1.5
  9
$DIMCEN
 40
2.673
  9
$DIMLFAC
 40
1.0
  9
$DIMBLK
  1
_FILLED
  9
$DIMALT
 70
0
  9
$DIMALTF
 40
0.0393700787
  9
$DIMTXT
 40
3.0
  9
$DIMTOL
 70
1
  9
$DIMLIM
 70
0
  9
$DIMTFAC
 40
1.0
  9
$DIMTP
 40
0.01
  9
$DIMTM
 40
0.01
  9
$DIMGAP
 40
0.625
  9
$DIMDSEP
 70
44
  9
$AUNITS
 70
0
  9
$PDMODE
 70
3
  9
$PDSIZE
 40
3.0
  9
$HANDSEED
  5
569
  9
$TILEMODE
 70
1
  9
$MEASUREMENT
 70
1
  9
$INSUNITS
 70
4
  0
ENDSEC
  0
SECTION
  2
CLASSES
  0
CLASS
  1
ACDBDICTIONARYWDFLT
  2
AcDbDictionaryWithDefault
  3
AutoCAD 2000
 90
0
 91
1
280
0
281
0
  0
CLASS
  1
ACDBPLACEHOLDER
  2
AcDbPlaceHolder
  3
AutoCAD 2000
 90
0
 91
1
280
0
281
0
  0
CLASS
  1
LAYOUT
  2
AcDbLayout
  3
AutoCAD 2000
 90
0
 91
0
280
0
281
0
  0
ENDSEC
  0
SECTION
  2
TABLES
  0
TABLE
  2
VPORT
  5
8
100
AcDbSymbolTable
 70
2
  0
VPORT
  5
1F4
100
AcDbSymbolTableRecord
100
AcDbViewportTableRecord
  2
*ACTIVE
 70
0
 10
0.0
 20
0.0
 11
1.0
 21
1.0
 12
148.5
 22
105.0
 13
0.0
 23
0.0
 14
1.0
 24
1.0
 15
0.0
 25
0.0
 16
0.0
 26
0.0
 36
1.0
 17
0.0
 27
0.0
 37
0.0
 40
210.0
 41
1.4142857143
 42
50.0
 43
0.0
 44
0.0
 50
0.0
 51
0.0
 71
0
 72
100
 73
1
 74
1
 75
0
 76
0
 77
0
 78
0
  0
ENDTAB
  0
TABLE
  2
LTYPE
  5
5
100
AcDbSymbolTable
 70
6
  0
LTYPE
  5
14
100
AcDbSymbolTableRecord
100
AcDbLinetypeTableRecord
  2
BYBLOCK
 70
0
  3

 72
65
 73
0
 40
0.0
  0
LTYPE
  5
15
100
AcDbSymbolTableRecord
100
AcDbLinetypeTableRecord
  2
BYLAYER
 70
0
  3

 72
65
 73
0
 40
0.0
  0
LTYPE
  5
16
100
AcDbSymbolTableRecord
100
AcDbLinetypeTableRecord
  2
CONTINUOUS
 70
64
  3
Solid line
 72
65
 73
0
 40
0.0
  0
LTYPE
  5
1F5
100
AcDbSymbolTableRecord
100
AcDbLinetypeTableRecord
  2
CENTER
 70
64
  3
____ _ ____ _ ____ _ ____ _ ____ _ ____ _ ____
 72
65
 73
4
 40
0.6
 49
0.375
 74
0
 49
-0.075
 74
0
 49
0.075
 74
0
 49
-0.075
 74
0
  0
LTYPE
  5
1F6
100
AcDbSymbolTableRecord
100
AcDbLinetypeTableRecord
  2
HIDDEN
 70
64
  3
- - - - - - - - - - - - - - - - - - - -
 72
65
 73
2
 40
0.2
 49
0.1
 74
0
 49
-0.1
 74
0
  0
LTYPE
  5
1F7
100
AcDbSymbolTableRecord
100
AcDbLinetypeTableRecord
  2
PHANTOM
 70
64
  3
_____ _ _ _____ _ _ _____ _ _ _____
 72
65
 73
6
 40
0.8
 49
0.45
 74
0
 49
-0.05
 74
0
 49
0.1
 74
0
 49
-0.05
 74
0
 49
0.1
 74
0
 49
-0.05
 74
0
  0
LTYPE
  5
1F8
100
AcDbSymbolTableRecord
100
AcDbLinetypeTableRecord
  2
DOT
 70
64
  3
. . . . . . . . . . . . . . . . . . . .
 72
65
 73
2
 40
0.2
 49
0.1
 74
0
 49
-0.1
 74
0
  0
LTYPE
  5
1F9
100
AcDbSymbolTableRecord
100
AcDbLinetypeTableRecord
  2
DASHED
 70
64
  3
- - - - - - - - - - - - - - - - - - - -
 72
65
 73
2
 40
0.2
 49
0.1
 74
0
 49
-0.1
 74
0
  0
ENDTAB
  0
TABLE
  2
LAYER
  5
2
100
AcDbSymbolTable
 70
36
  0
LAYER
  5
10
100
AcDbSymbolTableRecord
100
AcDbLayerTableRecord
  2
0
 70
0
 62
7
  6
CONTINUOUS
370
-3
390
F
  0
LAYER
  5
1FA
100
AcDbSymbolTableRecord
100
AcDbLayerTableRecord
  2
DEFAULT_1
 70
0
 62
7
  6
CENTER
370
-3
390
F
  0
LAYER
  5
1FB
100
AcDbSymbolTableRecord
100
AcDbLayerTableRecord
  2
DEFAULT_2
 70
0
 62
7
  6
HIDDEN
370
-3
390
F
  0
LAYER
  5
1FC
100
AcDbSymbolTableRecord
100
AcDbLayerTableRecord
  2
DEFAULT_3
 70
0
 62
7
  6
PHANTOM
370
-3
390
F
  0
LAYER
  5
1FD
100
AcDbSymbolTableRecord
100
AcDbLayerTableRecord
  2
ASSI
 70
0
 62
7
  6
CONTINUOUS
370
-3
390
F
  0
LAYER
  5
1FE
100
AcDbSymbolTableRecord
100
AcDbLayerTableRecord
  2
COORDINATE
 70
0
 62
7
  6
CONTINUOUS
370
-3
390
F
  0
LAYER
  5
1FF
100
AcDbSymbolTableRecord
100
AcDbLayerTableRecord
  2
COSMETICI
 70
0
 62
7
  6
CONTINUOUS
370
-3
390
F
  0
LAYER
  5
200
100
AcDbSymbolTableRecord
100
AcDbLayerTableRecord
  2
CURVE
 70
0
 62
7
  6
CONTINUOUS
370
-3
390
F
  0
LAYER
  5
201
100
AcDbSymbolTableRecord
100
AcDbLayerTableRecord
  2
INTFCLR_14
 70
0
 62
7
  6
CONTINUOUS
370
-3
390
F
  0
LAYER
  5
202
100
AcDbSymbolTableRecord
100
AcDbLayerTableRecord
  2
INTFCLR_17
 70
0
 62
7
  6
CONTINUOUS
370
-3
390
F
  0
LAYER
  5
203
100
AcDbSymbolTableRecord
100
AcDbLayerTableRecord
  2
INTFCLR_24
 70
0
 62
7
  6
CONTINUOUS
370
-3
390
F
  0
LAYER
  5
204
100
AcDbSymbolTableRecord
100
AcDbLayerTableRecord
  2
INTFCLR_32
 70
0
 62
7
  6
CONTINUOUS
370
-3
390
F
  0
LAYER
  5
205
100
AcDbSymbolTableRecord
100
AcDbLayerTableRecord
  2
INTFCLR_37
 70
0
 62
7
  6
CONTINUOUS
370
-3
390
F
  0
LAYER
  5
206
100
AcDbSymbolTableRecord
100
AcDbLayerTableRecord
  2
INTFCLR_42
 70
0
 62
7
  6
CONTINUOUS
370
-3
390
F
  0
LAYER
  5
207
100
AcDbSymbolTableRecord
100
AcDbLayerTableRecord
  2
NOTE
 70
0
 62
7
  6
CONTINUOUS
370
-3
390
F
  0
LAYER
  5
208
100
AcDbSymbolTableRecord
100
AcDbLayerTableRecord
  2
PIANI
 70
0
 62
7
  6
CONTINUOUS
370
-3
390
F
  0
LAYER
  5
209
100
AcDbSymbolTableRecord
100
AcDbLayerTableRecord
  2
PUNTI
 70
0
 62
7
  6
CONTINUOUS
370
-3
390
F
  0
LAYER
  5
20A
100
AcDbSymbolTableRecord
100
AcDbLayerTableRecord
  2
SIMBOLI
 70
0
 62
7
  6
CONTINUOUS
370
-3
390
F
  0
LAYER
  5
20B
100
AcDbSymbolTableRecord
100
AcDbLayerTableRecord
  2
SNAPLINE
 70
0
 62
7
  6
CONTINUOUS
370
-3
390
F
  0
LAYER
  5
20C
100
AcDbSymbolTableRecord
100
AcDbLayerTableRecord
  2
SUPERFICI
 70
0
 62
7
  6
CONTINUOUS
370
-3
390
F
  0
LAYER
  5
20D
100
AcDbSymbolTableRecord
100
AcDbLayerTableRecord
  2
WHITE
 70
0
 62
7
  6
CONTINUOUS
370
-3
390
F
  0
ENDTAB
  0
TABLE
  2
STYLE
  5
3
100
AcDbSymbolTable
 70
1
  0
STYLE
  5
11
100
AcDbSymbolTableRecord
100
AcDbTextStyleTableRecord
  2
STANDARD
 70
0
 40
0.0
 41
0.8
 50
0.0
 71
0
 42
0.2
  3
txt
  4

  0
STYLE
  5
20E
100
AcDbSymbolTableRecord
100
AcDbTextStyleTableRecord
  2
TEXTSTYLE_1
 70
0
 40
0.0
 41
0.8
 50
0.0
 71
0
 42
0.2
  3
gdt
  4

  0
ENDTAB
  0
TABLE
  2
VIEW
  5
6
100
AcDbSymbolTable
 70
0
  0
ENDTAB
  0
TABLE
  2
UCS
  5
7
100
AcDbSymbolTable
 70
0
  0
ENDTAB
  0
TABLE
  2
APPID
  5
9
100
AcDbSymbolTable
 70
1
  0
APPID
  5
20F
100
AcDbSymbolTableRecord
100
AcDbRegAppTableRecord
  2
ACAD
 70
0
  0
ENDTAB
  0
TABLE
  2
BLOCK_RECORD
  5
1
100
AcDbSymbolTable
 70
0
  0
BLOCK_RECORD
  5
210
100
AcDbSymbolTableRecord
100
AcDbBlockTableRecord
  2
*Model_Space
  0
BLOCK_RECORD
  5
211
100
AcDbSymbolTableRecord
100
AcDbBlockTableRecord
  2
*Paper_Space
  0
ENDTAB
  0
TABLE
  2
DIMSTYLE
  5
A
100
AcDbSymbolTable
 70
1
100
AcDbDimStyleTable
 71
0
  0
DIMSTYLE
105
212
100
AcDbSymbolTableRecord
100
AcDbDimStyleTableRecord
  2
STANDARD
 70
0
  3

  4

 40
1.0
 41
3.0
 42
0.5
 43
0.38
 44
1.5
 45
0.0
 46
0.0
 47
0.01
 48
0.01
140
3.0
141
0.09
142
0.0
143
25.4
144
1.0
145
0.0
146
1.0
147
0.625
 71
1.0
 72
0.0
 73
0
 74
0
 75
0
 76
0
 77
1
 78
8
170
0
171
2
172
0
173
0
174
0
175
0
176
0
177
0
178
0
270
2
271
2
272
2
273
2
274
2
275
0
280
0
281
0
282
0
283
1
284
8
285
0
286
0
287
3
288
0
340
11
278
44
  0
ENDTAB
  0
ENDSEC
  0
SECTION
  2
BLOCKS
  0
BLOCK
  5
20
100
AcDbEntity
  8
0
100
AcDbBlockBegin
  2
*Model_Space
 70
0
 10
0.0
 20
0.0
 30
0.0
  3
*Model_Space
  1

  0
ENDBLK
  5
21
100
AcDbEntity
  8
0
100
AcDbBlockEnd
  0
BLOCK
  5
1C
100
AcDbEntity
  8
0
100
AcDbBlockBegin
  2
*Paper_Space
 70
0
 10
0.0
 20
0.0
 30
0.0
  3
*Paper_Space
  1

  0
ENDBLK
  5
1D
100
AcDbEntity
  8
0
100
AcDbBlockEnd
  0
ENDSEC
  0
SECTION
  2
ENTITIES
  0
LWPOLYLINE
  5
213
100
AcDbEntity
  8
0
100
AcDbPolyline
 62
7
  6
CONTINUOUS
 90
16
 70
0
 10
-14.9050862965
 20
18.6764671077
 10
-15.2013822388
 20
18.4412452006
 10
-15.4811750105
 20
18.1800974846
 10
-15.7436668845
 20
17.8935032962
 10
-15.9881543188
 20
17.5819373164
 10
-16.2138820538
 20
17.2460490306
 10
-16.4200901711
 20
16.8866901053
 10
-16.6062651818
 20
16.5044705771
 10
-16.7718319148
 20
16.1002459802
 10
-16.9161357845
 20
15.6754131686
 10
-17.0388246427
 20
15.2309439137
 10
-17.1396174382
 20
14.7677571265
 10
-17.2181870808
 20
14.2873789825
 10
-17.2743767736
 20
13.7910905137
 10
-17.3081235515
 20
13.2798488618
 10
-17.3193765181
 20
12.7548076404
  0
LINE
  5
214
100
AcDbEntity
  8
0
100
AcDbLine
 62
7
  6
CONTINUOUS
 10
-14.9050862965
 20
18.6764671077
 11
-13.4040285886
 21
19.7722265603
  0
LWPOLYLINE
  5
215
100
AcDbEntity
  8
0
100
AcDbPolyline
 62
253
  6
CONTINUOUS
 90
19
 70
0
 10
-14.9050862965
 20
18.6764671077
 10
-14.6624957543
 20
18.841619866
 10
-14.3459567673
 20
19.0243501856
 10
-14.0147147802
 20
19.1807861961
 10
-13.6695201626
 20
19.3105735196
 10
-13.3111548913
 20
19.4134181461
 10
-12.940430779
 20
19.4890870993
 10
-12.558187635
 20
19.5374089648
 10
-12.165291363
 20
19.5582742781
 10
-11.7626319993
 20
19.5516357724
 10
-11.3511216971
 20
19.5175084862
 10
-10.9316926593
 20
19.4559697287
 10
-10.5052950278
 20
19.3671589049
 10
-10.0728947303
 20
19.2512772
 10
-9.6354712925
 20
19.1085871233
 10
-9.1940156193
 20
18.9394119137
 10
-8.7495277497
 20
18.7441348075
 10
-8.3030145917
 20
18.5231981701
 10
-7.8554876412
 20
18.2771024941
  0
LWPOLYLINE
  5
216
100
AcDbEntity
  8
0
100
AcDbPolyline
 62
253
  6
CONTINUOUS
 90
17
 70
0
 10
-19.3388411287
 20
10.2059386846
 10
-19.3388106678
 20
10.2039233245
 10
-19.3370533251
 20
10.1905328747
 10
-19.3326155026
 20
10.1773507621
 10
-19.325557214
 20
10.1645552521
 10
-19.3159739108
 20
10.152319382
 10
-19.3039951905
 20
10.140808621
 10
-19.2897830448
 20
10.1301786324
 10
-19.2735296687
 20
10.1205731686
 10
-19.2554548611
 20
10.1121221268
 10
-19.2358030528
 20
10.1049397931
 10
-19.2148400008
 20
10.0991232962
 10
-19.1928491945
 20
10.0947512941
 10
-19.1701280218
 20
10.0918829108
 10
-19.1469837474
 20
10.0905569361
 10
-19.1237293582
 20
10.0907913016
 10
-19.1006793297
 20
10.092582838
  0
LINE
  5
217
100
AcDbEntity
  8
0
100
AcDbLine
 62
7
  6
CONTINUOUS
 10
-19.3388411287
 20
14.5740546655
 11
-19.3388411287
 21
10.2059386846
  0
LINE
  5
218
100
AcDbEntity
  8
0
100
AcDbLine
 62
7
  6
CONTINUOUS
 10
-18.9388411287
 20
13.8226025578
 11
-18.9388411287
 21
10.2059386846
  0
LWPOLYLINE
  5
219
100
AcDbEntity
  8
0
100
AcDbPolyline
 62
253
  6
CONTINUOUS
 90
26
 70
0
 10
-18.7951165641
 20
13.4173258593
 10
-18.7937890817
 20
13.4364321291
 10
-18.7898245865
 20
13.4555779933
 10
-18.7832766915
 20
13.474504537
 10
-18.7742339457
 20
13.4929558113
 10
-18.7628186368
 20
13.5106822941
 10
-18.7491851372
 20
13.5274442654
 10
-18.7335178166
 20
13.5430150481
 10
-18.7160285487
 20
13.5571840742
 10
-18.6969538457
 20
13.5697597318
 10
-18.6765516604
 20
13.5805719568
 10
-18.6550978973
 20
13.5894745324
 10
-18.6328826817
 20
13.5963470665
 10
-18.6102064363
 20
13.6010966199
 10
-18.5873758185
 20
13.603658963
 10
-18.5646995731
 20
13.6039994446
 10
-18.5424843575
 20
13.6021134601
 10
-18.5210305944
 20
13.5980265144
 10
-18.500628409
 20
13.5917938763
 10
-18.4815537061
 20
13.5834998316
 10
-18.4640644382
 20
13.5732565429
 10
-18.4483971176
 20
13.5612025333
 10
-18.434763618
 20
13.5475008125
 10
-18.423348309
 20
13.5323366727
 10
-18.4143055633
 20
13.515915183
 10
-18.4092441906
 20
13.5031719053
  0
LWPOLYLINE
  5
21A
100
AcDbEntity
  8
0
100
AcDbPolyline
 62
253
  6
CONTINUOUS
 90
26
 70
0
 10
-18.7951165641
 20
8.1102690602
 10
-18.7937890817
 20
8.1293753299
 10
-18.7898245865
 20
8.1485211941
 10
-18.7832766915
 20
8.1674477379
 10
-18.7742339457
 20
8.1858990121
 10
-18.7628186368
 20
8.203625495
 10
-18.7491851372
 20
8.2203874662
 10
-18.7335178166
 20
8.2359582489
 10
-18.7160285487
 20
8.250127275
 10
-18.6969538457
 20
8.2627029326
 10
-18.6765516604
 20
8.2735151576
 10
-18.6550978973
 20
8.2824177332
 10
-18.6328826817
 20
8.2892902674
 10
-18.6102064363
 20
8.2940398208
 10
-18.5873758185
 20
8.2966021639
 10
-18.5646995731
 20
8.2969426454
 10
-18.5424843575
 20
8.295056661
 10
-18.5210305944
 20
8.2909697153
 10
-18.500628409
 20
8.2847370771
 10
-18.4815537061
 20
8.2764430324
 10
-18.4640644382
 20
8.2661997438
 10
-18.4483971176
 20
8.2541457341
 10
-18.434763618
 20
8.2404440133
 10
-18.423348309
 20
8.2252798736
 10
-18.4143055633
 20
8.2088583839
 10
-18.4092441906
 20
8.1961151061
  0
LWPOLYLINE
  5
21B
100
AcDbEntity
  8
0
100
AcDbPolyline
 62
253
  6
CONTINUOUS
 90
5
 70
0
 10
-14.0617408832
 20
13.9324267006
 10
-13.9124434624
 20
14.2076437406
 10
-13.7469690466
 20
14.4640029693
 10
-13.5657711897
 20
14.7008017238
 10
-13.3693465425
 20
14.9173909552
  0
LWPOLYLINE
  5
21C
100
AcDbEntity
  8
0
100
AcDbPolyline
 62
7
  6
CONTINUOUS
 90
4
 70
0
 10
-13.7337747262
 20
14.4903206899
 10
-13.6942244798
 20
14.563135649
 10
-13.5252405738
 20
14.8243556149
 10
-13.3398419153
 20
15.0662772506
  0
LWPOLYLINE
  5
21D
100
AcDbEntity
  8
0
100
AcDbPolyline
 62
7
  6
CONTINUOUS
 90
4
 70
0
 10
-13.3398419153
 20
15.0662772506
 10
-13.1395467383
 20
15.2870099307
 10
-12.9242443891
 20
15.4863927594
 10
-12.6940455214
 20
15.6645866323
  0
LWPOLYLINE
  5
21E
100
AcDbEntity
  8
0
100
AcDbPolyline
 62
7
  6
CONTINUOUS
 90
10
 70
0
 10
-13.1985422255
 20
15.1028567537
 10
-13.3471534775
 20
14.9594247182
 10
-13.4888144369
 20
14.8056514212
 10
-13.623276541
 20
14.6416839524
 10
-13.7503257899
 20
14.4676486162
 10
-13.86971022
 20
14.2837479198
 10
-13.9811576653
 20
14.0902726751
 10
-14.0844635518
 20
13.8874642284
 10
-14.1794723523
 20
13.6755022499
 10
-14.2660175341
 20
13.4546106348
  0
LWPOLYLINE
  5
21F
100
AcDbEntity
  8
0
100
AcDbPolyline
 62
253
  6
CONTINUOUS
 90
8
 70
0
 10
-13.1883517481
 20
15.3553635548
 10
-13.4045587357
 20
15.1548533906
 10
-13.6057229035
 20
14.9330380884
 10
-13.7912928744
 20
14.6905256285
 10
-13.9607600142
 20
14.4279807207
 10
-14.1136598251
 20
14.1461229823
 10
-14.2495732193
 20
13.8457249659
 10
-14.3681276678
 20
13.5276100415
  0
LINE
  5
220
100
AcDbEntity
  8
0
100
AcDbLine
 62
253
  6
CONTINUOUS
 10
-13.3693465425
 20
14.9173909552
 11
-13.1582334913
 21
15.1131770074
  0
LINE
  5
221
100
AcDbEntity
  8
0
100
AcDbLine
 62
7
  6
CONTINUOUS
 10
-13.1985422255
 20
15.1028567537
 11
-12.6335542671
 21
15.616605594
  0
LWPOLYLINE
  5
222
100
AcDbEntity
  8
0
100
AcDbPolyline
 62
253
  6
CONTINUOUS
 90
4
 70
0
 10
-13.1985422255
 20
15.1028567537
 10
-13.1145673811
 20
15.1766300399
 10
-12.8885439784
 20
15.3516963766
 10
-12.6489801767
 20
15.5048671973
  0
LINE
  5
223
100
AcDbEntity
  8
0
100
AcDbLine
 62
7
  6
CONTINUOUS
 10
-12.5473551064
 20
15.6921775431
 11
-12.6335240651
 21
15.6165610566
  0
LWPOLYLINE
  5
224
100
AcDbEntity
  8
0
100
AcDbPolyline
 62
253
  6
CONTINUOUS
 90
3
 70
0
 10
-13.1582334913
 20
15.1131770074
 10
-12.9330106822
 20
15.2876232446
 10
-12.6942954353
 20
15.4402515217
  0
LINE
  5
225
100
AcDbEntity
  8
0
100
AcDbLine
 62
7
  6
CONTINUOUS
 10
-12.3174038212
 20
15.8701797658
 11
-12.5473551064
 21
15.6921775431
  0
LWPOLYLINE
  5
226
100
AcDbEntity
  8
0
100
AcDbPolyline
 62
253
  6
CONTINUOUS
 90
13
 70
0
 10
-7.8554876412
 20
18.2771024941
 10
-7.8770859324
 20
18.2608862464
 10
-7.8981193622
 20
18.2419494621
 10
-7.91826687
 20
18.2205811978
 10
-7.9372209182
 20
18.1971076253
 10
-7.9546921864
 20
18.171887052
 10
-7.9704139881
 20
18.1453044525
 10
-7.9841463409
 20
18.1177655914
 10
-7.9956796301
 20
18.0896908303
 10
-8.0048378081
 20
18.0615087107
 10
-8.0114810817
 20
18.0336494128
 10
-8.015508046
 20
18.0065381895
 10
-8.0168572323
 20
17.9805888744
  0
LINE
  5
227
100
AcDbEntity
  8
0
100
AcDbLine
 62
253
  6
CONTINUOUS
 10
-6.2490902793
 20
19.3668943829
 11
-7.8554876412
 21
18.2771024941
  0
LINE
  5
228
100
AcDbEntity
  8
0
100
AcDbLine
 62
7
  6
CONTINUOUS
 10
-12.6940455214
 20
15.6645866323
 11
-12.4508003308
 21
15.8201836111
  0
LINE
  5
229
100
AcDbEntity
  8
0
100
AcDbLine
 62
7
  6
CONTINUOUS
 10
-12.2657421658
 20
15.9032262465
 11
-12.3174038212
 21
15.8701797658
  0
LWPOLYLINE
  5
22A
100
AcDbEntity
  8
0
100
AcDbPolyline
 62
253
  6
CONTINUOUS
 90
3
 70
0
 10
-12.7132193537
 20
15.6903300338
 10
-12.957694549
 20
15.5340189966
 10
-13.1883517481
 20
15.3553635548
  0
LINE
  5
22B
100
AcDbEntity
  8
0
100
AcDbLine
 62
253
  6
CONTINUOUS
 10
-12.5324114291
 20
15.7871176954
 11
-12.7132193537
 21
15.6903300338
  0
LINE
  5
22C
100
AcDbEntity
  8
0
100
AcDbLine
 62
7
  6
CONTINUOUS
 10
-12.4508003308
 20
15.8201836111
 11
-12.4192067808
 21
15.8370827184
  0
LWPOLYLINE
  5
22D
100
AcDbEntity
  8
0
100
AcDbPolyline
 62
253
  6
CONTINUOUS
 90
15
 70
0
 10
-12.6489801767
 20
15.5048671973
 10
-12.3965326037
 20
15.6357226717
 10
-12.1318932008
 20
15.7439041339
 10
-11.855787326
 20
15.8291150661
 10
-11.5689717664
 20
15.891121911
 10
-11.2722326635
 20
15.9297547122
 10
-10.9663833586
 20
15.9449075798
 10
-10.6522621634
 20
15.936538981
 10
-10.3307300621
 20
15.9046718533
 10
-10.0026683521
 20
15.8493935425
 10
-9.6689762275
 20
15.7708555625
 10
-9.3305683153
 20
15.6692731805
 10
-8.9883721682
 20
15.5449248267
 10
-8.6433257218
 20
15.3981513313
 10
-8.2963747247
 20
15.2293549903
  0
LINE
  5
22E
100
AcDbEntity
  8
0
100
AcDbLine
 62
253
  6
CONTINUOUS
 10
-12.6942954353
 20
15.4402515217
 11
-12.4427420526
 21
15.5706434951
  0
LWPOLYLINE
  5
22F
100
AcDbEntity
  8
0
100
AcDbPolyline
 62
253
  6
CONTINUOUS
 90
12
 70
0
 10
-12.3535462696
 20
16.0093555944
 10
-12.6277250968
 20
15.897181908
 10
-12.8886279469
 20
15.7620135546
 10
-13.1361549788
 20
15.6036776047
 10
-13.3704060335
 20
15.4223469878
 10
-13.5894983466
 20
15.2194544263
 10
-13.7933193164
 20
14.9948361924
 10
-13.9819815446
 20
14.7486560139
 10
-14.1539400717
 20
14.482837797
 10
-14.3090712554
 20
14.1972296955
 10
-14.447498738
 20
13.8919835556
 10
-14.5680484867
 20
13.5694788228
  0
LWPOLYLINE
  5
230
100
AcDbEntity
  8
0
100
AcDbPolyline
 62
253
  6
CONTINUOUS
 90
15
 70
0
 10
-12.4427420526
 20
15.5706434951
 10
-12.1790400242
 20
15.6784417697
 10
-11.9039121393
 20
15.7633508777
 10
-11.6181125042
 20
15.8251380892
 10
-11.3224244758
 20
15.8636340498
 10
-11.0176585144
 20
15.8787332447
 10
-10.7046499625
 20
15.8703942881
 10
-10.3842567545
 20
15.8386400365
 10
-10.0573570662
 20
15.783557526
 10
-9.7248469068
 20
15.705297734
 10
-9.3876376634
 20
15.6040751652
 10
-9.0466536033
 20
15.4801672636
 10
-8.7028293401
 20
15.3339136521
 10
-8.3571072721
 20
15.1657152017
 10
-8.0104349994
 20
14.9760329327
  0
LWPOLYLINE
  5
231
100
AcDbEntity
  8
0
100
AcDbPolyline
 62
253
  6
CONTINUOUS
 90
4
 70
0
 10
-19.2254513931
 20
9.388536072
 10
-19.2243759018
 20
9.3715879006
 10
-19.2211612113
 20
9.3550668277
 10
-19.2186728932
 20
9.346758315
  0
LWPOLYLINE
  5
232
100
AcDbEntity
  8
0
100
AcDbPolyline
 62
253
  6
CONTINUOUS
 90
4
 70
0
 10
-19.2254513931
 20
14.6955928711
 10
-19.2243759018
 20
14.6786446998
 10
-19.2211612113
 20
14.6621236269
 10
-19.2186728932
 20
14.6538151141
  0
LWPOLYLINE
  5
233
100
AcDbEntity
  8
0
100
AcDbPolyline
 62
253
  6
CONTINUOUS
 90
8
 70
0
 10
-17.3193765181
 20
2.1406940421
 10
-17.3191385735
 20
2.1343977202
 10
-17.3158876447
 20
2.1166628979
 10
-17.3088738962
 20
2.0992948941
 10
-17.2982043879
 20
2.0825588194
 10
-17.2840419824
 20
2.0667101381
 10
-17.2666028589
 20
2.0519907693
 10
-17.2461532134
 20
2.0386253938
  0
LWPOLYLINE
  5
234
100
AcDbEntity
  8
0
100
AcDbPolyline
 62
253
  6
CONTINUOUS
 90
9
 70
0
 10
-18.4100829526
 20
7.8042806657
 10
-18.4094273308
 20
7.7860063013
 10
-18.4074693314
 20
7.7693449031
 10
-18.4042354331
 20
7.7545217879
 10
-18.3997693687
 20
7.7417374129
 10
-18.3941315343
 20
7.7311646649
 10
-18.3873981717
 20
7.7229465221
 10
-18.3796603381
 20
7.7171941207
 10
-18.3740850032
 20
7.7147975533
  0
LWPOLYLINE
  5
235
100
AcDbEntity
  8
0
100
AcDbPolyline
 62
253
  6
CONTINUOUS
 90
9
 70
0
 10
-18.4100829526
 20
13.1113374648
 10
-18.4094273308
 20
13.0930631005
 10
-18.4074693314
 20
13.0764017023
 10
-18.4042354331
 20
13.0615785871
 10
-18.3997693687
 20
13.0487942121
 10
-18.3941315343
 20
13.038221464
 10
-18.3873981717
 20
13.0300033212
 10
-18.3796603381
 20
13.0242509199
 10
-18.3740850032
 20
13.0218543525
  0
LWPOLYLINE
  5
236
100
AcDbEntity
  8
0
100
AcDbPolyline
 62
7
  6
CONTINUOUS
 90
33
 70
0
 10
-17.3193765181
 20
2.1406940421
 10
-17.3087087631
 20
1.6172428645
 10
-17.2767588875
 20
1.0832538215
 10
-17.2236391097
 20
0.53990644
 10
-17.1494990582
 20
-0.0116359321
 10
-17.0545373987
 20
-0.5701323334
 10
-16.9390156167
 20
-1.1342514937
 10
-16.803237782
 20
-1.7027013898
 10
-16.6475289306
 20
-2.2742738828
 10
-16.4722555781
 20
-2.8477339939
 10
-16.2778325994
 20
-3.4218113405
 10
-16.0647110788
 20
-3.9952457398
 10
-15.8333680695
 20
-4.5668077874
 10
-15.5843309672
 20
-5.1352351501
 10
-15.3181628996
 20
-5.6992756484
 10
-15.0354454017
 20
-6.2577197623
 10
-14.7368100949
 20
-6.8093339064
 10
-14.422921959
 20
-7.3528994695
 10
-14.0944575869
 20
-7.887247407
 10
-13.7521418224
 20
-8.4111947119
 10
-13.3967294124
 20
-8.9235793558
 10
-13.0289796498
 20
-9.4232943516
 10
-12.6496967041
 20
-9.9092291691
 10
-12.2597115718
 20
-10.3802988716
 10
-11.8598530511
 20
-10.8354773525
 10
-11.4509874864
 20
-11.2737481936
 10
-11.0340082393
 20
-11.6941210657
 10
-10.6098041013
 20
-12.0956634671
 10
-10.1792823604
 20
-12.4774747485
 10
-9.7433861441
 20
-12.8386737141
 10
-9.3030665399
 20
-13.1784261269
 10
-8.8592726166
 20
-13.4959507897
 10
-8.4129580265
 20
-13.7905124967
  0
LINE
  5
237
100
AcDbEntity
  8
0
100
AcDbLine
 62
7
  6
CONTINUOUS
 10
-17.3193765181
 20
12.7548076404
 11
-17.3193765181
 21
2.1406940421
  0
LINE
  5
238
100
AcDbEntity
  8
0
100
AcDbLine
 62
253
  6
CONTINUOUS
 10
-17.2461532134
 20
12.6527389921
 11
-17.2461532134
 21
2.0386253938
  0
LWPOLYLINE
  5
239
100
AcDbEntity
  8
0
100
AcDbPolyline
 62
253
  6
CONTINUOUS
 90
34
 70
0
 10
-17.2461532134
 20
12.6527389921
 10
-17.2354466527
 20
13.15625979
 10
-17.2040574037
 20
13.6442783116
 10
-17.1519854665
 20
14.116794557
 10
-17.079007823
 20
14.5747896243
 10
-16.9853474912
 20
15.0172824153
 10
-16.8716735252
 20
15.4413296358
 10
-16.7378552966
 20
15.8468070547
 10
-16.5840234338
 20
16.2338389029
 10
-16.411238876
 20
16.5998545789
 10
-16.2193781188
 20
16.9447146067
 10
-16.0085646666
 20
17.2685584622
 10
-15.7802299722
 20
17.569233971
 10
-15.5342589778
 20
17.8465888424
 10
-15.2707667412
 20
18.1007753671
 10
-14.9915298896
 20
18.3300982423
 10
-14.6964456607
 20
18.5343935006
 10
-14.3856168169
 20
18.7138251094
 10
-14.0611282719
 20
18.8671896681
 10
-13.722889422
 20
18.994316194
 10
-13.370990871
 20
19.0953756698
 10
-13.0077893434
 20
19.169677643
 10
-12.6332104994
 20
19.2170463281
 10
-12.2473286788
 20
19.2376575107
 10
-11.8527236256
 20
19.2313480947
 10
-11.4493363232
 20
19.1979413944
 10
-11.0372257882
 20
19.1376140956
 10
-10.6191488139
 20
19.0507331605
 10
-10.1950631498
 20
18.9371233628
 10
-9.7650110464
 20
18.7969599288
 10
-9.3318760485
 20
18.6311354989
 10
-8.8966193376
 20
18.4399476199
 10
-8.4582797322
 20
18.2230987451
 10
-8.0168572323
 20
17.9805888744
  0
LWPOLYLINE
  5
23A
100
AcDbEntity
  8
0
100
AcDbPolyline
 62
253
  6
CONTINUOUS
 90
6
 70
0
 10
-14.6705876753
 20
13.2295781407
 10
-14.7552491298
 20
12.8724188656
 10
-14.8212572953
 20
12.500792512
 10
-14.8683536534
 20
12.1156295847
 10
-14.8967967223
 20
11.715999579
 10
-14.9065865022
 20
11.3019024947
  0
LWPOLYLINE
  5
23B
100
AcDbEntity
  8
0
100
AcDbPolyline
 62
253
  6
CONTINUOUS
 90
5
 70
0
 10
-14.3681276678
 20
13.5276100415
 10
-14.468998221
 20
13.19265014
 10
-14.5519083997
 20
12.8417633632
 10
-14.616630953
 20
12.4759114673
 10
-14.6624841876
 20
12.1002289773
  0
LINE
  5
23C
100
AcDbEntity
  8
0
100
AcDbLine
 62
253
  6
CONTINUOUS
 10
-14.5680484867
 20
13.5694788228
 11
-14.6705876753
 21
13.2295781407
  0
LWPOLYLINE
  5
23D
100
AcDbEntity
  8
0
100
AcDbPolyline
 62
7
  6
CONTINUOUS
 90
10
 70
0
 10
-14.2660175341
 20
13.4546106348
 10
-14.4072345735
 20
13.0427486654
 10
-14.5316281859
 20
12.6271106329
 10
-14.6391409334
 20
12.2085607093
 10
-14.7297577907
 20
11.7880246079
 10
-14.8035408015
 20
11.3663417457
 10
-14.8606244999
 20
10.9441502145
 10
-14.9011598594
 20
10.5221151387
 10
-14.9253174144
 20
10.1010411385
 10
-14.9333155709
 20
9.6816449393
  0
LINE
  5
23E
100
AcDbEntity
  8
0
100
AcDbLine
 62
253
  6
CONTINUOUS
 10
-14.2660175341
 20
13.4546106348
 11
-14.1944520952
 21
13.6391062
  0
LINE
  5
23F
100
AcDbEntity
  8
0
100
AcDbLine
 62
253
  6
CONTINUOUS
 10
-14.1944520952
 20
13.6391062
 11
-14.0617408832
 21
13.9324267006
  0
LINE
  5
240
100
AcDbEntity
  8
0
100
AcDbLine
 62
253
  6
CONTINUOUS
 10
-7.8380681155
 20
15.1252208766
 11
-7.9484701452
 21
15.0389984627
  0
LINE
  5
241
100
AcDbEntity
  8
0
100
AcDbLine
 62
7
  6
CONTINUOUS
 10
-1.4752376459
 20
18.5120264887
 11
-2.5747305936
 21
17.9384002667
  0
LWPOLYLINE
  5
242
100
AcDbEntity
  8
0
100
AcDbPolyline
 62
253
  6
CONTINUOUS
 90
3
 70
0
 10
-0.795932394
 20
18.8075017901
 10
-1.1534000895
 20
18.6661991014
 10
-1.4752376459
 20
18.5120264887
  0
LINE
  5
243
100
AcDbEntity
  8
0
100
AcDbLine
 62
7
  6
CONTINUOUS
 10
5.5104174885
 20
-17.015675636
 11
5.2190939541
 21
-17.0787425761
  0
LWPOLYLINE
  5
244
100
AcDbEntity
  8
0
100
AcDbPolyline
 62
7
  6
CONTINUOUS
 90
4
 70
0
 10
5.2190939541
 20
-17.0787425761
 10
4.9168686336
 20
-17.1183144978
 10
4.6061381
 20
-17.1340221032
 10
4.523798793
 20
-17.1318723504
  0
LWPOLYLINE
  5
245
100
AcDbEntity
  8
0
100
AcDbPolyline
 62
253
  6
CONTINUOUS
 90
17
 70
0
 10
-14.9328722178
 20
-0.9894915475
 10
-14.9151333235
 20
-1.2974939326
 10
-14.871539563
 20
-1.6046369264
 10
-14.8021935704
 20
-1.9101974116
 10
-14.7072586094
 20
-2.2134559968
 10
-14.5869581885
 20
-2.5136987101
 10
-14.4415755352
 20
-2.8102186797
 10
-14.2714529288
 20
-3.1023177987
 10
-14.0769908946
 20
-3.3893083683
 10
-13.8586472613
 20
-3.6705147167
 10
-13.6169360827
 20
-3.9452747904
 10
-13.3524264276
 20
-4.2129417123
 10
-13.06574104
 20
-4.4728853051
 10
-12.7575548732
 20
-4.7244935748
 10
-12.4285935002
 20
-4.9671741516
 10
-12.079631406
 20
-5.2003556842
 10
-11.711490164
 20
-5.4234891856
  0
LINE
  5
246
100
AcDbEntity
  8
0
100
AcDbLine
 62
253
  6
CONTINUOUS
 10
-14.9151333235
 20
-1.1316036975
 11
-14.9328722178
 21
-0.8236013123
  0
LWPOLYLINE
  5
247
100
AcDbEntity
  8
0
100
AcDbPolyline
 62
7
  6
CONTINUOUS
 90
17
 70
0
 10
-14.95099288
 20
-0.1950183198
 10
-14.9367724857
 20
-0.5160102015
 10
-14.898858652
 20
-0.8103014115
 10
-14.8372033616
 20
-1.1035375806
 10
-14.7519196216
 20
-1.3950407883
 10
-14.6431958054
 20
-1.6840988003
 10
-14.5112832327
 20
-1.9700270244
 10
-14.3564663084
 20
-2.252208177
 10
-14.1790574794
 20
-2.5300643331
 10
-13.9794349871
 20
-2.8029917702
 10
-13.7580088658
 20
-3.0704198311
 10
-13.5151831015
 20
-3.3318390217
 10
-13.251443982
 20
-3.586695251
 10
-12.967311545
 20
-3.8344547045
 10
-12.663283739
 20
-4.0746421177
 10
-12.3399364921
 20
-4.3067518856
 10
-11.9979191358
 20
-4.5302660983
  0
LWPOLYLINE
  5
248
100
AcDbEntity
  8
0
100
AcDbPolyline
 62
7
  6
CONTINUOUS
 90
28
 70
0
 10
-14.9333155709
 20
-0.932468659
 10
-14.9229318634
 20
-1.4103098703
 10
-14.892302148
 20
-1.8814745914
 10
-14.8421452791
 20
-2.3457748533
 10
-14.7725027957
 20
-2.8065068369
 10
-14.6841775161
 20
-3.2603359612
 10
-14.5799719404
 20
-3.6980984517
 10
-14.4619033902
 20
-4.1181928116
 10
-14.3300656214
 20
-4.525181894
 10
-14.1851248653
 20
-4.9199999996
 10
-14.0268599702
 20
-5.3051522122
 10
-13.8554863049
 20
-5.6812082699
 10
-13.6724101648
 20
-6.0461792973
 10
-13.4771180052
 20
-6.402005668
 10
-13.2691016385
 20
-6.7499507963
 10
-13.0503560451
 20
-7.0871069905
 10
-12.8208264193
 20
-7.4141467523
 10
-12.5792566276
 20
-7.7330350498
 10
-12.3264638397
 20
-8.0426769639
 10
-12.0621828459
 20
-8.3433739215
 10
-11.7852018882
 20
-8.6362262656
 10
-11.4952585822
 20
-8.9210240913
 10
-11.1921311877
 20
-9.1974305959
 10
-10.8745932325
 20
-9.4658539426
 10
-10.540855637
 20
-9.7268085589
 10
-10.1897363205
 20
-9.9799655159
 10
-9.8208509207
 20
-10.2242353083
 10
-9.4335813325
 20
-10.4585946582
  0
LINE
  5
249
100
AcDbEntity
  8
0
100
AcDbLine
 62
253
  6
CONTINUOUS
 10
-14.9333155709
 20
-0.932468659
 11
-14.9328722178
 21
-0.9894915475
  0
LINE
  5
24A
100
AcDbEntity
  8
0
100
AcDbLine
 62
253
  6
CONTINUOUS
 10
-14.9328722178
 20
-0.8236013123
 11
-14.9333155709
 21
-0.7665784238
  0
LWPOLYLINE
  5
24B
100
AcDbEntity
  8
0
100
AcDbPolyline
 62
253
  6
CONTINUOUS
 90
18
 70
0
 10
-14.9333155709
 20
9.5157547041
 10
-14.9328722178
 20
9.4587318157
 10
-14.9151333235
 20
9.1507294305
 10
-14.871539563
 20
8.8435864367
 10
-14.8021935704
 20
8.5380259515
 10
-14.7072586094
 20
8.2347673663
 10
-14.5869581885
 20
7.9345246531
 10
-14.4415755352
 20
7.6380046834
 10
-14.2714529288
 20
7.3459055644
 10
-14.0769908946
 20
7.0589149948
 10
-13.8586472613
 20
6.7777086464
 10
-13.6169360827
 20
6.5029485728
 10
-13.3524264276
 20
6.2352816509
 10
-13.06574104
 20
5.975338058
 10
-12.7575548732
 20
5.7237297883
 10
-12.4285935002
 20
5.4810492115
 10
-12.079631406
 20
5.2478676789
 10
-11.711490164
 20
5.0247341775
  0
LINE
  5
24C
100
AcDbEntity
  8
0
100
AcDbLine
 62
7
  6
CONTINUOUS
 10
-14.9509930693
 20
-0.1950210622
 11
-14.9509932404
 21
8.9226811138
  0
LINE
  5
24D
100
AcDbEntity
  8
0
100
AcDbLine
 62
7
  6
CONTINUOUS
 10
-14.9333155709
 20
9.6816449393
 11
-14.9333155709
 21
9.5157547041
  0
LINE
  5
24E
100
AcDbEntity
  8
0
100
AcDbLine
 62
7
  6
CONTINUOUS
 10
-14.9333155709
 20
-0.7665784238
 11
-14.9333155709
 21
-0.932468659
  0
LINE
  5
24F
100
AcDbEntity
  8
0
100
AcDbLine
 62
253
  6
CONTINUOUS
 10
-14.9065865022
 20
10.9291754337
 11
-14.9065865022
 21
11.3019024947
  0
LINE
  5
250
100
AcDbEntity
  8
0
100
AcDbLine
 62
7
  6
CONTINUOUS
 10
-14.9509930663
 20
8.9238302221
 11
-14.9509932404
 21
8.9226812977
  0
LWPOLYLINE
  5
251
100
AcDbEntity
  8
0
100
AcDbPolyline
 62
7
  6
CONTINUOUS
 90
3
 70
0
 10
-14.9333155709
 20
-0.7665784238
 10
-14.929485838
 20
-0.5952329796
 10
-14.9284858832
 20
-0.5803316922
  0
LWPOLYLINE
  5
252
100
AcDbEntity
  8
0
100
AcDbPolyline
 62
7
  6
CONTINUOUS
 90
3
 70
0
 10
-14.9265935291
 20
9.3331668029
 10
-14.9391481649
 20
9.2262401449
 10
-14.9509928784
 20
8.9238324163
  0
LWPOLYLINE
  5
253
100
AcDbEntity
  8
0
100
AcDbPolyline
 62
253
  6
CONTINUOUS
 90
4
 70
0
 10
-8.0104349994
 20
14.9760329327
 10
-8.3269462054
 20
14.5559224576
 10
-8.6331133376
 20
14.1243363055
 10
-8.9282155763
 20
13.6822905743
  0
LWPOLYLINE
  5
254
100
AcDbEntity
  8
0
100
AcDbPolyline
 62
253
  6
CONTINUOUS
 90
10
 70
0
 10
-7.9484701452
 20
15.0389984627
 10
-7.9557376399
 20
15.0331406316
 10
-7.9629384538
 20
15.0269711543
 10
-7.9700599395
 20
15.0205008669
 10
-7.9770895887
 20
15.0137411338
 10
-7.9840150548
 20
15.0067038278
 10
-7.9908241736
 20
14.9994013093
 10
-7.9975049858
 20
14.9918464043
 10
-8.0040457572
 20
14.9840523823
 10
-8.0104349994
 20
14.9760329327
  0
LWPOLYLINE
  5
255
100
AcDbEntity
  8
0
100
AcDbPolyline
 62
7
  6
CONTINUOUS
 90
3
 70
0
 10
4.7332856113
 20
19.033344046
 10
4.7004928853
 20
19.0201625976
 10
4.6952390572
 20
19.017565685
  0
LWPOLYLINE
  5
256
100
AcDbEntity
  8
0
100
AcDbPolyline
 62
253
  6
CONTINUOUS
 90
20
 70
0
 10
16.3852630984
 20
-11.8554196003
 10
16.3820374959
 20
-11.8560770339
 10
16.3780717128
 20
-11.8593345684
 10
16.3739015237
 20
-11.8652269417
 10
16.3695833232
 20
-11.8736744695
 10
16.3651755076
 20
-11.8845629134
 10
16.3607376851
 20
-11.897745026
 10
16.3563298695
 20
-11.9130425419
 10
16.352011669
 20
-11.9302485882
 10
16.3478414799
 20
-11.9491304828
 10
16.3438756968
 20
-11.9694328805
 10
16.3401679501
 20
-11.9908812261
 10
16.3367683808
 20
-12.0131854675
 10
16.3337229622
 20
-12.0360439783
 10
16.3310728783
 20
-12.0591476361
 10
16.3288539671
 20
-12.0821840037
 10
16.3270962353
 20
-12.1048415538
 10
16.3258234535
 20
-12.1268138817
 10
16.3250528337
 20
-12.1478038496
 10
16.3247947973
 20
-12.167527604
  0
LWPOLYLINE
  5
257
100
AcDbEntity
  8
0
100
AcDbPolyline
 62
7
  6
CONTINUOUS
 90
10
 70
0
 10
3.3608102868
 20
-17.075009542
 10
3.595377356
 20
-17.1104912682
 10
3.8264409984
 20
-17.1341790815
 10
4.0537241332
 20
-17.1461054912
 10
4.2769899752
 20
-17.1463156743
 10
4.4959309799
 20
-17.1348666395
 10
4.710169514
 20
-17.1118475342
 10
4.9194070265
 20
-17.077373231
 10
5.1234230824
 20
-17.0315647603
 10
5.3219653503
 20
-16.9745624416
  0
LWPOLYLINE
  5
258
100
AcDbEntity
  8
0
100
AcDbPolyline
 62
253
  6
CONTINUOUS
 90
10
 70
0
 10
3.3723580218
 20
-17.1998124919
 10
3.7071454565
 20
-17.2562240856
 10
4.0352694162
 20
-17.288744534
 10
4.3558305361
 20
-17.2972847008
 10
4.6679501802
 20
-17.2818211782
 10
4.9707728504
 20
-17.2423963505
 10
5.2634685307
 20
-17.1791182784
 10
5.5452349628
 20
-17.0921604027
 10
5.8152998442
 20
-16.981761069
 10
6.0729229461
 20
-16.848222874
  0
LWPOLYLINE
  5
259
100
AcDbEntity
  8
0
100
AcDbPolyline
 62
7
  6
CONTINUOUS
 90
8
 70
0
 10
3.358872092
 20
-17.0746695859
 10
2.8192201985
 20
-16.9660403039
 10
2.2726295668
 20
-16.8268772821
 10
1.7278575893
 20
-16.6578366119
 10
1.1886572895
 20
-16.4592222597
 10
0.6620266778
 20
-16.2333946119
 10
0.1502979301
 20
-15.9817231041
 10
-0.2411834915
 20
-15.7661699637
  0
LINE
  5
25A
100
AcDbEntity
  8
0
100
AcDbLine
 62
253
  6
CONTINUOUS
 10
3.0318247412
 20
-17.1196643733
 11
3.3723580218
 21
-17.1998124919
  0
LWPOLYLINE
  5
25B
100
AcDbEntity
  8
0
100
AcDbPolyline
 62
7
  6
CONTINUOUS
 90
16
 70
0
 10
1.2273015784
 20
-19.3689880756
 10
1.6877710286
 20
-19.6218566671
 10
2.1475082317
 20
-19.8483182953
 10
2.6054881674
 20
-20.047844762
 10
3.0608428145
 20
-20.2200141734
 10
3.5123923258
 20
-20.3643303284
 10
3.9586742446
 20
-20.4803236116
 10
4.3987543114
 20
-20.5677792702
 10
4.8316131072
 20
-20.6265168116
 10
5.2557293172
 20
-20.6564062553
 10
5.6700703603
 20
-20.6575158843
 10
6.0738539699
 20
-20.6299835754
 10
6.4659857114
 20
-20.5740350841
 10
6.8455299393
 20
-20.4899903262
 10
7.2117117298
 20
-20.3782149124
 10
7.5637128189
 20
-20.2391530616
  0
LINE
  5
25C
100
AcDbEntity
  8
0
100
AcDbLine
 62
253
  6
CONTINUOUS
 10
1.6169534231
 20
-19.497063731
 11
1.1755309232
 21
-19.2545538603
  0
LINE
  5
25D
100
AcDbEntity
  8
0
100
AcDbLine
 62
7
  6
CONTINUOUS
 10
-7.965086577
 20
-14.0614183623
 11
1.2273015784
 21
-19.3689880756
  0
LINE
  5
25E
100
AcDbEntity
  8
0
100
AcDbLine
 62
253
  6
CONTINUOUS
 10
-8.0168572323
 20
-13.946984147
 11
1.1755309232
 21
-19.2545538603
  0
LINE
  5
25F
100
AcDbEntity
  8
0
100
AcDbLine
 62
7
  6
CONTINUOUS
 10
-8.4129580265
 20
-13.7905124967
 11
-7.965086577
 21
-14.0614183623
  0
LWPOLYLINE
  5
260
100
AcDbEntity
  8
0
100
AcDbPolyline
 62
253
  6
CONTINUOUS
 90
34
 70
0
 10
-8.0168572323
 20
-13.946984147
 10
-8.4582868808
 20
-13.6797457272
 10
-8.8966330755
 20
-13.3904061132
 10
-9.3318958161
 20
-13.078965305
 10
-9.7650363059
 20
-12.7446108052
 10
-10.1950933417
 20
-12.3881551112
 10
-10.6191833143
 20
-12.012035715
 10
-11.0372639537
 20
-11.616126191
 10
-11.44937753
 20
-11.2005529647
 10
-11.8527672441
 20
-10.7681328051
 10
-12.2473740608
 20
-10.3187571922
 10
-12.6332570154
 20
-9.8525346459
 10
-13.0078364145
 20
-9.372607495
 10
-13.3710379009
 20
-8.878885819
 10
-13.7229358317
 20
-8.3714595384
 10
-14.0611735852
 20
-7.8537407433
 10
-14.3856605427
 20
-7.3256630999
 10
-14.6964873228
 20
-6.7872929421
 10
-14.9915691587
 20
-6.2422413615
 10
-15.2708032764
 20
-5.6904630819
 10
-15.53429245
 20
-5.1320033796
 10
-15.7802602345
 20
-4.570609175
 10
-16.0085915638
 20
-4.0062610685
 10
-16.2194015041
 20
-3.4389784597
 10
-16.411258809
 20
-2.8725664682
 10
-16.5840399702
 20
-2.3070282618
 10
-16.737868496
 20
-1.7423606727
 10
-16.8716836652
 20
-1.182359316
 10
-16.98535485
 20
-0.6270508298
 10
-17.0790126782
 20
-0.0764085761
 10
-17.1519883124
 20
0.4658517433
 10
-17.2040588068
 20
0.9984915611
 10
-17.2354471071
 20
1.5227494446
 10
-17.2461532134
 20
2.0386253938
  0
LWPOLYLINE
  5
261
100
AcDbEntity
  8
0
100
AcDbPolyline
 62
253
  6
CONTINUOUS
 90
8
 70
0
 10
1.2273015784
 20
-19.3689880756
 10
1.2219741673
 20
-19.3656379441
 10
1.2082418145
 20
-19.3539568599
 10
1.1967085253
 20
-19.339200452
 10
1.1875503473
 20
-19.3215939668
 10
1.1809070737
 20
-19.3014061548
 10
1.1768801094
 20
-19.2789451689
 10
1.1755309232
 20
-19.2545538603
  0
LINE
  5
262
100
AcDbEntity
  8
0
100
AcDbLine
 62
7
  6
CONTINUOUS
 10
-19.2186728932
 20
9.346758315
 11
-18.7883380641
 21
8.0684913032
  0
LWPOLYLINE
  5
263
100
AcDbEntity
  8
0
100
AcDbPolyline
 62
7
  6
CONTINUOUS
 90
22
 70
0
 10
-18.8395790197
 20
9.4743821179
 10
-18.8450378002
 20
9.4913560824
 10
-18.8509566434
 20
9.5114168061
 10
-18.8572671288
 20
9.534650888
 10
-18.8639445174
 20
9.5613117513
 10
-18.8708565604
 20
9.5912187959
 10
-18.8777824036
 20
9.6236666707
 10
-18.8846303274
 20
9.6583851835
 10
-18.8913542181
 20
9.6952971663
 10
-18.8978292401
 20
9.7338459447
 10
-18.9039908657
 20
9.7737258186
 10
-18.9097939949
 20
9.8147200631
 10
-18.9151649271
 20
9.8563628356
 10
-18.9200618281
 20
9.8983526247
 10
-18.9244494003
 20
9.9404029099
 10
-18.9282823743
 20
9.9820621509
 10
-18.9315414284
 20
10.0230622388
 10
-18.9342085187
 20
10.0630942242
 10
-18.9362631542
 20
10.1016588082
 10
-18.9377086418
 20
10.1384306501
 10
-18.9385618172
 20
10.1732582659
 10
-18.9388411287
 20
10.2059386846
  0
LWPOLYLINE
  5
264
100
AcDbEntity
  8
0
100
AcDbPolyline
 62
253
  6
CONTINUOUS
 90
4
 70
0
 10
-18.7883380641
 20
8.0684913032
 10
-18.7898245865
 20
8.0732047926
 10
-18.7937890817
 20
8.0914607644
 10
-18.7951165641
 20
8.1102690602
  0
LWPOLYLINE
  5
265
100
AcDbEntity
  8
0
100
AcDbPolyline
 62
7
  6
CONTINUOUS
 90
3
 70
0
 10
-19.2186728932
 20
9.346758315
 10
-19.2314453841
 20
9.3873013546
 10
-19.2433688827
 20
9.4300776208
  0
LWPOLYLINE
  5
266
100
AcDbEntity
  8
0
100
AcDbPolyline
 62
7
  6
CONTINUOUS
 90
17
 70
0
 10
-19.2433688827
 20
9.4300776208
 10
-19.2544612425
 20
9.474502895
 10
-19.264669498
 20
9.5197144193
 10
-19.2741065437
 20
9.5656202928
 10
-19.2829869206
 20
9.6129172614
 10
-19.2913199165
 20
9.6615021393
 10
-19.2990351801
 20
9.710819758
 10
-19.3061604765
 20
9.7609274604
 10
-19.3126664446
 20
9.8115661625
 10
-19.3185124266
 20
9.862373994
 10
-19.3236883637
 20
9.9132538128
 10
-19.3281552751
 20
9.9638604132
 10
-19.3318835617
 20
10.0139194771
 10
-19.3348594897
 20
10.0634453014
 10
-19.3370434681
 20
10.1122314132
 10
-19.3383848195
 20
10.1598422915
 10
-19.3388411287
 20
10.2059386846
  0
LWPOLYLINE
  5
267
100
AcDbEntity
  8
0
100
AcDbPolyline
 62
253
  6
CONTINUOUS
 90
3
 70
0
 10
-14.9151333235
 20
9.3166196657
 10
-14.9328722178
 20
9.6246220508
 10
-14.9333155709
 20
9.6816449393
  0
LWPOLYLINE
  5
268
100
AcDbEntity
  8
0
100
AcDbPolyline
 62
253
  6
CONTINUOUS
 90
18
 70
0
 10
-14.9509932404
 20
8.9226812977
 10
-14.9493645525
 20
8.8116006649
 10
-14.9276050495
 20
8.5021266449
 10
-14.8805462892
 20
8.1938658681
 10
-14.8082970027
 20
7.8875165814
 10
-14.7110239531
 20
7.5838045009
 10
-14.5889515264
 20
7.2834221967
 10
-14.4423613545
 20
6.9870515099
 10
-14.2715917285
 20
6.6953915335
 10
-14.0770364673
 20
6.4091092318
 10
-13.8591443371
 20
6.1288558046
 10
-13.6184183658
 20
5.8552891387
 10
-13.3554137833
 20
5.5890368112
 10
-13.0707371637
 20
5.3307057728
 10
-12.7650457185
 20
5.0808987366
 10
-12.4390447414
 20
4.840192109
 10
-12.0934858176
 20
4.6091347304
 10
-11.7291657945
 20
4.3882576413
  0
LWPOLYLINE
  5
269
100
AcDbEntity
  8
0
100
AcDbPolyline
 62
253
  6
CONTINUOUS
 90
19
 70
0
 10
-8.9282155763
 20
13.6822905743
 10
-9.2115581524
 20
13.2308259872
 10
-9.4824739829
 20
12.7710054428
 10
-9.7403252413
 20
12.303911512
 10
-9.9845048597
 20
11.8306438901
 10
-10.2144379578
 20
11.3523168069
 10
-10.4295831962
 20
10.8700564043
 10
-10.6294340513
 20
10.3849980842
 10
-10.8135200073
 20
9.8982838359
 10
-10.9814076644
 20
9.4110595474
 10
-11.1327017591
 20
8.9244723071
 10
-11.2670460945
 20
8.4396677042
 10
-11.3841243791
 20
7.9577871304
 10
-11.4836609717
 20
7.4799650935
 10
-11.5654215298
 20
7.0073265463
 10
-11.6292135617
 20
6.5409842376
 10
-11.6748868798
 20
6.082036093
 10
-11.7023339537
 20
5.6315626297
 10
-11.711490164
 20
5.1906244127
  0
LINE
  5
26A
100
AcDbEntity
  8
0
100
AcDbLine
 62
7
  6
CONTINUOUS
 10
4.0683024696
 20
18.699448923
 11
4.6953538044
 21
19.0176238573
  0
LINE
  5
26B
100
AcDbEntity
  8
0
100
AcDbLine
 62
253
  6
CONTINUOUS
 10
4.1569258125
 20
18.6683353802
 11
4.7658068974
 21
18.9769922792
  0
LINE
  5
26C
100
AcDbEntity
  8
0
100
AcDbLine
 62
253
  6
CONTINUOUS
 10
4.7658068974
 20
18.9769922792
 11
4.8573581389
 21
19.0233137264
  0
LWPOLYLINE
  5
26D
100
AcDbEntity
  8
0
100
AcDbPolyline
 62
253
  6
CONTINUOUS
 90
9
 70
0
 10
7.6572058875
 20
-11.7859107272
 10
7.6587644375
 20
-11.785484006
 10
7.6619472466
 20
-11.7829076348
 10
7.6648322419
 20
-11.7780133848
 10
7.6673254642
 20
-11.7708776173
 10
7.6694082628
 20
-11.7614552416
 10
7.6710204089
 20
-11.7498293977
 10
7.6721004741
 20
-11.7363566301
 10
7.6726332458
 20
-11.7214292346
  0
LWPOLYLINE
  5
26E
100
AcDbEntity
  8
0
100
AcDbPolyline
 62
253
  6
CONTINUOUS
 90
10
 70
0
 10
7.8059321087
 20
-12.4187184613
 10
7.8160716919
 20
-12.4171947927
 10
7.8260918
 20
-12.4154271588
 10
7.8359748337
 20
-12.4134186641
 10
7.8457034344
 20
-12.4111728364
 10
7.8552605148
 20
-12.4086936203
 10
7.8646292889
 20
-12.4059853703
 10
7.8737933014
 20
-12.4030528431
 10
7.8827364566
 20
-12.3999011894
 10
7.8914430468
 20
-12.3965359448
  0
LWPOLYLINE
  5
26F
100
AcDbEntity
  8
0
100
AcDbPolyline
 62
253
  6
CONTINUOUS
 90
22
 70
0
 10
7.8059321087
 20
-12.2528282261
 10
7.2838537355
 20
-12.3168859236
 10
6.7570083514
 20
-12.3662461317
 10
6.2266363263
 20
-12.4007926398
 10
5.693986333
 20
-12.420444114
 10
5.1603124074
 20
-12.4251542882
 10
4.6268709964
 20
-12.4149120729
 10
4.094917999
 20
-12.389741582
 10
3.5657058102
 20
-12.3497020749
 10
3.0404803723
 20
-12.2948878183
 10
2.5204782414
 20
-12.225427863
 10
2.0069236761
 20
-12.141485741
 10
1.5010257554
 20
-12.0432590802
 10
1.0039755319
 20
-11.9309791389
 10
0.5169432278
 20
-11.8049102615
 10
0.0410754798
 20
-11.6653492563
 10
-0.4225073604
 20
-11.5126246965
 10
-0.8727138641
 20
-11.3470961468
 10
-1.3084840948
 20
-11.1691533165
 10
-1.7287921039
 20
-10.9792151426
 10
-2.132648346
 20
-10.777728803
 10
-2.5191020085
 20
-10.5651686637
  0
LWPOLYLINE
  5
270
100
AcDbEntity
  8
0
100
AcDbPolyline
 62
253
  6
CONTINUOUS
 90
5
 70
0
 10
1.9758024871
 20
-16.7347729696
 10
1.9851469633
 20
-16.7393191833
 10
2.3372673451
 20
-16.8891017409
 10
2.6864789927
 20
-17.0159994102
 10
3.0318247412
 20
-17.1196643733
  0
LWPOLYLINE
  5
271
100
AcDbEntity
  8
0
100
AcDbPolyline
 62
253
  6
CONTINUOUS
 90
17
 70
0
 10
1.1755309232
 20
-16.5531419504
 10
1.5390564343
 20
-16.7517331246
 10
1.8993802303
 20
-16.9269373995
 10
2.2565023111
 20
-17.0787547751
 10
2.6113578152
 20
-17.207426687
 10
2.963011604
 20
-17.3127116997
 10
3.3086582624
 20
-17.3938855064
 10
3.6482452517
 20
-17.4507644027
 10
3.9818251104
 20
-17.4835320932
 10
4.3067500389
 20
-17.4920153841
 10
4.6229503572
 20
-17.4760312779
 10
4.9304957452
 20
-17.4357627723
 10
5.2269474433
 20
-17.3715856659
 10
5.5122199605
 20
-17.2833205803
 10
5.7863987877
 20
-17.1711468939
 10
6.0473016378
 20
-17.0359785405
 10
6.2948286697
 20
-16.8776425906
  0
LINE
  5
272
100
AcDbEntity
  8
0
100
AcDbLine
 62
7
  6
CONTINUOUS
 10
-9.4335813325
 20
-10.4585946582
 11
-0.241193177
 21
-15.7661643714
  0
LINE
  5
273
100
AcDbEntity
  8
0
100
AcDbLine
 62
253
  6
CONTINUOUS
 10
1.1755309232
 20
-16.5531419504
 11
0.3902791737
 21
-16.0997474318
  0
LWPOLYLINE
  5
274
100
AcDbEntity
  8
0
100
AcDbPolyline
 62
253
  6
CONTINUOUS
 90
18
 70
0
 10
-0.241193177
 20
-15.7661643714
 10
-0.2894212669
 20
-15.7378253589
 10
-0.5472277726
 20
-15.5686035558
 10
-0.791386983
 20
-15.3774208404
 10
-1.0213221682
 20
-15.164722897
 10
-1.2364896959
 20
-14.9310062154
 10
-1.4363802859
 20
-14.6768171231
 10
-1.6205205702
 20
-14.4027501918
 10
-1.7884743083
 20
-14.1094465745
 10
-1.9398429327
 20
-13.7975932749
 10
-2.0742667855
 20
-13.4679212493
 10
-2.1914261621
 20
-13.1212031751
 10
-2.291041727
 20
-12.758252496
 10
-2.3728753701
 20
-12.3799212259
 10
-2.4367308733
 20
-11.9870974543
 10
-2.4824542239
 20
-11.5807039414
 10
-2.5099340585
 20
-11.1616960097
 10
-2.5191020085
 20
-10.7310588989
  0
LWPOLYLINE
  5
275
100
AcDbEntity
  8
0
100
AcDbPolyline
 62
253
  6
CONTINUOUS
 90
13
 70
0
 10
-14.4597215247
 20
-2.0640073321
 10
-14.4316009486
 20
-2.1341899467
 10
-14.2883383446
 20
-2.4263859
 10
-14.120696559
 20
-2.7142254701
 10
-13.9290702765
 20
-2.9970309863
 10
-13.7139106494
 20
-3.27413663
 10
-13.4757242353
 20
-3.5448900021
 10
-13.2150718046
 20
-3.8086536586
 10
-12.93256702
 20
-4.0648066119
 10
-12.6288749923
 20
-4.3127457923
 10
-12.3047107139
 20
-4.5518874682
 10
-11.9608373758
 20
-4.7816686203
 10
-11.5980645705
 20
-5.001548267
  0
LWPOLYLINE
  5
276
100
AcDbEntity
  8
0
100
AcDbPolyline
 62
253
  6
CONTINUOUS
 90
14
 70
0
 10
-18.8395790197
 20
9.4743821179
 10
-18.8424093705
 20
9.4819865714
 10
-18.8497737455
 20
9.497117085
 10
-18.8591031408
 20
9.511299373
 10
-18.8702953417
 20
9.5243780513
 10
-18.883227724
 20
9.5362098272
 10
-18.8977585979
 20
9.5466650692
 10
-18.9137287601
 20
9.5556292275
 10
-18.9309632381
 20
9.5630040889
 10
-18.9492732073
 20
9.568708853
 10
-18.96845806
 20
9.572681017
 10
-18.9883076029
 20
9.5748770612
 10
-19.0086043602
 20
9.5752729252
 10
-19.0291259564
 20
9.5738642718
  0
LWPOLYLINE
  5
277
100
AcDbEntity
  8
0
100
AcDbPolyline
 62
7
  6
CONTINUOUS
 90
7
 70
0
 10
-19.2186728932
 20
14.6538151141
 10
-19.2225994988
 20
14.665066373
 10
-19.225988263
 20
14.6740724771
 10
-19.2287770253
 20
14.6809315357
 10
-19.230944897
 20
14.6858505991
 10
-19.2323898318
 20
14.6888612191
 10
-19.2328345923
 20
14.6897194994
  0
LINE
  5
278
100
AcDbEntity
  8
0
100
AcDbLine
 62
7
  6
CONTINUOUS
 10
-18.8395790197
 20
9.4743821179
 11
-18.4092441906
 21
8.1961151061
  0
LINE
  5
279
100
AcDbEntity
  8
0
100
AcDbLine
 62
7
  6
CONTINUOUS
 10
-18.7883380641
 20
13.3755481023
 11
-19.2186728932
 21
14.6538151141
  0
LINE
  5
27A
100
AcDbEntity
  8
0
100
AcDbLine
 62
7
  6
CONTINUOUS
 10
-18.4092441906
 20
13.5031719053
 11
-18.8395790197
 21
14.7814389171
  0
LWPOLYLINE
  5
27B
100
AcDbEntity
  8
0
100
AcDbPolyline
 62
253
  6
CONTINUOUS
 90
4
 70
0
 10
-18.7883380641
 20
13.3755481023
 10
-18.7898245865
 20
13.3802615918
 10
-18.7937890817
 20
13.3985175636
 10
-18.7951165641
 20
13.4173258593
  0
LWPOLYLINE
  5
27C
100
AcDbEntity
  8
0
100
AcDbPolyline
 62
253
  6
CONTINUOUS
 90
8
 70
0
 10
-11.7291678486
 20
-4.6415376441
 10
-11.7283507215
 20
-4.6562386284
 10
-11.7259235754
 20
-4.6697231686
 10
-11.7219407371
 20
-4.6817986511
 10
-11.7165089887
 20
-4.6922508749
 10
-11.7097097569
 20
-4.7010023916
 10
-11.7015321336
 20
-4.7080299749
 10
-11.6981054555
 20
-4.7101981732
  0
LWPOLYLINE
  5
27D
100
AcDbEntity
  8
0
100
AcDbPolyline
 62
253
  6
CONTINUOUS
 90
9
 70
0
 10
-11.711490164
 20
5.0247341775
 10
-11.7106007153
 20
5.0047975905
 10
-11.7079413196
 20
4.9860887377
 10
-11.7035387384
 20
4.9687958856
 10
-11.6974372747
 20
4.9530930515
 10
-11.6896983272
 20
4.9391382526
 10
-11.6803997728
 20
4.9270719155
 10
-11.6696351824
 20
4.9170154632
 10
-11.6597195087
 20
4.9102999623
  0
LWPOLYLINE
  5
27E
100
AcDbEntity
  8
0
100
AcDbPolyline
 62
253
  6
CONTINUOUS
 90
18
 70
0
 10
-11.711490164
 20
-5.4234891856
 10
-11.7023339537
 20
-5.8538540405
 10
-11.6748868798
 20
-6.2726323108
 10
-11.6292135617
 20
-6.6788380525
 10
-11.5654215298
 20
-7.0715149217
 10
-11.4836609717
 20
-7.4497384259
 10
-11.3841243791
 20
-7.8126181006
 10
-11.2670460945
 20
-8.159299606
 10
-11.1327017591
 20
-8.4889667379
 10
-10.9814076644
 20
-8.8008433499
 10
-10.8135200073
 20
-9.0941951803
 10
-10.6294340513
 20
-9.3683315808
 10
-10.4295831962
 20
-9.622607143
 10
-10.2144379578
 20
-9.8564232171
 10
-9.9845048597
 20
-10.069229322
 10
-9.7403252413
 20
-10.2605244412
 10
-9.4824739829
 20
-10.429858202
 10
-9.4335813325
 20
-10.4585946582
  0
LINE
  5
27F
100
AcDbEntity
  8
0
100
AcDbLine
 62
253
  6
CONTINUOUS
 10
-11.7291657945
 20
4.3882579769
 11
-11.7291657945
 21
-4.641538834
  0
LINE
  5
280
100
AcDbEntity
  8
0
100
AcDbLine
 62
253
  6
CONTINUOUS
 10
-11.711490164
 20
5.1906244127
 11
-11.711490164
 21
5.0247341775
  0
LINE
  5
281
100
AcDbEntity
  8
0
100
AcDbLine
 62
253
  6
CONTINUOUS
 10
-11.711490164
 20
-5.2575989504
 11
-11.711490164
 21
-5.4234891856
  0
LWPOLYLINE
  5
282
100
AcDbEntity
  8
0
100
AcDbPolyline
 62
253
  6
CONTINUOUS
 90
21
 70
0
 10
7.6726320343
 20
-11.721427896
 10
7.154930737
 20
-11.7757180609
 10
6.6328210621
 20
-11.8158133463
 10
6.1075064828
 20
-11.8416083236
 10
5.5801979596
 20
-11.8530193816
 10
5.0521107718
 20
-11.8500198662
 10
4.524461715
 20
-11.8326401328
 10
3.9984668427
 20
-11.8009110627
 10
3.4753385515
 20
-11.7548936606
 10
2.9562824112
 20
-11.6947138486
 10
2.4424944831
 20
-11.6205031639
 10
1.9351591024
 20
-11.5324222377
 10
1.4354460145
 20
-11.4306900921
 10
0.9445066477
 20
-11.315536257
 10
0.4634725537
 20
-11.1872177005
 10
-0.0065467499
 20
-11.0460421298
 10
-0.4644682584
 20
-10.8923323912
 10
-0.9092368494
 20
-10.7264364495
 10
-1.3398268009
 20
-10.5487442437
 10
-1.7552458593
 20
-10.3596664926
 10
-2.1545374192
 20
-10.159633661
  0
LWPOLYLINE
  5
283
100
AcDbEntity
  8
0
100
AcDbPolyline
 62
7
  6
CONTINUOUS
 90
8
 70
0
 10
7.657198603
 20
-11.7859115893
 10
7.6768753537
 20
-11.7839060081
 10
7.7061083541
 20
-11.7821301068
 10
7.7356057766
 20
-11.781751674
 10
7.7650143995
 20
-11.7827775354
 10
7.7939332831
 20
-11.7851839127
 10
7.8220462522
 20
-11.788924285
 10
7.8274667214
 20
-11.789813741
  0
LWPOLYLINE
  5
284
100
AcDbEntity
  8
0
100
AcDbPolyline
 62
253
  6
CONTINUOUS
 90
5
 70
0
 10
5.6951274666
 20
-12.5863082441
 10
6.2275413447
 20
-12.566636711
 10
6.7576424627
 20
-12.5320860293
 10
7.2841852009
 20
-12.4827403151
 10
7.8059321087
 20
-12.4187184613
  0
LWPOLYLINE
  5
285
100
AcDbEntity
  8
0
100
AcDbPolyline
 62
253
  6
CONTINUOUS
 90
14
 70
0
 10
-18.8395790197
 20
14.7814389171
 10
-18.8424093705
 20
14.7890433705
 10
-18.8497737455
 20
14.8041738842
 10
-18.8591031408
 20
14.8183561722
 10
-18.8702953417
 20
14.8314348505
 10
-18.883227724
 20
14.8432666264
 10
-18.8977585979
 20
14.8537218684
 10
-18.9137287601
 20
14.8626860267
 10
-18.9309632381
 20
14.8700608881
 10
-18.9492732073
 20
14.8757656521
 10
-18.96845806
 20
14.8797378161
 10
-18.9883076029
 20
14.8819338603
 10
-19.0086043602
 20
14.8823297243
 10
-19.0291259564
 20
14.880921071
  0
LWPOLYLINE
  5
286
100
AcDbEntity
  8
0
100
AcDbPolyline
 62
7
  6
CONTINUOUS
 90
18
 70
0
 10
-18.8395790197
 20
14.7814389171
 10
-18.848757504
 20
14.8074138389
 10
-18.8581621235
 20
14.8314561593
 10
-18.8679271455
 20
14.8538333072
 10
-18.8781841549
 20
14.8747177758
 10
-18.8891247449
 20
14.8943267413
 10
-18.9010717159
 20
14.9129813191
 10
-18.9144463918
 20
14.9309555913
 10
-18.9294315301
 20
14.9480600815
 10
-18.9459585565
 20
14.963876596
 10
-18.9641268582
 20
14.9782386537
 10
-18.9840621501
 20
14.990973211
 10
-19.0054561864
 20
15.0016574959
 10
-19.0280545178
 20
15.0100249835
 10
-19.0517983348
 20
15.0159165834
 10
-19.0764746591
 20
15.0191155984
 10
-19.1018556566
 20
15.0194150243
 10
-19.1155497017
 20
15.0183227758
  0
LWPOLYLINE
  5
287
100
AcDbEntity
  8
0
100
AcDbPolyline
 62
253
  6
CONTINUOUS
 90
15
 70
0
 10
-14.7335805745
 20
8.2917967898
 10
-14.6698777824
 20
8.0219046708
 10
-14.5737998498
 20
7.7220724163
 10
-14.4532495966
 20
7.4255320746
 10
-14.3085053174
 20
7.1329664565
 10
-14.139900515
 20
6.845048513
 10
-13.9478239925
 20
6.5624414393
 10
-13.7327186789
 20
6.2857962616
 10
-13.4950798356
 20
6.0157494651
 10
-13.235455202
 20
5.7529231943
 10
-12.9544431622
 20
5.4979228752
 10
-12.6526899445
 20
5.2513348753
 10
-12.3308909361
 20
5.013727345
 10
-11.9897868465
 20
4.7856474604
 10
-11.6301644383
 20
4.5676211178
  0
LINE
  5
288
100
AcDbEntity
  8
0
100
AcDbLine
 62
7
  6
CONTINUOUS
 10
-10.5801193141
 20
-0.7900854654
 11
-10.5770404563
 21
-0.8610978252
  0
LWPOLYLINE
  5
289
100
AcDbEntity
  8
0
100
AcDbPolyline
 62
7
  6
CONTINUOUS
 90
24
 70
0
 10
-9.342682447
 20
-1.5045660038
 10
-9.3457613048
 20
-1.433553644
 10
-9.3541745704
 20
-1.3613737633
 10
-9.3679222441
 20
-1.2880263616
 10
-9.3872583186
 20
-1.21280904
 10
-9.411928801
 20
-1.1364241975
 10
-9.4411717127
 20
-1.0609790307
 10
-9.4750541211
 20
-0.9865925878
 10
-9.5135089588
 20
-0.9131458205
 10
-9.555573044
 20
-0.842388781
 10
-9.6013211709
 20
-0.7743548415
 10
-9.6506785453
 20
-0.7090106298
 10
-9.7024576027
 20
-0.6480060807
 10
-9.7568137855
 20
-0.5913701204
 10
-9.8135916512
 20
-0.5390738227
 10
-9.871137309
 20
-0.4926803435
 10
-9.9294011681
 20
-0.452421147
 10
-9.9884328192
 20
-0.4180647691
 10
-10.0467271428
 20
-0.3904799731
 10
-10.1043011694
 20
-0.3698273701
 10
-10.1611378685
 20
-0.355946349
 10
-10.215681029
 20
-0.3492238407
 10
-10.2678344876
 20
-0.3498414769
 10
-10.3176944076
 20
-0.3576176259
  0
LWPOLYLINE
  5
28A
100
AcDbEntity
  8
0
100
AcDbPolyline
 62
7
  6
CONTINUOUS
 90
13
 70
0
 10
-10.5631937156
 20
-0.8007265667
 10
-10.5617296105
 20
-0.7531609483
 10
-10.5573444282
 20
-0.7075177767
 10
-10.5500595329
 20
-0.6640194208
 10
-10.5399104157
 20
-0.6228778002
 10
-10.5269465223
 20
-0.5842933529
 10
-10.5112310114
 20
-0.5484540582
 10
-10.4928404474
 20
-0.5155345217
 10
-10.4718644272
 20
-0.4856951241
 10
-10.448405144
 20
-0.4590812398
 10
-10.422576889
 20
-0.4358225291
 10
-10.3945054948
 20
-0.416032306
 10
-10.3897877444
 20
-0.4131783597
  0
LWPOLYLINE
  5
28B
100
AcDbEntity
  8
0
100
AcDbPolyline
 62
7
  6
CONTINUOUS
 90
13
 70
0
 10
-9.3611121876
 20
-1.4947933753
 10
-9.3625762927
 20
-1.5423589937
 10
-9.366961475
 20
-1.5880021653
 10
-9.3742463703
 20
-1.6315005212
 10
-9.3843954875
 20
-1.6726421418
 10
-9.3973593809
 20
-1.7112265891
 10
-9.4130748918
 20
-1.7470658838
 10
-9.4314654558
 20
-1.7799854203
 10
-9.452441476
 20
-1.8098248179
 10
-9.4759007592
 20
-1.8364387022
 10
-9.5017290142
 20
-1.8596974129
 10
-9.5298004084
 20
-1.879487636
 10
-9.5397628552
 20
-1.8853698043
  0
LINE
  5
28C
100
AcDbEntity
  8
0
100
AcDbLine
 62
7
  6
CONTINUOUS
 10
-10.5770739181
 20
-0.7224153904
 11
-10.5801193141
 21
-0.7900854654
  0
LWPOLYLINE
  5
28D
100
AcDbEntity
  8
0
100
AcDbPolyline
 62
253
  6
CONTINUOUS
 90
13
 70
0
 10
-11.6301643024
 20
4.5676212533
 10
-11.6432211527
 20
4.5581306868
 10
-11.6559229369
 20
4.5470093295
 10
-11.6680797229
 20
4.5344443477
 10
-11.6794602467
 20
4.5207106592
 10
-11.6899623754
 20
4.5059693324
 10
-11.6995707505
 20
4.4902177973
 10
-11.7081532592
 20
4.4735681446
 10
-11.715472548
 20
4.4563603662
 10
-11.7213463697
 20
4.4389328108
 10
-11.7256456374
 20
4.4215915834
 10
-11.7282780593
 20
4.4046027563
 10
-11.7291678024
 20
4.3882591323
  0
LINE
  5
28E
100
AcDbEntity
  8
0
100
AcDbLine
 62
253
  6
CONTINUOUS
 10
1.3369005143
 20
12.9695327809
 11
2.9432978761
 21
14.0593246696
  0
LINE
  5
28F
100
AcDbEntity
  8
0
100
AcDbLine
 62
253
  6
CONTINUOUS
 10
-11.365830942
 20
4.7406123871
 11
-11.6301643259
 21
4.5676212669
  0
LINE
  5
290
100
AcDbEntity
  8
0
100
AcDbLine
 62
7
  6
CONTINUOUS
 10
4.2730255101
 20
13.7983214895
 11
1.2678216901
 21
12.0631544679
  0
LWPOLYLINE
  5
291
100
AcDbEntity
  8
0
100
AcDbPolyline
 62
253
  6
CONTINUOUS
 90
8
 70
0
 10
9.6633419211
 20
16.2483991589
 10
9.6764099224
 20
16.2548009713
 10
9.68878774
 20
16.2593609572
 10
9.7002861692
 20
16.2620258977
 10
9.7106845642
 20
16.2627746088
 10
9.719891351
 20
16.2616330702
 10
9.7278849592
 20
16.2585801099
 10
9.7325747055
 20
16.2553732592
  0
LWPOLYLINE
  5
292
100
AcDbEntity
  8
0
100
AcDbPolyline
 62
253
  6
CONTINUOUS
 90
20
 70
0
 10
16.3852630984
 20
-6.5483628011
 10
16.3820374959
 20
-6.5490202347
 10
16.3780717128
 20
-6.5522777693
 10
16.3739015237
 20
-6.5581701425
 10
16.3695833232
 20
-6.5666176703
 10
16.3651755076
 20
-6.5775061143
 10
16.3607376851
 20
-6.5906882269
 10
16.3563298695
 20
-6.6059857427
 10
16.352011669
 20
-6.623191789
 10
16.3478414799
 20
-6.6420736837
 10
16.3438756968
 20
-6.6623760813
 10
16.3401679501
 20
-6.6838244269
 10
16.3367683808
 20
-6.7061286684
 10
16.3337229622
 20
-6.7289871791
 10
16.3310728783
 20
-6.752090837
 10
16.3288539671
 20
-6.7751272046
 10
16.3270962353
 20
-6.7977847546
 10
16.3258234535
 20
-6.8197570826
 10
16.3250528337
 20
-6.8407470504
 10
16.3247947973
 20
-6.8604708049
  0
LWPOLYLINE
  5
293
100
AcDbEntity
  8
0
100
AcDbPolyline
 62
253
  6
CONTINUOUS
 90
14
 70
0
 10
13.6905867357
 20
-9.3105655408
 10
13.7112350446
 20
-9.3095718116
 10
13.7316571263
 20
-9.3103780537
 10
13.7516292322
 20
-9.3129754338
 10
13.7709325437
 20
-9.3173354945
 10
13.7893555698
 20
-9.323410466
 10
13.8066964638
 20
-9.3311337896
 10
13.8227652353
 20
-9.340420847
 10
13.8373858316
 20
-9.3511698873
 10
13.8503980662
 20
-9.3632631418
 10
13.8616593745
 20
-9.3765681141
 10
13.8710463751
 20
-9.3909390322
 10
13.8784562222
 20
-9.4062184454
 10
13.88346169
 20
-9.4209516384
  0
LWPOLYLINE
  5
294
100
AcDbEntity
  8
0
100
AcDbPolyline
 62
7
  6
CONTINUOUS
 90
19
 70
0
 10
18.5545308672
 20
-12.5013938515
 10
18.6141980809
 20
-12.5060561296
 10
18.6734292902
 20
-12.5066365083
 10
18.7319245682
 20
-12.5031610576
 10
18.7894479104
 20
-12.4956552344
 10
18.845647333
 20
-12.4841656542
 10
18.9000661636
 20
-12.4688026039
 10
18.9524323669
 20
-12.4496719038
 10
19.0024869263
 20
-12.426890066
 10
19.0498279243
 20
-12.4006775044
 10
19.0941773262
 20
-12.3712543791
 10
19.1353789247
 20
-12.3387916694
 10
19.1732372589
 20
-12.3035037916
 10
19.2075248893
 20
-12.2656800461
 10
19.2381271593
 20
-12.2255364164
 10
19.2649951052
 20
-12.183191803
 10
19.2879608145
 20
-12.1389468686
 10
19.3069150601
 20
-12.0930692167
 10
19.311269304
 20
-12.08062777
  0
LWPOLYLINE
  5
295
100
AcDbEntity
  8
0
100
AcDbPolyline
 62
253
  6
CONTINUOUS
 90
5
 70
0
 10
7.7836321905
 20
-11.7212649686
 10
7.756037769
 20
-11.7190347008
 10
7.7281081553
 20
-11.7183123059
 10
7.7001899235
 20
-11.7191151136
 10
7.6726320343
 20
-11.7214292692
  0
LWPOLYLINE
  5
296
100
AcDbEntity
  8
0
100
AcDbPolyline
 62
7
  6
CONTINUOUS
 90
17
 70
0
 10
18.5991438712
 20
-12.1038895372
 10
18.6291589266
 20
-12.1063201493
 10
18.6588331478
 20
-12.1068500969
 10
18.6879152179
 20
-12.105491866
 10
18.7161009361
 20
-12.1022938911
 10
18.7432282624
 20
-12.0973195363
 10
18.7692408644
 20
-12.0906106173
 10
18.7938313489
 20
-12.082281499
 10
18.8168758525
 20
-12.0724237177
 10
18.8384957776
 20
-12.0609920823
 10
18.858444608
 20
-12.0480885122
 10
18.8765067627
 20
-12.0338401614
 10
18.8927167791
 20
-12.0181644352
 10
18.9069120572
 20
-12.0010811251
 10
18.9188373672
 20
-11.9827457036
 10
18.9283750985
 20
-11.9631649101
 10
18.9323913584
 20
-11.9523611805
  0
LINE
  5
297
100
AcDbEntity
  8
0
100
AcDbLine
 62
7
  6
CONTINUOUS
 10
16.3406500943
 20
-12.2529239145
 11
18.5545308672
 21
-12.5013938515
  0
LINE
  5
298
100
AcDbEntity
  8
0
100
AcDbLine
 62
7
  6
CONTINUOUS
 10
16.3852630984
 20
-11.8554196003
 11
18.5991438712
 21
-12.1038895372
  0
LINE
  5
299
100
AcDbEntity
  8
0
100
AcDbLine
 62
253
  6
CONTINUOUS
 10
7.8105411575
 20
-11.7249807895
 11
7.7836321905
 21
-11.7212649686
  0
LINE
  5
29A
100
AcDbEntity
  8
0
100
AcDbLine
 62
253
  6
CONTINUOUS
 10
7.8364161748
 20
-11.73015299
 11
7.8105411575
 21
-11.7249807895
  0
LWPOLYLINE
  5
29B
100
AcDbEntity
  8
0
100
AcDbPolyline
 62
253
  6
CONTINUOUS
 90
18
 70
0
 10
-2.5191020085
 20
-10.7310588989
 10
-2.1323949476
 20
-10.9437517904
 10
-1.7282906638
 20
-11.145343515
 10
-1.3077449837
 20
-11.3353611409
 10
-0.8717523176
 20
-11.5133591075
 10
-0.4213428517
 20
-11.6789204483
 10
0.0424199444
 20
-11.8316577171
 10
0.5184410048
 20
-11.9712135999
 10
1.0055968271
 20
-12.0972619704
 10
1.502738659
 20
-12.2095087402
 10
2.0086939494
 20
-12.3076922169
 10
2.5222698456
 20
-12.3915839181
 10
3.0422566933
 20
-12.4609891642
 10
3.5674294871
 20
-12.5157472856
 10
4.0965511328
 20
-12.5557321042
 10
4.6283761696
 20
-12.5808522789
 10
5.161653488
 20
-12.5910514284
 10
5.6951274666
 20
-12.5863082441
  0
LWPOLYLINE
  5
29C
100
AcDbEntity
  8
0
100
AcDbPolyline
 62
253
  6
CONTINUOUS
 90
22
 70
0
 10
-2.4056764151
 20
-10.3091179803
 10
-2.0248582311
 20
-10.5185784514
 10
-1.6268912415
 20
-10.7171266071
 10
-1.2127123935
 20
-10.9042949987
 10
-0.7832968025
 20
-11.0796429694
 10
-0.3396554561
 20
-11.2427576913
 10
0.1171671658
 20
-11.3932551381
 10
0.5860955501
 20
-11.5307809884
 10
1.0660256829
 20
-11.6550114605
 10
1.5558276484
 20
-11.7656540744
 10
2.0543482891
 20
-11.8624483404
 10
2.560413921
 20
-11.9451663724
 10
3.0728330966
 20
-12.0136134247
 10
3.5903994101
 20
-12.0676283499
 10
4.1118943375
 20
-12.1070839789
 10
4.6360901055
 20
-12.1318874201
 10
5.1617527041
 20
-12.1419802783
 10
5.6876444263
 20
-12.1373387843
 10
6.2125267829
 20
-12.1179738842
 10
6.7351639095
 20
-12.0839312096
 10
7.2543254748
 20
-12.0352909357
 10
7.7687892127
 20
-11.972167608
  0
LINE
  5
29D
100
AcDbEntity
  8
0
100
AcDbLine
 62
253
  6
CONTINUOUS
 10
-2.1545374192
 20
-10.159633661
 11
-2.5367817507
 21
-9.9491058384
  0
LWPOLYLINE
  5
29E
100
AcDbEntity
  8
0
100
AcDbPolyline
 62
7
  6
CONTINUOUS
 90
22
 70
0
 10
-2.5057220104
 20
-10.0177651685
 10
-2.1851987222
 20
-10.1956259327
 10
-1.7821870974
 20
-10.4004386132
 10
-1.3627530371
 20
-10.5938471959
 10
-0.9278954391
 20
-10.775423504
 10
-0.4786307232
 20
-10.9447712945
 10
-0.0159876329
 20
-11.1015257413
 10
0.4589534114
 20
-11.2453390096
 10
0.9450704832
 20
-11.3758874222
 10
1.441224532
 20
-11.4928793798
 10
1.9462509213
 20
-11.5960527084
 10
2.4589657341
 20
-11.685176377
 10
2.9781654745
 20
-11.7600505819
 10
3.5026338504
 20
-11.8205079932
 10
4.0311412661
 20
-11.8664136696
 10
4.5624434601
 20
-11.8976654317
 10
5.0952891648
 20
-11.9141949641
 10
5.6284380176
 20
-11.9159679909
 10
6.1606574473
 20
-11.9029825159
 10
6.690705757
 20
-11.8752692703
 10
7.2173439578
 20
-11.8328917514
 10
7.6572058827
 20
-11.7859107116
  0
LINE
  5
29F
100
AcDbEntity
  8
0
100
AcDbLine
 62
253
  6
CONTINUOUS
 10
-11.711490164
 20
-5.4234891856
 11
-2.5191020085
 21
-10.7310588989
  0
LINE
  5
2A0
100
AcDbEntity
  8
0
100
AcDbLine
 62
253
  6
CONTINUOUS
 10
-2.5191020085
 20
-10.5651686637
 11
-11.711490164
 21
-5.2575989504
  0
LINE
  5
2A1
100
AcDbEntity
  8
0
100
AcDbLine
 62
253
  6
CONTINUOUS
 10
-11.5980645705
 20
-5.001548267
 11
-2.4056764151
 21
-10.3091179803
  0
LINE
  5
2A2
100
AcDbEntity
  8
0
100
AcDbLine
 62
7
  6
CONTINUOUS
 10
-11.6981054555
 20
-4.7101981732
 11
-2.5057173159
 21
-10.0177678774
  0
LINE
  5
2A3
100
AcDbEntity
  8
0
100
AcDbLine
 62
253
  6
CONTINUOUS
 10
-11.7291657945
 20
-4.641538834
 11
-2.5367817507
 21
-9.9491061733
  0
LINE
  5
2A4
100
AcDbEntity
  8
0
100
AcDbLine
 62
7
  6
CONTINUOUS
 10
-11.9979191358
 20
-4.5302660983
 11
-11.6981001223
 21
-4.7102012538
  0
LWPOLYLINE
  5
2A5
100
AcDbEntity
  8
0
100
AcDbPolyline
 62
253
  6
CONTINUOUS
 90
8
 70
0
 10
-2.505722763
 20
-10.0177647318
 10
-2.507182657
 20
-10.0168880797
 10
-2.5157651658
 20
-10.010149293
 10
-2.5230844546
 20
-10.0013936458
 10
-2.5289582763
 20
-9.9907490324
 10
-2.5332575441
 20
-9.9783724916
 10
-2.535889966
 20
-9.9644235194
 10
-2.536779709
 20
-9.9491073482
  0
LWPOLYLINE
  5
2A6
100
AcDbEntity
  8
0
100
AcDbPolyline
 62
253
  6
CONTINUOUS
 90
18
 70
0
 10
-11.7291657945
 20
-4.6415388866
 10
-12.0934858085
 20
-4.4210098226
 10
-12.4390447243
 20
-4.190975335
 10
-12.7650456945
 20
-3.9519664645
 10
-13.0707371337
 20
-3.7045390338
 10
-13.3554137485
 20
-3.4492624666
 10
-13.6184183274
 20
-3.1867185285
 10
-13.8591442962
 20
-2.9175186977
 10
-14.0770364253
 20
-2.6422860235
 10
-14.2715916866
 20
-2.3616438625
 10
-14.442361314
 20
-2.0762477025
 10
-14.5889514887
 20
-1.7867602196
 10
-14.7110239195
 20
-1.4938331131
 10
-14.8082969745
 20
-1.1981521829
 10
-14.8805462679
 20
-0.9004060402
 10
-14.9276050363
 20
-0.6012611305
 10
-14.9493645486
 20
-0.3014192576
 10
-14.9509930693
 20
-0.1950210622
  0
LWPOLYLINE
  5
2A7
100
AcDbEntity
  8
0
100
AcDbPolyline
 62
253
  6
CONTINUOUS
 90
16
 70
0
 10
-11.711490164
 20
-5.2575989504
 10
-12.079631406
 20
-5.0344654491
 10
-12.4285935002
 20
-4.8012839164
 10
-12.7575548732
 20
-4.5586033397
 10
-13.06574104
 20
-4.3069950699
 10
-13.3524264276
 20
-4.0470514771
 10
-13.6169360827
 20
-3.7793845552
 10
-13.8586472613
 20
-3.5046244815
 10
-14.0769908946
 20
-3.2234181331
 10
-14.2714529288
 20
-2.9364275636
 10
-14.4415755352
 20
-2.6443284445
 10
-14.5869581885
 20
-2.3478084749
 10
-14.7072586094
 20
-2.0475657616
 10
-14.8021935704
 20
-1.7443071764
 10
-14.871539563
 20
-1.4387466912
 10
-14.9151333235
 20
-1.1316036975
  0
LWPOLYLINE
  5
2A8
100
AcDbEntity
  8
0
100
AcDbPolyline
 62
253
  6
CONTINUOUS
 90
6
 70
0
 10
-14.8774434502
 20
10.7690392241
 10
-14.8806483198
 20
10.777898319
 10
-14.8918844031
 20
10.8169143919
 10
-14.8998713034
 20
10.8549091922
 10
-14.9047720031
 20
10.8923295394
 10
-14.9065865022
 20
10.9291754337
  0
LWPOLYLINE
  5
2A9
100
AcDbEntity
  8
0
100
AcDbPolyline
 62
7
  6
CONTINUOUS
 90
23
 70
0
 10
-10.5770404563
 20
-0.8610978252
 10
-10.5686271906
 20
-0.9332777059
 10
-10.554879517
 20
-1.0066251076
 10
-10.5355434425
 20
-1.0818424291
 10
-10.51087296
 20
-1.1582272717
 10
-10.4816300484
 20
-1.2336724385
 10
-10.4477476399
 20
-1.3080588814
 10
-10.4092928023
 20
-1.3815056487
 10
-10.3672287171
 20
-1.4522626882
 10
-10.3214805902
 20
-1.5202966277
 10
-10.2721232158
 20
-1.5856408394
 10
-10.2203441583
 20
-1.6466453885
 10
-10.1659879756
 20
-1.7032813488
 10
-10.1092101098
 20
-1.7555776465
 10
-10.0516644521
 20
-1.8019711257
 10
-9.9934005929
 20
-1.8422303221
 10
-9.9343689418
 20
-1.8765867001
 10
-9.8760746182
 20
-1.9041714961
 10
-9.8185005916
 20
-1.9248240991
 10
-9.7616638926
 20
-1.9387051202
 10
-9.7071207321
 20
-1.9454276285
 10
-9.6549672735
 20
-1.9448099923
 10
-9.6051073535
 20
-1.9370338433
  0
LWPOLYLINE
  5
2AA
100
AcDbEntity
  8
0
100
AcDbPolyline
 62
253
  6
CONTINUOUS
 90
8
 70
0
 10
-8.0168572323
 20
-13.946984147
 10
-8.015508046
 20
-13.9713754556
 10
-8.0114810817
 20
-13.9938364415
 10
-8.0048378081
 20
-14.0140242535
 10
-7.9956796301
 20
-14.0316307388
 10
-7.9841463409
 20
-14.0463871466
 10
-7.9704139881
 20
-14.0580682309
 10
-7.965086577
 20
-14.0614183623
  0
LWPOLYLINE
  5
2AB
100
AcDbEntity
  8
0
100
AcDbPolyline
 62
7
  6
CONTINUOUS
 90
28
 70
0
 10
-8.0168572323
 20
-2.2700808662
 10
-8.0132530833
 20
-2.3624699159
 10
-8.003161767
 20
-2.4565691807
 10
-7.9865832835
 20
-2.5523786609
 10
-7.9632707614
 20
-2.6506833662
 10
-7.933471072
 20
-2.7506982869
 10
-7.8979248293
 20
-2.850068393
 10
-7.8564871352
 20
-2.9487613341
 10
-7.8093028877
 20
-3.0468094606
 10
-7.757547395
 20
-3.1419547946
 10
-7.7012230752
 20
-3.234004333
 10
-7.64032751
 20
-3.3231510788
 10
-7.5760287526
 20
-3.407716063
 10
-7.5081477899
 20
-3.4877522468
 10
-7.4368636349
 20
-3.563206669
 10
-7.3638813802
 20
-3.6322414771
 10
-7.2892053601
 20
-3.6946491551
 10
-7.2128312403
 20
-3.7506372191
 10
-7.1364511097
 20
-3.7989903646
 10
-7.060088911
 20
-3.8395435351
 10
-6.9837207015
 20
-3.8724617873
 10
-6.9089667415
 20
-3.8970249861
 10
-6.8358234816
 20
-3.9130714859
 10
-6.7642944713
 20
-3.9207629324
 10
-6.6960106191
 20
-3.9198641276
 10
-6.6310769535
 20
-3.9102235364
 10
-6.569388446
 20
-3.8919926939
 10
-6.5157034213
 20
-3.8673115456
  0
LWPOLYLINE
  5
2AC
100
AcDbEntity
  8
0
100
AcDbPolyline
 62
253
  6
CONTINUOUS
 90
37
 70
0
 10
-7.9205711363
 20
-2.3385760254
 10
-7.9184740864
 20
-2.3987443981
 10
-7.9130509198
 20
-2.460549728
 10
-7.9043247351
 20
-2.5237287697
 10
-7.8923326995
 20
-2.5880124267
 10
-7.8771258903
 20
-2.653126898
 10
-7.8587690773
 20
-2.7187948434
 10
-7.8373404471
 20
-2.7847365658
 10
-7.81293127
 20
-2.8506712018
 10
-7.7856455111
 20
-2.9163179181
 10
-7.7555993878
 20
-2.9813971078
 10
-7.7229208745
 20
-3.0456315813
 10
-7.6877491578
 20
-3.1087477469
 10
-7.6502340434
 20
-3.1704767759
 10
-7.6105353181
 20
-3.2305557479
 10
-7.5688220695
 20
-3.2887287706
 10
-7.5252719653
 20
-3.3447480695
 10
-7.4800704972
 20
-3.3983750435
 10
-7.4334101901
 20
-3.449381281
 10
-7.3854897829
 20
-3.4975495328
 10
-7.3365133814
 20
-3.5426746374
 10
-7.286689589
 20
-3.5845643951
 10
-7.2362306187
 20
-3.6230403861
 10
-7.1853513886
 20
-3.6579387309
 10
-7.1342686069
 20
-3.6891107882
 10
-7.083199849
 20
-3.7164237878
 10
-7.0323626301
 20
-3.7397613965
 10
-6.9819734797
 20
-3.759024213
 10
-6.9322470186
 20
-3.774130192
 10
-6.8833950449
 20
-3.785014993
 10
-6.8356256325
 20
-3.7916322547
 10
-6.7891422438
 20
-3.7939537925
 10
-6.744142864
 20
-3.7919697183
 10
-6.7008191576
 20
-3.7856884828
 10
-6.6593556518
 20
-3.7751368395
 10
-6.6199289506
 20
-3.7603597306
 10
-6.582706983
 20
-3.7414200959
  0
LINE
  5
2AD
100
AcDbEntity
  8
0
100
AcDbLine
 62
7
  6
CONTINUOUS
 10
-7.9286333226
 20
-2.3768902792
 11
-7.9304107458
 21
-2.313780753
  0
LINE
  5
2AE
100
AcDbEntity
  8
0
100
AcDbLine
 62
253
  6
CONTINUOUS
 10
-7.9205988249
 20
-2.3309566308
 11
-7.9205711363
 21
-2.3385760254
  0
LINE
  5
2AF
100
AcDbEntity
  8
0
100
AcDbLine
 62
253
  6
CONTINUOUS
 10
-7.9189312416
 20
-2.2729436322
 11
-7.9205988249
 21
-2.3309566308
  0
LWPOLYLINE
  5
2B0
100
AcDbEntity
  8
0
100
AcDbPolyline
 62
7
  6
CONTINUOUS
 90
6
 70
0
 10
-7.9304107458
 20
-2.313780753
 10
-7.928527799
 20
-2.2508715695
 10
-7.9228913953
 20
-2.1903429702
 10
-7.9135273891
 20
-2.1324263801
 10
-7.9004481504
 20
-2.0772609637
 10
-7.8837130563
 20
-2.0251598925
  0
LINE
  5
2B1
100
AcDbEntity
  8
0
100
AcDbLine
 62
253
  6
CONTINUOUS
 10
-7.9139355944
 20
-2.2171034099
 11
-7.9189312416
 21
-2.2729436322
  0
LINE
  5
2B2
100
AcDbEntity
  8
0
100
AcDbLine
 62
253
  6
CONTINUOUS
 10
9.6633419542
 20
16.2483993547
 11
9.4080476721
 21
16.0982947066
  0
LINE
  5
2B3
100
AcDbEntity
  8
0
100
AcDbLine
 62
253
  6
CONTINUOUS
 10
9.4223555872
 20
15.3903117865
 11
9.9377430813
 21
15.6922875808
  0
LINE
  5
2B4
100
AcDbEntity
  8
0
100
AcDbLine
 62
253
  6
CONTINUOUS
 10
9.4080476721
 20
16.0982947066
 11
8.9345748264
 21
15.820456378
  0
LINE
  5
2B5
100
AcDbEntity
  8
0
100
AcDbLine
 62
7
  6
CONTINUOUS
 10
4.7955507575
 20
12.8933395196
 11
1.7903469374
 21
11.158172498
  0
LWPOLYLINE
  5
2B6
100
AcDbEntity
  8
0
100
AcDbPolyline
 62
253
  6
CONTINUOUS
 90
8
 70
0
 10
14.0080041785
 20
-4.2499435313
 10
14.041151369
 20
-4.2414579027
 10
14.146658847
 20
-4.2093619551
 10
14.2481743358
 20
-4.1732531538
 10
14.3456022203
 20
-4.1332226618
 10
14.4384928561
 20
-4.0894702888
 10
14.5264311973
 20
-4.0421806142
 10
14.6092831547
 20
-3.9913492566
  0
LWPOLYLINE
  5
2B7
100
AcDbEntity
  8
0
100
AcDbPolyline
 62
253
  6
CONTINUOUS
 90
4
 70
0
 10
7.90466534
 20
-11.7535581524
 10
7.8837745674
 20
-11.7445531427
 10
7.8609289835
 20
-11.736712433
 10
7.8364161748
 20
-11.73015299
  0
LWPOLYLINE
  5
2B8
100
AcDbEntity
  8
0
100
AcDbPolyline
 62
253
  6
CONTINUOUS
 90
13
 70
0
 10
10.4048269043
 20
-13.926703978
 10
10.4279749222
 20
-13.938511347
 10
10.4534679744
 20
-13.9485804783
 10
10.4809169271
 20
-13.9567576738
 10
10.5099027914
 20
-13.9629181141
 10
10.5399831183
 20
-13.9669677646
 10
10.5706987527
 20
-13.9688448102
 10
10.601580842
 20
-13.968520599
 10
10.6321579927
 20
-13.9660000799
 10
10.6619634659
 20
-13.9613217269
 10
10.6905423021
 20
-13.9545569517
 10
10.7174582652
 20
-13.945809014
 10
10.742300502
 20
-13.9352114448
  0
LWPOLYLINE
  5
2B9
100
AcDbEntity
  8
0
100
AcDbPolyline
 62
253
  6
CONTINUOUS
 90
8
 70
0
 10
-8.0168572323
 20
15.2791769645
 10
-8.0160092291
 20
15.2642109348
 10
-8.0134787793
 20
15.2504634662
 10
-8.0093063451
 20
15.2381543821
 10
-8.003558644
 20
15.227480506
 10
-7.9963275823
 20
15.2186125143
 10
-7.9877287856
 20
15.2116922069
 10
-7.9857948391
 20
15.2105164354
  0
LWPOLYLINE
  5
2BA
100
AcDbEntity
  8
0
100
AcDbPolyline
 62
7
  6
CONTINUOUS
 90
25
 70
0
 10
-6.2490902793
 20
-3.2907673496
 10
-6.2526944283
 20
-3.1983783
 10
-6.2627857445
 20
-3.1042790351
 10
-6.2793642281
 20
-3.0084695549
 10
-6.3026767502
 20
-2.9101648496
 10
-6.3324764396
 20
-2.8101499289
 10
-6.3680226823
 20
-2.7107798228
 10
-6.4094603764
 20
-2.6120868817
 10
-6.4566446238
 20
-2.5140387552
 10
-6.5084001166
 20
-2.4188934212
 10
-6.5647244364
 20
-2.3268438828
 10
-6.6256200015
 20
-2.237697137
 10
-6.6899187589
 20
-2.1531321528
 10
-6.7577997217
 20
-2.073095969
 10
-6.8290838767
 20
-1.9976415468
 10
-6.9020661314
 20
-1.9286067387
 10
-6.9767421514
 20
-1.8661990607
 10
-7.0531162712
 20
-1.8102109968
 10
-7.1294964019
 20
-1.7618578513
 10
-7.2058586006
 20
-1.7213046807
 10
-7.2822268101
 20
-1.6883864285
 10
-7.3569807701
 20
-1.6638232297
 10
-7.43012403
 20
-1.6477767299
 10
-7.5016530403
 20
-1.6400852834
 10
-7.5699368924
 20
-1.6409840883
  0
LWPOLYLINE
  5
2BB
100
AcDbEntity
  8
0
100
AcDbPolyline
 62
253
  6
CONTINUOUS
 90
36
 70
0
 10
-6.3545510921
 20
-3.2275695569
 10
-6.3566481419
 20
-3.1674011842
 10
-6.3620713086
 20
-3.1055958543
 10
-6.3707974932
 20
-3.0424168127
 10
-6.3827895288
 20
-2.9781331556
 10
-6.3979963381
 20
-2.9130186843
 10
-6.4163531511
 20
-2.8473507389
 10
-6.4377817813
 20
-2.7814090165
 10
-6.4621909584
 20
-2.7154743805
 10
-6.4894767173
 20
-2.6498276642
 10
-6.5195228406
 20
-2.5847484745
 10
-6.5522013539
 20
-2.520514001
 10
-6.5873730706
 20
-2.4573978355
 10
-6.624888185
 20
-2.3956688065
 10
-6.6645869103
 20
-2.3355898344
 10
-6.7063001589
 20
-2.2774168117
 10
-6.7498502631
 20
-2.2213975128
 10
-6.7950517312
 20
-2.1677705388
 10
-6.8417120382
 20
-2.1167643013
 10
-6.8896324454
 20
-2.0685960496
 10
-6.938608847
 20
-2.0234709449
 10
-6.9884326394
 20
-1.9815811872
 10
-7.0388916097
 20
-1.9431051962
 10
-7.0897708398
 20
-1.9082068514
 10
-7.1408536215
 20
-1.8770347941
 10
-7.1919223794
 20
-1.8497217945
 10
-7.2427595983
 20
-1.8263841858
 10
-7.2931487487
 20
-1.8071213693
 10
-7.3428752098
 20
-1.7920153903
 10
-7.3917271834
 20
-1.7811305894
 10
-7.4394965959
 20
-1.7745133276
 10
-7.4859799846
 20
-1.7721917898
 10
-7.5309793643
 20
-1.774175864
 10
-7.5743030707
 20
-1.7804570995
 10
-7.6157665766
 20
-1.7910087428
 10
-7.6551932777
 20
-1.8057858517
  0
LINE
  5
2BC
100
AcDbEntity
  8
0
100
AcDbLine
 62
253
  6
CONTINUOUS
 10
-6.3545234035
 20
-3.2351889516
 11
-6.3545510921
 21
-3.2275695569
  0
LINE
  5
2BD
100
AcDbEntity
  8
0
100
AcDbLine
 62
253
  6
CONTINUOUS
 10
-6.2894492423
 20
-3.2244859621
 11
-6.2894204881
 21
-3.232398588
  0
LWPOLYLINE
  5
2BE
100
AcDbEntity
  8
0
100
AcDbPolyline
 62
253
  6
CONTINUOUS
 90
12
 70
0
 10
-6.2894204881
 20
-3.232398588
 10
-6.2911522481
 20
-3.292644208
 10
-6.296340152
 20
-3.3506334328
 10
-6.3049621033
 20
-3.4061192708
 10
-6.3169813786
 20
-3.4588653931
 10
-6.3323467847
 20
-3.5086471397
 10
-6.3509928762
 20
-3.555252477
 10
-6.3728402345
 20
-3.5984829004
 10
-6.3977958058
 20
-3.6381542799
 10
-6.4257532977
 20
-3.6740976447
 10
-6.4565936318
 20
-3.7061599022
 10
-6.4901854507
 20
-3.7342044909
  0
LWPOLYLINE
  5
2BF
100
AcDbEntity
  8
0
100
AcDbPolyline
 62
7
  6
CONTINUOUS
 90
6
 70
0
 10
-7.8657022396
 20
-1.9818827606
 10
-7.8576611676
 20
-1.9559302002
 10
-7.8381149185
 20
-1.9072077371
 10
-7.8151526237
 20
-1.8620854759
 10
-7.7888408393
 20
-1.8205157939
 10
-7.759593368
 20
-1.7830632062
  0
LWPOLYLINE
  5
2C0
100
AcDbEntity
  8
0
100
AcDbPolyline
 62
7
  6
CONTINUOUS
 90
8
 70
0
 10
-7.8837130563
 20
-2.0251598925
 10
-7.8634866665
 20
-1.9765590904
 10
-7.8399212486
 20
-1.9316643818
 10
-7.8131287669
 20
-1.8905591022
 10
-7.7833031192
 20
-1.8534284484
 10
-7.750645859
 20
-1.8204016427
 10
-7.7153457372
 20
-1.7915565384
 10
-7.6776210706
 20
-1.766969633
  0
LWPOLYLINE
  5
2C1
100
AcDbEntity
  8
0
100
AcDbPolyline
 62
7
  6
CONTINUOUS
 90
7
 70
0
 10
-10.44578729
 20
-0.4232717484
 10
-10.4802537729
 20
-0.4585697386
 10
-10.5099705266
 20
-0.5004768912
 10
-10.5350372821
 20
-0.5487430474
 10
-10.5546644932
 20
-0.601976185
 10
-10.5685889778
 20
-0.6597122969
 10
-10.5770739181
 20
-0.7224153904
  0
LWPOLYLINE
  5
2C2
100
AcDbEntity
  8
0
100
AcDbPolyline
 62
7
  6
CONTINUOUS
 90
8
 70
0
 10
-9.4770144711
 20
-1.8713797208
 10
-9.4425479882
 20
-1.8360817306
 10
-9.4128312345
 20
-1.794174578
 10
-9.387764479
 20
-1.7459084218
 10
-9.3681372679
 20
-1.6926752842
 10
-9.3542127832
 20
-1.6349391723
 10
-9.3457278429
 20
-1.5722360788
 10
-9.342682447
 20
-1.5045660038
  0
LINE
  5
2C3
100
AcDbEntity
  8
0
100
AcDbLine
 62
253
  6
CONTINUOUS
 10
1.2439180102
 20
9.7314287495
 11
1.3511038849
 21
9.815139392
  0
LINE
  5
2C4
100
AcDbEntity
  8
0
100
AcDbLine
 62
7
  6
CONTINUOUS
 10
-10.4042337521
 20
-0.3928333563
 11
-10.44578729
 21
-0.4232717484
  0
LINE
  5
2C5
100
AcDbEntity
  8
0
100
AcDbLine
 62
7
  6
CONTINUOUS
 10
7.9434158218
 20
12.8663386431
 11
5.9790234572
 21
11.7321231114
  0
LINE
  5
2C6
100
AcDbEntity
  8
0
100
AcDbLine
 62
7
  6
CONTINUOUS
 10
5.9932102656
 20
11.7186887134
 11
7.9296013903
 21
12.8367366801
  0
LINE
  5
2C7
100
AcDbEntity
  8
0
100
AcDbLine
 62
7
  6
CONTINUOUS
 10
8.1257365691
 20
11.755593189
 11
9.7512970719
 21
12.6941714502
  0
LINE
  5
2C8
100
AcDbEntity
  8
0
100
AcDbLine
 62
7
  6
CONTINUOUS
 10
7.6690030886
 20
11.9943346123
 11
10.0951955159
 21
13.3471644586
  0
LWPOLYLINE
  5
2C9
100
AcDbEntity
  8
0
100
AcDbPolyline
 62
253
  6
CONTINUOUS
 90
5
 70
0
 10
12.808147996
 20
-3.1508863641
 10
12.7813706015
 20
-3.1569041952
 10
12.6970245694
 20
-3.1802537739
 10
12.616466437
 20
-3.2071071413
 10
12.540215996
 20
-3.2372915928
  0
LWPOLYLINE
  5
2CA
100
AcDbEntity
  8
0
100
AcDbPolyline
 62
7
  6
CONTINUOUS
 90
8
 70
0
 10
13.8629238193
 20
-4.0390244217
 10
13.8835232604
 20
-4.0348434227
 10
13.9909790662
 20
-4.0081435472
 10
14.0957468409
 20
-3.9770817452
 10
14.1973787866
 20
-3.9417171836
 10
14.2954018247
 20
-3.9021069031
 10
14.3894077917
 20
-3.8583454486
 10
14.4790905919
 20
-3.8105297909
  0
LWPOLYLINE
  5
2CB
100
AcDbEntity
  8
0
100
AcDbPolyline
 62
253
  6
CONTINUOUS
 90
7
 70
0
 10
13.8417030552
 20
-3.9616645295
 10
13.9106420994
 20
-3.9476860052
 10
14.0204665726
 20
-3.9205055735
 10
14.1272588677
 20
-3.8890309079
 10
14.2303065541
 20
-3.8534426294
 10
14.3288461258
 20
-3.8139893188
 10
14.4227245092
 20
-3.7707651004
  0
LINE
  5
2CC
100
AcDbEntity
  8
0
100
AcDbLine
 62
7
  6
CONTINUOUS
 10
13.5536583196
 20
-4.4141656835
 11
13.6055793812
 21
-4.4080254366
  0
LINE
  5
2CD
100
AcDbEntity
  8
0
100
AcDbLine
 62
7
  6
CONTINUOUS
 10
7.8207247822
 20
-11.7866052672
 11
7.8183103233
 21
-11.7850849166
  0
LINE
  5
2CE
100
AcDbEntity
  8
0
100
AcDbLine
 62
7
  6
CONTINUOUS
 10
7.8183103233
 20
-11.7850849166
 11
7.8156780823
 21
-11.7834000615
  0
LWPOLYLINE
  5
2CF
100
AcDbEntity
  8
0
100
AcDbPolyline
 62
253
  6
CONTINUOUS
 90
8
 70
0
 10
8.0652601931
 20
-12.2032005628
 10
8.0528307775
 20
-12.1950628025
 10
8.0422960129
 20
-12.1861255832
 10
8.0337989704
 20
-12.1765364395
 10
8.0274742042
 20
-12.1665007208
 10
8.0233478776
 20
-12.1561308321
 10
8.021446639
 20
-12.1454291851
 10
8.0213262263
 20
-12.1419993649
  0
LWPOLYLINE
  5
2D0
100
AcDbEntity
  8
0
100
AcDbPolyline
 62
7
  6
CONTINUOUS
 90
3
 70
0
 10
7.8249947478
 20
-11.7894081097
 10
7.8323411012
 20
-11.794283893
 10
7.8522213364
 20
-11.8094416292
  0
LINE
  5
2D1
100
AcDbEntity
  8
0
100
AcDbLine
 62
7
  6
CONTINUOUS
 10
-4.9232650646
 20
-4.0562822121
 11
-4.9201862068
 21
-4.1272945718
  0
LWPOLYLINE
  5
2D2
100
AcDbEntity
  8
0
100
AcDbPolyline
 62
7
  6
CONTINUOUS
 90
24
 70
0
 10
-3.6858281975
 20
-4.7707627504
 10
-3.6889070553
 20
-4.6997503906
 10
-3.697320321
 20
-4.6275705099
 10
-3.7110679946
 20
-4.5542231082
 10
-3.7304040691
 20
-4.4790057867
 10
-3.7550745515
 20
-4.4026209442
 10
-3.7843174632
 20
-4.3271757773
 10
-3.8181998716
 20
-4.2527893344
 10
-3.8566547093
 20
-4.1793425671
 10
-3.8987187945
 20
-4.1085855276
 10
-3.9444669214
 20
-4.0405515881
 10
-3.9938242958
 20
-3.9752073764
 10
-4.0456033532
 20
-3.9142028273
 10
-4.099959536
 20
-3.857566867
 10
-4.1567374018
 20
-3.8052705693
 10
-4.2142830595
 20
-3.7588770902
 10
-4.2725469186
 20
-3.7186178937
 10
-4.3315785697
 20
-3.6842615157
 10
-4.3898728933
 20
-3.6566767197
 10
-4.4474469199
 20
-3.6360241167
 10
-4.504283619
 20
-3.6221430956
 10
-4.5588267795
 20
-3.6154205873
 10
-4.6109802381
 20
-3.6160382235
 10
-4.6608401581
 20
-3.6238143725
  0
LWPOLYLINE
  5
2D3
100
AcDbEntity
  8
0
100
AcDbPolyline
 62
7
  6
CONTINUOUS
 90
13
 70
0
 10
-4.9063394661
 20
-4.0669233133
 10
-4.904875361
 20
-4.0193576949
 10
-4.9004901787
 20
-3.9737145233
 10
-4.8932052834
 20
-3.9302161674
 10
-4.8830561662
 20
-3.8890745469
 10
-4.8700922728
 20
-3.8504900995
 10
-4.8543767619
 20
-3.8146508048
 10
-4.8359861979
 20
-3.7817312683
 10
-4.8150101777
 20
-3.7518918707
 10
-4.7915508945
 20
-3.7252779864
 10
-4.7657226395
 20
-3.7020192757
 10
-4.7376512453
 20
-3.6822290526
 10
-4.7329334949
 20
-3.6793751063
  0
LWPOLYLINE
  5
2D4
100
AcDbEntity
  8
0
100
AcDbPolyline
 62
7
  6
CONTINUOUS
 90
13
 70
0
 10
-3.7042579381
 20
-4.760990122
 10
-3.7057220432
 20
-4.8085557403
 10
-3.7101072255
 20
-4.8541989119
 10
-3.7173921209
 20
-4.8976972678
 10
-3.727541238
 20
-4.9388388884
 10
-3.7405051314
 20
-4.9774233358
 10
-3.7562206423
 20
-5.0132626304
 10
-3.7746112063
 20
-5.0461821669
 10
-3.7955872265
 20
-5.0760215646
 10
-3.8190465097
 20
-5.1026354488
 10
-3.8448747648
 20
-5.1258941595
 10
-3.8729461589
 20
-5.1456843826
 10
-3.8829086057
 20
-5.1515665509
  0
LINE
  5
2D5
100
AcDbEntity
  8
0
100
AcDbLine
 62
7
  6
CONTINUOUS
 10
-4.9202196687
 20
-3.988612137
 11
-4.9232650646
 21
-4.0562822121
  0
LWPOLYLINE
  5
2D6
100
AcDbEntity
  8
0
100
AcDbPolyline
 62
253
  6
CONTINUOUS
 90
10
 70
0
 10
1.181953156
 20
9.6684632194
 10
1.1883423983
 20
9.676482669
 10
1.1948831696
 20
9.684276691
 10
1.2015639818
 20
9.691831596
 10
1.2083731007
 20
9.6991341146
 10
1.2152985667
 20
9.7061714205
 10
1.222328216
 20
9.7129311536
 10
1.2294497017
 20
9.719401441
 10
1.2366505156
 20
9.7255709183
 10
1.2439180102
 20
9.7314287495
  0
LWPOLYLINE
  5
2D7
100
AcDbEntity
  8
0
100
AcDbPolyline
 62
253
  6
CONTINUOUS
 90
13
 70
0
 10
-11.5980645705
 20
-5.001548267
 10
-11.6142803836
 20
-5.0191985503
 10
-11.6296955178
 20
-5.0382207351
 10
-11.6441548511
 20
-5.0584234017
 10
-11.6575128798
 20
-5.0796032515
 10
-11.6696351824
 20
-5.1015471525
 10
-11.6803997728
 20
-5.124034284
 10
-11.6896983272
 20
-5.1468383587
 10
-11.6974372747
 20
-5.1697299001
 10
-11.7035387384
 20
-5.1924785515
 10
-11.7079413196
 20
-5.214855394
 10
-11.7106007153
 20
-5.2366352503
 10
-11.711490164
 20
-5.2575989504
  0
LWPOLYLINE
  5
2D8
100
AcDbEntity
  8
0
100
AcDbPolyline
 62
7
  6
CONTINUOUS
 90
3
 70
0
 10
-7.759593368
 20
-1.7830632062
 10
-7.7274499264
 20
-1.7498321604
 10
-7.6923707979
 20
-1.720718209
  0
LINE
  5
2D9
100
AcDbEntity
  8
0
100
AcDbLine
 62
253
  6
CONTINUOUS
 10
-11.4518903062
 20
-4.8523597146
 11
-11.5980645705
 21
-5.001548267
  0
LINE
  5
2DA
100
AcDbEntity
  8
0
100
AcDbLine
 62
7
  6
CONTINUOUS
 10
-10.3897877444
 20
-0.4131783597
 11
-10.288088864
 21
-0.3530003478
  0
LINE
  5
2DB
100
AcDbEntity
  8
0
100
AcDbLine
 62
7
  6
CONTINUOUS
 10
9.9298797596
 20
10.5321247429
 11
6.9246759396
 21
8.7969577213
  0
LWPOLYLINE
  5
2DC
100
AcDbEntity
  8
0
100
AcDbPolyline
 62
7
  6
CONTINUOUS
 90
35
 70
0
 10
-10.3897877444
 20
-0.4131783597
 10
-10.3643277225
 20
-0.3998069866
 10
-10.3321905951
 20
-0.3872256189
 10
-10.2982506815
 20
-0.3783494982
 10
-10.2626733336
 20
-0.3732218679
 10
-10.2256318806
 20
-0.3718677094
 10
-10.1873067847
 20
-0.37429362
 10
-10.147884762
 20
-0.3804877809
 10
-10.1075578726
 20
-0.3904200148
 10
-10.066522585
 20
-0.4040419329
 10
-10.024978819
 20
-0.4212871704
 10
-9.9831289718
 20
-0.4420717105
 10
-9.9411769314
 20
-0.4662942928
 10
-9.8993270842
 20
-0.4938369074
 10
-9.8577833182
 20
-0.5245653694
 10
-9.8167480306
 20
-0.5583299728
 10
-9.7764211412
 20
-0.59496622
 10
-9.7369991185
 20
-0.6342956228
 10
-9.6986740226
 20
-0.6761265722
 10
-9.6616325696
 20
-0.7202552722
 10
-9.6260552217
 20
-0.7664667321
 10
-9.5921153081
 20
-0.8145358143
 10
-9.5599781807
 20
-0.8642283311
 10
-9.5298004084
 20
-0.9153021856
 10
-9.5017290142
 20
-0.967508551
 10
-9.4759007592
 20
-1.0205930832
 10
-9.452441476
 20
-1.0742971598
 10
-9.4314654558
 20
-1.1283591397
 10
-9.4130748918
 20
-1.1825156386
 10
-9.3973593809
 20
-1.2365028113
 10
-9.3843954875
 20
-1.2900576378
 10
-9.3742463703
 20
-1.3429192044
 10
-9.366961475
 20
-1.3948299749
 10
-9.3625762927
 20
-1.4455370451
 10
-9.3611121876
 20
-1.4947933753
  0
LINE
  5
2DD
100
AcDbEntity
  8
0
100
AcDbLine
 62
7
  6
CONTINUOUS
 10
8.0213262103
 20
-2.0157810847
 11
7.8987741383
 21
-2.0487661903
  0
LINE
  5
2DE
100
AcDbEntity
  8
0
100
AcDbLine
 62
7
  6
CONTINUOUS
 10
7.8987741383
 20
-2.0487661903
 11
7.811641745
 21
-2.0718326532
  0
LINE
  5
2DF
100
AcDbEntity
  8
0
100
AcDbLine
 62
253
  6
CONTINUOUS
 10
8.0213262103
 20
-1.9137682527
 11
7.8914430468
 21
-1.9483014972
  0
LWPOLYLINE
  5
2E0
100
AcDbEntity
  8
0
100
AcDbPolyline
 62
253
  6
CONTINUOUS
 90
7
 70
0
 10
12.9291260867
 20
-2.146942411
 10
12.8752933414
 20
-2.1562196064
 10
12.787955249
 20
-2.1754992595
 10
12.7037218737
 20
-2.1984430385
 10
12.6230847658
 20
-2.2249370273
 10
12.546456664
 20
-2.2548817156
 10
12.4852608008
 20
-2.2830253557
  0
LWPOLYLINE
  5
2E1
100
AcDbEntity
  8
0
100
AcDbPolyline
 62
7
  6
CONTINUOUS
 90
6
 70
0
 10
12.8445453116
 20
-1.8386048027
 10
12.7856823453
 20
-1.848492121
 10
12.6806276829
 20
-1.8709171991
 10
12.5784153485
 20
-1.8976491142
 10
12.479505351
 20
-1.9286335729
 10
12.4774615696
 20
-1.9293896072
  0
LWPOLYLINE
  5
2E2
100
AcDbEntity
  8
0
100
AcDbPolyline
 62
253
  6
CONTINUOUS
 90
7
 70
0
 10
13.015277939
 20
-2.4610073513
 10
12.9589768858
 20
-2.4682719505
 10
12.8692839771
 20
-2.4839775607
 10
12.7822814041
 20
-2.503449242
 10
12.698430056
 20
-2.5266125583
 10
12.6182318769
 20
-2.5533162463
 10
12.5422156466
 20
-2.5833197369
  0
LWPOLYLINE
  5
2E3
100
AcDbEntity
  8
0
100
AcDbPolyline
 62
253
  6
CONTINUOUS
 90
9
 70
0
 10
13.1024106262
 20
-2.7786479065
 10
13.0482814206
 20
-2.7832790661
 10
12.9567472465
 20
-2.795162957
 10
12.8673228155
 20
-2.8109239505
 10
12.7806193224
 20
-2.8304717631
 10
12.6971769817
 20
-2.853627537
 10
12.6174772749
 20
-2.880196656
 10
12.5418836454
 20
-2.9100206971
 10
12.4892394221
 20
-2.9343988848
  0
LWPOLYLINE
  5
2E4
100
AcDbEntity
  8
0
100
AcDbPolyline
 62
253
  6
CONTINUOUS
 90
14
 70
0
 10
13.6905867357
 20
-4.0035087416
 10
13.7112350446
 20
-4.0025150124
 10
13.7316571263
 20
-4.0033212545
 10
13.7516292322
 20
-4.0059186347
 10
13.7709325437
 20
-4.0102786953
 10
13.7893555698
 20
-4.0163536668
 10
13.8066964638
 20
-4.0240769905
 10
13.8227652353
 20
-4.0333640479
 10
13.8373858316
 20
-4.0441130882
 10
13.8503980662
 20
-4.0562063426
 10
13.8616593745
 20
-4.0695113149
 10
13.8710463751
 20
-4.0838822331
 10
13.8784562222
 20
-4.0991616463
 10
13.88346169
 20
-4.1138948393
  0
LWPOLYLINE
  5
2E5
100
AcDbEntity
  8
0
100
AcDbPolyline
 62
7
  6
CONTINUOUS
 90
12
 70
0
 10
13.3550563297
 20
-3.6996630168
 10
13.2838332631
 20
-3.7010948086
 10
13.1893316315
 20
-3.6992695619
 10
13.0959262455
 20
-3.6937387338
 10
13.0041335027
 20
-3.6845453382
 10
12.9144444569
 20
-3.6717881947
 10
12.8273914879
 20
-3.6556374124
 10
12.7434501917
 20
-3.6362743772
 10
12.6630296124
 20
-3.613877185
 10
12.5865679007
 20
-3.5886419377
 10
12.5144809524
 20
-3.5607781291
 10
12.4892394221
 20
-3.549452055
  0
LWPOLYLINE
  5
2E6
100
AcDbEntity
  8
0
100
AcDbPolyline
 62
253
  6
CONTINUOUS
 90
20
 70
0
 10
13.0246742721
 20
-6.2902584278
 10
13.100962576
 20
-6.2966061053
 10
13.2173199396
 20
-6.3015821593
 10
13.3347505246
 20
-6.3018648068
 10
13.4524066645
 20
-6.2974148146
 10
13.5697306361
 20
-6.2882713581
 10
13.6861547814
 20
-6.2744765237
 10
13.8008152743
 20
-6.2561267332
 10
13.9128259642
 20
-6.2333763107
 10
14.0220092939
 20
-6.2062609315
 10
14.1285721249
 20
-6.1747170423
 10
14.2323999456
 20
-6.1387053042
 10
14.3325178953
 20
-6.0984628535
 10
14.4278642243
 20
-6.0543651725
 10
14.5178002427
 20
-6.006692139
 10
14.6020626926
 20
-5.9555645716
 10
14.6803191841
 20
-5.9012386502
 10
14.7523248347
 20
-5.8439341258
 10
14.8176908578
 20
-5.7839775555
 10
14.8713110931
 20
-5.7267753711
  0
LWPOLYLINE
  5
2E7
100
AcDbEntity
  8
0
100
AcDbPolyline
 62
7
  6
CONTINUOUS
 90
23
 70
0
 10
13.0483462796
 20
-6.3765542813
 10
13.0626000472
 20
-6.377980927
 10
13.1681432057
 20
-6.3844225685
 10
13.2745797057
 20
-6.3868039962
 10
13.3814670476
 20
-6.3850695026
 10
13.4884071329
 20
-6.379231898
 10
13.5949973307
 20
-6.3693163445
 10
13.7007807344
 20
-6.355348473
 10
13.8053549515
 20
-6.3373437492
 10
13.9083105435
 20
-6.3153102499
 10
14.0091960062
 20
-6.2892748593
 10
14.1076448915
 20
-6.2593170797
 10
14.2033013836
 20
-6.2255283516
 10
14.2957824999
 20
-6.1880005468
 10
14.3847169146
 20
-6.1468120831
 10
14.4697368065
 20
-6.1020263174
 10
14.5505029373
 20
-6.0536875915
 10
14.6267737164
 20
-6.0018539649
 10
14.6981986672
 20
-5.9466738953
 10
14.7643904275
 20
-5.8883311817
 10
14.8251645325
 20
-5.8268091857
 10
14.880072002
 20
-5.7623111574
 10
14.8909660209
 20
-5.7472486233
  0
LINE
  5
2E8
100
AcDbEntity
  8
0
100
AcDbLine
 62
7
  6
CONTINUOUS
 10
18.5545308672
 20
-7.1943370523
 11
16.3406500943
 21
-6.9458671154
  0
LINE
  5
2E9
100
AcDbEntity
  8
0
100
AcDbLine
 62
7
  6
CONTINUOUS
 10
18.5991438712
 20
-6.796832738
 11
16.3852630984
 21
-6.5483628011
  0
LWPOLYLINE
  5
2EA
100
AcDbEntity
  8
0
100
AcDbPolyline
 62
7
  6
CONTINUOUS
 90
30
 70
0
 10
-6.7958561407
 20
-3.8154735245
 10
-6.8467687086
 20
-3.8094440802
 10
-6.8989199109
 20
-3.7988500681
 10
-6.9519185007
 20
-3.7837484134
 10
-7.0055562246
 20
-3.7641985949
 10
-7.0596461295
 20
-3.7402648085
 10
-7.1138054585
 20
-3.7121277046
 10
-7.1677802429
 20
-3.6799524547
 10
-7.221409257
 20
-3.6438645981
 10
-7.2744342009
 20
-3.6040644121
 10
-7.326629619
 20
-3.5607526838
 10
-7.3778109004
 20
-3.5141115323
 10
-7.4277760458
 20
-3.4643494112
 10
-7.4763219722
 20
-3.4116917747
 10
-7.5232629549
 20
-3.3563613938
 10
-7.5684240366
 20
-3.2985814966
 10
-7.6116232861
 20
-3.2385985085
 10
-7.6526880256
 20
-3.1766641238
 10
-7.6914628705
 20
-3.1130205752
 10
-7.7277888018
 20
-3.047932537
 10
-7.7615160586
 20
-2.9816696739
 10
-7.7925127216
 20
-2.9144871863
 10
-7.82064753
 20
-2.8466589451
 10
-7.8457976424
 20
-2.778465852
 10
-7.8678566326
 20
-2.7101730431
 10
-7.8867246161
 20
-2.6420535401
 10
-7.902309121
 20
-2.5743925246
 10
-7.9145316748
 20
-2.5074650462
 10
-7.9233252653
 20
-2.4415408552
 10
-7.9286333226
 20
-2.3768902792
  0
LWPOLYLINE
  5
2EB
100
AcDbEntity
  8
0
100
AcDbPolyline
 62
253
  6
CONTINUOUS
 90
19
 70
0
 10
12.9323901061
 20
-5.9538382546
 10
12.9746020942
 20
-5.9592657219
 10
13.0892631145
 20
-5.9692340085
 10
13.2046916932
 20
-5.9746284503
 10
13.3208488518
 20
-5.9754642352
 10
13.4372804646
 20
-5.9716974553
 10
13.5533524604
 20
-5.9632946639
 10
13.6687756861
 20
-5.9502680594
 10
13.7831462445
 20
-5.9326511316
 10
13.8957774917
 20
-5.9105155452
 10
14.0059579761
 20
-5.883962786
 10
14.1131223988
 20
-5.8530787429
 10
14.2167619144
 20
-5.8179524225
 10
14.3163264318
 20
-5.778788992
 10
14.4113431973
 20
-5.7358111272
 10
14.5014199355
 20
-5.6892074873
 10
14.5861546886
 20
-5.6391622843
 10
14.6651152568
 20
-5.58587128
 10
14.7058097289
 20
-5.5543834299
  0
LWPOLYLINE
  5
2EC
100
AcDbEntity
  8
0
100
AcDbPolyline
 62
7
  6
CONTINUOUS
 90
20
 70
0
 10
12.9560946767
 20
-6.0402528162
 10
12.9863587592
 20
-6.0441945212
 10
13.0976158526
 20
-6.0539642323
 10
13.2099422674
 20
-6.0592105987
 10
13.3228541768
 20
-6.0599167781
 10
13.4358792072
 20
-6.0560567447
 10
13.5486510939
 20
-6.047593809
 10
13.6606994094
 20
-6.0345577269
 10
13.7715641251
 20
-6.0170082257
 10
13.8808999099
 20
-5.9949689151
 10
13.9882321628
 20
-5.968464942
 10
14.0930739693
 20
-5.9375120031
 10
14.1950692472
 20
-5.9020907297
 10
14.2938286087
 20
-5.8622576733
 10
14.3888475222
 20
-5.8181209196
 10
14.4796672859
 20
-5.7697576484
 10
14.5661474038
 20
-5.7170126815
 10
14.6474208758
 20
-5.6601217411
 10
14.7222299499
 20
-5.599855555
 10
14.73661877
 20
-5.5864751919
  0
LWPOLYLINE
  5
2ED
100
AcDbEntity
  8
0
100
AcDbPolyline
 62
7
  6
CONTINUOUS
 90
22
 70
0
 10
18.5991438712
 20
-6.796832738
 10
18.655648967
 20
-6.8050046537
 10
18.7116303032
 20
-6.8167526436
 10
18.766829639
 20
-6.8320045144
 10
18.821040631
 20
-6.8507005891
 10
18.8739592092
 20
-6.8727440814
 10
18.9251965909
 20
-6.8979713257
 10
18.9745150123
 20
-6.9262581931
 10
19.0216865357
 20
-6.9574781733
 10
19.0663749281
 20
-6.9914089275
 10
19.1083911596
 20
-7.0279042783
 10
19.1475225927
 20
-7.0667891152
 10
19.1834563773
 20
-7.1077450614
 10
19.2160393201
 20
-7.1505712816
 10
19.2451308523
 20
-7.1950663849
 10
19.2705154671
 20
-7.2408582794
 10
19.2920920558
 20
-7.2876759341
 10
19.3098112629
 20
-7.3353175256
 10
19.3236018161
 20
-7.3834752425
 10
19.3334363644
 20
-7.4318697089
 10
19.3393200165
 20
-7.4802648508
 10
19.3412729997
 20
-7.5284034698
  0
LWPOLYLINE
  5
2EE
100
AcDbEntity
  8
0
100
AcDbPolyline
 62
7
  6
CONTINUOUS
 90
19
 70
0
 10
18.5545308672
 20
-7.1943370523
 10
18.5879760034
 20
-7.1992489331
 10
18.6214029832
 20
-7.2064859539
 10
18.6544817679
 20
-7.2159999975
 10
18.6868684343
 20
-7.2277000984
 10
18.7182676053
 20
-7.2414736935
 10
18.748428024
 20
-7.2571984218
 10
18.7770454799
 20
-7.2746919838
 10
18.8038750593
 20
-7.2937639848
 10
18.8287543734
 20
-7.3142547089
 10
18.8514055006
 20
-7.3358723299
 10
18.8717006965
 20
-7.3584059872
 10
18.8896470413
 20
-7.3818045181
 10
18.9050114441
 20
-7.4057038211
 10
18.9177258754
 20
-7.4298938771
 10
18.9278661187
 20
-7.4545281556
 10
18.9352784964
 20
-7.4794315541
 10
18.9397692435
 20
-7.5041461122
 10
18.9412729997
 20
-7.5284034698
  0
LWPOLYLINE
  5
2EF
100
AcDbEntity
  8
0
100
AcDbPolyline
 62
253
  6
CONTINUOUS
 90
20
 70
0
 10
13.8600585344
 20
-9.4184657894
 10
13.8430631706
 20
-9.413470323
 10
13.8248850337
 20
-9.4107658242
 10
13.8057699518
 20
-9.4103888665
 10
13.7859764236
 20
-9.4123445477
 10
13.7657721226
 20
-9.4166064205
 10
13.7454302773
 20
-9.4231168504
 10
13.7252259763
 20
-9.4317877951
 10
13.705432448
 20
-9.4425019949
 10
13.6863173661
 20
-9.4551145585
 10
13.6681392292
 20
-9.4694549228
 10
13.6511438654
 20
-9.4853291588
 10
13.6355611079
 20
-9.5025225949
 10
13.6216016866
 20
-9.5208027191
 10
13.6094543789
 20
-9.5399223244
 10
13.5992834563
 20
-9.5596228506
 10
13.591226463
 20
-9.5796378822
 10
13.585392356
 20
-9.59969675
 10
13.5818600316
 20
-9.6195281923
 10
13.5806772585
 20
-9.6388640229
  0
LWPOLYLINE
  5
2F0
100
AcDbEntity
  8
0
100
AcDbPolyline
 62
7
  6
CONTINUOUS
 90
11
 70
0
 10
-7.1786713267
 20
-1.7357428474
 10
-7.2119802729
 20
-1.7228074249
 10
-7.2635570422
 20
-1.7068546076
 10
-7.3144713169
 20
-1.6951915534
 10
-7.3640924599
 20
-1.6879738004
 10
-7.4124150217
 20
-1.6852560801
 10
-7.4594444519
 20
-1.6869836611
 10
-7.5045664624
 20
-1.6931478876
 10
-7.5477652807
 20
-1.703821361
 10
-7.5890566793
 20
-1.7189314799
 10
-7.6292939535
 20
-1.739066831
  0
LINE
  5
2F1
100
AcDbEntity
  8
0
100
AcDbLine
 62
7
  6
CONTINUOUS
 10
7.8522213364
 20
-11.8094416292
 11
7.8728832439
 21
-11.8278155918
  0
LWPOLYLINE
  5
2F2
100
AcDbEntity
  8
0
100
AcDbPolyline
 62
7
  6
CONTINUOUS
 90
23
 70
0
 10
-4.9201862068
 20
-4.1272945718
 10
-4.9117729411
 20
-4.1994744525
 10
-4.8980252675
 20
-4.2728218542
 10
-4.878689193
 20
-4.3480391758
 10
-4.8540187105
 20
-4.4244240183
 10
-4.8247757989
 20
-4.4998691851
 10
-4.7908933904
 20
-4.574255628
 10
-4.7524385528
 20
-4.6477023953
 10
-4.7103744676
 20
-4.7184594349
 10
-4.6646263407
 20
-4.7864933743
 10
-4.6152689663
 20
-4.851837586
 10
-4.5634899088
 20
-4.9128421352
 10
-4.5091337261
 20
-4.9694780954
 10
-4.4523558603
 20
-5.0217743931
 10
-4.3948102026
 20
-5.0681678723
 10
-4.3365463434
 20
-5.1084270688
 10
-4.2775146923
 20
-5.1427834467
 10
-4.2192203687
 20
-5.1703682427
 10
-4.1616463422
 20
-5.1910208457
 10
-4.1048096431
 20
-5.2049018668
 10
-4.0502664826
 20
-5.2116243751
 10
-3.998113024
 20
-5.2110067389
 10
-3.948253104
 20
-5.20323059
  0
LINE
  5
2F3
100
AcDbEntity
  8
0
100
AcDbLine
 62
253
  6
CONTINUOUS
 10
-2.5367817507
 20
-9.9491061733
 11
-2.5367817507
 21
-0.9193093624
  0
LINE
  5
2F4
100
AcDbEntity
  8
0
100
AcDbLine
 62
253
  6
CONTINUOUS
 10
-2.5191020085
 20
-10.7310588989
 11
-2.5191020085
 21
-10.5651686637
  0
LINE
  5
2F5
100
AcDbEntity
  8
0
100
AcDbLine
 62
253
  6
CONTINUOUS
 10
-2.5191020085
 20
-0.2828355357
 11
-2.5191020085
 21
-0.1169453006
  0
LWPOLYLINE
  5
2F6
100
AcDbEntity
  8
0
100
AcDbPolyline
 62
253
  6
CONTINUOUS
 90
22
 70
0
 10
-2.5191020085
 20
-0.1169453006
 10
-2.5099457983
 20
0.3239929165
 10
-2.4824987244
 20
0.7744663797
 10
-2.4368254063
 20
1.2334145243
 10
-2.3730333743
 20
1.699756833
 10
-2.2912728163
 20
2.1723953803
 10
-2.1917362237
 20
2.6502174171
 10
-2.074657939
 20
3.1320979909
 10
-1.9403136037
 20
3.6169025939
 10
-1.789019509
 20
4.1034898341
 10
-1.6211318519
 20
4.5907141227
 10
-1.4370458959
 20
5.0774283709
 10
-1.2371950408
 20
5.562486691
 10
-1.0220498024
 20
6.0447470937
 10
-0.7921167043
 20
6.5230741768
 10
-0.5479370859
 20
6.9963417988
 10
-0.2900858275
 20
7.4634357295
 10
-0.019169997
 20
7.923256274
 10
0.2641725791
 20
8.374720861
 10
0.5592748179
 20
8.8167665922
 10
0.8654419501
 20
9.2483527443
 10
1.181953156
 20
9.6684632194
  0
LWPOLYLINE
  5
2F7
100
AcDbEntity
  8
0
100
AcDbPolyline
 62
253
  6
CONTINUOUS
 90
13
 70
0
 10
-2.5191020085
 20
-10.5651686637
 10
-2.5182125598
 20
-10.5442049635
 10
-2.5155531642
 20
-10.5224251073
 10
-2.511150583
 20
-10.5000482648
 10
-2.5050491192
 20
-10.4772996134
 10
-2.4973101718
 20
-10.4544080719
 10
-2.4880116174
 20
-10.4316039972
 10
-2.477247027
 20
-10.4091168658
 10
-2.4651247243
 20
-10.3871729648
 10
-2.4517666957
 20
-10.365993115
 10
-2.4373073624
 20
-10.3457904483
 10
-2.4218922282
 20
-10.3267682636
 10
-2.4056764151
 20
-10.3091179803
  0
LWPOLYLINE
  5
2F8
100
AcDbEntity
  8
0
100
AcDbPolyline
 62
253
  6
CONTINUOUS
 90
13
 70
0
 10
-2.536779663
 20
-0.9193105717
 10
-2.5359625359
 20
-0.9036659894
 10
-2.5335353897
 20
-0.8873786415
 10
-2.5295525515
 20
-0.8707038772
 10
-2.5241208029
 20
-0.8539792064
 10
-2.5173215711
 20
-0.8373761072
 10
-2.5091439478
 20
-0.8209052096
 10
-2.4996100793
 20
-0.8047338901
 10
-2.4888795354
 20
-0.7892412534
 10
-2.4771416314
 20
-0.774762099
 10
-2.4645878819
 20
-0.7615711444
 10
-2.4513960144
 20
-0.749891503
 10
-2.437776163
 20
-0.7399484506
  0
LWPOLYLINE
  5
2F9
100
AcDbEntity
  8
0
100
AcDbPolyline
 62
7
  6
CONTINUOUS
 90
7
 70
0
 10
-6.3695600523
 20
-3.7355802884
 10
-6.3334598571
 20
-3.6768876529
 10
-6.3032181126
 20
-3.610767904
 10
-6.2795852404
 20
-3.5389255485
 10
-6.2628113811
 20
-3.4619287554
 10
-6.2526463941
 20
-3.3792093558
 10
-6.2490902793
 20
-3.2907673496
  0
LWPOLYLINE
  5
2FA
100
AcDbEntity
  8
0
100
AcDbPolyline
 62
7
  6
CONTINUOUS
 90
5
 70
0
 10
-6.3226253598
 20
-3.6531993951
 10
-6.3489395505
 20
-3.6868957964
 10
-6.381082992
 20
-3.7201268422
 10
-6.4161621205
 20
-3.7492407937
 10
-6.4542383339
 20
-3.774191744
  0
LWPOLYLINE
  5
2FB
100
AcDbEntity
  8
0
100
AcDbPolyline
 62
253
  6
CONTINUOUS
 90
11
 70
0
 10
-6.5155013358
 20
-3.6913933102
 10
-6.485803903
 20
-3.6605192366
 10
-6.458882478
 20
-3.6259078845
 10
-6.4348517266
 20
-3.5877066728
 10
-6.4138140019
 20
-3.5460783106
 10
-6.3958589094
 20
-3.5012001043
 10
-6.3810629245
 20
-3.4532632021
 10
-6.3694890673
 20
-3.4024717801
 10
-6.361186634
 20
-3.3490421724
 10
-6.3561909868
 20
-3.2932019501
 10
-6.3545234035
 20
-3.2351889516
  0
LWPOLYLINE
  5
2FC
100
AcDbEntity
  8
0
100
AcDbPolyline
 62
7
  6
CONTINUOUS
 90
10
 70
0
 10
-7.7656481328
 20
-1.7024825519
 10
-7.8062470187
 20
-1.7306711809
 10
-7.8542464643
 20
-1.7742559974
 10
-7.8963874593
 20
-1.8252679274
 10
-7.9324876544
 20
-1.8839605629
 10
-7.9627293989
 20
-1.9500803118
 10
-7.9863622711
 20
-2.0219226673
 10
-8.0031361305
 20
-2.0989194604
 10
-8.0133011175
 20
-2.1816388601
 10
-8.0168572323
 20
-2.2700808662
  0
LINE
  5
2FD
100
AcDbEntity
  8
0
100
AcDbLine
 62
7
  6
CONTINUOUS
 10
-7.6923707979
 20
-1.720718209
 11
-7.6542945846
 21
-1.6957672586
  0
LWPOLYLINE
  5
2FE
100
AcDbEntity
  8
0
100
AcDbPolyline
 62
7
  6
CONTINUOUS
 90
3
 70
0
 10
-9.5293520579
 20
-1.9080759213
 10
-9.5161309523
 20
-1.9003187076
 10
-9.4770144711
 20
-1.8713797208
  0
LINE
  5
2FF
100
AcDbEntity
  8
0
100
AcDbLine
 62
7
  6
CONTINUOUS
 10
10.452405007
 20
9.627142773
 11
7.4472011869
 21
7.8919757513
  0
LINE
  5
300
100
AcDbEntity
  8
0
100
AcDbLine
 62
7
  6
CONTINUOUS
 10
-7.6542954514
 20
-1.695765756
 11
-7.5591715129
 21
-1.640842386
  0
LINE
  5
301
100
AcDbEntity
  8
0
100
AcDbLine
 62
7
  6
CONTINUOUS
 10
-7.6776210706
 20
-1.766969633
 11
-7.6292942434
 21
-1.7390663287
  0
LINE
  5
302
100
AcDbEntity
  8
0
100
AcDbLine
 62
7
  6
CONTINUOUS
 10
-9.5397628552
 20
-1.8853698043
 11
-9.4360950436
 21
-1.8269816607
  0
LINE
  5
303
100
AcDbEntity
  8
0
100
AcDbLine
 62
7
  6
CONTINUOUS
 10
-9.5397628552
 20
-1.8853698043
 11
-9.5599781807
 21
-1.8957129554
  0
LWPOLYLINE
  5
304
100
AcDbEntity
  8
0
100
AcDbPolyline
 62
253
  6
CONTINUOUS
 90
12
 70
0
 10
-7.6551932777
 20
-1.8057858517
 10
-7.6924152454
 20
-1.8247254864
 10
-7.7272739411
 20
-1.8477469782
 10
-7.7596208926
 20
-1.8747522722
 10
-7.7893183254
 20
-1.9056263457
 10
-7.8162397503
 20
-1.9402376978
 10
-7.8402705018
 20
-1.9784389095
 10
-7.8613082265
 20
-2.0200672717
 10
-7.879263319
 20
-2.064945478
 10
-7.8940593039
 20
-2.1128823802
 10
-7.905633161
 20
-2.1636738023
 10
-7.9139355944
 20
-2.2171034099
  0
LINE
  5
305
100
AcDbEntity
  8
0
100
AcDbLine
 62
253
  6
CONTINUOUS
 10
-7.6776210706
 20
-1.766969633
 11
-7.6401464454
 21
-1.7479851264
  0
LWPOLYLINE
  5
306
100
AcDbEntity
  8
0
100
AcDbPolyline
 62
7
  6
CONTINUOUS
 90
5
 70
0
 10
-7.6542945846
 20
-1.6957672586
 10
-7.6141861674
 20
-1.6755831478
 10
-7.5710806653
 20
-1.6595620381
 10
-7.5259385871
 20
-1.6481962422
 10
-7.4826676152
 20
-1.6421267681
  0
LWPOLYLINE
  5
307
100
AcDbEntity
  8
0
100
AcDbPolyline
 62
7
  6
CONTINUOUS
 90
3
 70
0
 10
-7.6965590656
 20
-1.6688555219
 10
-7.7536865918
 20
-1.6954572087
 10
-7.7656481328
 20
-1.7024825519
  0
LWPOLYLINE
  5
308
100
AcDbEntity
  8
0
100
AcDbPolyline
 62
7
  6
CONTINUOUS
 90
34
 70
0
 10
-9.5599781807
 20
-1.8957129554
 10
-9.5921153081
 20
-1.9082943231
 10
-9.6260552217
 20
-1.9171704439
 10
-9.6616325696
 20
-1.9222980741
 10
-9.6986740226
 20
-1.9236522326
 10
-9.7369991185
 20
-1.921226322
 10
-9.7764211412
 20
-1.9150321611
 10
-9.8167480306
 20
-1.9050999272
 10
-9.8577833182
 20
-1.8914780091
 10
-9.8993270842
 20
-1.8742327716
 10
-9.9411769314
 20
-1.8534482315
 10
-9.9831289718
 20
-1.8292256492
 10
-10.024978819
 20
-1.8016830347
 10
-10.066522585
 20
-1.7709545726
 10
-10.1075578726
 20
-1.7371899692
 10
-10.147884762
 20
-1.700553722
 10
-10.1873067847
 20
-1.6612243192
 10
-10.2256318806
 20
-1.6193933698
 10
-10.2626733336
 20
-1.5752646698
 10
-10.2982506815
 20
-1.5290532099
 10
-10.3321905951
 20
-1.4809841277
 10
-10.3643277225
 20
-1.4312916109
 10
-10.3945054948
 20
-1.3802177564
 10
-10.422576889
 20
-1.328011391
 10
-10.448405144
 20
-1.2749268588
 10
-10.4718644272
 20
-1.2212227823
 10
-10.4928404474
 20
-1.1671608023
 10
-10.5112310114
 20
-1.1130043035
 10
-10.5269465223
 20
-1.0590171307
 10
-10.5399104157
 20
-1.0054623042
 10
-10.5500595329
 20
-0.9526007376
 10
-10.5573444282
 20
-0.9006899671
 10
-10.5617296105
 20
-0.8499828969
 10
-10.5631937156
 20
-0.8007265667
  0
LWPOLYLINE
  5
309
100
AcDbEntity
  8
0
100
AcDbPolyline
 62
7
  6
CONTINUOUS
 90
3
 70
0
 10
-10.3176944076
 20
-0.3576176259
 10
-10.3639930682
 20
-0.3723943229
 10
-10.4042337521
 20
-0.3928333563
  0
LWPOLYLINE
  5
30A
100
AcDbEntity
  8
0
100
AcDbPolyline
 62
253
  6
CONTINUOUS
 90
10
 70
0
 10
7.8059321087
 20
-1.9704950982
 10
7.8160716919
 20
-1.9689714296
 10
7.8260918
 20
-1.9672037956
 10
7.8359748337
 20
-1.965195301
 10
7.8457034344
 20
-1.9629494733
 10
7.8552605148
 20
-1.9604702572
 10
7.8646292889
 20
-1.9577620072
 10
7.8737933014
 20
-1.95482948
 10
7.8827364566
 20
-1.9516778263
 10
7.8914430468
 20
-1.9483125817
  0
LWPOLYLINE
  5
30B
100
AcDbEntity
  8
0
100
AcDbPolyline
 62
7
  6
CONTINUOUS
 90
4
 70
0
 10
7.7820743691
 20
-2.0777442628
 10
7.7854319266
 20
-2.0772597664
 10
7.7986590311
 20
-2.0748941865
 10
7.8116317969
 20
-2.0718498302
  0
LINE
  5
30C
100
AcDbEntity
  8
0
100
AcDbLine
 62
253
  6
CONTINUOUS
 10
7.128569169
 20
-2.4178938157
 11
7.6550975124
 21
-2.3505613447
  0
LINE
  5
30D
100
AcDbEntity
  8
0
100
AcDbLine
 62
7
  6
CONTINUOUS
 10
7.2650443257
 20
-2.1411876156
 11
7.7820836184
 21
-2.0777429967
  0
LINE
  5
30E
100
AcDbEntity
  8
0
100
AcDbLine
 62
253
  6
CONTINUOUS
 10
7.2838537355
 20
-2.0345527957
 11
7.8059321087
 21
-1.9704950982
  0
LWPOLYLINE
  5
30F
100
AcDbEntity
  8
0
100
AcDbPolyline
 62
253
  6
CONTINUOUS
 90
20
 70
0
 10
7.8059321087
 20
-1.804604863
 10
7.2838537355
 20
-1.8686625605
 10
6.7570083514
 20
-1.9180227685
 10
6.2266363263
 20
-1.9525692766
 10
5.693986333
 20
-1.9722207509
 10
5.1603124074
 20
-1.976930925
 10
4.6268709964
 20
-1.9666887098
 10
4.094917999
 20
-1.9415182188
 10
3.5657058102
 20
-1.9014787118
 10
3.0404803723
 20
-1.8466644551
 10
2.5204782414
 20
-1.7772044999
 10
2.0069236761
 20
-1.6932623779
 10
1.5010257554
 20
-1.5950357171
 10
1.0039755319
 20
-1.4827557757
 10
0.5169432278
 20
-1.3566868984
 10
0.0410754798
 20
-1.2171258932
 10
-0.4225073604
 20
-1.0644013334
 10
-0.8727138641
 20
-0.8988727836
 10
-1.3084840948
 20
-0.7209299534
 10
-1.7287921039
 20
-0.5309917795
  0
LWPOLYLINE
  5
310
100
AcDbEntity
  8
0
100
AcDbPolyline
 62
253
  6
CONTINUOUS
 90
10
 70
0
 10
7.6726320343
 20
-2.5533192888
 10
7.7001889775
 20
-2.5502705323
 10
7.728106569
 20
-2.549295716
 10
7.7560358779
 20
-2.5504087558
 10
7.7836304391
 20
-2.5536104458
 10
7.8105398622
 20
-2.5588604807
 10
7.83641532
 20
-2.5660755236
 10
7.8609284484
 20
-2.5751683551
 10
7.8837743205
 20
-2.5860510637
 10
7.90466534
 20
-2.5986066791
  0
LWPOLYLINE
  5
311
100
AcDbEntity
  8
0
100
AcDbPolyline
 62
253
  6
CONTINUOUS
 90
9
 70
0
 10
7.6550975124
 20
-2.3505613447
 10
7.6706896397
 20
-2.3489461794
 10
7.6863704856
 20
-2.3477230401
 10
7.7021160263
 20
-2.346893571
 10
7.7179024021
 20
-2.3464590099
 10
7.7337047665
 20
-2.3464201151
 10
7.749498029
 20
-2.3467766975
 10
7.7652575808
 20
-2.3475284564
 10
7.7809587356
 20
-2.3486740046
  0
LWPOLYLINE
  5
312
100
AcDbEntity
  8
0
100
AcDbPolyline
 62
7
  6
CONTINUOUS
 90
25
 70
0
 10
13.359424596
 20
-2.2035275725
 10
13.3679481963
 20
-2.2036614012
 10
13.4624660803
 20
-2.2088584696
 10
13.5562444306
 20
-2.2177366103
 10
13.6488254789
 20
-2.2302664776
 10
13.7397238895
 20
-2.2463737111
 10
13.8284728965
 20
-2.2659174294
 10
13.914645331
 20
-2.2887518108
 10
13.9977592705
 20
-2.314706545
 10
14.0774154693
 20
-2.3436236081
 10
14.1532907768
 20
-2.3753708489
 10
14.2249632821
 20
-2.4097197273
 10
14.2921580321
 20
-2.446427897
 10
14.3546995232
 20
-2.4853093706
 10
14.4121537654
 20
-2.5260146802
 10
14.4642826625
 20
-2.5682965958
 10
14.5110167185
 20
-2.6120755875
 10
14.5519531125
 20
-2.6568793272
 10
14.5870178739
 20
-2.7024165519
 10
14.6163892275
 20
-2.7488457496
 10
14.6396758933
 20
-2.7955538757
 10
14.656848043
 20
-2.8424959986
 10
14.6680619804
 20
-2.8909104549
 10
14.6728907498
 20
-2.941270897
 10
14.6730324137
 20
-2.9524185431
  0
LWPOLYLINE
  5
313
100
AcDbEntity
  8
0
100
AcDbPolyline
 62
7
  6
CONTINUOUS
 90
5
 70
0
 10
4.5644653254
 20
-2.2350701839
 10
4.4526041048
 20
-2.2328063715
 10
3.9483769507
 20
-2.2080700105
 10
3.4472239084
 20
-2.1689215576
 10
2.9503348296
 20
-2.1154644927
  0
LWPOLYLINE
  5
314
100
AcDbEntity
  8
0
100
AcDbPolyline
 62
253
  6
CONTINUOUS
 90
5
 70
0
 10
7.9729284315
 20
-2.3400462024
 10
7.9526458519
 20
-2.3395972533
 10
7.9312076358
 20
-2.3351971207
 10
7.9090233645
 20
-2.3268780942
 10
7.8865027022
 20
-2.314751322
  0
LWPOLYLINE
  5
315
100
AcDbEntity
  8
0
100
AcDbPolyline
 62
7
  6
CONTINUOUS
 90
20
 70
0
 10
13.4503203929
 20
-2.5348864726
 10
13.4695776674
 20
-2.5360081749
 10
13.5640453902
 20
-2.5452773366
 10
13.6573779204
 20
-2.5582290069
 10
13.7490545933
 20
-2.5748053076
 10
13.8385677257
 20
-2.5949334339
 10
13.9254396195
 20
-2.6184698216
 10
14.009221363
 20
-2.6452297642
 10
14.0894821569
 20
-2.675022129
 10
14.165777224
 20
-2.707636483
 10
14.2376996897
 20
-2.7428611509
 10
14.3048551178
 20
-2.7804563591
 10
14.3668640923
 20
-2.8200675115
 10
14.4233503592
 20
-2.8612537848
 10
14.4742427373
 20
-2.9037573683
 10
14.5195335371
 20
-2.9474158254
 10
14.5588058239
 20
-2.9916581594
 10
14.592104041
 20
-3.0362897583
 10
14.6198730176
 20
-3.081712668
 10
14.6359424486
 20
-3.1151332833
  0
LWPOLYLINE
  5
316
100
AcDbEntity
  8
0
100
AcDbPolyline
 62
7
  6
CONTINUOUS
 90
9
 70
0
 10
3.0645512028
 20
-2.1198016805
 10
3.5847189294
 20
-2.174000293
 10
4.108653531
 20
-2.2135618278
 10
4.6351950124
 20
-2.2384077003
 10
5.1631365323
 20
-2.248486382
 10
5.691270832
 20
-2.2437783826
 10
6.2184323016
 20
-2.2242939476
 10
6.7434288584
 20
-2.1900727125
 10
7.2650443257
 20
-2.1411876156
  0
LWPOLYLINE
  5
317
100
AcDbEntity
  8
0
100
AcDbPolyline
 62
253
  6
CONTINUOUS
 90
9
 70
0
 10
3.0404803723
 20
-2.0125546903
 10
3.5657058102
 20
-2.067368947
 10
4.094917999
 20
-2.107408454
 10
4.6268709964
 20
-2.132578945
 10
5.1603124074
 20
-2.1428211602
 10
5.693986333
 20
-2.138110986
 10
6.2266363263
 20
-2.1184595118
 10
6.7570083514
 20
-2.0839130037
 10
7.2838537355
 20
-2.0345527957
  0
LINE
  5
318
100
AcDbEntity
  8
0
100
AcDbLine
 62
7
  6
CONTINUOUS
 10
2.5493425565
 20
-2.0510774333
 11
3.0645512028
 21
-2.1198016805
  0
LWPOLYLINE
  5
319
100
AcDbEntity
  8
0
100
AcDbPolyline
 62
7
  6
CONTINUOUS
 90
7
 70
0
 10
2.9503348296
 20
-2.1154644927
 10
2.4768412578
 20
-2.0505292335
 10
2.0094386861
 20
-1.972543385
 10
1.5491567946
 20
-1.8816860499
 10
1.0970091408
 20
-1.7781691249
 10
0.6539922316
 20
-1.662221537
 10
0.3519208228
 20
-1.5728142392
  0
LWPOLYLINE
  5
31A
100
AcDbEntity
  8
0
100
AcDbPolyline
 62
7
  6
CONTINUOUS
 90
18
 70
0
 10
12.862966004
 20
-5.7007540097
 10
12.8874781248
 20
-5.7049263484
 10
12.9964397962
 20
-5.7187248942
 10
13.1071774432
 20
-5.7280461691
 10
13.2192612809
 20
-5.73285901
 10
13.3322462929
 20
-5.7331444914
 10
13.4456284172
 20
-5.728872651
 10
13.5588683595
 20
-5.7200110418
 10
13.6714791383
 20
-5.7065187416
 10
13.7829765749
 20
-5.6883811789
 10
13.8928447207
 20
-5.6656665116
 10
14.0006499433
 20
-5.6384297699
 10
14.1058797538
 20
-5.6067322773
 10
14.2079251008
 20
-5.5706650981
 10
14.3063672219
 20
-5.530252674
 10
14.4007093484
 20
-5.4856111777
 10
14.4903298822
 20
-5.4370113427
 10
14.554777972
 20
-5.3970635316
  0
LWPOLYLINE
  5
31B
100
AcDbEntity
  8
0
100
AcDbPolyline
 62
253
  6
CONTINUOUS
 90
18
 70
0
 10
12.8393524143
 20
-5.6146711175
 10
12.8407211536
 20
-5.6149181691
 10
12.9535540565
 20
-5.630368134
 10
13.0684291633
 20
-5.6412323986
 10
13.1847890112
 20
-5.6474537156
 10
13.3021006161
 20
-5.6490204647
 10
13.4197643272
 20
-5.6459194101
 10
13.5371037989
 20
-5.6381491177
 10
13.6533852162
 20
-5.6257333585
 10
13.7682251356
 20
-5.6086826869
 10
13.8814827427
 20
-5.5870167705
 10
13.9928930548
 20
-5.5607464177
 10
14.101608558
 20
-5.5300066401
 10
14.2066341577
 20
-5.4950396024
 10
14.3072875522
 20
-5.4560540006
 10
14.4032649118
 20
-5.4131618748
 10
14.494238953
 20
-5.366560467
 10
14.5142513556
 20
-5.3548496071
  0
LWPOLYLINE
  5
31C
100
AcDbEntity
  8
0
100
AcDbPolyline
 62
253
  6
CONTINUOUS
 90
16
 70
0
 10
12.7450596323
 20
-5.2709285728
 10
12.8295480024
 20
-5.2865016414
 10
12.9405994078
 20
-5.3021967759
 10
13.0537901056
 20
-5.3135087003
 10
13.1688074318
 20
-5.3203315605
 10
13.2849353967
 20
-5.3225419761
 10
13.4017999234
 20
-5.3201152684
 10
13.5190094042
 20
-5.3130290307
 10
13.6358372332
 20
-5.3012744381
 10
13.7513988449
 20
-5.2848935352
 10
13.8650615182
 20
-5.2639293557
 10
13.9763445414
 20
-5.2384301253
 10
14.0846415986
 20
-5.2085638239
 10
14.189413426
 20
-5.1745127634
 10
14.2902255353
 20
-5.1364277826
 10
14.3003345621
 20
-5.1320264813
  0
LWPOLYLINE
  5
31D
100
AcDbEntity
  8
0
100
AcDbPolyline
 62
7
  6
CONTINUOUS
 90
16
 70
0
 10
12.768780297
 20
-5.357401805
 10
12.8515838517
 20
-5.3727246554
 10
12.9614419011
 20
-5.3881629327
 10
13.0729459099
 20
-5.3990564374
 10
13.1856594532
 20
-5.405348537
 10
13.2991113213
 20
-5.4069862518
 10
13.4128181954
 20
-5.4039932188
 10
13.52632114
 20
-5.396405337
 10
13.6391237682
 20
-5.3842493374
 10
13.7507542523
 20
-5.3675400047
 10
13.8607922835
 20
-5.3462691589
 10
13.9687601193
 20
-5.3204667633
 10
14.0742236641
 20
-5.2902253866
 10
14.1768345783
 20
-5.2556022186
 10
14.2761295943
 20
-5.2166672415
 10
14.3496671668
 20
-5.1834130275
  0
LWPOLYLINE
  5
31E
100
AcDbEntity
  8
0
100
AcDbPolyline
 62
253
  6
CONTINUOUS
 90
14
 70
0
 10
12.6497433518
 20
-4.9234548835
 10
12.6991505838
 20
-4.9352812658
 10
12.8088044683
 20
-4.9564630831
 10
12.9208826907
 20
-4.9731921601
 10
13.034493652
 20
-4.9853477871
 10
13.1494432172
 20
-4.9929081343
 10
13.2659453375
 20
-4.9958747486
 10
13.3839224257
 20
-4.9941785752
 10
13.5023373594
 20
-4.987745479
 10
13.6199627001
 20
-4.9765967826
 10
13.7360088072
 20
-4.9607913895
 10
13.8501372214
 20
-4.9403570236
 10
13.9618379234
 20
-4.9154195274
 10
14.0655651245
 20
-4.8874825205
  0
LWPOLYLINE
  5
31F
100
AcDbEntity
  8
0
100
AcDbPolyline
 62
7
  6
CONTINUOUS
 90
15
 70
0
 10
12.673448389
 20
-5.0098711461
 10
12.7046329341
 20
-5.0176653132
 10
12.8098810879
 20
-5.0389986213
 10
12.917451681
 20
-5.0559918712
 10
13.0269004161
 20
-5.0685719679
 10
13.1377855934
 20
-5.07665889
 10
13.2497059319
 20
-5.080225101
 10
13.3621890568
 20
-5.0792837131
 10
13.4747634502
 20
-5.0738406016
 10
13.5870080199
 20
-5.0638865665
 10
13.6984467335
 20
-5.0494023056
 10
13.8086021633
 20
-5.0303690383
 10
13.9170765316
 20
-5.0068227279
 10
14.0234344993
 20
-4.9788284923
 10
14.1233338135
 20
-4.9476563837
  0
LWPOLYLINE
  5
320
100
AcDbEntity
  8
0
100
AcDbPolyline
 62
253
  6
CONTINUOUS
 90
10
 70
0
 10
18.5545308672
 20
-12.5013938515
 10
18.5513021414
 20
-12.499842693
 10
18.5484776257
 20
-12.4961465554
 10
18.5459638252
 20
-12.4903303382
 10
18.5437882817
 20
-12.4824577648
 10
18.541974831
 20
-12.472615089
 10
18.5405433415
 20
-12.4609101491
 10
18.539509497
 20
-12.4474711869
 10
18.5388846244
 20
-12.4324454424
 10
18.5386755701
 20
-12.4159975409
  0
LWPOLYLINE
  5
321
100
AcDbEntity
  8
0
100
AcDbPolyline
 62
253
  6
CONTINUOUS
 90
22
 70
0
 10
-2.5367817507
 20
-0.9193093094
 10
-2.1545374339
 20
-1.129489105
 10
-1.7552458885
 20
-1.3284990457
 10
-1.3398268442
 20
-1.5158790418
 10
-0.9092369055
 20
-1.6911916461
 10
-0.4644683264
 20
-1.8540331222
 10
-0.0065468303
 20
-2.0040344778
 10
0.46347246
 20
-2.1408432208
 10
0.9445065404
 20
-2.2641410325
 10
1.4354458935
 20
-2.3736547358
 10
1.9351589674
 20
-2.469123075
 10
2.442494334
 20
-2.5503208079
 10
2.9562822481
 20
-2.6170763062
 10
3.4753383745
 20
-2.6692249798
 10
3.9984666519
 20
-2.7066392506
 10
4.5244615108
 20
-2.7292524666
 10
5.0521105441
 20
-2.7370000726
 10
5.5801977089
 20
-2.7298547385
 10
6.1075062408
 20
-2.7078560301
 10
6.6328208707
 20
-2.6710539055
 10
7.1549306267
 20
-2.6195086663
 10
7.6726320343
 20
-2.5533257383
  0
LWPOLYLINE
  5
322
100
AcDbEntity
  8
0
100
AcDbPolyline
 62
253
  6
CONTINUOUS
 90
21
 70
0
 10
-2.4377763918
 20
-0.7399485366
 10
-2.0604587113
 20
-0.9474218977
 10
-1.6663197967
 20
-1.143861373
 10
-1.2562684967
 20
-1.3288139332
 10
-0.8312491535
 20
-1.5018539215
 10
-0.3922411362
 20
-1.6625826041
 10
0.0597459696
 20
-1.8106304068
 10
0.5236709519
 20
-1.9456561659
 10
0.9984649135
 20
-2.0673487038
 10
1.4830353166
 20
-2.175427866
 10
1.976265832
 20
-2.269644485
 10
2.4770202924
 20
-2.3497813592
 10
2.9841467098
 20
-2.4156538902
 10
3.4964769302
 20
-2.4671100336
 10
4.0128307118
 20
-2.50403094
 10
4.5320200457
 20
-2.5263312952
 10
5.0528492669
 20
-2.533959281
 10
5.5741181167
 20
-2.5268968789
 10
6.0946264943
 20
-2.5051598275
 10
6.613174615
 20
-2.468797801
 10
7.128569169
 20
-2.4178938157
  0
LINE
  5
323
100
AcDbEntity
  8
0
100
AcDbLine
 62
253
  6
CONTINUOUS
 10
-2.5367817507
 20
-0.9193093624
 11
-11.7291657945
 21
4.3882579769
  0
LINE
  5
324
100
AcDbEntity
  8
0
100
AcDbLine
 62
253
  6
CONTINUOUS
 10
-11.6301643259
 20
4.5676212669
 11
-2.4377761706
 21
-0.7399484463
  0
LWPOLYLINE
  5
325
100
AcDbEntity
  8
0
100
AcDbPolyline
 62
7
  6
CONTINUOUS
 90
19
 70
0
 10
-11.6597195087
 20
4.9102999623
 10
-11.9983058257
 20
5.1146840081
 10
-12.3211348172
 20
5.3277413089
 10
-12.62760256
 20
5.5490940165
 10
-12.9172166394
 20
5.7784228599
 10
-13.1893240682
 20
6.015254184
 10
-13.4431746317
 20
6.2589443636
 10
-13.6783559742
 20
6.5090848185
 10
-13.8944160314
 20
6.7651871925
 10
-14.0907210232
 20
7.0264354767
 10
-14.2669684714
 20
7.2922930096
 10
-14.4229408554
 20
7.5622885819
 10
-14.5583075602
 20
7.8356485847
 10
-14.6728893956
 20
8.1116888139
 10
-14.7666673288
 20
8.3899854964
 10
-14.8396210858
 20
8.670113879
 10
-14.8917126823
 20
8.9515368312
 10
-14.9229285148
 20
9.233615613
 10
-14.9333155709
 20
9.5157547041
  0
LWPOLYLINE
  5
326
100
AcDbEntity
  8
0
100
AcDbPolyline
 62
253
  6
CONTINUOUS
 90
9
 70
0
 10
-2.4673313533
 20
-0.397269751
 10
-2.477247027
 20
-0.3905542501
 10
-2.4880116174
 20
-0.3804977978
 10
-2.4973101718
 20
-0.3684314606
 10
-2.5050491192
 20
-0.3544766617
 10
-2.511150583
 20
-0.3387738277
 10
-2.5155531642
 20
-0.3214809756
 10
-2.5182125598
 20
-0.3027721228
 10
-2.5191020085
 20
-0.2828355357
  0
LWPOLYLINE
  5
327
100
AcDbEntity
  8
0
100
AcDbPolyline
 62
253
  6
CONTINUOUS
 90
4
 70
0
 10
7.8596672234
 20
-11.7705963773
 10
7.8890434428
 20
-11.7993432802
 10
7.9165633726
 20
-11.8301148801
 10
7.9422270126
 20
-11.862911177
  0
LWPOLYLINE
  5
328
100
AcDbEntity
  8
0
100
AcDbPolyline
 62
7
  6
CONTINUOUS
 90
4
 70
0
 10
7.8728832439
 20
-11.8278155918
 10
7.8937896282
 20
-11.8492444939
 10
7.9144820011
 20
-11.8735431362
 10
7.9342820284
 20
-11.9001283328
  0
LWPOLYLINE
  5
329
100
AcDbEntity
  8
0
100
AcDbPolyline
 62
7
  6
CONTINUOUS
 90
7
 70
0
 10
-4.7889330405
 20
-3.689468495
 10
-4.8233995234
 20
-3.7247664852
 10
-4.8531162771
 20
-3.7666736379
 10
-4.8781830326
 20
-3.814939794
 10
-4.8978102437
 20
-3.8681729316
 10
-4.9117347283
 20
-3.9259090436
 10
-4.9202196687
 20
-3.988612137
  0
LWPOLYLINE
  5
32A
100
AcDbEntity
  8
0
100
AcDbPolyline
 62
7
  6
CONTINUOUS
 90
3
 70
0
 10
-6.4597004929
 20
-3.8301770349
 10
-6.4117010472
 20
-3.7865922184
 10
-6.3695600523
 20
-3.7355802884
  0
LINE
  5
32B
100
AcDbEntity
  8
0
100
AcDbLine
 62
7
  6
CONTINUOUS
 10
-4.7473795026
 20
-3.6590301029
 11
-4.7889330405
 21
-3.689468495
  0
LINE
  5
32C
100
AcDbEntity
  8
0
100
AcDbLine
 62
7
  6
CONTINUOUS
 10
-6.5157034213
 20
-3.8673115456
 11
-6.4597004929
 21
-3.8301770349
  0
LWPOLYLINE
  5
32D
100
AcDbEntity
  8
0
100
AcDbPolyline
 62
253
  6
CONTINUOUS
 90
3
 70
0
 10
-6.582706983
 20
-3.7414200959
 10
-6.5478482872
 20
-3.7183986041
 10
-6.5155013358
 20
-3.6913933102
  0
LINE
  5
32E
100
AcDbEntity
  8
0
100
AcDbLine
 62
253
  6
CONTINUOUS
 10
-6.4901854507
 20
-3.7342044909
 11
-6.5275655023
 21
-3.7587959783
  0
LINE
  5
32F
100
AcDbEntity
  8
0
100
AcDbLine
 62
253
  6
CONTINUOUS
 10
-2.4377761706
 20
-0.7399484463
 11
-2.1667620951
 21
-0.5625851946
  0
LWPOLYLINE
  5
330
100
AcDbEntity
  8
0
100
AcDbPolyline
 62
7
  6
CONTINUOUS
 90
11
 70
0
 10
-6.479238965
 20
-3.7308921716
 10
-6.4443989531
 20
-3.7081827344
 10
-6.4106130655
 20
-3.680448065
 10
-6.3796215194
 20
-3.6487116467
 10
-6.3513866493
 20
-3.6128625659
 10
-6.3259461205
 20
-3.5730117364
 10
-6.3037328806
 20
-3.5297003362
 10
-6.2848171246
 20
-3.4828771667
 10
-6.2691286575
 20
-3.4325934265
 10
-6.2568898414
 20
-3.3795438907
 10
-6.251200955
 20
-3.3432607048
  0
LINE
  5
331
100
AcDbEntity
  8
0
100
AcDbLine
 62
7
  6
CONTINUOUS
 10
-6.5275655023
 20
-3.7587959783
 11
-6.4792386751
 21
-3.730892674
  0
LINE
  5
332
100
AcDbEntity
  8
0
100
AcDbLine
 62
7
  6
CONTINUOUS
 10
-6.4542374671
 20
-3.7741932467
 11
-6.3597562159
 21
-3.7196409564
  0
LWPOLYLINE
  5
333
100
AcDbEntity
  8
0
100
AcDbPolyline
 62
253
  6
CONTINUOUS
 90
36
 70
0
 10
-7.6401464454
 20
-1.7479851264
 10
-7.5992024136
 20
-1.7326393227
 10
-7.5561431911
 20
-1.7216816011
 10
-7.5111521784
 20
-1.7151586332
 10
-7.4644210043
 20
-1.7130982022
 10
-7.4161487095
 20
-1.715509084
 10
-7.3665408984
 20
-1.7223810101
 10
-7.315808864
 20
-1.7336847109
 10
-7.2641686875
 20
-1.7493720412
 10
-7.2118403183
 20
-1.7693761843
 10
-7.1590466368
 20
-1.7936119373
 10
-7.1060125054
 20
-1.8219760736
 10
-7.0529638106
 20
-1.8543477828
 10
-7.0001265011
 20
-1.8905891852
 10
-6.9477256249
 20
-1.9305459188
 10
-6.8959843714
 20
-1.9740477975
 10
-6.8451231205
 20
-2.0209095349
 10
-6.7953585037
 20
-2.0709315346
 10
-6.7469024818
 20
-2.1239007394
 10
-6.699961442
 20
-2.1795915394
 10
-6.6547353187
 20
-2.2377667325
 10
-6.611416742
 20
-2.2981785352
 10
-6.5701902173
 20
-2.3605696373
 10
-6.5312313394
 20
-2.4246742987
 10
-6.4947060445
 20
-2.4902194803
 10
-6.4607699036
 20
-2.5569260078
 10
-6.4295674598
 20
-2.6245097603
 10
-6.4012316126
 20
-2.6926828805
 10
-6.3758830519
 20
-2.7611550009
 10
-6.3536297442
 20
-2.8296344805
 10
-6.334566472
 20
-2.8978296469
 10
-6.318774431
 20
-2.9654500387
 10
-6.3063208838
 20
-3.0322076426
 10
-6.2972588732
 20
-3.0978181201
 10
-6.2916269968
 20
-3.1620020187
 10
-6.2894492423
 20
-3.2244859621
  0
LWPOLYLINE
  5
334
100
AcDbEntity
  8
0
100
AcDbPolyline
 62
7
  6
CONTINUOUS
 90
3
 70
0
 10
-9.6051073535
 20
-1.9370338433
 10
-9.5588086928
 20
-1.9222571463
 10
-9.5293520579
 20
-1.9080759213
  0
LWPOLYLINE
  5
335
100
AcDbEntity
  8
0
100
AcDbPolyline
 62
7
  6
CONTINUOUS
 90
3
 70
0
 10
-7.5699368924
 20
-1.6409840883
 10
-7.6348705581
 20
-1.6506246794
 10
-7.6965590656
 20
-1.6688555219
  0
LINE
  5
336
100
AcDbEntity
  8
0
100
AcDbLine
 62
253
  6
CONTINUOUS
 10
2.5204782414
 20
-1.943094735
 11
3.0404803723
 21
-2.0125546903
  0
LINE
  5
337
100
AcDbEntity
  8
0
100
AcDbLine
 62
253
  6
CONTINUOUS
 10
13.8038124962
 20
-2.832512976
 11
13.7410428661
 21
-2.8186616289
  0
LWPOLYLINE
  5
338
100
AcDbEntity
  8
0
100
AcDbPolyline
 62
7
  6
CONTINUOUS
 90
13
 70
0
 10
12.576994601
 20
-4.6582506953
 10
12.6723571537
 20
-4.6836002497
 10
12.777221969
 20
-4.7063378885
 10
12.8847138865
 20
-4.7247144676
 10
12.9943745695
 20
-4.7386802754
 10
13.105739449
 20
-4.7481731039
 10
13.2183655513
 20
-4.7531209945
 10
13.3317986493
 20
-4.7534432402
 10
13.4455547246
 20
-4.7491180801
 10
13.5591329695
 20
-4.7401706986
 10
13.6720473616
 20
-4.7266184519
 10
13.7838055563
 20
-4.70846916
 10
13.8755163553
 20
-4.6895211537
  0
LWPOLYLINE
  5
339
100
AcDbEntity
  8
0
100
AcDbPolyline
 62
253
  6
CONTINUOUS
 90
13
 70
0
 10
12.5533337095
 20
-4.5719953651
 10
12.5792930609
 20
-4.5796728044
 10
12.6840085893
 20
-4.6054281305
 10
12.7921611435
 20
-4.6269910156
 10
12.9033682244
 20
-4.6442732873
 10
13.0169768334
 20
-4.6571393555
 10
13.1322874802
 20
-4.6654724203
 10
13.2487368574
 20
-4.669183765
 10
13.3658065821
 20
-4.6682034715
 10
13.4828452237
 20
-4.6625508158
 10
13.5992517848
 20
-4.6522823543
 10
13.7145219241
 20
-4.6374480315
 10
13.8099220886
 20
-4.6211958983
  0
LWPOLYLINE
  5
33A
100
AcDbEntity
  8
0
100
AcDbPolyline
 62
253
  6
CONTINUOUS
 90
11
 70
0
 10
12.4892394221
 20
-4.2261421146
 10
12.5638856376
 20
-4.2488010653
 10
12.6691200318
 20
-4.2754652836
 10
12.7774680503
 20
-4.2978020555
 10
12.8885839451
 20
-4.3157091209
 10
13.0023180216
 20
-4.3291612007
 10
13.1184235083
 20
-4.3380899311
 10
13.2360574501
 20
-4.3423687921
 10
13.3541614365
 20
-4.3419222506
 10
13.4719690313
 20
-4.3367348691
 10
13.5461326066
 20
-4.3304548265
  0
LWPOLYLINE
  5
33B
100
AcDbEntity
  8
0
100
AcDbPolyline
 62
253
  6
CONTINUOUS
 90
10
 70
0
 10
12.4892394221
 20
-3.8994712244
 10
12.5481243355
 20
-3.9177792099
 10
12.6526591656
 20
-3.9449991395
 10
12.7608978438
 20
-3.968064694
 10
12.8720463519
 20
-3.9867582238
 10
12.9855213328
 20
-4.000934623
 10
13.1008628552
 20
-4.0104965885
 10
13.2174032318
 20
-4.0154149976
 10
13.3345190488
 20
-4.0156922839
 10
13.4406639571
 20
-4.0117439957
  0
LWPOLYLINE
  5
33C
100
AcDbEntity
  8
0
100
AcDbPolyline
 62
7
  6
CONTINUOUS
 90
11
 70
0
 10
12.4892394221
 20
-4.3039545543
 10
12.5651924587
 20
-4.3283262229
 10
12.6674038447
 20
-4.3557773374
 10
12.7726433107
 20
-4.3788871812
 10
12.8804091404
 20
-4.3975328979
 10
12.9901899232
 20
-4.4116639232
 10
13.1015490756
 20
-4.4212837849
 10
13.2140498096
 20
-4.426378226
 10
13.327209125
 20
-4.4269164898
 10
13.4405540005
 20
-4.422858432
 10
13.5536583196
 20
-4.4141656835
  0
LWPOLYLINE
  5
33D
100
AcDbEntity
  8
0
100
AcDbPolyline
 62
7
  6
CONTINUOUS
 90
11
 70
0
 10
12.4892394221
 20
-3.977284778
 10
12.5556107381
 20
-3.9989190435
 10
12.6583025303
 20
-4.0269232963
 10
12.7641017464
 20
-4.0505552355
 10
12.8724591622
 20
-4.0697174367
 10
12.9828780974
 20
-4.0843219384
 10
13.094934759
 20
-4.0942976364
 10
13.2081305698
 20
-4.0996404873
 10
13.3219694787
 20
-4.1003656717
 10
13.4359595929
 20
-4.0964783042
 10
13.4633454831
 20
-4.0944290677
  0
LWPOLYLINE
  5
33E
100
AcDbEntity
  8
0
100
AcDbPolyline
 62
253
  6
CONTINUOUS
 90
9
 70
0
 10
12.4892394221
 20
-6.3331528619
 10
12.5108069924
 20
-6.3421313159
 10
12.5498889162
 20
-6.3640341255
 10
12.5844105669
 20
-6.3889977249
 10
12.6141504876
 20
-6.4171211977
 10
12.638671154
 20
-6.4483268991
 10
12.6574478197
 20
-6.4814583823
 10
12.6703932037
 20
-6.5161165171
 10
12.6727715591
 20
-6.5252400138
  0
LWPOLYLINE
  5
33F
100
AcDbEntity
  8
0
100
AcDbPolyline
 62
7
  6
CONTINUOUS
 90
11
 70
0
 10
-2.0802733177
 20
-0.6101546988
 10
-1.6763773246
 20
-0.8116328348
 10
-1.2565946891
 20
-1.0012864414
 10
-0.8218965074
 20
-1.1787269965
 10
-0.3732986264
 20
-1.343584243
 10
0.0881259081
 20
-1.4955054748
 10
0.5612834294
 20
-1.6341708595
 10
1.0450997877
 20
-1.7593019023
 10
1.5384794834
 20
-1.8706457691
 10
2.0402759697
 20
-1.9679704356
 10
2.5493425565
 20
-2.0510774333
  0
LWPOLYLINE
  5
340
100
AcDbEntity
  8
0
100
AcDbPolyline
 62
253
  6
CONTINUOUS
 90
11
 70
0
 10
-2.132648346
 20
-0.495395675
 10
-1.7287921039
 20
-0.6968820147
 10
-1.3084840948
 20
-0.8868201886
 10
-0.8727138641
 20
-1.0647630188
 10
-0.4225073604
 20
-1.2302915686
 10
0.0410754798
 20
-1.3830161283
 10
0.5169432278
 20
-1.5225771335
 10
1.0039755319
 20
-1.6486460109
 10
1.5010257554
 20
-1.7609259523
 10
2.0069236761
 20
-1.8591526131
 10
2.5204782414
 20
-1.943094735
  0
LWPOLYLINE
  5
341
100
AcDbEntity
  8
0
100
AcDbPolyline
 62
253
  6
CONTINUOUS
 90
3
 70
0
 10
-1.7287921039
 20
-0.5309917795
 10
-2.132648346
 20
-0.3295054398
 10
-2.5191020085
 20
-0.1169453006
  0
LINE
  5
342
100
AcDbEntity
  8
0
100
AcDbLine
 62
7
  6
CONTINUOUS
 10
-2.4673313533
 20
-0.397269751
 11
-2.0802733177
 21
-0.6101546988
  0
LINE
  5
343
100
AcDbEntity
  8
0
100
AcDbLine
 62
253
  6
CONTINUOUS
 10
-2.5191020085
 20
-0.2828355357
 11
-2.132648346
 21
-0.495395675
  0
LINE
  5
344
100
AcDbEntity
  8
0
100
AcDbLine
 62
7
  6
CONTINUOUS
 10
-11.6597195087
 20
4.9102999623
 11
-2.4673313533
 21
-0.397269751
  0
LINE
  5
345
100
AcDbEntity
  8
0
100
AcDbLine
 62
253
  6
CONTINUOUS
 10
-11.711490164
 20
5.0247341775
 11
-2.5191020085
 21
-0.2828355357
  0
LINE
  5
346
100
AcDbEntity
  8
0
100
AcDbLine
 62
253
  6
CONTINUOUS
 10
-2.5191020085
 20
-0.1169453006
 11
-11.711490164
 21
5.1906244127
  0
LWPOLYLINE
  5
347
100
AcDbEntity
  8
0
100
AcDbPolyline
 62
253
  6
CONTINUOUS
 90
16
 70
0
 10
-11.711490164
 20
5.1906244127
 10
-12.079631406
 20
5.4137579141
 10
-12.4285935002
 20
5.6469394467
 10
-12.7575548732
 20
5.8896200235
 10
-13.06574104
 20
6.1412282932
 10
-13.3524264276
 20
6.4011718861
 10
-13.6169360827
 20
6.6688388079
 10
-13.8586472613
 20
6.9435988816
 10
-14.0769908946
 20
7.22480523
 10
-14.2714529288
 20
7.5117957996
 10
-14.4415755352
 20
7.8038949186
 10
-14.5869581885
 20
8.1004148883
 10
-14.7072586094
 20
8.4006576015
 10
-14.8021935704
 20
8.7039161867
 10
-14.871539563
 20
9.0094766719
 10
-14.9151333235
 20
9.3166196657
  0
LWPOLYLINE
  5
348
100
AcDbEntity
  8
0
100
AcDbPolyline
 62
253
  6
CONTINUOUS
 90
5
 70
0
 10
7.9422270126
 20
-11.862911177
 10
7.966281351
 20
-11.8981517348
 10
7.9884793996
 20
-11.9354169896
 10
8.0080801944
 20
-11.9734482498
 10
8.024999729
 20
-12.0122727663
  0
LWPOLYLINE
  5
349
100
AcDbEntity
  8
0
100
AcDbPolyline
 62
7
  6
CONTINUOUS
 90
10
 70
0
 10
7.9342820284
 20
-11.9001283328
 10
7.952766503
 20
-11.9285576696
 10
7.9695636049
 20
-11.9583444378
 10
7.9842367467
 20
-11.9887005697
 10
7.9965807962
 20
-12.0190659651
 10
8.006445532
 20
-12.0488346935
 10
8.013696212
 20
-12.0770927183
 10
8.0184481213
 20
-12.1033873281
 10
8.0208708348
 20
-12.1271748916
 10
8.0213261346
 20
-12.1420032803
  0
LWPOLYLINE
  5
34A
100
AcDbEntity
  8
0
100
AcDbPolyline
 62
7
  6
CONTINUOUS
 90
17
 70
0
 10
1.1596210206
 20
11.8239869579
 10
1.1666573916
 20
11.7370627603
 10
1.1874984915
 20
11.6453240535
 10
1.2213504892
 20
11.5522651363
 10
1.2678343137
 20
11.4598501615
 10
1.3235535037
 20
11.3748316692
 10
1.3871012983
 20
11.2987959375
 10
1.4560571819
 20
11.2346391438
 10
1.5290843137
 20
11.1840577633
 10
1.6008467768
 20
11.1507476562
 10
1.6698758299
 20
11.1349556
 10
1.7335421779
 20
11.1372831093
 10
1.7903343137
 20
11.1581652099
 10
1.8361025723
 20
11.1960760969
 10
1.8701766008
 20
11.2497784886
 10
1.8912585301
 20
11.3172268776
 10
1.8985476069
 20
11.3973400452
  0
LWPOLYLINE
  5
34B
100
AcDbEntity
  8
0
100
AcDbPolyline
 62
253
  6
CONTINUOUS
 90
13
 70
0
 10
1.1755309232
 20
12.6730191612
 10
1.1768801094
 20
12.6989684762
 10
1.1809070737
 20
12.7260796996
 10
1.1875503473
 20
12.7539389974
 10
1.1967085253
 20
12.782121117
 10
1.2082418145
 20
12.8101958782
 10
1.2219741673
 20
12.8377347392
 10
1.237695969
 20
12.8643173388
 10
1.2551672373
 20
12.889537912
 10
1.2741212854
 20
12.9130114846
 10
1.2942687932
 20
12.9343797488
 10
1.315302223
 20
12.9533165332
 10
1.3369005143
 20
12.9695327809
  0
LWPOLYLINE
  5
34C
100
AcDbEntity
  8
0
100
AcDbPolyline
 62
253
  6
CONTINUOUS
 90
7
 70
0
 10
1.1755309232
 20
-16.5531419504
 10
1.1763789263
 20
-16.5371966679
 10
1.1789093761
 20
-16.5205270994
 10
1.1830818103
 20
-16.5033997927
 10
1.1888295114
 20
-16.4860886155
 10
1.1960605731
 20
-16.468870375
 10
1.1990336581
 20
-16.4630443936
  0
LINE
  5
34D
100
AcDbEntity
  8
0
100
AcDbLine
 62
7
  6
CONTINUOUS
 10
7.9296013903
 20
12.8367366801
 11
7.9434158218
 21
12.8663386431
  0
LWPOLYLINE
  5
34E
100
AcDbEntity
  8
0
100
AcDbPolyline
 62
7
  6
CONTINUOUS
 90
8
 70
0
 10
-3.8201602216
 20
-5.1375764675
 10
-3.7856937387
 20
-5.1022784773
 10
-3.755976985
 20
-5.0603713246
 10
-3.7309102295
 20
-5.0121051685
 10
-3.7112830184
 20
-4.9588720308
 10
-3.6973585337
 20
-4.9011359189
 10
-3.6888735934
 20
-4.8384328254
 10
-3.6858281975
 20
-4.7707627504
  0
LINE
  5
34F
100
AcDbEntity
  8
0
100
AcDbLine
 62
7
  6
CONTINUOUS
 10
-4.7329334949
 20
-3.6793751063
 11
-4.6312346145
 21
-3.6191970944
  0
LINE
  5
350
100
AcDbEntity
  8
0
100
AcDbLine
 62
7
  6
CONTINUOUS
 10
11.834101675
 20
6.158065747
 11
13.4868660846
 21
7.1123512031
  0
LINE
  5
351
100
AcDbEntity
  8
0
100
AcDbLine
 62
7
  6
CONTINUOUS
 10
14.0802296798
 20
5.7258891791
 11
12.2153748616
 21
4.6491453792
  0
LWPOLYLINE
  5
352
100
AcDbEntity
  8
0
100
AcDbPolyline
 62
253
  6
CONTINUOUS
 90
10
 70
0
 10
11.9149814997
 20
5.5407121263
 10
11.9452789136
 20
5.5581468695
 10
11.9715489905
 20
5.5747026686
 10
11.9940461699
 20
5.5899848491
 10
12.0131472797
 20
5.6032565242
 10
12.0290941479
 20
5.6147667765
 10
12.0420121509
 20
5.6253932275
 10
12.0523530147
 20
5.6346477952
 10
12.0603890354
 20
5.6423384115
 10
12.0660732849
 20
5.6493380563
  0
LWPOLYLINE
  5
353
100
AcDbEntity
  8
0
100
AcDbPolyline
 62
7
  6
CONTINUOUS
 90
35
 70
0
 10
-4.7329334949
 20
-3.6793751063
 10
-4.707473473
 20
-3.6660037332
 10
-4.6753363456
 20
-3.6534223655
 10
-4.641396432
 20
-3.6445462448
 10
-4.6058190841
 20
-3.6394186145
 10
-4.5687776311
 20
-3.638064456
 10
-4.5304525352
 20
-3.6404903666
 10
-4.4910305125
 20
-3.6466845275
 10
-4.4507036231
 20
-3.6566167614
 10
-4.4096683355
 20
-3.6702386795
 10
-4.3681245695
 20
-3.6874839171
 10
-4.3262747223
 20
-3.7082684571
 10
-4.2843226819
 20
-3.7324910394
 10
-4.2424728347
 20
-3.760033654
 10
-4.2009290687
 20
-3.790762116
 10
-4.1598937811
 20
-3.8245267195
 10
-4.1195668917
 20
-3.8611629666
 10
-4.080144869
 20
-3.9004923694
 10
-4.0418197731
 20
-3.9423233189
 10
-4.0047783201
 20
-3.9864520188
 10
-3.9692009722
 20
-4.0326634787
 10
-3.9352610586
 20
-4.0807325609
 10
-3.9031239312
 20
-4.1304250777
 10
-3.8729461589
 20
-4.1814989322
 10
-3.8448747648
 20
-4.2337052976
 10
-3.8190465097
 20
-4.2867898299
 10
-3.7955872265
 20
-4.3404939064
 10
-3.7746112063
 20
-4.3945558863
 10
-3.7562206423
 20
-4.4487123852
 10
-3.7405051314
 20
-4.5026995579
 10
-3.727541238
 20
-4.5562543845
 10
-3.7173921209
 20
-4.6091159511
 10
-3.7101072255
 20
-4.6610267215
 10
-3.7057220432
 20
-4.7117337917
 10
-3.7042579381
 20
-4.760990122
  0
LWPOLYLINE
  5
354
100
AcDbEntity
  8
0
100
AcDbPolyline
 62
253
  6
CONTINUOUS
 90
5
 70
0
 10
13.0825036073
 20
4.5553018967
 10
13.068733465
 20
4.5482709022
 10
13.053636
 20
4.5422855678
 10
13.0374504022
 20
4.5374232264
 10
13.0260160257
 20
4.5349490588
  0
LWPOLYLINE
  5
355
100
AcDbEntity
  8
0
100
AcDbPolyline
 62
253
  6
CONTINUOUS
 90
13
 70
0
 10
14.0393094746
 20
4.9267284745
 10
14.0255392992
 20
4.919697465
 10
14.0104418018
 20
4.9137121228
 10
13.9942561751
 20
4.9088497798
 10
13.9773160224
 20
4.9051842821
 10
13.9598022751
 20
4.9027299277
 10
13.9417146354
 20
4.9014997665
 10
13.9232005558
 20
4.9015558789
 10
13.9046521401
 20
4.9029494098
 10
13.886438128
 20
4.9056858493
 10
13.8688787444
 20
4.9097401949
 10
13.8522448178
 20
4.9150741348
 10
13.836825316
 20
4.9216239944
  0
LWPOLYLINE
  5
356
100
AcDbEntity
  8
0
100
AcDbPolyline
 62
7
  6
CONTINUOUS
 90
7
 70
0
 10
-6.5275655023
 20
-3.7587959783
 10
-6.5669097448
 20
-3.7788166362
 10
-6.6086305725
 20
-3.7947733556
 10
-6.6525619799
 20
-3.8065252393
 10
-6.6985550572
 20
-3.8139564549
 10
-6.7464050958
 20
-3.8169626478
 10
-6.7958561407
 20
-3.8154735245
  0
LINE
  5
357
100
AcDbEntity
  8
0
100
AcDbLine
 62
7
  6
CONTINUOUS
 10
-6.4542383339
 20
-3.774191744
 11
-6.4943467511
 21
-3.7943758548
  0
LWPOLYLINE
  5
358
100
AcDbEntity
  8
0
100
AcDbPolyline
 62
253
  6
CONTINUOUS
 90
13
 70
0
 10
13.8279846667
 20
5.0487211937
 10
13.8565518713
 20
5.0627577965
 10
13.8836621517
 20
5.0721773866
 10
13.909315508
 20
5.0769799638
 10
13.9338638426
 20
5.077076874
 10
13.956955253
 20
5.0725567715
 10
13.9775340319
 20
5.0636856193
 10
13.9955008898
 20
5.0502887423
 10
14.0109551161
 20
5.0325408156
 10
14.0231388716
 20
5.0112318274
 10
14.0317995434
 20
4.9866251069
 10
14.0371897444
 20
4.9584573247
 10
14.0393094746
 20
4.926728481
  0
LWPOLYLINE
  5
359
100
AcDbEntity
  8
0
100
AcDbPolyline
 62
7
  6
CONTINUOUS
 90
5
 70
0
 10
14.2731094446
 20
3.4737557451
 10
14.369063866
 20
3.5097159533
 10
14.4608528576
 20
3.5499333592
 10
14.5483007262
 20
3.5944435474
 10
14.6307164434
 20
3.6430659293
  0
LWPOLYLINE
  5
35A
100
AcDbEntity
  8
0
100
AcDbPolyline
 62
7
  6
CONTINUOUS
 90
8
 70
0
 10
-6.4943467511
 20
-3.7943758548
 10
-6.5374522532
 20
-3.8103969645
 10
-6.5825943314
 20
-3.8217627604
 10
-6.6297989163
 20
-3.8283839892
 10
-6.6790400774
 20
-3.8303499043
 10
-6.7296355642
 20
-3.8276412184
 10
-6.7815905518
 20
-3.8201882043
 10
-6.8093278162
 20
-3.8138781087
  0
LINE
  5
35B
100
AcDbEntity
  8
0
100
AcDbLine
 62
253
  6
CONTINUOUS
 10
14.2773095843
 20
2.8994211695
 11
14.3736356817
 21
2.9334920747
  0
LINE
  5
35C
100
AcDbEntity
  8
0
100
AcDbLine
 62
7
  6
CONTINUOUS
 10
14.2223900194
 20
2.8038360731
 11
14.3201581811
 21
2.837474024
  0
LWPOLYLINE
  5
35D
100
AcDbEntity
  8
0
100
AcDbPolyline
 62
7
  6
CONTINUOUS
 90
3
 70
0
 10
-4.6608401581
 20
-3.6238143725
 10
-4.7071388187
 20
-3.6385910696
 10
-4.7473795026
 20
-3.6590301029
  0
LINE
  5
35E
100
AcDbEntity
  8
0
100
AcDbLine
 62
253
  6
CONTINUOUS
 10
14.1761235516
 20
2.8690891737
 11
14.2773095843
 21
2.8994211695
  0
LINE
  5
35F
100
AcDbEntity
  8
0
100
AcDbLine
 62
7
  6
CONTINUOUS
 10
13.8166987173
 20
4.9887084001
 11
13.8175532181
 21
4.988885435
  0
LWPOLYLINE
  5
360
100
AcDbEntity
  8
0
100
AcDbPolyline
 62
7
  6
CONTINUOUS
 90
7
 70
0
 10
13.5802899072
 20
2.6947406401
 10
13.691795925
 20
2.7017003551
 10
13.8020601043
 20
2.713208272
 10
13.9106982324
 20
2.7292334174
 10
14.0172952143
 20
2.7497181091
 10
14.1213506558
 20
2.7746011375
 10
14.2223900194
 20
2.8038360731
  0
LINE
  5
361
100
AcDbEntity
  8
0
100
AcDbLine
 62
7
  6
CONTINUOUS
 10
-18.3740850032
 20
7.7147975533
 11
-17.3193765181
 21
7.3772369433
  0
LWPOLYLINE
  5
362
100
AcDbEntity
  8
0
100
AcDbPolyline
 62
7
  6
CONTINUOUS
 90
6
 70
0
 10
13.93622733
 20
-2.9483845956
 10
14.0137212373
 20
-2.973336762
 10
14.0945154999
 20
-3.003628965
 10
14.1712055869
 20
-3.0367681478
 10
14.2434147795
 20
-3.0725088696
 10
14.3107546589
 20
-3.1105825116
  0
LWPOLYLINE
  5
363
100
AcDbEntity
  8
0
100
AcDbPolyline
 62
253
  6
CONTINUOUS
 90
3
 70
0
 10
13.9797514017
 20
-2.8845428948
 10
13.8931788777
 20
-2.8566223933
 10
13.8038124962
 20
-2.832512976
  0
LWPOLYLINE
  5
364
100
AcDbEntity
  8
0
100
AcDbPolyline
 62
7
  6
CONTINUOUS
 90
13
 70
0
 10
-18.2521570538
 20
8.095761561
 10
-18.2787092898
 20
8.1050118107
 10
-18.3028992243
 20
8.1149045516
 10
-18.3245954832
 20
8.1252173535
 10
-18.3437005932
 20
8.1357088271
 10
-18.3602163647
 20
8.1461600205
 10
-18.3741643115
 20
8.1563399618
 10
-18.3855352238
 20
8.1659520266
 10
-18.3944574189
 20
8.1747601519
 10
-18.4010715516
 20
8.1824969599
 10
-18.4055240098
 20
8.1888094972
 10
-18.4081071064
 20
8.1934096801
 10
-18.4092441906
 20
8.1961151061
  0
LWPOLYLINE
  5
365
100
AcDbEntity
  8
0
100
AcDbPolyline
 62
7
  6
CONTINUOUS
 90
13
 70
0
 10
-18.3740850033
 20
7.7147975533
 10
-18.425561036
 20
7.7329195012
 10
-18.4747331317
 20
7.7536020671
 10
-18.5214414211
 20
7.776812292
 10
-18.5657893271
 20
7.8027014836
 10
-18.6072652637
 20
7.8311030822
 10
-18.6449503016
 20
7.8613790432
 10
-18.6787010178
 20
7.8932549716
 10
-18.7086465556
 20
7.9266974387
 10
-18.734531185
 20
7.9612186232
 10
-18.7563449425
 20
7.9964645752
 10
-18.7742495443
 20
8.0323021779
 10
-18.7883380641
 20
8.0684913032
  0
LWPOLYLINE
  5
366
100
AcDbEntity
  8
0
100
AcDbPolyline
 62
253
  6
CONTINUOUS
 90
10
 70
0
 10
18.5545308672
 20
-7.1943370523
 10
18.5513021414
 20
-7.1927858938
 10
18.5484776257
 20
-7.1890897563
 10
18.5459638252
 20
-7.183273539
 10
18.5437882817
 20
-7.1754009657
 10
18.541974831
 20
-7.1655582898
 10
18.5405433415
 20
-7.1538533499
 10
18.539509497
 20
-7.1404143877
 10
18.5388846244
 20
-7.1253886433
 10
18.5386755701
 20
-7.1089407418
  0
LINE
  5
367
100
AcDbEntity
  8
0
100
AcDbLine
 62
253
  6
CONTINUOUS
 10
7.529654857
 20
-2.1087179086
 11
7.8864975833
 21
-2.3147544265
  0
LWPOLYLINE
  5
368
100
AcDbEntity
  8
0
100
AcDbPolyline
 62
253
  6
CONTINUOUS
 90
8
 70
0
 10
-17.2461532134
 20
12.6527389921
 10
-17.2666028589
 20
12.6661043676
 10
-17.2840419824
 20
12.6808237364
 10
-17.2982043879
 20
12.6966724177
 10
-17.3088738962
 20
12.7134084924
 10
-17.3158876447
 20
12.7307764962
 10
-17.3191385735
 20
12.7485113185
 10
-17.3193765181
 20
12.7548076404
  0
LWPOLYLINE
  5
369
100
AcDbEntity
  8
0
100
AcDbPolyline
 62
7
  6
CONTINUOUS
 90
17
 70
0
 10
1.8985476069
 20
11.3973400079
 10
1.8915112359
 20
11.4842642055
 10
1.870670136
 20
11.5760029124
 10
1.8368181383
 20
11.6690618295
 10
1.7903343137
 20
11.7614768044
 10
1.7346151238
 20
11.8464952966
 10
1.6710673292
 20
11.9225310283
 10
1.6021114456
 20
11.9866878221
 10
1.5290843137
 20
12.0372692025
 10
1.4573218507
 20
12.0705793097
 10
1.3882927976
 20
12.0863713658
 10
1.3246264496
 20
12.0840438565
 10
1.2678343137
 20
12.0631617559
 10
1.2220660552
 20
12.025250869
 10
1.1879920266
 20
11.9715484773
 10
1.1669100974
 20
11.9041000883
 10
1.1596210206
 20
11.8239869206
  0
LWPOLYLINE
  5
36A
100
AcDbEntity
  8
0
100
AcDbPolyline
 62
7
  6
CONTINUOUS
 90
52
 70
0
 10
4.0039580479
 20
13.6520364496
 10
4.0049864011
 20
13.6893147771
 10
4.0079901977
 20
13.7250487644
 10
4.0129694377
 20
13.7592384114
 10
4.0199599449
 20
13.7920115238
 10
4.0289258956
 20
13.8232402959
 10
4.0397598184
 20
13.8525413107
 10
4.0524921787
 20
13.8798869236
 10
4.0670925112
 20
13.9053047791
 10
4.083361949
 20
13.9284943941
 10
4.1012746665
 20
13.9494020984
 10
4.1208564893
 20
13.9680815621
 10
4.1419860279
 20
13.9843933134
 10
4.1647322253
 20
13.9983571705
 10
4.1890261385
 20
14.0099533151
 10
4.2145395495
 20
14.0189828204
 10
4.2412746406
 20
14.0253927065
 10
4.2692292296
 20
14.0292359533
 10
4.298068551
 20
14.0304725734
 10
4.3278001403
 20
14.0290691758
 10
4.3584164621
 20
14.0250591515
 10
4.3895601445
 20
14.0185026863
 10
4.4212326773
 20
14.0093717175
 10
4.4534325707
 20
13.9976943078
 10
4.4857979826
 20
13.9836148305
 10
4.51832873
 20
13.9671087759
 10
4.551024996
 20
13.9482006538
 10
4.5835254871
 20
13.927108367
 10
4.6158273228
 20
13.9038099517
 10
4.6479333838
 20
13.8783273717
 10
4.6794910185
 20
13.850944422
 10
4.7104936521
 20
13.8216429228
 10
4.7409478594
 20
13.7904410538
 10
4.7705207147
 20
13.7576771491
 10
4.7992054501
 20
13.7233325415
 10
4.8270088333
 20
13.6874258982
 10
4.8536182414
 20
13.6503515541
 10
4.8790373747
 20
13.6120576446
 10
4.9032625327
 20
13.5725960345
 10
4.9259699913
 20
13.5325166528
 10
4.9470966654
 20
13.4919109279
 10
4.9667056401
 20
13.4506874315
 10
4.9846624462
 20
13.409121808
 10
5.0009938528
 20
13.367127456
 10
5.0156730909
 20
13.3247909769
 10
5.0284853837
 20
13.2826478187
 10
5.039400084
 20
13.2407022027
 10
5.0484478391
 20
13.1989499076
 10
5.0555058137
 20
13.1579137173
 10
5.0605330628
 20
13.1177678932
 10
5.0635705315
 20
13.078338174
 10
5.0646182197
 20
13.0396245596
  0
LINE
  5
36B
100
AcDbEntity
  8
0
100
AcDbLine
 62
7
  6
CONTINUOUS
 10
9.7512970719
 20
12.6941714502
 11
10.0951955159
 21
13.3471644586
  0
LINE
  5
36C
100
AcDbEntity
  8
0
100
AcDbLine
 62
253
  6
CONTINUOUS
 10
15.6971582054
 20
5.7426155531
 11
15.4962031203
 21
5.6108165248
  0
LWPOLYLINE
  5
36D
100
AcDbEntity
  8
0
100
AcDbPolyline
 62
253
  6
CONTINUOUS
 90
3
 70
0
 10
15.4962031203
 20
5.6108165248
 10
15.3621050678
 20
5.5232967933
 10
15.0941674013
 20
5.3477469426
  0
LWPOLYLINE
  5
36E
100
AcDbEntity
  8
0
100
AcDbPolyline
 62
7
  6
CONTINUOUS
 90
5
 70
0
 10
15.1278915739
 20
4.9469765254
 10
15.1254057294
 20
4.9453773806
 10
15.1007920354
 20
4.9332432589
 10
15.0725153077
 20
4.9253977314
 10
15.0405755461
 20
4.9218407979
  0
LWPOLYLINE
  5
36F
100
AcDbEntity
  8
0
100
AcDbPolyline
 62
253
  6
CONTINUOUS
 90
8
 70
0
 10
13.7970863722
 20
4.9801558286
 10
13.7991898019
 20
4.9814515857
 10
13.8075521912
 20
4.9882539119
 10
13.8146754974
 20
4.9970088088
 10
13.8203869656
 20
5.0075903864
 10
13.8245644985
 20
5.0198461323
 10
13.8271209359
 20
5.0336221571
 10
13.8279846668
 20
5.0487211938
  0
LINE
  5
370
100
AcDbEntity
  8
0
100
AcDbLine
 62
253
  6
CONTINUOUS
 10
14.6020623381
 20
4.3459375324
 11
14.6803187995
 21
4.3930669983
  0
LWPOLYLINE
  5
371
100
AcDbEntity
  8
0
100
AcDbPolyline
 62
7
  6
CONTINUOUS
 90
3
 70
0
 10
-3.8724978084
 20
-5.1742726679
 10
-3.8592767028
 20
-5.1665154542
 10
-3.8201602216
 20
-5.1375764675
  0
LINE
  5
372
100
AcDbEntity
  8
0
100
AcDbLine
 62
253
  6
CONTINUOUS
 10
14.5861549363
 20
4.0105639564
 11
14.6651154572
 21
4.0567083415
  0
LINE
  5
373
100
AcDbEntity
  8
0
100
AcDbLine
 62
253
  6
CONTINUOUS
 10
12.2702333687
 20
4.1492951175
 11
13.8279846667
 21
5.0487211937
  0
LINE
  5
374
100
AcDbEntity
  8
0
100
AcDbLine
 62
7
  6
CONTINUOUS
 10
12.2753466674
 20
4.1015219794
 11
13.7969219188
 21
4.9800604597
  0
LINE
  5
375
100
AcDbEntity
  8
0
100
AcDbLine
 62
7
  6
CONTINUOUS
 10
-3.8829086057
 20
-5.1515665509
 11
-3.7792407941
 21
-5.0931784074
  0
LWPOLYLINE
  5
376
100
AcDbEntity
  8
0
100
AcDbPolyline
 62
7
  6
CONTINUOUS
 90
5
 70
0
 10
13.7970858566
 20
4.9801554962
 10
13.8004616696
 20
4.9820316393
 10
13.8078283539
 20
4.9856169697
 10
13.8132927023
 20
4.9877298186
 10
13.8166987173
 20
4.9887084001
  0
LINE
  5
377
100
AcDbEntity
  8
0
100
AcDbLine
 62
7
  6
CONTINUOUS
 10
-3.8829086057
 20
-5.1515665509
 11
-3.9031239312
 21
-5.161909702
  0
LWPOLYLINE
  5
378
100
AcDbEntity
  8
0
100
AcDbPolyline
 62
253
  6
CONTINUOUS
 90
3
 70
0
 10
14.4648719583
 20
2.971149083
 10
14.5509063597
 20
3.0122366338
 10
14.6313585245
 20
3.0564897482
  0
LINE
  5
379
100
AcDbEntity
  8
0
100
AcDbLine
 62
253
  6
CONTINUOUS
 10
14.3736356817
 20
2.9334920747
 11
14.4648719583
 21
2.971149083
  0
LWPOLYLINE
  5
37A
100
AcDbEntity
  8
0
100
AcDbPolyline
 62
7
  6
CONTINUOUS
 90
5
 70
0
 10
14.3201581811
 20
2.837474024
 10
14.4139526444
 20
2.8754156619
 10
14.5028261341
 20
2.9172864512
 10
14.5865236591
 20
2.9629424136
 10
14.6646991721
 20
3.0122200514
  0
LWPOLYLINE
  5
37B
100
AcDbEntity
  8
0
100
AcDbPolyline
 62
7
  6
CONTINUOUS
 90
34
 70
0
 10
-3.9031239312
 20
-5.161909702
 10
-3.9352610586
 20
-5.1744910697
 10
-3.9692009722
 20
-5.1833671905
 10
-4.0047783201
 20
-5.1884948208
 10
-4.0418197731
 20
-5.1898489793
 10
-4.080144869
 20
-5.1874230686
 10
-4.1195668917
 20
-5.1812289077
 10
-4.1598937811
 20
-5.1712966738
 10
-4.2009290687
 20
-5.1576747558
 10
-4.2424728347
 20
-5.1404295182
 10
-4.2843226819
 20
-5.1196449782
 10
-4.3262747223
 20
-5.0954223959
 10
-4.3681245695
 20
-5.0678797813
 10
-4.4096683355
 20
-5.0371513193
 10
-4.4507036231
 20
-5.0033867158
 10
-4.4910305125
 20
-4.9667504686
 10
-4.5304525352
 20
-4.9274210658
 10
-4.5687776311
 20
-4.8855901164
 10
-4.6058190841
 20
-4.8414614164
 10
-4.641396432
 20
-4.7952499565
 10
-4.6753363456
 20
-4.7471808743
 10
-4.707473473
 20
-4.6974883575
 10
-4.7376512453
 20
-4.6464145031
 10
-4.7657226395
 20
-4.5942081376
 10
-4.7915508945
 20
-4.5411236054
 10
-4.8150101777
 20
-4.4874195289
 10
-4.8359861979
 20
-4.4333575489
 10
-4.8543767619
 20
-4.3792010501
 10
-4.8700922728
 20
-4.3252138773
 10
-4.8830561662
 20
-4.2716590508
 10
-4.8932052834
 20
-4.2187974842
 10
-4.9004901787
 20
-4.1668867138
 10
-4.904875361
 20
-4.1161796435
 10
-4.9063394661
 20
-4.0669233133
  0
LWPOLYLINE
  5
37C
100
AcDbEntity
  8
0
100
AcDbPolyline
 62
7
  6
CONTINUOUS
 90
3
 70
0
 10
-3.948253104
 20
-5.20323059
 10
-3.9019544433
 20
-5.1884538929
 10
-3.8724978084
 20
-5.1742726679
  0
LINE
  5
37D
100
AcDbEntity
  8
0
100
AcDbLine
 62
7
  6
CONTINUOUS
 10
13.4680210099
 20
2.6923066992
 11
13.5802899072
 21
2.6947406401
  0
LINE
  5
37E
100
AcDbEntity
  8
0
100
AcDbLine
 62
7
  6
CONTINUOUS
 10
13.3554672029
 20
2.6943777899
 11
13.4680210099
 21
2.6923066992
  0
LWPOLYLINE
  5
37F
100
AcDbEntity
  8
0
100
AcDbPolyline
 62
253
  6
CONTINUOUS
 90
21
 70
0
 10
-18.2521570538
 20
8.095761561
 10
-18.2552193825
 20
8.096573862
 10
-18.2646400665
 20
8.0971958031
 10
-18.2747163724
 20
8.0952224062
 10
-18.2853120353
 20
8.0906803582
 10
-18.2962837671
 20
8.0836310823
 10
-18.3074831941
 20
8.0741699081
 10
-18.318758863
 20
8.0624247815
 10
-18.32995829
 20
8.0485545354
 10
-18.3409300218
 20
8.032746741
 10
-18.3515256847
 20
8.0152151716
 10
-18.3616019906
 20
7.9961969116
 10
-18.3710226746
 20
7.9759491504
 10
-18.3796603381
 20
7.9547457041
 10
-18.3873981717
 20
7.9328733131
 10
-18.3941315343
 20
7.9106277638
 10
-18.3997693687
 20
7.8883098893
 10
-18.4042354331
 20
7.8662215003
 10
-18.4074693314
 20
7.8446613046
 10
-18.4094273308
 20
7.8239208668
 10
-18.4100829526
 20
7.8042806657
  0
LINE
  5
380
100
AcDbEntity
  8
0
100
AcDbLine
 62
7
  6
CONTINUOUS
 10
-18.2521570538
 20
8.095761561
 11
-17.3193765181
 21
7.7972241252
  0
LWPOLYLINE
  5
381
100
AcDbEntity
  8
0
100
AcDbPolyline
 62
253
  6
CONTINUOUS
 90
4
 70
0
 10
-14.9065865022
 20
10.9292355769
 10
-14.892492396
 20
10.9220589881
 10
-14.8770136753
 20
10.9159763471
 10
-14.8637080489
 20
10.9120457548
  0
LINE
  5
382
100
AcDbEntity
  8
0
100
AcDbLine
 62
7
  6
CONTINUOUS
 10
13.1532335073
 20
-3.6971320779
 11
12.5049686805
 21
-3.3249488447
  0
LINE
  5
383
100
AcDbEntity
  8
0
100
AcDbLine
 62
7
  6
CONTINUOUS
 10
7.9222910094
 20
-2.0424598679
 11
8.0213262103
 21
-2.0996415517
  0
LWPOLYLINE
  5
384
100
AcDbEntity
  8
0
100
AcDbPolyline
 62
253
  6
CONTINUOUS
 90
8
 70
0
 10
8.0652601931
 20
-1.9617538823
 10
8.0527227742
 20
-1.953535681
 10
8.0420818362
 20
-1.9444696368
 10
8.0335075288
 20
-1.9347007166
 10
8.0271369559
 20
-1.9243851265
 10
8.0230719837
 20
-1.9136878138
 10
8.0213776115
 20
-1.9027798296
 10
8.0213262103
 20
-1.9005126933
  0
LINE
  5
385
100
AcDbEntity
  8
0
100
AcDbLine
 62
253
  6
CONTINUOUS
 10
8.0523157591
 20
-2.3258976883
 11
8.0652601931
 21
-2.3344208008
  0
LINE
  5
386
100
AcDbEntity
  8
0
100
AcDbLine
 62
7
  6
CONTINUOUS
 10
7.7809588156
 20
-2.3486740832
 11
7.7412704608
 21
-2.3194769954
  0
LINE
  5
387
100
AcDbEntity
  8
0
100
AcDbLine
 62
7
  6
CONTINUOUS
 10
7.7412704608
 20
-2.3194769954
 11
7.7142434678
 21
-2.2993780333
  0
LINE
  5
388
100
AcDbEntity
  8
0
100
AcDbLine
 62
7
  6
CONTINUOUS
 10
7.7142434678
 20
-2.2993780333
 11
7.6893685509
 21
-2.2806996115
  0
LINE
  5
389
100
AcDbEntity
  8
0
100
AcDbLine
 62
7
  6
CONTINUOUS
 10
7.6893685509
 20
-2.2806996115
 11
7.6664846503
 21
-2.2633385249
  0
LINE
  5
38A
100
AcDbEntity
  8
0
100
AcDbLine
 62
7
  6
CONTINUOUS
 10
7.6664846503
 20
-2.2633385249
 11
7.6454447234
 21
-2.2472004208
  0
LWPOLYLINE
  5
38B
100
AcDbEntity
  8
0
100
AcDbPolyline
 62
7
  6
CONTINUOUS
 90
10
 70
0
 10
7.7809588156
 20
-2.3486740832
 10
7.7858341244
 20
-2.3524397933
 10
7.7904347781
 20
-2.3563629723
 10
7.7947634161
 20
-2.3604460403
 10
7.7988083427
 20
-2.3646772683
 10
7.8025886589
 20
-2.3690746616
 10
7.8061546052
 20
-2.3736861434
 10
7.8095274385
 20
-2.3785308137
 10
7.8126991988
 20
-2.3835985855
 10
7.8156780812
 20
-2.3888941797
  0
LINE
  5
38C
100
AcDbEntity
  8
0
100
AcDbLine
 62
7
  6
CONTINUOUS
 10
7.6454447234
 20
-2.2472004208
 11
7.6261128713
 21
-2.2321975364
  0
LINE
  5
38D
100
AcDbEntity
  8
0
100
AcDbLine
 62
7
  6
CONTINUOUS
 10
7.6261128713
 20
-2.2321975364
 11
7.6083641233
 21
-2.2182486637
  0
LINE
  5
38E
100
AcDbEntity
  8
0
100
AcDbLine
 62
7
  6
CONTINUOUS
 10
7.6083641233
 20
-2.2182486637
 11
7.5973552628
 21
-2.2094984166
  0
LINE
  5
38F
100
AcDbEntity
  8
0
100
AcDbLine
 62
7
  6
CONTINUOUS
 10
7.5973552628
 20
-2.2094984166
 11
7.5869663175
 21
-2.2011617181
  0
LINE
  5
390
100
AcDbEntity
  8
0
100
AcDbLine
 62
7
  6
CONTINUOUS
 10
7.5869663175
 20
-2.2011617181
 11
7.5771642429
 21
-2.1932165856
  0
LINE
  5
391
100
AcDbEntity
  8
0
100
AcDbLine
 62
7
  6
CONTINUOUS
 10
7.5771642429
 20
-2.1932165856
 11
7.5679274817
 21
-2.1856485736
  0
LINE
  5
392
100
AcDbEntity
  8
0
100
AcDbLine
 62
7
  6
CONTINUOUS
 10
7.5679274817
 20
-2.1856485736
 11
7.5592241345
 21
-2.1784360804
  0
LINE
  5
393
100
AcDbEntity
  8
0
100
AcDbLine
 62
7
  6
CONTINUOUS
 10
7.5592241345
 20
-2.1784360804
 11
7.5510335143
 21
-2.1715661905
  0
LINE
  5
394
100
AcDbEntity
  8
0
100
AcDbLine
 62
7
  6
CONTINUOUS
 10
7.5510335143
 20
-2.1715661905
 11
7.5433368042
 21
-2.1650258249
  0
LINE
  5
395
100
AcDbEntity
  8
0
100
AcDbLine
 62
7
  6
CONTINUOUS
 10
7.5433368042
 20
-2.1650258249
 11
7.5360989088
 21
-2.1587894202
  0
LINE
  5
396
100
AcDbEntity
  8
0
100
AcDbLine
 62
7
  6
CONTINUOUS
 10
7.5360989088
 20
-2.1587894202
 11
7.5292950774
 21
-2.152838777
  0
LWPOLYLINE
  5
397
100
AcDbEntity
  8
0
100
AcDbPolyline
 62
7
  6
CONTINUOUS
 90
17
 70
0
 10
7.5292950774
 20
-2.152838777
 10
7.5229103235
 20
-2.1471629249
 10
7.5198682554
 20
-2.1444231479
 10
7.5169263413
 20
-2.1417486928
 10
7.5140783637
 20
-2.1391346625
 10
7.5113239548
 20
-2.1365808977
 10
7.5086634083
 20
-2.1340875321
 10
7.5060915106
 20
-2.1316501417
 10
7.5036079618
 20
-2.1292686744
 10
7.5012130003
 20
-2.1269431889
 10
7.4989022313
 20
-2.124669466
 10
7.4966752931
 20
-2.1224474711
 10
7.4945324983
 20
-2.120277287
 10
7.4924704771
 20
-2.1181549192
 10
7.4904888016
 20
-2.1160803961
 10
7.4885878631
 20
-2.1140537917
 10
7.4883428223
 20
-2.1137872067
  0
LWPOLYLINE
  5
398
100
AcDbEntity
  8
0
100
AcDbPolyline
 62
253
  6
CONTINUOUS
 90
4
 70
0
 10
13.8998765316
 20
-9.4443708361
 10
13.8896007132
 20
-9.4350293361
 10
13.875641292
 20
-9.425684668
 10
13.8600585344
 20
-9.4184657894
  0
LWPOLYLINE
  5
399
100
AcDbEntity
  8
0
100
AcDbPolyline
 62
7
  6
CONTINUOUS
 90
13
 70
0
 10
16.1140407687
 20
-11.7507208356
 10
16.1234026756
 20
-11.7596941963
 10
16.1352281049
 20
-11.7694191404
 10
16.1496179796
 20
-11.7796494642
 10
16.1666157363
 20
-11.7901321235
 10
16.1861850734
 20
-11.800602821
 10
16.2082647771
 20
-11.8108230644
 10
16.2328255549
 20
-11.820594427
 10
16.259699239
 20
-11.8296856186
 10
16.2886038489
 20
-11.83786953
 10
16.3193058252
 20
-11.8449759173
 10
16.3516125893
 20
-11.8508689651
 10
16.3852630984
 20
-11.8554196003
  0
LWPOLYLINE
  5
39A
100
AcDbEntity
  8
0
100
AcDbPolyline
 62
7
  6
CONTINUOUS
 90
13
 70
0
 10
15.8254901054
 20
-12.0277380096
 10
15.8564343913
 20
-12.0575681527
 10
15.8902439452
 20
-12.0856230031
 10
15.9268059371
 20
-12.1118494677
 10
15.9662060794
 20
-12.1363063502
 10
16.0081922133
 20
-12.1588187382
 10
16.0520366256
 20
-12.1790549531
 10
16.0973778574
 20
-12.1969695815
 10
16.1442033807
 20
-12.2126567207
 10
16.1921588724
 20
-12.2260767032
 10
16.2409764623
 20
-12.2372375392
 10
16.2905316617
 20
-12.2461800321
 10
16.3406500943
 20
-12.2529239145
  0
LINE
  5
39B
100
AcDbEntity
  8
0
100
AcDbLine
 62
7
  6
CONTINUOUS
 10
13.6113258683
 20
-9.7213880102
 11
15.8254901054
 21
-12.0277380096
  0
LINE
  5
39C
100
AcDbEntity
  8
0
100
AcDbLine
 62
7
  6
CONTINUOUS
 10
13.8998765316
 20
-9.4443708361
 11
16.1140407687
 21
-11.7507208356
  0
LWPOLYLINE
  5
39D
100
AcDbEntity
  8
0
100
AcDbPolyline
 62
253
  6
CONTINUOUS
 90
7
 70
0
 10
15.8254901054
 20
-12.0277380096
 10
15.8236186161
 20
-12.0257354228
 10
15.8134476934
 20
-12.0125453265
 10
15.8053907001
 20
-11.9976875941
 10
15.7995565931
 20
-11.981363151
 10
15.7960242688
 20
-11.9637927573
 10
15.7948414956
 20
-11.9452140223
  0
LWPOLYLINE
  5
39E
100
AcDbEntity
  8
0
100
AcDbPolyline
 62
253
  6
CONTINUOUS
 90
5
 70
0
 10
8.024999729
 20
-12.0122727663
 10
8.0393220097
 20
-12.0518632883
 10
8.050558091
 20
-12.0908793715
 10
8.0585449911
 20
-12.1288742015
 10
8.0634456918
 20
-12.1662945929
  0
LWPOLYLINE
  5
39F
100
AcDbEntity
  8
0
100
AcDbPolyline
 62
7
  6
CONTINUOUS
 90
17
 70
0
 10
4.1648248406
 20
13.5591539796
 10
4.1718612116
 20
13.472229782
 10
4.1927023115
 20
13.3804910751
 10
4.2265543092
 20
13.2874321579
 10
4.2730381338
 20
13.1950171831
 10
4.3287573237
 20
13.1099986909
 10
4.3923051183
 20
13.0339629592
 10
4.4612610019
 20
12.9698061654
 10
4.5342881338
 20
12.9192247849
 10
4.6060505968
 20
12.8859146778
 10
4.67507965
 20
12.8701226217
 10
4.738745998
 20
12.872450131
 10
4.7955381338
 20
12.8933322316
 10
4.8413063924
 20
12.9312431185
 10
4.8753804209
 20
12.9849455102
 10
4.8964623502
 20
13.0523938992
 10
4.903751427
 20
13.1325070668
  0
LWPOLYLINE
  5
3A0
100
AcDbEntity
  8
0
100
AcDbPolyline
 62
7
  6
CONTINUOUS
 90
52
 70
0
 10
5.0646182197
 20
13.0396245596
 10
5.0635898665
 20
13.002346232
 10
5.0605860699
 20
12.9666122447
 10
5.0556068299
 20
12.9324225977
 10
5.0486163227
 20
12.8996494853
 10
5.039650372
 20
12.8684207132
 10
5.0288164491
 20
12.8391196984
 10
5.0160840889
 20
12.8117740856
 10
5.0014837564
 20
12.78635623
 10
4.9852143186
 20
12.763166615
 10
4.9673016011
 20
12.7422589108
 10
4.9477197783
 20
12.723579447
 10
4.9265902397
 20
12.7072676957
 10
4.9038440423
 20
12.6933038386
 10
4.8795501291
 20
12.681707694
 10
4.8540367181
 20
12.6726781888
 10
4.827301627
 20
12.6662683026
 10
4.799347038
 20
12.6624250559
 10
4.7705077166
 20
12.6611884358
 10
4.7407761273
 20
12.6625918333
 10
4.7101598054
 20
12.6666018576
 10
4.6790161231
 20
12.6731583228
 10
4.6473435903
 20
12.6822892916
 10
4.6151436969
 20
12.6939667014
 10
4.582778285
 20
12.7080461786
 10
4.5502475376
 20
12.7245522332
 10
4.5175512716
 20
12.7434603554
 10
4.4850507804
 20
12.7645526421
 10
4.4527489447
 20
12.7878510574
 10
4.4206428838
 20
12.8133336374
 10
4.389085249
 20
12.8407165871
 10
4.3580826155
 20
12.8700180863
 10
4.3276284081
 20
12.9012199553
 10
4.2980555529
 20
12.9339838601
 10
4.2693708175
 20
12.9683284676
 10
4.2415674342
 20
13.004235111
 10
4.2149580262
 20
13.041309455
 10
4.1895388929
 20
13.0796033645
 10
4.1653137349
 20
13.1190649747
 10
4.1426062763
 20
13.1591443563
 10
4.1214796022
 20
13.1997500812
 10
4.1018706275
 20
13.2409735776
 10
4.0839138214
 20
13.2825392011
 10
4.0675824148
 20
13.3245335531
 10
4.0529031767
 20
13.3668700322
 10
4.0400908839
 20
13.4090131905
 10
4.0291761835
 20
13.4509588064
 10
4.0201284285
 20
13.4927111015
 10
4.0130704539
 20
13.5337472918
 10
4.0080432048
 20
13.5738931159
 10
4.0050057361
 20
13.6133228352
 10
4.0039580479
 20
13.6520364496
  0
LINE
  5
3A1
100
AcDbEntity
  8
0
100
AcDbLine
 62
253
  6
CONTINUOUS
 10
-2.4056764151
 20
-10.3091179803
 11
-2.2559890302
 21
-10.1563438626
  0
LWPOLYLINE
  5
3A2
100
AcDbEntity
  8
0
100
AcDbPolyline
 62
7
  6
CONTINUOUS
 90
13
 70
0
 10
15.6522407817
 20
5.2892697456
 10
15.6975682406
 20
5.3226472411
 10
15.7392206487
 20
5.3612834686
 10
15.7765043031
 20
5.4047657319
 10
15.8090607893
 20
5.4530546081
 10
15.8359192783
 20
5.5051110089
 10
15.8562026573
 20
5.5589786704
 10
15.8701214873
 20
5.6146147401
 10
15.8775798806
 20
5.6715059454
 10
15.8785321183
 20
5.7273722259
 10
15.87344011
 20
5.7816999512
 10
15.8623657498
 20
5.8355009285
 10
15.8449961428
 20
5.8889528436
  0
LWPOLYLINE
  5
3A3
100
AcDbEntity
  8
0
100
AcDbPolyline
 62
7
  6
CONTINUOUS
 90
7
 70
0
 10
14.6464334349
 20
3.3266635099
 10
14.7218473532
 20
3.3798924909
 10
14.7903312895
 20
3.4361608265
 10
14.8518463879
 20
3.4954109066
 10
14.905936324
 20
3.5571612489
 10
14.9524880887
 20
3.6210351704
 10
14.9915596672
 20
3.6868413808
  0
LWPOLYLINE
  5
3A4
100
AcDbEntity
  8
0
100
AcDbPolyline
 62
253
  6
CONTINUOUS
 90
11
 70
0
 10
14.6803187995
 20
4.3930669983
 10
14.7523244297
 20
4.4431771389
 10
14.8176904452
 20
4.4959483716
 10
14.8759550629
 20
4.5509490598
 10
14.9267912021
 20
4.6077875107
 10
14.9701266202
 20
4.6662641753
 10
15.0059912721
 20
4.7262107916
 10
15.0342866653
 20
4.7872882966
 10
15.0549458828
 20
4.8492181116
 10
15.0679202118
 20
4.9119446911
 10
15.068974974
 20
4.9250034663
  0
LWPOLYLINE
  5
3A5
100
AcDbEntity
  8
0
100
AcDbPolyline
 62
7
  6
CONTINUOUS
 90
7
 70
0
 10
14.6322738631
 20
3.9705917891
 10
14.7076117619
 20
4.0223488538
 10
14.7771357806
 20
4.0778591739
 10
14.8403926851
 20
4.136920552
 10
14.8967638774
 20
4.1991211749
 10
14.9460297973
 20
4.2644557323
 10
14.9876887937
 20
4.3325919999
  0
LWPOLYLINE
  5
3A6
100
AcDbEntity
  8
0
100
AcDbPolyline
 62
7
  6
CONTINUOUS
 90
7
 70
0
 10
14.6307164434
 20
3.6430659293
 10
14.7071619197
 20
3.6953892495
 10
14.7773331975
 20
3.7513491673
 10
14.840864671
 20
3.810764219
 10
14.8970398602
 20
3.8729209596
 10
14.9456195565
 20
3.9374076393
 10
14.9866029833
 20
4.0041102733
  0
LWPOLYLINE
  5
3A7
100
AcDbEntity
  8
0
100
AcDbPolyline
 62
7
  6
CONTINUOUS
 90
8
 70
0
 10
14.6276120976
 20
4.2942906289
 10
14.698478939
 20
4.3423059473
 10
14.7640868902
 20
4.3933651774
 10
14.8242430532
 20
4.447424563
 10
14.8785846156
 20
4.5043292195
 10
14.9266204753
 20
4.5637326232
 10
14.968216247
 20
4.6255280702
 10
15.0031664489
 20
4.6894343635
  0
LWPOLYLINE
  5
3A8
100
AcDbEntity
  8
0
100
AcDbPolyline
 62
253
  6
CONTINUOUS
 90
10
 70
0
 10
14.6651154572
 20
4.0567083415
 10
14.7378987891
 20
4.1058806957
 10
14.8042291806
 20
4.1578200284
 10
14.8638467431
 20
4.2122586349
 10
14.9164643633
 20
4.2689058127
 10
14.9617913942
 20
4.3274552199
 10
14.9995679558
 20
4.3876265989
 10
15.0296037041
 20
4.4491244093
 10
15.0518251338
 20
4.511599137
 10
15.0661793481
 20
4.5746455723
  0
LINE
  5
3A9
100
AcDbEntity
  8
0
100
AcDbLine
 62
7
  6
CONTINUOUS
 10
15.1278993703
 20
4.9469680322
 11
15.6522346292
 21
5.2892665463
  0
LWPOLYLINE
  5
3AA
100
AcDbEntity
  8
0
100
AcDbPolyline
 62
253
  6
CONTINUOUS
 90
10
 70
0
 10
14.6449634472
 20
3.3911998062
 10
14.7196399129
 20
3.4397576805
 10
14.7879725782
 20
3.4911573345
 10
14.8494951953
 20
3.5450489054
 10
14.9037534252
 20
3.6010147681
 10
14.9507045977
 20
3.6589111456
 10
14.990451727
 20
3.7188080295
 10
15.0228274794
 20
3.7806285625
 10
15.0474150854
 20
3.8438750884
 10
15.0638929651
 20
3.9079963663
  0
LWPOLYLINE
  5
3AB
100
AcDbEntity
  8
0
100
AcDbPolyline
 62
253
  6
CONTINUOUS
 90
12
 70
0
 10
14.6313585245
 20
3.0564897482
 10
14.7059307064
 20
3.1036862645
 10
14.7745446713
 20
3.1537902773
 10
14.8368891096
 20
3.2066855124
 10
14.8924883597
 20
3.2620547846
 10
14.9410427245
 20
3.3195546489
 10
14.9823388836
 20
3.3788982375
 10
15.0161564333
 20
3.4397891596
 10
15.0422476471
 20
3.5018499653
 10
15.0604214799
 20
3.564751711
 10
15.0706056151
 20
3.6282139527
 10
15.0730173119
 20
3.6774432313
  0
LWPOLYLINE
  5
3AC
100
AcDbEntity
  8
0
100
AcDbPolyline
 62
253
  6
CONTINUOUS
 90
10
 70
0
 10
14.6167043343
 20
2.721317508
 10
14.6931354064
 20
2.7685296529
 10
14.7632409332
 20
2.8185092743
 10
14.8268224715
 20
2.8710560742
 10
14.8837658813
 20
2.9261091043
 10
14.9337820348
 20
2.9835406592
 10
14.9764612995
 20
3.0429795082
 10
15.0115417752
 20
3.1039923417
 10
15.0388663708
 20
3.1662213228
 10
15.0583217776
 20
3.22939506
  0
LWPOLYLINE
  5
3AD
100
AcDbEntity
  8
0
100
AcDbPolyline
 62
253
  6
CONTINUOUS
 90
4
 70
0
 10
7.8243149985
 20
-2.0672504946
 10
7.8364612836
 20
-2.0602057487
 10
7.8477911975
 20
-2.0507572789
 10
7.8582091434
 20
-2.0388978064
  0
LWPOLYLINE
  5
3AE
100
AcDbEntity
  8
0
100
AcDbPolyline
 62
253
  6
CONTINUOUS
 90
11
 70
0
 10
14.5799067666
 20
3.6806587145
 10
14.6597720394
 20
3.7268460835
 10
14.733265852
 20
3.7759207124
 10
14.7999297172
 20
3.8275265063
 10
14.8596511343
 20
3.881477211
 10
14.9124360974
 20
3.9376450384
 10
14.9580676817
 20
3.9957283245
 10
14.9963468374
 20
4.0554462118
 10
15.0271651512
 20
4.1167389917
 10
15.0502752969
 20
4.1794758869
 10
15.0654030039
 20
4.2432108302
  0
LWPOLYLINE
  5
3AF
100
AcDbEntity
  8
0
100
AcDbPolyline
 62
253
  6
CONTINUOUS
 90
7
 70
0
 10
7.7826535745
 20
-2.0776639858
 10
7.7866603133
 20
-2.0758253478
 10
7.7911675572
 20
-2.070848678
 10
7.7953117407
 20
-2.0633279403
 10
7.7981497099
 20
-2.0537503208
 10
7.8003635298
 20
-2.0422960943
 10
7.8026013314
 20
-2.0294441352
  0
LWPOLYLINE
  5
3B0
100
AcDbEntity
  8
0
100
AcDbPolyline
 62
253
  6
CONTINUOUS
 90
3
 70
0
 10
8.0086986455
 20
-2.3291663332
 10
7.9917064197
 20
-2.3365524037
 10
7.9729284315
 20
-2.3400462024
  0
LWPOLYLINE
  5
3B1
100
AcDbEntity
  8
0
100
AcDbPolyline
 62
253
  6
CONTINUOUS
 90
9
 70
0
 10
12.5431129757
 20
-1.1195477801
 10
12.5777381616
 20
-1.1051233862
 10
12.6080622495
 20
-1.0895132277
 10
12.6337516856
 20
-1.0730199701
 10
12.6545395822
 20
-1.0560456198
 10
12.6701908475
 20
-1.0387928343
 10
12.6805217615
 20
-1.0212538078
 10
12.6854311687
 20
-1.0036031541
 10
12.6857946566
 20
-0.9937926525
  0
LINE
  5
3B2
100
AcDbEntity
  8
0
100
AcDbLine
 62
253
  6
CONTINUOUS
 10
8.0175430294
 20
-1.7314412512
 11
7.8914430468
 21
-1.7824223465
  0
LWPOLYLINE
  5
3B3
100
AcDbEntity
  8
0
100
AcDbPolyline
 62
253
  6
CONTINUOUS
 90
10
 70
0
 10
7.8914430468
 20
-1.7824223465
 10
7.8827364566
 20
-1.7857875911
 10
7.8737933014
 20
-1.7889392448
 10
7.8646292889
 20
-1.791871772
 10
7.8552605148
 20
-1.794580022
 10
7.8457034344
 20
-1.7970592381
 10
7.8359748337
 20
-1.7993050658
 10
7.8260918
 20
-1.8013135605
 10
7.8160716919
 20
-1.8030811944
 10
7.8059321087
 20
-1.804604863
  0
LINE
  5
3B4
100
AcDbEntity
  8
0
100
AcDbLine
 62
253
  6
CONTINUOUS
 10
7.8116964357
 20
-2.0718182689
 11
7.8243149985
 21
-2.0672504946
  0
LINE
  5
3B5
100
AcDbEntity
  8
0
100
AcDbLine
 62
7
  6
CONTINUOUS
 10
15.0405755461
 20
4.9218407979
 11
14.6825701281
 21
4.9087528643
  0
LINE
  5
3B6
100
AcDbEntity
  8
0
100
AcDbLine
 62
7
  6
CONTINUOUS
 10
14.8376267584
 20
5.7355153992
 11
14.0802296798
 21
5.707826537
  0
LWPOLYLINE
  5
3B7
100
AcDbEntity
  8
0
100
AcDbPolyline
 62
7
  6
CONTINUOUS
 90
12
 70
0
 10
-18.425561036
 20
13.0399763003
 10
-18.4747331317
 20
13.0606588662
 10
-18.5214414211
 20
13.0838690911
 10
-18.5657893271
 20
13.1097582828
 10
-18.6072652637
 20
13.1381598813
 10
-18.6449503016
 20
13.1684358424
 10
-18.6787010178
 20
13.2003117708
 10
-18.7086465556
 20
13.2337542379
 10
-18.734531185
 20
13.2682754224
 10
-18.7563449425
 20
13.3035213744
 10
-18.7742495443
 20
13.3393589771
 10
-18.7883380641
 20
13.3755481023
  0
LINE
  5
3B8
100
AcDbEntity
  8
0
100
AcDbLine
 62
7
  6
CONTINUOUS
 10
14.2417628837
 20
-3.1660021038
 11
14.322646989
 21
-3.216219739
  0
LINE
  5
3B9
100
AcDbEntity
  8
0
100
AcDbLine
 62
7
  6
CONTINUOUS
 10
14.3107546589
 20
-3.1105825116
 11
14.3726775435
 21
-3.1505840475
  0
LINE
  5
3BA
100
AcDbEntity
  8
0
100
AcDbLine
 62
7
  6
CONTINUOUS
 10
14.2576782429
 20
-3.3802171043
 11
13.5506256495
 21
-2.9005473791
  0
LINE
  5
3BB
100
AcDbEntity
  8
0
100
AcDbLine
 62
7
  6
CONTINUOUS
 10
14.2417628837
 20
-3.1660021038
 11
13.5833851215
 21
-2.7193537451
  0
LINE
  5
3BC
100
AcDbEntity
  8
0
100
AcDbLine
 62
7
  6
CONTINUOUS
 10
14.3190099518
 20
-3.2080671662
 11
13.8784884772
 21
-2.9092141294
  0
LWPOLYLINE
  5
3BD
100
AcDbEntity
  8
0
100
AcDbPolyline
 62
7
  6
CONTINUOUS
 90
3
 70
0
 10
13.5755628081
 20
-9.6800259866
 10
13.5926655077
 20
-9.7009114962
 10
13.6113258683
 20
-9.7213880102
  0
LWPOLYLINE
  5
3BE
100
AcDbEntity
  8
0
100
AcDbPolyline
 62
253
  6
CONTINUOUS
 90
3
 70
0
 10
13.5992834563
 20
-9.706195327
 10
13.6094543789
 20
-9.7193854233
 10
13.6113258683
 20
-9.7213880102
  0
LINE
  5
3BF
100
AcDbEntity
  8
0
100
AcDbLine
 62
7
  6
CONTINUOUS
 10
13.5600021073
 20
-9.6587878703
 11
13.5755628081
 21
-9.6800259866
  0
LINE
  5
3C0
100
AcDbEntity
  8
0
100
AcDbLine
 62
7
  6
CONTINUOUS
 10
7.8696413144
 20
-2.5445327424
 11
7.8596672353
 21
-2.5296113354
  0
LINE
  5
3C1
100
AcDbEntity
  8
0
100
AcDbLine
 62
7
  6
CONTINUOUS
 10
7.8796142738
 20
-2.5596964939
 11
7.8696413144
 21
-2.5445327424
  0
LINE
  5
3C2
100
AcDbEntity
  8
0
100
AcDbLine
 62
7
  6
CONTINUOUS
 10
7.8946086325
 20
-2.5828785005
 11
7.8796142738
 21
-2.5596964939
  0
LINE
  5
3C3
100
AcDbEntity
  8
0
100
AcDbLine
 62
7
  6
CONTINUOUS
 10
7.9046662109
 20
-2.5986055684
 11
7.8946086325
 21
-2.5828785005
  0
LWPOLYLINE
  5
3C4
100
AcDbEntity
  8
0
100
AcDbPolyline
 62
253
  6
CONTINUOUS
 90
13
 70
0
 10
7.8914438092
 20
-12.2306490617
 10
7.8877750961
 20
-12.2106130683
 10
7.8826671666
 20
-12.1896148926
 10
7.8761850826
 20
-12.1678797789
 10
7.8684353848
 20
-12.1457125349
 10
7.8594884222
 20
-12.1232712335
 10
7.8493375717
 20
-12.100557239
 10
7.8380137846
 20
-12.07770799
 10
7.8256555789
 20
-12.0550653203
 10
7.8124124481
 20
-12.0329394206
 10
7.7984295943
 20
-12.0115960866
 10
7.7838387211
 20
-11.9912583435
 10
7.7687929586
 20
-11.9721634604
  0
LWPOLYLINE
  5
3C5
100
AcDbEntity
  8
0
100
AcDbPolyline
 62
7
  6
CONTINUOUS
 90
17
 70
0
 10
4.903751427
 20
13.1325070296
 10
4.8967150559
 20
13.2194312272
 10
4.8758739561
 20
13.311169934
 10
4.8420219583
 20
13.4042288512
 10
4.7955381338
 20
13.496643826
 10
4.7398189439
 20
13.5816623182
 10
4.6762711492
 20
13.6576980499
 10
4.6073152657
 20
13.7218548437
 10
4.5342881338
 20
13.7724362242
 10
4.4625256707
 20
13.8057463313
 10
4.3934966176
 20
13.8215383875
 10
4.3298302696
 20
13.8192108782
 10
4.2730381338
 20
13.7983287776
 10
4.2272698752
 20
13.7604178906
 10
4.1931958467
 20
13.7067154989
 10
4.1721139174
 20
13.6392671099
 10
4.1648248406
 20
13.5591539423
  0
LWPOLYLINE
  5
3C6
100
AcDbEntity
  8
0
100
AcDbPolyline
 62
7
  6
CONTINUOUS
 90
17
 70
0
 10
6.8164752701
 20
8.5577902113
 10
6.8235116411
 20
8.4708660137
 10
6.844352741
 20
8.3791273069
 10
6.8782047387
 20
8.2860683897
 10
6.9246885632
 20
8.1936534148
 10
6.9804077532
 20
8.1086349226
 10
7.0439555478
 20
8.0325991909
 10
7.1129114313
 20
7.9684423971
 10
7.1859385632
 20
7.9178610167
 10
7.2577010263
 20
7.8845509096
 10
7.3267300794
 20
7.8687588534
 10
7.3903964274
 20
7.8710863627
 10
7.4471885632
 20
7.8919684633
 10
7.4929568218
 20
7.9298793503
 10
7.5270308503
 20
7.9835817419
 10
7.5481127796
 20
8.0510301309
 10
7.5554018564
 20
8.1311432986
  0
LINE
  5
3C7
100
AcDbEntity
  8
0
100
AcDbLine
 62
253
  6
CONTINUOUS
 10
8.0634456918
 20
-12.1662945929
 11
8.0652601931
 21
-12.2031405456
  0
LINE
  5
3C8
100
AcDbEntity
  8
0
100
AcDbLine
 62
253
  6
CONTINUOUS
 10
7.8059321087
 20
-12.2528282261
 11
7.8053204623
 21
-12.2393897711
  0
LWPOLYLINE
  5
3C9
100
AcDbEntity
  8
0
100
AcDbPolyline
 62
253
  6
CONTINUOUS
 90
8
 70
0
 10
8.0213262103
 20
-12.5146262916
 10
8.0213776115
 20
-12.5168934279
 10
8.0230719837
 20
-12.5278014121
 10
8.0271369559
 20
-12.5384987248
 10
8.0335075288
 20
-12.5488143149
 10
8.0420818362
 20
-12.5585832351
 10
8.0527227742
 20
-12.5676492793
 10
8.0652601931
 20
-12.5758674806
  0
LWPOLYLINE
  5
3CA
100
AcDbEntity
  8
0
100
AcDbPolyline
 62
253
  6
CONTINUOUS
 90
7
 70
0
 10
7.8053204623
 20
-12.2393897711
 10
7.8048949214
 20
-12.2124914784
 10
7.8042150613
 20
-12.1987322222
 10
7.8030693098
 20
-12.1845388977
 10
7.8020013313
 20
-12.1699271862
 10
7.8008184775
 20
-12.1551831925
 10
7.7973687228
 20
-12.1248936966
  0
LINE
  5
3CB
100
AcDbEntity
  8
0
100
AcDbLine
 62
253
  6
CONTINUOUS
 10
7.6726320343
 20
-2.5533257383
 11
7.6726320343
 21
-11.721427896
  0
LWPOLYLINE
  5
3CC
100
AcDbEntity
  8
0
100
AcDbPolyline
 62
253
  6
CONTINUOUS
 90
5
 70
0
 10
12.0660732849
 20
5.6493380563
 10
12.0697371542
 20
5.6556001397
 10
12.0717585201
 20
5.6605095557
 10
12.0721663131
 20
5.6643805698
 10
12.0714188602
 20
5.6669706492
  0
LWPOLYLINE
  5
3CD
100
AcDbEntity
  8
0
100
AcDbPolyline
 62
253
  6
CONTINUOUS
 90
6
 70
0
 10
7.8582091434
 20
-2.0388978064
 10
7.8675321203
 20
-2.0247391415
 10
7.8756151991
 20
-2.0084333931
 10
7.8823490461
 20
-1.9901469998
 10
7.8876503779
 20
-1.9700403875
 10
7.8914421736
 20
-1.9483118616
  0
LWPOLYLINE
  5
3CE
100
AcDbEntity
  8
0
100
AcDbPolyline
 62
7
  6
CONTINUOUS
 90
7
 70
0
 10
14.6646991721
 20
3.0122200514
 10
14.736531992
 20
3.064600793
 10
14.8016922045
 20
3.1197899742
 10
14.8601707225
 20
3.1777085396
 10
14.9118308883
 20
3.2380925798
 10
14.9565563393
 20
3.3006993798
 10
14.9942412262
 20
3.3652980089
  0
LWPOLYLINE
  5
3CF
100
AcDbEntity
  8
0
100
AcDbPolyline
 62
7
  6
CONTINUOUS
 90
7
 70
0
 10
14.6231652814
 20
2.6585532197
 10
14.6995866685
 20
2.7101706626
 10
14.77039518
 20
2.7657272681
 10
14.8349847967
 20
2.8250319933
 10
14.8925571495
 20
2.8876313898
 10
14.9428453034
 20
2.9535089788
 10
14.9854417306
 20
3.0223144956
  0
LINE
  5
3D0
100
AcDbEntity
  8
0
100
AcDbLine
 62
253
  6
CONTINUOUS
 10
8.0213262103
 20
-2.2254276669
 11
7.8864975833
 21
-2.3147544265
  0
LINE
  5
3D1
100
AcDbEntity
  8
0
100
AcDbLine
 62
253
  6
CONTINUOUS
 10
8.0127059794
 20
-2.3266791146
 11
8.0086986455
 21
-2.3291663332
  0
LINE
  5
3D2
100
AcDbEntity
  8
0
100
AcDbLine
 62
253
  6
CONTINUOUS
 10
12.4892394221
 20
-2.474731077
 11
10.742300502
 21
-3.3210978465
  0
LINE
  5
3D3
100
AcDbEntity
  8
0
100
AcDbLine
 62
253
  6
CONTINUOUS
 10
12.5422156466
 20
-2.5833197369
 11
12.4892394221
 21
-2.6078587303
  0
LWPOLYLINE
  5
3D4
100
AcDbEntity
  8
0
100
AcDbPolyline
 62
7
  6
CONTINUOUS
 90
8
 70
0
 10
12.4867495235
 20
-2.354757907
 10
12.500600527
 20
-2.3483574335
 10
12.5724248457
 20
-2.3197445133
 10
12.6490071431
 20
-2.2936924234
 10
12.7299965423
 20
-2.2704464842
 10
12.8146106061
 20
-2.2503165488
 10
12.9023595082
 20
-2.2334856289
 10
12.9508976238
 20
-2.2263101359
  0
LWPOLYLINE
  5
3D5
100
AcDbEntity
  8
0
100
AcDbPolyline
 62
7
  6
CONTINUOUS
 90
9
 70
0
 10
12.4892394221
 20
-2.6803228065
 10
12.5050723735
 20
-2.6730795385
 10
12.5775753552
 20
-2.6444862786
 10
12.654568457
 20
-2.6185380593
 10
12.7357285212
 20
-2.5954955278
 10
12.8204501653
 20
-2.5756325822
 10
12.9082120384
 20
-2.5591017634
 10
12.9985430225
 20
-2.5460273069
 10
13.0375013056
 20
-2.5420222117
  0
LWPOLYLINE
  5
3D6
100
AcDbEntity
  8
0
100
AcDbPolyline
 62
253
  6
CONTINUOUS
 90
13
 70
0
 10
10.742300502
 20
-3.3210978465
 10
10.7174582652
 20
-3.3316954157
 10
10.6905423021
 20
-3.3404433534
 10
10.6619634659
 20
-3.3472081286
 10
10.6321579927
 20
-3.3518864816
 10
10.601580842
 20
-3.3544070007
 10
10.5706987527
 20
-3.3547312119
 10
10.5399831183
 20
-3.3528541663
 10
10.5099027914
 20
-3.3488045158
 10
10.4809169271
 20
-3.3426440755
 10
10.4534679744
 20
-3.33446688
 10
10.4279749222
 20
-3.3243977487
 10
10.4048269043
 20
-3.3125903797
  0
LINE
  5
3D7
100
AcDbEntity
  8
0
100
AcDbLine
 62
253
  6
CONTINUOUS
 10
13.7467548872
 20
4.9478510385
 11
13.7787014198
 21
4.9418796995
  0
LINE
  5
3D8
100
AcDbEntity
  8
0
100
AcDbLine
 62
7
  6
CONTINUOUS
 10
12.3934879419
 20
4.1697352707
 11
12.7922936244
 21
4.0813446778
  0
LWPOLYLINE
  5
3D9
100
AcDbEntity
  8
0
100
AcDbPolyline
 62
253
  6
CONTINUOUS
 90
18
 70
0
 10
12.7639206907
 20
4.168830678
 10
12.8737915799
 20
4.1434130046
 10
12.9863108349
 20
4.1223002552
 10
13.1009624277
 20
4.1056120235
 10
13.2173196656
 20
4.0934611374
 10
13.3347503036
 20
4.0859833503
 10
13.4524065011
 20
4.0832360514
 10
13.56973048
 20
4.0851797984
 10
13.6861546376
 20
4.0917727655
 10
13.8008151376
 20
4.1029374493
 10
13.9128258292
 20
4.1185414003
 10
14.0220091552
 20
4.1385270661
 10
14.1285719671
 20
4.1629112923
 10
14.2323997522
 20
4.1917045925
 10
14.3325176584
 20
4.2246986493
 10
14.4278639449
 20
4.2615577334
 10
14.5177999245
 20
4.3020154677
 10
14.6020623381
 20
4.3459375324
  0
LWPOLYLINE
  5
3DA
100
AcDbEntity
  8
0
100
AcDbPolyline
 62
7
  6
CONTINUOUS
 90
20
 70
0
 10
12.7918493028
 20
4.0815101175
 10
12.8536416138
 20
4.0665453961
 10
12.9552831545
 20
4.0454035614
 10
13.0588914675
 20
4.0280737403
 10
13.1641656189
 20
4.0146416126
 10
13.2706701918
 20
4.0052207618
 10
13.3778272224
 20
3.9999137064
 10
13.4852371778
 20
3.9987309317
 10
13.5924888667
 20
4.0016681113
 10
13.6989764879
 20
4.008711854
 10
13.8042880101
 20
4.0198512836
 10
13.9080028878
 20
4.0350835961
 10
14.0095351518
 20
4.0543640066
 10
14.1085193804
 20
4.0776023565
 10
14.2046054572
 20
4.1046985622
 10
14.2973207372
 20
4.1355208187
 10
14.3863339486
 20
4.1699826623
 10
14.4712993853
 20
4.2080083933
 10
14.5518028714
 20
4.2494817927
 10
14.6276120976
 20
4.2942906289
  0
LWPOLYLINE
  5
3DB
100
AcDbEntity
  8
0
100
AcDbPolyline
 62
253
  6
CONTINUOUS
 90
15
 70
0
 10
12.5927444503
 20
2.9125660294
 10
12.6991505845
 20
2.8798963757
 10
12.8088044693
 20
2.8515126928
 10
12.9208826918
 20
2.8275985124
 10
13.0344936532
 20
2.8082964216
 10
13.1494432184
 20
2.7936063727
 10
13.2659453386
 20
2.7834801088
 10
13.3839224263
 20
2.7779578631
 10
13.5023373594
 20
2.7771425921
 10
13.6199626995
 20
2.7810527263
 10
13.7360088058
 20
2.789642866
 10
13.8501372193
 20
2.8028717837
 10
13.9618379205
 20
2.8206128791
 10
14.0707055197
 20
2.8427400291
 10
14.1761235516
 20
2.8690891737
  0
LINE
  5
3DC
100
AcDbEntity
  8
0
100
AcDbLine
 62
7
  6
CONTINUOUS
 10
-17.3193765181
 20
12.6842937425
 11
-18.3740850032
 21
13.0218543525
  0
LINE
  5
3DD
100
AcDbEntity
  8
0
100
AcDbLine
 62
7
  6
CONTINUOUS
 10
-17.3119374466
 20
13.1019000414
 11
-18.2521570538
 21
13.4028183601
  0
LWPOLYLINE
  5
3DE
100
AcDbEntity
  8
0
100
AcDbPolyline
 62
7
  6
CONTINUOUS
 90
8
 70
0
 10
12.5963080545
 20
2.8341311267
 10
12.6986738647
 20
2.8010016389
 10
12.8037422655
 20
2.7721769454
 10
12.9111487478
 20
2.7476895854
 10
13.0204511832
 20
2.7276112674
 10
13.1312109451
 20
2.712021434
 10
13.2430399734
 20
2.7009475118
 10
13.3554672029
 20
2.6943777899
  0
LWPOLYLINE
  5
3DF
100
AcDbEntity
  8
0
100
AcDbPolyline
 62
7
  6
CONTINUOUS
 90
13
 70
0
 10
-18.2521570538
 20
13.4028183601
 10
-18.2787092898
 20
13.4120686098
 10
-18.3028992243
 20
13.4219613508
 10
-18.3245954832
 20
13.4322741527
 10
-18.3437005932
 20
13.4427656263
 10
-18.3602163647
 20
13.4532168196
 10
-18.3741643115
 20
13.463396761
 10
-18.3855352238
 20
13.4730088258
 10
-18.3944574189
 20
13.481816951
 10
-18.4010715516
 20
13.4895537591
 10
-18.4055240098
 20
13.4958662964
 10
-18.4081071064
 20
13.5004664793
 10
-18.4092441906
 20
13.5031719053
  0
LINE
  5
3E0
100
AcDbEntity
  8
0
100
AcDbLine
 62
7
  6
CONTINUOUS
 10
-18.3740850033
 20
13.0218543525
 11
-18.425561036
 21
13.0399763003
  0
LINE
  5
3E1
100
AcDbEntity
  8
0
100
AcDbLine
 62
253
  6
CONTINUOUS
 10
12.4901140075
 20
2.9493939762
 11
12.5927444503
 21
2.9125660294
  0
LINE
  5
3E2
100
AcDbEntity
  8
0
100
AcDbLine
 62
7
  6
CONTINUOUS
 10
12.4970969254
 20
2.8715291941
 11
12.5963080545
 21
2.8341311267
  0
LWPOLYLINE
  5
3E3
100
AcDbEntity
  8
0
100
AcDbPolyline
 62
253
  6
CONTINUOUS
 90
32
 70
0
 10
12.4806375349
 20
1.9739627339
 10
12.5481244481
 20
1.9481658996
 10
12.652659274
 20
1.9137678607
 10
12.7608979471
 20
1.8835050637
 10
12.8720464501
 20
1.8576146638
 10
12.9855214261
 20
1.8362460659
 10
13.1008629439
 20
1.8194922747
 10
13.2174033177
 20
1.8073890219
 10
13.334519134
 20
1.7999372883
 10
13.4517020141
 20
1.7971286921
 10
13.5684507834
 20
1.7989637572
 10
13.6841982211
 20
1.8054466647
 10
13.7984088016
 20
1.8165376937
 10
13.9106422013
 20
1.8321360805
 10
14.0204666786
 20
1.8521497256
 10
14.1272589776
 20
1.8764557133
 10
14.2303066671
 20
1.9048865343
 10
14.3288462408
 20
1.9372129767
 10
14.4227246243
 20
1.973321548
 10
14.5121111228
 20
2.0132401083
 10
14.5968047272
 20
2.0569487867
 10
14.6760030883
 20
2.1041385372
 10
14.7489384471
 20
2.1544266503
 10
14.8151388315
 20
2.2075436439
 10
14.874349173
 20
2.2632518689
 10
14.9262458029
 20
2.321159669
 10
14.9706257621
 20
2.3809743889
 10
15.0072565656
 20
2.4423673625
 10
15.0358631682
 20
2.504872659
 10
15.0563143454
 20
2.568119082
 10
15.0686688317
 20
2.6318273143
 10
15.0730053075
 20
2.6979658477
  0
LWPOLYLINE
  5
3E4
100
AcDbEntity
  8
0
100
AcDbPolyline
 62
7
  6
CONTINUOUS
 90
33
 70
0
 10
12.4871385021
 20
1.8965841215
 10
12.5406442786
 20
1.8746980839
 10
12.6431476122
 20
1.8385789407
 10
12.7488993901
 20
1.8068284762
 10
12.8572831691
 20
1.7795737934
 10
12.9677688144
 20
1.7569096524
 10
13.079962617
 20
1.7389008816
 10
13.1933871261
 20
1.7255596653
 10
13.307527778
 20
1.7168727754
 10
13.421902549
 20
1.7128340186
 10
13.5360621749
 20
1.7134505021
 10
13.6495130627
 20
1.7187440235
 10
13.7617623245
 20
1.7287153761
 10
13.8723866991
 20
1.7432970067
 10
13.980989903
 20
1.7624305717
 10
14.0870200692
 20
1.7860456346
 10
14.1898608489
 20
1.8140519972
 10
14.2891107844
 20
1.8464180677
 10
14.3842868168
 20
1.8830342796
 10
14.474776652
 20
1.9236496002
 10
14.5602592222
 20
1.9681209307
 10
14.6403895552
 20
2.0163194137
 10
14.7146382001
 20
2.0680075389
 10
14.78270081
 20
2.1230762501
 10
14.8443241278
 20
2.1813634976
 10
14.8991475503
 20
2.2425410872
 10
14.9469766228
 20
2.3064539553
 10
14.9875289382
 20
2.3728487074
 10
15.0203998282
 20
2.441153556
 10
15.0454511946
 20
2.5111909994
 10
15.0624977304
 20
2.5823903691
 10
15.071427959
 20
2.6533875184
 10
15.07300541
 20
2.6986921835
  0
LWPOLYLINE
  5
3E5
100
AcDbEntity
  8
0
100
AcDbPolyline
 62
7
  6
CONTINUOUS
 90
28
 70
0
 10
12.4578745723
 20
2.235351571
 10
12.5326980718
 20
2.2043611286
 10
12.6352039691
 20
2.1677531585
 10
12.7408084107
 20
2.135605952
 10
12.8491350407
 20
2.1080016051
 10
12.959725771
 20
2.0850112676
 10
13.0720818094
 20
2.0666448906
 10
13.185741448
 20
2.0529133532
 10
13.3001930227
 20
2.0438474082
 10
13.4149560733
 20
2.0394850105
 10
13.5296089438
 20
2.0398707297
 10
13.6436554727
 20
2.044987641
 10
13.7566091203
 20
2.0547814659
 10
13.8680705731
 20
2.0692218708
 10
13.9775366741
 20
2.0882871255
 10
14.0844950235
 20
2.1119671812
 10
14.1885611996
 20
2.1402725314
 10
14.2894203544
 20
2.1731754011
 10
14.3864542975
 20
2.2105551048
 10
14.4789513976
 20
2.2522311982
 10
14.5668083297
 20
2.2983221185
 10
14.6491692578
 20
2.3486083475
 10
14.7245963434
 20
2.4022121331
 10
14.7927367115
 20
2.4586282844
 10
14.8537928649
 20
2.5178132155
 10
14.9075366982
 20
2.5794148167
 10
14.9538401144
 20
2.6431758508
 10
14.9926055768
 20
2.7088617414
  0
LINE
  5
3E6
100
AcDbEntity
  8
0
100
AcDbLine
 62
253
  6
CONTINUOUS
 10
12.3917762949
 20
2.9902533796
 11
12.4901140075
 21
2.9493939762
  0
LWPOLYLINE
  5
3E7
100
AcDbEntity
  8
0
100
AcDbPolyline
 62
253
  6
CONTINUOUS
 90
22
 70
0
 10
12.4204453624
 20
2.6518915853
 10
12.4782821754
 20
2.6274512019
 10
12.5792930957
 20
2.5904553514
 10
12.684008623
 20
2.5575812577
 10
12.7921611756
 20
2.528887599
 10
12.9033682546
 20
2.5044539754
 10
13.0169768613
 20
2.4844245491
 10
13.1322875054
 20
2.4689265763
 10
13.2487368794
 20
2.4580502354
 10
13.3658066007
 20
2.4518639829
 10
13.4828452386
 20
2.4503546137
 10
13.5992517959
 20
2.4534684548
 10
13.7145219312
 20
2.461152678
 10
13.8281469017
 20
2.4733613851
 10
13.9395827219
 20
2.4900494532
 10
14.0482902286
 20
2.511143265
 10
14.1538052199
 20
2.5364963087
 10
14.2556714698
 20
2.5659516697
 10
14.3533879234
 20
2.5993405837
 10
14.4464362012
 20
2.6364818731
 10
14.5343486202
 20
2.6772078421
 10
14.6167043343
 20
2.721317508
  0
LWPOLYLINE
  5
3E8
100
AcDbEntity
  8
0
100
AcDbPolyline
 62
253
  6
CONTINUOUS
 90
33
 70
0
 10
12.4509725949
 20
2.3121618956
 10
12.4624164421
 20
2.3072204219
 10
12.5638856611
 20
2.2692228397
 10
12.6691200554
 20
2.2353680609
 10
12.7774680729
 20
2.2058571215
 10
12.888583966
 20
2.1807818041
 10
13.0023180395
 20
2.1601426432
 10
13.1184235215
 20
2.143989691
 10
13.2360574575
 20
2.1324677785
 10
13.3541614374
 20
2.1256826283
 10
13.4719690249
 20
2.1236616399
 10
13.5891148943
 20
2.1263843393
 10
13.7051423431
 20
2.133769081
 10
13.8196302182
 20
2.1457404122
 10
13.931904694
 20
2.1622017391
 10
14.0411513304
 20
2.1830044962
 10
14.1466588064
 20
2.2079735703
 10
14.2481742945
 20
2.2369792281
 10
14.3456021789
 20
2.2699075466
 10
14.4384928153
 20
2.306559987
 10
14.5264311581
 20
2.3467506989
 10
14.6092831178
 20
2.390457491
 10
14.6867286084
 20
2.4376373705
 10
14.7581364692
 20
2.4879843504
 10
14.822943108
 20
2.541062934
 10
14.8808202683
 20
2.5965476553
 10
14.9315333753
 20
2.6541959753
 10
14.9747520917
 20
2.7136589655
 10
15.0102138561
 20
2.774616447
 10
15.0378241542
 20
2.8367843339
 10
15.0575410656
 20
2.899861214
 10
15.0693065209
 20
2.9635014292
 10
15.073077298
 20
3.0244853629
  0
LINE
  5
3E9
100
AcDbEntity
  8
0
100
AcDbLine
 62
7
  6
CONTINUOUS
 10
12.4015021154
 20
2.9131608112
 11
12.4970969254
 21
2.8715291941
  0
LWPOLYLINE
  5
3EA
100
AcDbEntity
  8
0
100
AcDbPolyline
 62
7
  6
CONTINUOUS
 90
23
 70
0
 10
12.4273684891
 20
2.5748458949
 10
12.4292343997
 20
2.5739494898
 10
12.5274506297
 20
2.5329302947
 10
12.629236741
 20
2.4962669318
 10
12.7342777514
 20
2.4640324383
 10
12.8419442961
 20
2.4363145066
 10
12.9516560167
 20
2.4131444093
 10
13.0630121968
 20
2.3945247621
 10
13.1756038532
 20
2.3804852422
 10
13.2889555996
 20
2.371081251
 10
13.4025937308
 20
2.3663392747
 10
13.5160999212
 20
2.3662157928
 10
13.6290012651
 20
2.3706737101
 10
13.7408040027
 20
2.3796852644
 10
13.8510640603
 20
2.3932384743
 10
13.9593246641
 20
2.4113338575
 10
14.0650988169
 20
2.4339118305
 10
14.1679378081
 20
2.4608650452
 10
14.2674130692
 20
2.4921006184
 10
14.3630886297
 20
2.5275397561
 10
14.4545461414
 20
2.5671318914
 10
14.541369235
 20
2.6108396442
 10
14.6231652814
 20
2.6585532197
  0
LWPOLYLINE
  5
3EB
100
AcDbEntity
  8
0
100
AcDbPolyline
 62
7
  6
CONTINUOUS
 90
4
 70
0
 10
14.3726775435
 20
-3.1505840475
 10
14.4287618957
 20
-3.1920462978
 10
14.4790507224
 20
-3.2347048229
 10
14.5233351167
 20
-3.2780908993
  0
LINE
  5
3EC
100
AcDbEntity
  8
0
100
AcDbLine
 62
253
  6
CONTINUOUS
 10
14.3654540578
 20
-3.4105895743
 11
14.3629439346
 21
-3.4086445078
  0
LWPOLYLINE
  5
3ED
100
AcDbEntity
  8
0
100
AcDbPolyline
 62
253
  6
CONTINUOUS
 90
7
 70
0
 10
14.4162144786
 20
-3.1236552059
 10
14.3556099689
 20
-3.076173341
 10
14.2895754351
 20
-3.0314656468
 10
14.2185385321
 20
-2.9897928369
 10
14.1428857372
 20
-2.9512879434
 10
14.063125683
 20
-2.9161461108
 10
13.9797514017
 20
-2.8845428948
  0
LWPOLYLINE
  5
3EE
100
AcDbEntity
  8
0
100
AcDbPolyline
 62
253
  6
CONTINUOUS
 90
23
 70
0
 10
13.8998765316
 20
-4.137314037
 10
13.8896007132
 20
-4.1279725369
 10
13.875641292
 20
-4.1186278689
 10
13.8600585344
 20
-4.1114089902
 10
13.8430631706
 20
-4.1064135239
 10
13.8248850337
 20
-4.103709025
 10
13.8057699518
 20
-4.1033320673
 10
13.7859764236
 20
-4.1052877485
 10
13.7657721226
 20
-4.1095496213
 10
13.7454302773
 20
-4.1160600513
 10
13.7252259763
 20
-4.124730996
 10
13.705432448
 20
-4.1354451957
 10
13.6863173661
 20
-4.1480577594
 10
13.6681392292
 20
-4.1623981236
 10
13.6511438654
 20
-4.1782723597
 10
13.6355611079
 20
-4.1954657957
 10
13.6216016866
 20
-4.21374592
 10
13.6094543789
 20
-4.2328655252
 10
13.5992834563
 20
-4.2525660515
 10
13.591226463
 20
-4.272581083
 10
13.585392356
 20
-4.2926399508
 10
13.5818600316
 20
-4.3124713931
 10
13.5806772585
 20
-4.3318072237
  0
LWPOLYLINE
  5
3EF
100
AcDbEntity
  8
0
100
AcDbPolyline
 62
7
  6
CONTINUOUS
 90
13
 70
0
 10
16.1140407687
 20
-6.4436640364
 10
16.1234026756
 20
-6.4526373971
 10
16.1352281049
 20
-6.4623623413
 10
16.1496179796
 20
-6.472592665
 10
16.1666157363
 20
-6.4830753243
 10
16.1861850734
 20
-6.4935460218
 10
16.2082647771
 20
-6.5037662653
 10
16.2328255549
 20
-6.5135376279
 10
16.259699239
 20
-6.5226288194
 10
16.2886038489
 20
-6.5308127308
 10
16.3193058252
 20
-6.5379191181
 10
16.3516125893
 20
-6.5438121659
 10
16.3852630984
 20
-6.5483628011
  0
LWPOLYLINE
  5
3F0
100
AcDbEntity
  8
0
100
AcDbPolyline
 62
7
  6
CONTINUOUS
 90
13
 70
0
 10
15.8254901054
 20
-6.7206812105
 10
15.8564343913
 20
-6.7505113535
 10
15.8902439452
 20
-6.7785662039
 10
15.9268059371
 20
-6.8047926686
 10
15.9662060794
 20
-6.8292495511
 10
16.0081922133
 20
-6.851761939
 10
16.0520366256
 20
-6.871998154
 10
16.0973778574
 20
-6.8899127824
 10
16.1442033807
 20
-6.9055999216
 10
16.1921588724
 20
-6.919019904
 10
16.2409764623
 20
-6.9301807401
 10
16.2905316617
 20
-6.9391232329
 10
16.3406500943
 20
-6.9458671154
  0
LINE
  5
3F1
100
AcDbEntity
  8
0
100
AcDbLine
 62
7
  6
CONTINUOUS
 10
15.8254901054
 20
-6.7206812105
 11
13.6113258683
 21
-4.414331211
  0
LINE
  5
3F2
100
AcDbEntity
  8
0
100
AcDbLine
 62
7
  6
CONTINUOUS
 10
16.1140407687
 20
-6.4436640364
 11
13.8998765316
 21
-4.137314037
  0
LWPOLYLINE
  5
3F3
100
AcDbEntity
  8
0
100
AcDbPolyline
 62
253
  6
CONTINUOUS
 90
7
 70
0
 10
15.8254901054
 20
-6.7206812105
 10
15.8236186161
 20
-6.7186786237
 10
15.8134476934
 20
-6.7054885273
 10
15.8053907001
 20
-6.6906307949
 10
15.7995565931
 20
-6.6743063518
 10
15.7960242688
 20
-6.6567359581
 10
15.7948414956
 20
-6.6381572232
  0
LWPOLYLINE
  5
3F4
100
AcDbEntity
  8
0
100
AcDbPolyline
 62
253
  6
CONTINUOUS
 90
20
 70
0
 10
18.956275239
 20
-11.9404002469
 10
18.9663490582
 20
-11.9525040503
 10
18.9787884237
 20
-11.9638507581
 10
18.9934251143
 20
-11.9742869255
 10
19.0100611939
 20
-11.9836714212
 10
19.0284716881
 20
-11.991877336
 10
19.0484076265
 20
-11.998793699
 10
19.0695994098
 20
-12.0043269782
 10
19.0917604554
 20
-12.0084023455
 10
19.1145910732
 20
-12.0109646886
 10
19.1377825184
 20
-12.0119793562
 10
19.1610211663
 20
-12.0114326267
 10
19.1839927541
 20
-12.0093318936
 10
19.2063866306
 20
-12.0057055657
 10
19.2278999568
 20
-12.0006026829
 10
19.2482418021
 20
-11.994092253
 10
19.2671370779
 20
-11.9862623183
 10
19.2843302579
 20
-11.9772187652
 10
19.2995888339
 20
-11.9670838924
 10
19.3127064598
 20
-11.9559947565
  0
LWPOLYLINE
  5
3F5
100
AcDbEntity
  8
0
100
AcDbPolyline
 62
7
  6
CONTINUOUS
 90
3
 70
0
 10
13.5755628081
 20
-4.3729691875
 10
13.5926655077
 20
-4.3938546971
 10
13.6113258683
 20
-4.414331211
  0
LWPOLYLINE
  5
3F6
100
AcDbEntity
  8
0
100
AcDbPolyline
 62
7
  6
CONTINUOUS
 90
19
 70
0
 10
7.8156780695
 20
-2.388894149
 10
7.8184422736
 20
-2.3948294036
 10
7.8209622047
 20
-2.4012649186
 10
7.8232362496
 20
-2.4082156782
 10
7.8252123902
 20
-2.4157630615
 10
7.8269529374
 20
-2.4238443052
 10
7.82863052
 20
-2.4322326137
 10
7.8302474472
 20
-2.4408835427
 10
7.831827416
 20
-2.4497882885
 10
7.8335635808
 20
-2.4587454052
 10
7.8354829786
 20
-2.4677295974
 10
7.8375699427
 20
-2.4766979656
 10
7.8399346147
 20
-2.4854229884
 10
7.8426123597
 20
-2.4939047932
 10
7.8455587914
 20
-2.5021141486
 10
7.8487518082
 20
-2.5098001268
 10
7.8521751862
 20
-2.5168930196
 10
7.8558215546
 20
-2.5234943387
 10
7.8596770428
 20
-2.5296260249
  0
LWPOLYLINE
  5
3F7
100
AcDbEntity
  8
0
100
AcDbPolyline
 62
253
  6
CONTINUOUS
 90
13
 70
0
 10
7.6396212386
 20
-2.3525648262
 10
7.6436760151
 20
-2.3647183077
 10
7.6477231552
 20
-2.3786322505
 10
7.6516635067
 20
-2.3940175641
 10
7.6553547711
 20
-2.4102869599
 10
7.6587644168
 20
-2.4272113532
 10
7.6619472231
 20
-2.4450800675
 10
7.6648322266
 20
-2.4636141591
 10
7.6673254537
 20
-2.4822857721
 10
7.6694082284
 20
-2.5010449215
 10
7.6710203379
 20
-2.5195220328
 10
7.6721003863
 20
-2.537092162
 10
7.6726331788
 20
-2.5533229336
  0
LWPOLYLINE
  5
3F8
100
AcDbEntity
  8
0
100
AcDbPolyline
 62
253
  6
CONTINUOUS
 90
6
 70
0
 10
8.0213271311
 20
-2.2734830734
 10
8.0227631814
 20
-2.2851390117
 10
8.0266147216
 20
-2.295974245
 10
8.0328749894
 20
-2.306504721
 10
8.0414730809
 20
-2.3165343168
 10
8.0523157591
 20
-2.3258976883
  0
LWPOLYLINE
  5
3F9
100
AcDbEntity
  8
0
100
AcDbPolyline
 62
253
  6
CONTINUOUS
 90
10
 70
0
 10
7.7973687228
 20
-12.1248936966
 10
7.7954517491
 20
-12.1091631682
 10
7.7930843315
 20
-12.0932101369
 10
7.7905274508
 20
-12.0767660797
 10
7.7877744968
 20
-12.0599267793
 10
7.7846225677
 20
-12.0428538901
 10
7.7811926197
 20
-12.025383441
 10
7.7775006945
 20
-12.0075875558
 10
7.7733947908
 20
-11.9897731567
 10
7.768792411
 20
-11.9721671685
  0
LWPOLYLINE
  5
3FA
100
AcDbEntity
  8
0
100
AcDbPolyline
 62
7
  6
CONTINUOUS
 90
17
 70
0
 10
7.5554018564
 20
8.1311432613
 10
7.5483654854
 20
8.2180674589
 10
7.5275243855
 20
8.3098061657
 10
7.4936723878
 20
8.4028650829
 10
7.4471885632
 20
8.4952800578
 10
7.3914693733
 20
8.58029855
 10
7.3279215787
 20
8.6563342817
 10
7.2589656951
 20
8.7204910755
 10
7.1859385632
 20
8.7710724559
 10
7.1141761002
 20
8.804382563
 10
7.0451470471
 20
8.8201746192
 10
6.981480699
 20
8.8178471099
 10
6.9246885632
 20
8.7969650093
 10
6.8789203046
 20
8.7590541223
 10
6.8448462761
 20
8.7053517307
 10
6.8237643469
 20
8.6379033417
 10
6.8164752701
 20
8.557790174
  0
LWPOLYLINE
  5
3FB
100
AcDbEntity
  8
0
100
AcDbPolyline
 62
253
  6
CONTINUOUS
 90
30
 70
0
 10
8.0652601931
 20
-1.9617538823
 10
8.0554704132
 20
-1.5363518057
 10
8.0270273443
 20
-1.1038764568
 10
7.9799309862
 20
-0.6643278358
 10
7.9139228207
 20
-0.2164769072
 10
7.8292613661
 20
0.2384472935
 10
7.7267221775
 20
0.6967576604
 10
7.6061724289
 20
1.1584702212
 10
7.4677449463
 20
1.6235689482
 10
7.3126137625
 20
2.0883186522
 10
7.1406552355
 20
2.5527102658
 10
6.9519930073
 20
3.0167528565
 10
6.7481720375
 20
3.4767384374
 10
6.5290797244
 20
3.9326333103
 10
6.2948286697
 20
4.3844711735
 10
6.0473016378
 20
4.8286451354
 10
5.7863987877
 20
5.2650975602
 10
5.5122199605
 20
5.6938860838
 10
5.2269474433
 20
6.1115767216
 10
4.9304957452
 20
6.5180888182
 10
4.6229503572
 20
6.913503029
 10
4.3067500389
 20
7.2946273369
 10
3.9818251104
 20
7.6613592089
 10
3.6482452517
 20
8.0138011778
 10
3.3086582624
 20
8.3490688246
 10
2.963011604
 20
8.667039115
 10
2.6113578152
 20
8.9678350833
 10
2.2565023111
 20
9.2489414127
 10
1.8993802303
 20
9.5095196644
 10
1.5390564343
 20
9.7504082773
  0
LWPOLYLINE
  5
3FC
100
AcDbEntity
  8
0
100
AcDbPolyline
 62
7
  6
CONTINUOUS
 90
31
 70
0
 10
8.0213262103
 20
-1.9005126933
 10
8.0120419633
 20
-1.4855970252
 10
7.9841896949
 20
-1.0606465025
 10
7.9378116993
 20
-0.6268478906
 10
7.8730087825
 20
-0.1854341738
 10
7.7899330902
 20
0.2623708418
 10
7.6887786368
 20
0.715367885
 10
7.5697906611
 20
1.1723214861
 10
7.4332822824
 20
1.6319209721
 10
7.2796222356
 20
2.0928490473
 10
7.1092214972
 20
2.5538161821
 10
6.922540828
 20
3.0135298448
 10
6.7201010486
 20
3.4706739322
 10
6.5024579056
 20
3.9239699134
 10
6.270212501
 20
4.3721475354
 10
6.0240243025
 20
4.8139237588
 10
5.7645795294
 20
5.2480635595
 10
5.4926024659
 20
5.6733544453
 10
5.20887231
 20
6.0885829689
 10
4.9141869192
 20
6.4925916787
 10
4.6093746438
 20
6.8842573916
 10
4.2953139291
 20
7.2624683477
 10
3.9728943858
 20
7.6261749309
 10
3.643025702
 20
7.974374802
 10
3.3066602777
 20
8.3060903504
 10
2.9647609586
 20
8.6204047702
 10
2.6182908203
 20
8.9164678565
 10
2.2682364363
 20
9.1934736932
 10
1.9155985032
 20
9.4506709055
 10
1.5613815027
 20
9.6873707702
 10
1.2065933163
 20
9.9029467221
  0
LINE
  5
3FD
100
AcDbEntity
  8
0
100
AcDbLine
 62
253
  6
CONTINUOUS
 10
8.0213262103
 20
-2.2731796118
 11
8.0213271311
 21
-2.2734830734
  0
LINE
  5
3FE
100
AcDbEntity
  8
0
100
AcDbLine
 62
253
  6
CONTINUOUS
 10
7.8059321087
 20
-1.804604863
 11
7.8059321087
 21
-1.9704950982
  0
LINE
  5
3FF
100
AcDbEntity
  8
0
100
AcDbLine
 62
253
  6
CONTINUOUS
 10
7.8059321087
 20
-12.2528282261
 11
7.8059321087
 21
-12.4187184613
  0
LINE
  5
400
100
AcDbEntity
  8
0
100
AcDbLine
 62
253
  6
CONTINUOUS
 10
7.8914430468
 20
-1.7824223465
 11
7.8914430468
 21
-1.9483014972
  0
LINE
  5
401
100
AcDbEntity
  8
0
100
AcDbLine
 62
253
  6
CONTINUOUS
 10
7.8914430468
 20
-12.2306433695
 11
7.8914430468
 21
-12.3965359448
  0
LINE
  5
402
100
AcDbEntity
  8
0
100
AcDbLine
 62
253
  6
CONTINUOUS
 10
7.9046662109
 20
-2.5986055684
 11
7.9046662109
 21
-11.7535654759
  0
LINE
  5
403
100
AcDbEntity
  8
0
100
AcDbLine
 62
7
  6
CONTINUOUS
 10
8.0213262103
 20
-12.5146262916
 11
8.0213262103
 21
-12.1419634633
  0
LINE
  5
404
100
AcDbEntity
  8
0
100
AcDbLine
 62
7
  6
CONTINUOUS
 10
8.0213262103
 20
-2.2731758543
 11
8.0213262103
 21
-1.9005126933
  0
LINE
  5
405
100
AcDbEntity
  8
0
100
AcDbLine
 62
253
  6
CONTINUOUS
 10
8.0652601931
 20
-1.9617538823
 11
8.0652601931
 21
-2.3344813302
  0
LINE
  5
406
100
AcDbEntity
  8
0
100
AcDbLine
 62
253
  6
CONTINUOUS
 10
8.0652601931
 20
-12.2031405456
 11
8.0652601931
 21
-12.5758674806
  0
LWPOLYLINE
  5
407
100
AcDbEntity
  8
0
100
AcDbPolyline
 62
7
  6
CONTINUOUS
 90
6
 70
0
 10
8.0213270342
 20
-2.2734791412
 10
8.0213074071
 20
-2.2761690228
 10
8.020496919
 20
-2.2917252419
 10
8.0187038386
 20
-2.3047854801
 10
8.0162292201
 20
-2.3152962554
 10
8.0148633928
 20
-2.3195082444
  0
LINE
  5
408
100
AcDbEntity
  8
0
100
AcDbLine
 62
7
  6
CONTINUOUS
 10
8.0130912374
 20
-12.8954420198
 11
8.0213262103
 21
-12.5146262916
  0
LWPOLYLINE
  5
409
100
AcDbEntity
  8
0
100
AcDbPolyline
 62
253
  6
CONTINUOUS
 90
15
 70
0
 10
7.8914430468
 20
-12.3965359448
 10
7.8823328447
 20
-12.7929884916
 10
7.8550272091
 20
-13.1778341565
 10
7.8096009826
 20
-13.5500181044
 10
7.7461786755
 20
-13.908520205
 10
7.6649341239
 20
-14.2523578288
 10
7.5660900134
 20
-14.5805885409
 10
7.449917269
 20
-14.8923126837
 10
7.3167343119
 20
-15.186675843
 10
7.1669061875
 20
-15.4628711898
 10
7.0008435641
 20
-15.7201416918
 10
6.819001608
 20
-15.9577821887
 10
6.6218787353
 20
-16.1751413241
 10
6.410015246
 20
-16.3716233319
 10
6.1839918433
 20
-16.5466896685
  0
LWPOLYLINE
  5
40A
100
AcDbEntity
  8
0
100
AcDbPolyline
 62
7
  6
CONTINUOUS
 90
52
 70
0
 10
9.6608122974
 20
10.3858397029
 10
9.6618406506
 20
10.4231180305
 10
9.6648444472
 20
10.4588520178
 10
9.6698236872
 20
10.4930416648
 10
9.6768141944
 20
10.5258147772
 10
9.6857801451
 20
10.5570435493
 10
9.6966140679
 20
10.5863445641
 10
9.7093464282
 20
10.613690177
 10
9.7239467607
 20
10.6391080325
 10
9.7402161985
 20
10.6622976475
 10
9.758128916
 20
10.6832053518
 10
9.7777107388
 20
10.7018848155
 10
9.7988402774
 20
10.7181965668
 10
9.8215864748
 20
10.7321604239
 10
9.845880388
 20
10.7437565685
 10
9.8713937989
 20
10.7527860738
 10
9.8981288901
 20
10.7591959599
 10
9.9260834791
 20
10.7630392066
 10
9.9549228004
 20
10.7642758268
 10
9.9846543898
 20
10.7628724292
 10
10.0152707116
 20
10.7588624049
 10
10.046414394
 20
10.7523059397
 10
10.0780869268
 20
10.7431749709
 10
10.1102868202
 20
10.7314975611
 10
10.142652232
 20
10.7174180839
 10
10.1751829795
 20
10.7009120293
 10
10.2078792455
 20
10.6820039072
 10
10.2403797366
 20
10.6609116204
 10
10.2726815723
 20
10.6376132051
 10
10.3047876333
 20
10.6121306251
 10
10.336345268
 20
10.5847476754
 10
10.3673479015
 20
10.5554461762
 10
10.3978021089
 20
10.5242443072
 10
10.4273749641
 20
10.4914804024
 10
10.4560596996
 20
10.4571357949
 10
10.4838630828
 20
10.4212291515
 10
10.5104724909
 20
10.3841548075
 10
10.5358916242
 20
10.345860898
 10
10.5601167822
 20
10.3063992878
 10
10.5828242408
 20
10.2663199062
 10
10.6039509149
 20
10.2257141813
 10
10.6235598896
 20
10.1844906849
 10
10.6415166956
 20
10.1429250614
 10
10.6578481023
 20
10.1009307094
 10
10.6725273404
 20
10.0585942303
 10
10.6853396332
 20
10.0164510721
 10
10.6962543335
 20
9.9745054561
 10
10.7053020886
 20
9.932753161
 10
10.7123600632
 20
9.8917169707
 10
10.7173873123
 20
9.8515711466
 10
10.720424781
 20
9.8121414274
 10
10.7214724692
 20
9.7734278129
  0
LWPOLYLINE
  5
40B
100
AcDbEntity
  8
0
100
AcDbPolyline
 62
253
  6
CONTINUOUS
 90
14
 70
0
 10
7.8059321087
 20
-12.4187184613
 10
7.7924699694
 20
-12.8221731579
 10
7.7652182578
 20
-13.2110312059
 10
7.7219673582
 20
-13.5847397935
 10
7.658773872
 20
-13.9428889425
 10
7.5756116784
 20
-14.2849022351
 10
7.4767511719
 20
-14.6099937334
 10
7.3618485161
 20
-14.9176134963
 10
7.2291144344
 20
-15.2073404803
 10
7.0813844238
 20
-15.4786111804
 10
6.9187122699
 20
-15.7309766168
 10
6.7401569572
 20
-15.9640053632
 10
6.5474910887
 20
-16.1772387053
 10
6.3411171582
 20
-16.3703147923
  0
LINE
  5
40C
100
AcDbEntity
  8
0
100
AcDbLine
 62
253
  6
CONTINUOUS
 10
7.8053315122
 20
-1.9869146141
 11
7.8059321087
 21
-1.9704950982
  0
LINE
  5
40D
100
AcDbEntity
  8
0
100
AcDbLine
 62
253
  6
CONTINUOUS
 10
8.0652601931
 20
-2.3344813302
 11
8.0634589542
 21
-2.3691831493
  0
LWPOLYLINE
  5
40E
100
AcDbEntity
  8
0
100
AcDbPolyline
 62
253
  6
CONTINUOUS
 90
7
 70
0
 10
9.9780400259
 20
15.7513495947
 10
9.9773507908
 20
15.7430611649
 10
9.9742520201
 20
15.7320133961
 10
9.9686670138
 20
15.7212189186
 10
9.9606552902
 20
15.7108826853
 10
9.9503018698
 20
15.7011777721
 10
9.9377430813
 20
15.6922875808
  0
LWPOLYLINE
  5
40F
100
AcDbEntity
  8
0
100
AcDbPolyline
 62
253
  6
CONTINUOUS
 90
4
 70
0
 10
7.8026013314
 20
-2.0294441352
 10
7.8041387404
 20
-2.015895422
 10
7.8048548185
 20
-2.0018372318
 10
7.8053315122
 20
-1.9869146141
  0
LWPOLYLINE
  5
410
100
AcDbEntity
  8
0
100
AcDbPolyline
 62
253
  6
CONTINUOUS
 90
12
 70
0
 10
8.0634589542
 20
-2.3691831493
 10
8.0585695432
 20
-2.4009118584
 10
8.0505919601
 20
-2.4296674575
 10
8.0393644652
 20
-2.4557141832
 10
8.0250487981
 20
-2.4787877989
 10
8.0081301787
 20
-2.4980955952
 10
7.9885207046
 20
-2.5135090172
 10
7.966308278
 20
-2.5251566199
 10
7.9422418252
 20
-2.5326313575
 10
7.9165709882
 20
-2.5357975484
 10
7.8890461249
 20
-2.5347908744
 10
7.8596672353
 20
-2.5296113354
  0
LWPOLYLINE
  5
411
100
AcDbEntity
  8
0
100
AcDbPolyline
 62
7
  6
CONTINUOUS
 90
6
 70
0
 10
8.0148633928
 20
-2.3195082444
 10
8.0135267342
 20
-2.3229191824
 10
8.0113903632
 20
-2.3271785963
 10
8.0105402136
 20
-2.3284516053
 10
8.011202975
 20
-2.3278179815
 10
8.0127000176
 20
-2.3266829561
  0
LWPOLYLINE
  5
412
100
AcDbEntity
  8
0
100
AcDbPolyline
 62
253
  6
CONTINUOUS
 90
10
 70
0
 10
7.8156780812
 20
-2.3888941797
 10
7.8221695171
 20
-2.3786465692
 10
7.8291170127
 20
-2.3687467306
 10
7.8364784726
 20
-2.3592637829
 10
7.8442110042
 20
-2.3502621375
 10
7.8522633858
 20
-2.3418101973
 10
7.8605754349
 20
-2.3339778201
 10
7.8690894326
 20
-2.3268241637
 10
7.8777513754
 20
-2.3203992763
 10
7.8865029315
 20
-2.314751456
  0
LWPOLYLINE
  5
413
100
AcDbEntity
  8
0
100
AcDbPolyline
 62
253
  6
CONTINUOUS
 90
11
 70
0
 10
12.4822922846
 20
-1.4225329331
 10
12.4930973935
 20
-1.4138504417
 10
12.5126789103
 20
-1.3933503044
 10
12.5290115569
 20
-1.3691259586
 10
12.5419323957
 20
-1.3414188883
 10
12.5513126765
 20
-1.310505194
 10
12.5570590979
 20
-1.2766926145
 10
12.5591143925
 20
-1.2403177737
 10
12.5574580265
 20
-1.2017428737
 10
12.5521064676
 20
-1.1613521213
 10
12.5431129757
 20
-1.1195477801
  0
LINE
  5
414
100
AcDbEntity
  8
0
100
AcDbLine
 62
253
  6
CONTINUOUS
 10
12.5431131435
 20
-1.1195517041
 11
12.4267878654
 21
-1.205447286
  0
LINE
  5
415
100
AcDbEntity
  8
0
100
AcDbLine
 62
7
  6
CONTINUOUS
 10
12.4485950248
 20
-1.4472579975
 11
12.4822567302
 21
-1.4225559726
  0
LINE
  5
416
100
AcDbEntity
  8
0
100
AcDbLine
 62
7
  6
CONTINUOUS
 10
13.1505893694
 20
-2.9542825991
 11
12.5049686805
 21
-3.3249488447
  0
LINE
  5
417
100
AcDbEntity
  8
0
100
AcDbLine
 62
7
  6
CONTINUOUS
 10
13.5107964399
 20
-2.7553507525
 11
13.5833851215
 21
-2.7193537451
  0
LINE
  5
418
100
AcDbEntity
  8
0
100
AcDbLine
 62
253
  6
CONTINUOUS
 10
12.540215996
 20
-3.2372915928
 11
12.4892394221
 21
-3.2610434349
  0
LWPOLYLINE
  5
419
100
AcDbEntity
  8
0
100
AcDbPolyline
 62
7
  6
CONTINUOUS
 90
10
 70
0
 10
12.4892394221
 20
-3.0069026422
 10
12.5064699707
 20
-2.9990482027
 10
12.5792972935
 20
-2.970467611
 10
12.6565423319
 20
-2.9445632016
 10
12.7378300066
 20
-2.9215660921
 10
12.8225738815
 20
-2.9017447837
 10
12.9102783634
 20
-2.8853040363
 10
13.0005021736
 20
-2.8723598765
 10
13.0927389861
 20
-2.8629960824
 10
13.1250092787
 20
-2.8610308648
  0
LINE
  5
41A
100
AcDbEntity
  8
0
100
AcDbLine
 62
7
  6
CONTINUOUS
 10
12.4892394221
 20
-3.3335773236
 11
12.5036512823
 21
-3.3271714211
  0
LWPOLYLINE
  5
41B
100
AcDbEntity
  8
0
100
AcDbPolyline
 62
7
  6
CONTINUOUS
 90
6
 70
0
 10
14.2992490479
 20
-4.5533142539
 10
14.3080941759
 20
-4.5496764514
 10
14.4026918287
 20
-4.5048780134
 10
14.4924288449
 20
-4.456116443
 10
14.5769195374
 20
-4.4035265825
 10
14.6558848294
 20
-4.3472761564
  0
LWPOLYLINE
  5
41C
100
AcDbEntity
  8
0
100
AcDbPolyline
 62
253
  6
CONTINUOUS
 90
6
 70
0
 10
14.247818111
 20
-4.4997420123
 10
14.2556714809
 20
-4.4969202976
 10
14.3533879377
 20
-4.4563867322
 10
14.4464362185
 20
-4.4121045171
 10
14.5343486402
 20
-4.3642411769
 10
14.6167043569
 20
-4.3129978658
  0
LWPOLYLINE
  5
41D
100
AcDbEntity
  8
0
100
AcDbPolyline
 62
7
  6
CONTINUOUS
 90
8
 70
0
 10
14.0675970433
 20
-4.3120175191
 10
14.0994042744
 20
-4.3025296217
 10
14.2012018992
 20
-4.2668365168
 10
14.2994293775
 20
-4.2268781565
 10
14.3936577425
 20
-4.1827806582
 10
14.4833624729
 20
-4.1347116986
 10
14.5681705443
 20
-4.0827535913
 10
14.6476370842
 20
-4.0270144529
  0
LWPOLYLINE
  5
41E
100
AcDbEntity
  8
0
100
AcDbPolyline
 62
253
  6
CONTINUOUS
 90
21
 70
0
 10
-18.2521570538
 20
13.4028183601
 10
-18.2552193825
 20
13.4036306611
 10
-18.2646400665
 20
13.4042526023
 10
-18.2747163724
 20
13.4022792054
 10
-18.2853120353
 20
13.3977371573
 10
-18.2962837671
 20
13.3906878815
 10
-18.3074831941
 20
13.3812267072
 10
-18.318758863
 20
13.3694815807
 10
-18.32995829
 20
13.3556113346
 10
-18.3409300218
 20
13.3398035402
 10
-18.3515256847
 20
13.3222719708
 10
-18.3616019906
 20
13.3032537108
 10
-18.3710226746
 20
13.2830059495
 10
-18.3796603381
 20
13.2618025033
 10
-18.3873981717
 20
13.2399301122
 10
-18.3941315343
 20
13.217684563
 10
-18.3997693687
 20
13.1953666884
 10
-18.4042354331
 20
13.1732782995
 10
-18.4074693314
 20
13.1517181038
 10
-18.4094273308
 20
13.1309776659
 10
-18.4100829526
 20
13.1113374648
  0
LINE
  5
41F
100
AcDbEntity
  8
0
100
AcDbLine
 62
253
  6
CONTINUOUS
 10
13.7787014198
 20
4.9418796995
 11
13.8124864482
 21
4.9311549246
  0
LINE
  5
420
100
AcDbEntity
  8
0
100
AcDbLine
 62
253
  6
CONTINUOUS
 10
13.8124864482
 20
4.9311549246
 11
13.8368253125
 21
4.9216239476
  0
LWPOLYLINE
  5
421
100
AcDbEntity
  8
0
100
AcDbPolyline
 62
7
  6
CONTINUOUS
 90
10
 70
0
 10
12.7918349704
 20
4.0814529747
 10
12.7876129642
 20
4.0831172627
 10
12.7823133057
 20
4.0872182825
 10
12.7775893818
 20
4.0934005706
 10
12.7734867263
 20
4.1016273273
 10
12.7700656236
 20
4.1118040721
 10
12.7673770271
 20
4.1237713441
 10
12.7654466013
 20
4.137361928
 10
12.7642847061
 20
4.1524296555
 10
12.7638974675
 20
4.1687986769
  0
LWPOLYLINE
  5
422
100
AcDbEntity
  8
0
100
AcDbPolyline
 62
253
  6
CONTINUOUS
 90
23
 70
0
 10
12.3546712967
 20
3.3346297656
 10
12.409815237
 20
3.3089394351
 10
12.5095592936
 20
3.2685612606
 10
12.6134348253
 20
3.2323429266
 10
12.7204325553
 20
3.2005496889
 10
12.8295482393
 20
3.1733079829
 10
12.9405996381
 20
3.1505218277
 10
13.0537903268
 20
3.1321100123
 10
13.1688076415
 20
3.1181661018
 10
13.2849355924
 20
3.1088257654
 10
13.4018001044
 20
3.1041034194
 10
13.51900957
 20
3.104011547
 10
13.6358373835
 20
3.1085688956
 10
13.7513989812
 20
3.1177529267
 10
13.8650616422
 20
3.1315249055
 10
13.9763446543
 20
3.1498323083
 10
14.0846417025
 20
3.172513765
 10
14.1894135236
 20
3.199390378
 10
14.2902256291
 20
3.2303078941
 10
14.3866419619
 20
3.2651218377
 10
14.4781679051
 20
3.3036721125
 10
14.5643738471
 20
3.3457696799
 10
14.6449634472
 20
3.3911998062
  0
LINE
  5
423
100
AcDbEntity
  8
0
100
AcDbLine
 62
253
  6
CONTINUOUS
 10
12.298423585
 20
3.034848627
 11
12.3917762949
 21
2.9902533796
  0
LWPOLYLINE
  5
424
100
AcDbEntity
  8
0
100
AcDbPolyline
 62
7
  6
CONTINUOUS
 90
23
 70
0
 10
12.3623073253
 20
3.2592888758
 10
12.4300429775
 20
3.2267396109
 10
12.5295382673
 20
3.1852731552
 10
12.6325978628
 20
3.1483359103
 10
12.7388739135
 20
3.1159439164
 10
12.8478771275
 20
3.0881226401
 10
12.9591097027
 20
3.064914032
 10
13.0720817446
 20
3.0463714643
 10
13.1862955998
 20
3.0325609589
 10
13.3012461409
 20
3.0235376962
 10
13.41644591
 20
3.0192742533
 10
13.5314167636
 20
3.0197313984
 10
13.6456464657
 20
3.0248823639
 10
13.7586386856
 20
3.0347112208
 10
13.8699461988
 20
3.0492208016
 10
13.9790788239
 20
3.0683725009
 10
14.0855871853
 20
3.0920671977
 10
14.1891127747
 20
3.1202406117
 10
14.2892447221
 20
3.1528471981
 10
14.3854418226
 20
3.189821291
 10
14.4771956713
 20
3.2311091406
 10
14.5644534092
 20
3.2768153827
 10
14.6464334349
 20
3.3266635099
  0
LINE
  5
425
100
AcDbEntity
  8
0
100
AcDbLine
 62
7
  6
CONTINUOUS
 10
12.3098298638
 20
2.9589866701
 11
12.4015021154
 21
2.9131608112
  0
LWPOLYLINE
  5
426
100
AcDbEntity
  8
0
100
AcDbPolyline
 62
253
  6
CONTINUOUS
 90
23
 70
0
 10
12.2462454338
 20
4.0422644553
 10
12.3378949929
 20
3.9950225804
 10
12.4344326547
 20
3.9516496475
 10
12.5355026561
 20
3.9122386989
 10
12.6405651354
 20
3.876974453
 10
12.7492634178
 20
3.8459857072
 10
12.8609569067
 20
3.8194853624
 10
12.9746030484
 20
3.797658752
 10
13.0892640548
 20
3.7805323625
 10
13.2046926112
 20
3.7680149777
 10
13.3208497413
 20
3.7600595008
 10
13.4372813207
 20
3.7567042893
 10
13.553353277
 20
3.7579883389
 10
13.6687764566
 20
3.7638841949
 10
13.7831469628
 20
3.7743497936
 10
13.8957781535
 20
3.7893220412
 10
14.0059585798
 20
3.8087099066
 10
14.1131229441
 20
3.8324289614
 10
14.2167623998
 20
3.8603887388
 10
14.3163268553
 20
3.8923901452
 10
14.4113435591
 20
3.9282133876
 10
14.5014202379
 20
3.9676669223
 10
14.5861549363
 20
4.0105639564
  0
LWPOLYLINE
  5
427
100
AcDbEntity
  8
0
100
AcDbPolyline
 62
253
  6
CONTINUOUS
 90
23
 70
0
 10
12.3199367307
 20
3.6773384239
 10
12.3250630004
 20
3.6746435566
 10
12.4200613444
 20
3.6310777639
 10
12.5196375251
 20
3.5914308381
 10
12.6232767813
 20
3.5558393286
 10
12.7304634188
 20
3.5244365694
 10
12.8407212948
 20
3.4973472181
 10
12.9535541994
 20
3.4747065179
 10
13.0684293061
 20
3.4566501226
 10
13.1847891526
 20
3.4432359034
 10
13.3021007555
 20
3.4344734572
 10
13.4197644634
 20
3.4303780413
 10
13.5371039287
 20
3.4309577774
 10
13.6533853364
 20
3.4361993709
 10
13.7682252426
 20
3.4460817905
 10
13.8814828311
 20
3.4605606253
 10
13.9928931191
 20
3.4796067538
 10
14.1016085952
 20
3.5031034747
 10
14.2066341679
 20
3.5308388127
 10
14.3072875358
 20
3.5626160324
 10
14.4032648685
 20
3.5983111339
 10
14.4942388852
 20
3.6377211809
 10
14.5799067666
 20
3.6806587145
  0
LWPOLYLINE
  5
428
100
AcDbEntity
  8
0
100
AcDbPolyline
 62
253
  6
CONTINUOUS
 90
14
 70
0
 10
-8.0168572323
 20
15.2791769645
 10
-8.3803827434
 20
15.4777681387
 10
-8.7407065394
 20
15.6529724136
 10
-9.0978286202
 20
15.8047897893
 10
-9.4526841243
 20
15.9334617012
 10
-9.8043379132
 20
16.0387467138
 10
-10.1499845715
 20
16.1199205205
 10
-10.4895715608
 20
16.1767994169
 10
-10.8231514195
 20
16.2095671073
 10
-11.148076348
 20
16.2180503982
 10
-11.4642766663
 20
16.2020662921
 10
-11.7718220543
 20
16.1617977864
 10
-12.0682737524
 20
16.09762068
 10
-12.3535462696
 20
16.0093555944
  0
LINE
  5
429
100
AcDbEntity
  8
0
100
AcDbLine
 62
253
  6
CONTINUOUS
 10
-8.2963747247
 20
15.2293549903
 11
-7.9484701452
 21
15.0389984627
  0
LWPOLYLINE
  5
42A
100
AcDbEntity
  8
0
100
AcDbPolyline
 62
7
  6
CONTINUOUS
 90
16
 70
0
 10
-7.9857948391
 20
15.2105164354
 10
-8.3197307868
 20
15.3938176224
 10
-8.6526030792
 20
15.5575208613
 10
-8.9835552617
 20
15.7012240098
 10
-9.3116398042
 20
15.8245479121
 10
-9.6361172661
 20
15.9272511062
 10
-9.9564370968
 20
16.0091655759
 10
-10.2717148703
 20
16.0700544144
 10
-10.5811815908
 20
16.109762739
 10
-10.8844367528
 20
16.1281911158
 10
-11.1807428532
 20
16.1252000466
 10
-11.4692434282
 20
16.1007042825
 10
-11.7493624774
 20
16.0546448342
 10
-12.0204252119
 20
15.9869919059
 10
-12.2816664463
 20
15.897788759
 10
-12.5324114291
 20
15.7871176954
  0
LWPOLYLINE
  5
42B
100
AcDbEntity
  8
0
100
AcDbPolyline
 62
7
  6
CONTINUOUS
 90
24
 70
0
 10
12.2465407315
 20
3.9741586414
 10
12.3367045561
 20
3.9246359767
 10
12.4319255567
 20
3.8790891314
 10
12.5312373737
 20
3.8378648881
 10
12.6340040764
 20
3.8010945202
 10
12.7399334778
 20
3.7687951972
 10
12.8484676818
 20
3.7410945945
 10
12.9590712471
 20
3.7180688055
 10
13.071305094
 20
3.6996935884
 10
13.1847276784
 20
3.6859570367
 10
13.2988409322
 20
3.6768717003
 10
13.4131521417
 20
3.6724599516
 10
13.5272253183
 20
3.6727515313
 10
13.6405900612
 20
3.6777245983
 10
13.7527561648
 20
3.6873080371
 10
13.863271185
 20
3.7014425345
 10
13.9716991935
 20
3.7200874491
 10
14.0775159653
 20
3.7432011928
 10
14.1801786392
 20
3.7707242255
 10
14.2792768706
 20
3.802541849
 10
14.3744258578
 20
3.8385304792
 10
14.4652304097
 20
3.8785817831
 10
14.5513316408
 20
3.9226303426
 10
14.6322738631
 20
3.9705917891
  0
LWPOLYLINE
  5
42C
100
AcDbEntity
  8
0
100
AcDbPolyline
 62
7
  6
CONTINUOUS
 90
20
 70
0
 10
12.3274748159
 20
3.6029638929
 10
12.3315315852
 20
3.6007151336
 10
12.4266554393
 20
3.5547993946
 10
12.5258168373
 20
3.5133301564
 10
12.6282649021
 20
3.4764211045
 10
12.7337367133
 20
3.4440000072
 10
12.8418086094
 20
3.416098302
 10
12.951990589
 20
3.3927845467
 10
13.0638343968
 20
3.374126653
 10
13.1769435988
 20
3.3601358288
 10
13.2908210459
 20
3.3507917674
 10
13.4049704335
 20
3.3460819832
 10
13.5189716241
 20
3.3460052901
 10
13.6323455264
 20
3.3505788101
 10
13.7445862074
 20
3.3598156639
 10
13.8552610419
 20
3.3736599294
 10
13.9639135499
 20
3.3920342195
 10
14.0700678298
 20
3.4148696791
 10
14.1732931895
 20
3.4421223922
 10
14.2731094446
 20
3.4737557451
  0
LINE
  5
42D
100
AcDbEntity
  8
0
100
AcDbLine
 62
253
  6
CONTINUOUS
 10
-8.0104349994
 20
14.9760329327
 11
1.181953156
 21
9.6684632194
  0
LINE
  5
42E
100
AcDbEntity
  8
0
100
AcDbLine
 62
253
  6
CONTINUOUS
 10
-7.9484701452
 20
15.0389984627
 11
1.2439180102
 21
9.7314287495
  0
LINE
  5
42F
100
AcDbEntity
  8
0
100
AcDbLine
 62
7
  6
CONTINUOUS
 10
1.2065933163
 20
9.9029467221
 11
-7.9857948391
 21
15.2105164354
  0
LINE
  5
430
100
AcDbEntity
  8
0
100
AcDbLine
 62
253
  6
CONTINUOUS
 10
-8.0168572323
 20
15.2791769645
 11
1.1755309232
 21
9.9716072513
  0
LWPOLYLINE
  5
431
100
AcDbEntity
  8
0
100
AcDbPolyline
 62
253
  6
CONTINUOUS
 90
31
 70
0
 10
1.181953156
 20
9.6684632194
 10
1.5286254286
 20
9.4578170377
 10
1.8743474966
 20
9.2267843097
 10
2.2181717599
 20
8.9759982803
 10
2.55915582
 20
8.7061463364
 10
2.8963650633
 20
8.4179681235
 10
3.2288752227
 20
8.112253518
 10
3.5557749111
 20
7.7898404624
 10
3.876168119
 20
7.4516126684
 10
4.189176671
 20
7.0984971951
 10
4.4939426323
 20
6.7314619072
 10
4.7896306607
 20
6.3515128231
 10
5.0754302959
 20
5.9596913567
 10
5.3505581808
 20
5.5570714635
 10
5.6142602091
 20
5.1447566966
 10
5.8658135919
 20
4.7238771822
 10
6.1045288387
 20
4.2955865216
 10
6.3297516478
 20
3.8610586299
 10
6.5408646991
 20
3.4214845178
 10
6.7372893463
 20
2.9780690274
 10
6.9184872031
 20
2.5320275297
 10
7.0839616189
 20
2.0845825935
 10
7.2332590397
 20
1.6369606341
 10
7.3659702517
 20
1.1903885524
 10
7.4817315027
 20
0.7460903714
 10
7.5802254992
 20
0.3052838814
 10
7.6611822759
 20
-0.1308226976
 10
7.7243799359
 20
-0.5610340277
 10
7.7696452589
 20
-0.9841709296
 10
7.7968541757
 20
-1.3990736145
 10
7.8059321087
 20
-1.804604863
  0
LWPOLYLINE
  5
432
100
AcDbEntity
  8
0
100
AcDbPolyline
 62
253
  6
CONTINUOUS
 90
31
 70
0
 10
1.2439180102
 20
9.7314287495
 10
1.5918225896
 20
9.5200337893
 10
1.9387735868
 20
9.2881798154
 10
2.2838200331
 20
9.0365023234
 10
2.6260161803
 20
8.7656911439
 10
2.9644240924
 20
8.4764885515
 10
3.298116217
 20
8.1696872303
 10
3.6261779271
 20
7.8461281015
 10
3.9477100283
 20
7.5066980181
 10
4.2618312236
 20
7.1523273344
 10
4.5676805285
 20
6.7839873559
 10
4.8644196313
 20
6.4026876767
 10
5.1512351909
 20
6.0094734129
 10
5.4273410657
 20
5.6054223374
 10
5.6919804687
 20
5.191641926
 10
5.9444280416
 20
4.7692663222
 10
6.1839918433
 20
4.3394532281
 10
6.410015246
 20
3.9033807315
 10
6.6218787353
 20
3.4622440769
 10
6.819001608
 20
3.0172523891
 10
7.0008435641
 20
2.5696253594
 10
7.1669061875
 20
2.1205899024
 10
7.3167343119
 20
1.671376793
 10
7.449917269
 20
1.2232172933
 10
7.5660900134
 20
0.7773397772
 10
7.6649341239
 20
0.3349663639
 10
7.7461786755
 20
-0.1026904316
 10
7.8096009826
 20
-0.5344310227
 10
7.8550272091
 20
-0.9590720382
 10
7.8823328447
 20
-1.3754495668
 10
7.8914430468
 20
-1.7824223465
  0
LWPOLYLINE
  5
433
100
AcDbEntity
  8
0
100
AcDbPolyline
 62
253
  6
CONTINUOUS
 90
8
 70
0
 10
1.2065933163
 20
9.9029467221
 10
1.2046593698
 20
9.9041224937
 10
1.1960605731
 20
9.911042801
 10
1.1888295114
 20
9.9199107928
 10
1.1830818103
 20
9.9305846689
 10
1.1789093761
 20
9.942893753
 10
1.1763789263
 20
9.9566412216
 10
1.1755309232
 20
9.9716072513
  0
LINE
  5
434
100
AcDbEntity
  8
0
100
AcDbLine
 62
253
  6
CONTINUOUS
 10
1.5390564343
 20
9.7504082773
 11
1.1755309232
 21
9.9716072513
  0
LWPOLYLINE
  5
435
100
AcDbEntity
  8
0
100
AcDbPolyline
 62
253
  6
CONTINUOUS
 90
4
 70
0
 10
14.5432803562
 20
-3.2556610304
 10
14.5193527232
 20
-3.2252334729
 10
14.4709085362
 20
-3.1734757585
 10
14.4162144786
 20
-3.1236552059
  0
LWPOLYLINE
  5
436
100
AcDbEntity
  8
0
100
AcDbPolyline
 62
253
  6
CONTINUOUS
 90
3
 70
0
 10
13.5992834563
 20
-4.3991385278
 10
13.6094543789
 20
-4.4123286242
 10
13.6113258683
 20
-4.414331211
  0
LINE
  5
437
100
AcDbEntity
  8
0
100
AcDbLine
 62
7
  6
CONTINUOUS
 10
13.5600021073
 20
-4.3517310711
 11
13.5755628081
 21
-4.3729691875
  0
LWPOLYLINE
  5
438
100
AcDbEntity
  8
0
100
AcDbPolyline
 62
7
  6
CONTINUOUS
 90
17
 70
0
 10
9.8216790901
 20
10.292957233
 10
9.8287154611
 20
10.2060330353
 10
9.849556561
 20
10.1142943285
 10
9.8834085587
 20
10.0212354113
 10
9.9298923833
 20
9.9288204365
 10
9.9856115732
 20
9.8438019443
 10
10.0491593678
 20
9.7677662126
 10
10.1181152514
 20
9.7036094188
 10
10.1911423833
 20
9.6530280383
 10
10.2629048463
 20
9.6197179312
 10
10.3319338995
 20
9.603925875
 10
10.3956002475
 20
9.6062533843
 10
10.4523923833
 20
9.6271354849
 10
10.4981606419
 20
9.6650463719
 10
10.5322346704
 20
9.7187487636
 10
10.5533165997
 20
9.7861971526
 10
10.5606056765
 20
9.8663103202
  0
LWPOLYLINE
  5
439
100
AcDbEntity
  8
0
100
AcDbPolyline
 62
7
  6
CONTINUOUS
 90
17
 70
0
 10
10.5606056765
 20
9.8663102829
 10
10.5535693054
 20
9.9532344806
 10
10.5327282055
 20
10.0449731874
 10
10.4988762078
 20
10.1380321046
 10
10.4523923833
 20
10.2304470794
 10
10.3966731934
 20
10.3154655716
 10
10.3331253987
 20
10.3915013033
 10
10.2641695152
 20
10.4556580971
 10
10.1911423833
 20
10.5062394776
 10
10.1193799202
 20
10.5395495847
 10
10.0503508671
 20
10.5553416408
 10
9.9866845191
 20
10.5530141316
 10
9.9298923833
 20
10.532132031
 10
9.8841241247
 20
10.494221144
 10
9.8500500962
 20
10.4405187523
 10
9.8289681669
 20
10.3730703633
 10
9.8216790901
 20
10.2929571957
  0
LWPOLYLINE
  5
43A
100
AcDbEntity
  8
0
100
AcDbPolyline
 62
7
  6
CONTINUOUS
 90
13
 70
0
 10
9.9780405665
 20
15.7513495965
 10
9.9758685225
 20
15.7978487006
 10
9.9695544664
 20
15.8445957816
 10
9.9593983003
 20
15.8912185753
 10
9.9456620147
 20
15.9374271023
 10
9.9285741531
 20
15.9829440728
 10
9.908376687
 20
16.0274098337
 10
9.8853317627
 20
16.0704354002
 10
9.8596158343
 20
16.111787238
 10
9.8313350675
 20
16.1512775913
 10
9.8006143978
 20
16.1886243936
 10
9.7676359107
 20
16.2234486014
 10
9.7325747055
 20
16.2553732592
  0
LWPOLYLINE
  5
43B
100
AcDbEntity
  8
0
100
AcDbPolyline
 62
7
  6
CONTINUOUS
 90
3
 70
0
 10
9.9377417522
 20
15.6922883286
 10
9.9358091739
 20
15.7394028419
 10
9.9294303556
 20
15.7884625307
  0
LINE
  5
43C
100
AcDbEntity
  8
0
100
AcDbLine
 62
253
  6
CONTINUOUS
 10
9.9377430813
 20
14.9053684323
 11
9.9377430813
 21
15.6922875808
  0
LINE
  5
43D
100
AcDbEntity
  8
0
100
AcDbLine
 62
7
  6
CONTINUOUS
 10
9.9780400261
 20
15.7513541767
 11
9.9780400261
 21
14.8666137149
  0
LINE
  5
43E
100
AcDbEntity
  8
0
100
AcDbLine
 62
253
  6
CONTINUOUS
 10
10.4048269043
 20
-13.926703978
 11
10.4048269043
 21
-3.3125903797
  0
LINE
  5
43F
100
AcDbEntity
  8
0
100
AcDbLine
 62
253
  6
CONTINUOUS
 10
10.742300502
 20
-3.3210978465
 11
10.742300502
 21
-13.9352114448
  0
LWPOLYLINE
  5
440
100
AcDbEntity
  8
0
100
AcDbPolyline
 62
253
  6
CONTINUOUS
 90
19
 70
0
 10
10.742300502
 20
-13.9352114448
 10
10.731647374
 20
-14.445803425
 10
10.6997121226
 20
-14.942936785
 10
10.6465670916
 20
-15.4254853577
 10
10.5723326715
 20
-15.8923560154
 10
10.4771770271
 20
-16.342491146
 10
10.3613157165
 20
-16.7748710486
 10
10.225011203
 20
-17.1885162436
 10
10.0685722601
 20
-17.5824896916
 10
9.8923532722
 20
-17.9558989162
 10
9.6967534322
 20
-18.3078980251
 10
9.4822158364
 20
-18.6376896274
 10
9.2492264816
 20
-18.9445266388
 10
8.9983131637
 20
-19.227713975
 10
8.7300442819
 20
-19.4866101254
 10
8.4450275516
 20
-19.7206286071
 10
8.1439086274
 20
-19.9292392929
 10
7.8273696404
 20
-20.1119696125
 10
7.5637128189
 20
-20.2391530616
  0
LWPOLYLINE
  5
441
100
AcDbEntity
  8
0
100
AcDbPolyline
 62
253
  6
CONTINUOUS
 90
33
 70
0
 10
10.4048269043
 20
-13.926703978
 10
10.3941203436
 20
-14.4302247758
 10
10.3627310946
 20
-14.9182432975
 10
10.3106591574
 20
-15.3907595429
 10
10.2376815138
 20
-15.8487546102
 10
10.144021182
 20
-16.2912474012
 10
10.0303472161
 20
-16.7152946216
 10
9.8965289875
 20
-17.1207720405
 10
9.7426971247
 20
-17.5078038888
 10
9.5699125669
 20
-17.8738195647
 10
9.3780518097
 20
-18.2186795926
 10
9.1672383574
 20
-18.5425234481
 10
8.9389036631
 20
-18.8431989568
 10
8.6929326686
 20
-19.1205538283
 10
8.429440432
 20
-19.374740353
 10
8.1502035804
 20
-19.6040632281
 10
7.8551193516
 20
-19.8083584865
 10
7.5442905078
 20
-19.9877900953
 10
7.2198019627
 20
-20.141154654
 10
6.8815631129
 20
-20.2682811799
 10
6.5296645619
 20
-20.3693406557
 10
6.1664630342
 20
-20.4436426289
 10
5.7918841903
 20
-20.491011314
 10
5.4060023697
 20
-20.5116224965
 10
5.0113973165
 20
-20.5053130806
 10
4.6080100141
 20
-20.4719063803
 10
4.1958994791
 20
-20.4115790815
 10
3.7778225047
 20
-20.3246981464
 10
3.3537368407
 20
-20.2110883487
 10
2.9236847373
 20
-20.0709249147
 10
2.4905497394
 20
-19.9051004848
 10
2.0552930285
 20
-19.7139126058
 10
1.6169534231
 20
-19.497063731
  0
LWPOLYLINE
  5
442
100
AcDbEntity
  8
0
100
AcDbPolyline
 62
7
  6
CONTINUOUS
 90
52
 70
0
 10
10.7214724692
 20
9.7734278129
 10
10.720444116
 20
9.7361494854
 10
10.7174403194
 20
9.7004154981
 10
10.7124610794
 20
9.6662258511
 10
10.7054705722
 20
9.6334527387
 10
10.6965046215
 20
9.6022239666
 10
10.6856706986
 20
9.5729229518
 10
10.6729383384
 20
9.5455773389
 10
10.6583380059
 20
9.5201594834
 10
10.642068568
 20
9.4969698684
 10
10.6241558506
 20
9.4760621641
 10
10.6045740278
 20
9.4573827004
 10
10.5834444892
 20
9.4410709491
 10
10.5606982918
 20
9.427107092
 10
10.5364043786
 20
9.4155109474
 10
10.5108909676
 20
9.4064814421
 10
10.4841558764
 20
9.400071556
 10
10.4562012875
 20
9.3962283092
 10
10.4273619661
 20
9.3949916891
 10
10.3976303767
 20
9.3963950867
 10
10.3670140549
 20
9.400405111
 10
10.3358703726
 20
9.4069615762
 10
10.3041978397
 20
9.416092545
 10
10.2719979464
 20
9.4277699548
 10
10.2396325345
 20
9.441849432
 10
10.2071017871
 20
9.4583554866
 10
10.1744055211
 20
9.4772636087
 10
10.1419050299
 20
9.4983558955
 10
10.1096031942
 20
9.5216543108
 10
10.0774971333
 20
9.5471368908
 10
10.0459394985
 20
9.5745198405
 10
10.014936865
 20
9.6038213397
 10
9.9844826576
 20
9.6350232087
 10
9.9549098024
 20
9.6677871135
 10
9.926225067
 20
9.702131721
 10
9.8984216837
 20
9.7380383644
 10
9.8718122757
 20
9.7751127084
 10
9.8463931424
 20
9.8134066179
 10
9.8221679844
 20
9.8528682281
 10
9.7994605258
 20
9.8929476097
 10
9.7783338516
 20
9.9335533346
 10
9.758724877
 20
9.974776831
 10
9.7407680709
 20
10.0163424545
 10
9.7244366642
 20
10.0583368065
 10
9.7097574262
 20
10.1006732856
 10
9.6969451334
 20
10.1428164438
 10
9.686030433
 20
10.1847620598
 10
9.676982678
 20
10.2265143549
 10
9.6699247034
 20
10.2675505452
 10
9.6648974543
 20
10.3076963693
 10
9.6618599856
 20
10.3471260885
 10
9.6608122974
 20
10.3858397029
  0
LWPOLYLINE
  5
443
100
AcDbEntity
  8
0
100
AcDbPolyline
 62
7
  6
CONTINUOUS
 90
26
 70
0
 10
14.6419075285
 20
4.8609646693
 10
14.6210676782
 20
4.8246067089
 10
14.5944942739
 20
4.7877335789
 10
14.5623578712
 20
4.7510302424
 10
14.5243145296
 20
4.7144313203
 10
14.4802446492
 20
4.6781727644
 10
14.4304494086
 20
4.6428098933
 10
14.3750286619
 20
4.6086708162
 10
14.3140666566
 20
4.5760700153
 10
14.2478654911
 20
4.5454137207
 10
14.1768810168
 20
4.5170535685
 10
14.1015042741
 20
4.4912321536
 10
14.0221448088
 20
4.4681796237
 10
13.9393254038
 20
4.448135225
 10
13.8534884325
 20
4.4312922378
 10
13.7650543656
 20
4.417819312
 10
13.6745279336
 20
4.4078235322
 10
13.582411455
 20
4.4013701159
 10
13.489203127
 20
4.3985144507
 10
13.3954067741
 20
4.3993035117
 10
13.3015240518
 20
4.4037756779
 10
13.2080550901
 20
4.4119491155
 10
13.1154935593
 20
4.4237679789
 10
13.0243322996
 20
4.4391449159
 10
12.9350590511
 20
4.4579840148
 10
12.9054082779
 20
4.4653116567
  0
LINE
  5
444
100
AcDbEntity
  8
0
100
AcDbLine
 62
7
  6
CONTINUOUS
 10
13.1840782198
 20
-3.6989584908
 11
13.3301121529
 21
-3.6087294944
  0
LINE
  5
445
100
AcDbEntity
  8
0
100
AcDbLine
 62
7
  6
CONTINUOUS
 10
13.8507531138
 20
-3.6316411757
 11
14.2576782429
 21
-3.3802171043
  0
LWPOLYLINE
  5
446
100
AcDbEntity
  8
0
100
AcDbPolyline
 62
7
  6
CONTINUOUS
 90
3
 70
0
 10
14.4790905919
 20
-3.8105297909
 10
14.5641115177
 20
-3.7587393449
 10
14.6440082938
 20
-3.7031055554
  0
LINE
  5
447
100
AcDbEntity
  8
0
100
AcDbLine
 62
7
  6
CONTINUOUS
 10
14.2417628837
 20
-3.1660021038
 11
14.0802296798
 21
-3.2598346826
  0
LWPOLYLINE
  5
448
100
AcDbEntity
  8
0
100
AcDbPolyline
 62
7
  6
CONTINUOUS
 90
8
 70
0
 10
14.3075602466
 20
-3.4477070433
 10
14.2409442812
 20
-3.4852188224
 10
14.1695222322
 20
-3.5204895229
 10
14.0936101792
 20
-3.5532212369
 10
14.013527211
 20
-3.5831599005
 10
13.9298134249
 20
-3.610068219
 10
13.8429291869
 20
-3.6337760678
 10
13.7571063359
 20
-3.6532687971
  0
LWPOLYLINE
  5
449
100
AcDbEntity
  8
0
100
AcDbPolyline
 62
253
  6
CONTINUOUS
 90
3
 70
0
 10
14.4669424155
 20
-4.7279894616
 10
14.5509063645
 20
-4.6809873495
 10
14.631358529
 20
-4.6296753965
  0
LWPOLYLINE
  5
44A
100
AcDbEntity
  8
0
100
AcDbPolyline
 62
253
  6
CONTINUOUS
 90
4
 70
0
 10
14.4227245092
 20
-3.7707651004
 10
14.5121110101
 20
-3.7236971182
 10
14.5968046191
 20
-3.67278108
 10
14.6760029864
 20
-3.6183501944
  0
LWPOLYLINE
  5
44B
100
AcDbEntity
  8
0
100
AcDbPolyline
 62
253
  6
CONTINUOUS
 90
7
 70
0
 10
-14.8156012106
 20
11.2771428549
 10
-14.823338993
 20
11.2775435514
 10
-14.8418660884
 20
11.2798906154
 10
-14.8597320635
 20
11.2835689043
 10
-14.8766512395
 20
11.288519602
 10
-14.8923530771
 20
11.2946635462
 10
-14.9065865022
 20
11.3019024947
  0
LWPOLYLINE
  5
44C
100
AcDbEntity
  8
0
100
AcDbPolyline
 62
253
  6
CONTINUOUS
 90
8
 70
0
 10
13.5668038069
 20
4.7655074528
 10
13.5520471453
 20
4.7718103505
 10
13.5361227229
 20
4.7770098876
 10
13.5192783939
 20
4.7810399299
 10
13.501853595
 20
4.7838426379
 10
13.4840322076
 20
4.7854107398
 10
13.4658233553
 20
4.7857298341
 10
13.4597959399
 20
4.7854081447
  0
LINE
  5
44D
100
AcDbEntity
  8
0
100
AcDbLine
 62
7
  6
CONTINUOUS
 10
14.2159909918
 20
5.0815697104
 11
14.5064444809
 21
4.9503403166
  0
LINE
  5
44E
100
AcDbEntity
  8
0
100
AcDbLine
 62
253
  6
CONTINUOUS
 10
13.8032605041
 20
4.9917562407
 11
13.8101404497
 21
4.9884395534
  0
LINE
  5
44F
100
AcDbEntity
  8
0
100
AcDbLine
 62
253
  6
CONTINUOUS
 10
1.1755309232
 20
12.6730191612
 11
-8.0168572323
 21
17.9805888744
  0
LINE
  5
450
100
AcDbEntity
  8
0
100
AcDbLine
 62
253
  6
CONTINUOUS
 10
12.209899545
 20
4.0637336312
 11
12.2462454338
 21
4.0422644553
  0
LWPOLYLINE
  5
451
100
AcDbEntity
  8
0
100
AcDbPolyline
 62
253
  6
CONTINUOUS
 90
34
 70
0
 10
1.1755309232
 20
12.6730191612
 10
1.6169605717
 20
12.4057807413
 10
2.0553067663
 20
12.1164411273
 10
2.490569507
 20
11.8050003191
 10
2.9237099968
 20
11.4706458193
 10
3.3537670326
 20
11.1141901253
 10
3.7778570052
 20
10.7380707291
 10
4.1959376446
 20
10.3421612051
 10
4.6080512208
 20
9.9265879789
 10
5.0114409349
 20
9.4941678193
 10
5.4060477517
 20
9.0447922063
 10
5.7919307063
 20
8.57856966
 10
6.1665101053
 20
8.0986425091
 10
6.5297115917
 20
7.6049208331
 10
6.8816095226
 20
7.0974945525
 10
7.219847276
 20
6.5797757574
 10
7.5443342336
 20
6.051698114
 10
7.8551610137
 20
5.5133279562
 10
8.1502428495
 20
4.9682763756
 10
8.4294769673
 20
4.416498096
 10
8.6929661408
 20
3.8580383937
 10
8.9389339254
 20
3.2966441891
 10
9.1672652547
 20
2.7322960826
 10
9.378075195
 20
2.1650134739
 10
9.5699324999
 20
1.5986014823
 10
9.7427136611
 20
1.033063276
 10
9.8965421869
 20
0.4683956868
 10
10.0303573561
 20
-0.0916056699
 10
10.1440285409
 20
-0.6469141561
 10
10.2376863691
 20
-1.1975564098
 10
10.3106620033
 20
-1.7398167292
 10
10.3627324977
 20
-2.272456547
 10
10.394120798
 20
-2.7967144305
 10
10.4048269043
 20
-3.3125903797
  0
LINE
  5
452
100
AcDbEntity
  8
0
100
AcDbLine
 62
7
  6
CONTINUOUS
 10
12.1618201108
 20
4.0275047405
 11
12.2465407315
 21
3.9741586414
  0
LINE
  5
453
100
AcDbEntity
  8
0
100
AcDbLine
 62
7
  6
CONTINUOUS
 10
14.2974812775
 20
-3.4533825606
 11
14.2576782429
 21
-3.3802171043
  0
LWPOLYLINE
  5
454
100
AcDbEntity
  8
0
100
AcDbPolyline
 62
7
  6
CONTINUOUS
 90
10
 70
0
 10
13.88346169
 20
-9.4209516384
 10
13.8836579346
 20
-9.4215744292
 10
13.8841112506
 20
-9.4227461179
 10
13.8849016489
 20
-9.4244618142
 10
13.8861054106
 20
-9.4267115555
 10
13.8877814528
 20
-9.4294587158
 10
13.8899657707
 20
-9.4326439226
 10
13.8926903732
 20
-9.4362182802
 10
13.89598801
 20
-9.440143478
 10
13.8998765316
 20
-9.4443708361
  0
LWPOLYLINE
  5
455
100
AcDbEntity
  8
0
100
AcDbPolyline
 62
7
  6
CONTINUOUS
 90
7
 70
0
 10
13.4977117814
 20
-9.5267675539
 10
13.504525176
 20
-9.5490843499
 10
13.5127378078
 20
-9.5713553437
 10
13.5223735095
 20
-9.593520767
 10
13.5334449323
 20
-9.6155069266
 10
13.5459736235
 20
-9.6372677407
 10
13.5600021073
 20
-9.6587878703
  0
LINE
  5
456
100
AcDbEntity
  8
0
100
AcDbLine
 62
7
  6
CONTINUOUS
 10
12.663688193
 20
-6.4863504135
 11
13.4977117814
 21
-9.5267675539
  0
LINE
  5
457
100
AcDbEntity
  8
0
100
AcDbLine
 62
7
  6
CONTINUOUS
 10
12.4892394221
 20
-4.3383408585
 11
13.88346169
 21
-9.4209516384
  0
LINE
  5
458
100
AcDbEntity
  8
0
100
AcDbLine
 62
7
  6
CONTINUOUS
 10
12.6727715591
 20
-6.5252400138
 11
12.6728018206
 21
-6.5253670226
  0
LWPOLYLINE
  5
459
100
AcDbEntity
  8
0
100
AcDbPolyline
 62
253
  6
CONTINUOUS
 90
3
 70
0
 10
13.4977117814
 20
-9.5267675539
 10
13.4941311996
 20
-9.5088941726
 10
13.4930490676
 20
-9.4919242561
  0
LWPOLYLINE
  5
45A
100
AcDbEntity
  8
0
100
AcDbPolyline
 62
7
  6
CONTINUOUS
 90
9
 70
0
 10
12.5596229212
 20
0.9953177267
 10
12.516966814
 20
1.5415487362
 10
12.4702152366
 20
2.098015504
 10
12.4193689915
 20
2.6638702387
 10
12.3644405496
 20
3.2382414142
 10
12.3054553701
 20
3.8202187945
 10
12.2424485903
 20
4.4088860654
 10
12.1754637047
 20
5.0033273722
 10
12.1152228955
 20
5.514236653
  0
LWPOLYLINE
  5
45B
100
AcDbEntity
  8
0
100
AcDbPolyline
 62
253
  6
CONTINUOUS
 90
5
 70
0
 10
13.5806772585
 20
-9.6388640229
 10
13.5818600316
 20
-9.6574427578
 10
13.585392356
 20
-9.6750131515
 10
13.591226463
 20
-9.6913375946
 10
13.5992834563
 20
-9.706195327
  0
LWPOLYLINE
  5
45C
100
AcDbEntity
  8
0
100
AcDbPolyline
 62
253
  6
CONTINUOUS
 90
5
 70
0
 10
13.5806772585
 20
-4.3318072237
 10
13.5818600316
 20
-4.3503859586
 10
13.585392356
 20
-4.3679563523
 10
13.591226463
 20
-4.3842807954
 10
13.5992834563
 20
-4.3991385278
  0
LWPOLYLINE
  5
45D
100
AcDbEntity
  8
0
100
AcDbPolyline
 62
253
  6
CONTINUOUS
 90
13
 70
0
 10
12.5431131435
 20
-1.1195517041
 10
12.5134236639
 20
-0.615391328
 10
12.4797773363
 20
-0.0971506945
 10
12.4418895293
 20
0.4346901212
 10
12.399318129
 20
0.98351519
 10
12.3518266354
 20
1.544873503
 10
12.3002463732
 20
2.1063997199
 10
12.2461011266
 20
2.6590517736
 10
12.1893304368
 20
3.2106220076
 10
12.1283499407
 20
3.7739307917
 10
12.0621212193
 20
4.3527700599
 10
11.991058876
 20
4.9419545285
 10
11.9149881007
 20
5.5407175838
  0
LWPOLYLINE
  5
45E
100
AcDbEntity
  8
0
100
AcDbPolyline
 62
7
  6
CONTINUOUS
 90
5
 70
0
 10
12.6858021309
 20
-0.9939385842
 10
12.6631984916
 20
-0.5739409088
 10
12.6327063234
 20
-0.0631722521
 10
12.5981943288
 20
0.460152449
 10
12.5596229212
 20
0.9953177267
  0
LWPOLYLINE
  5
45F
100
AcDbEntity
  8
0
100
AcDbPolyline
 62
7
  6
CONTINUOUS
 90
4
 70
0
 10
12.6857849741
 20
-0.9936205883
 10
12.6864421164
 20
-1.0226957702
 10
12.6830865494
 20
-1.0773707209
 10
12.674039184
 20
-1.1301700234
  0
LWPOLYLINE
  5
460
100
AcDbEntity
  8
0
100
AcDbPolyline
 62
7
  6
CONTINUOUS
 90
34
 70
0
 10
12.4892394221
 20
-2.474731077
 10
12.4781655328
 20
-1.9411472625
 10
12.445699358
 20
-1.3988943129
 10
12.391840898
 20
-0.8479722284
 10
12.3163594831
 20
-0.287099879
 10
12.2194857828
 20
0.2824416053
 10
12.1019118057
 20
0.8568088355
 10
11.9635024416
 20
1.4360293402
 10
11.8043928006
 20
2.0200755907
 10
11.6256802214
 20
2.6050216121
 10
11.4272369623
 20
3.1908706562
 10
11.2091907651
 20
3.7776194711
 10
10.9730221939
 20
4.3613323255
 10
10.7186122432
 20
4.9419891287
 10
10.4460799186
 20
5.5196099713
 10
10.157262801
 20
6.0903193945
 10
9.8520546025
 20
6.6540705441
 10
9.530561611
 20
7.2109102743
 10
9.1949402712
 20
7.7571036892
 10
8.8450968708
 20
8.2925821564
 10
8.481125122
 20
8.8174143082
 10
8.1054626057
 20
9.3280711464
 10
7.7180324316
 20
9.8244596455
 10
7.3189114899
 20
10.3066728309
 10
6.9107680324
 20
10.7714607811
 10
6.4935410179
 20
11.218711237
 10
6.0672914875
 20
11.6485364577
 10
5.6348708167
 20
12.0580232983
 10
5.1962353056
 20
12.4470409844
 10
4.7514286542
 20
12.8157202905
 10
4.3034333379
 20
13.1615403942
 10
3.8532435154
 20
13.4836610216
 10
3.3998650282
 20
13.7829224468
 10
2.9432978761
 20
14.0593246696
  0
LWPOLYLINE
  5
461
100
AcDbEntity
  8
0
100
AcDbPolyline
 62
253
  6
CONTINUOUS
 90
3
 70
0
 10
13.0823770228
 20
4.5674911922
 10
13.0824312466
 20
4.5646948916
 10
13.0824855022
 20
4.5600098237
  0
LINE
  5
462
100
AcDbEntity
  8
0
100
AcDbLine
 62
253
  6
CONTINUOUS
 10
12.4519811514
 20
-1.5038133869
 11
12.4519811514
 21
-1.4447731506
  0
LINE
  5
463
100
AcDbEntity
  8
0
100
AcDbLine
 62
7
  6
CONTINUOUS
 10
12.4892394221
 20
-2.474731077
 11
12.4892394221
 21
-13.0888446753
  0
LINE
  5
464
100
AcDbEntity
  8
0
100
AcDbLine
 62
7
  6
CONTINUOUS
 10
12.519142726
 20
1.8834930929
 11
12.519142726
 21
1.5136851851
  0
LINE
  5
465
100
AcDbEntity
  8
0
100
AcDbLine
 62
7
  6
CONTINUOUS
 10
12.519142726
 20
-1.3923067049
 11
12.519142726
 21
-1.9162168037
  0
LINE
  5
466
100
AcDbEntity
  8
0
100
AcDbLine
 62
253
  6
CONTINUOUS
 10
13.0824855022
 20
4.5600098237
 11
13.0825036073
 21
4.4293326718
  0
LINE
  5
467
100
AcDbEntity
  8
0
100
AcDbLine
 62
253
  6
CONTINUOUS
 10
13.3643196467
 20
4.4007843678
 11
13.3643196467
 21
4.7302813296
  0
LWPOLYLINE
  5
468
100
AcDbEntity
  8
0
100
AcDbPolyline
 62
7
  6
CONTINUOUS
 90
10
 70
0
 10
13.4574071057
 20
6.8961485913
 10
13.457776446
 20
6.9222539086
 10
13.4588743201
 20
6.9478573407
 10
13.4607007277
 20
6.9729588875
 10
13.4632590875
 20
6.9975836372
 10
13.466545981
 20
7.0217065016
 10
13.470551153
 20
7.0452522168
 10
13.475271185
 20
7.0681956948
 10
13.4807094956
 20
7.0905620236
 10
13.4868660846
 20
7.1123512031
  0
LWPOLYLINE
  5
469
100
AcDbEntity
  8
0
100
AcDbPolyline
 62
7
  6
CONTINUOUS
 90
15
 70
0
 10
12.7638974675
 20
4.1687986769
 10
12.7642848551
 20
4.1863361019
 10
12.7654470903
 20
4.2049016795
 10
12.7673778852
 20
4.2243008755
 10
12.770066625
 20
4.2443555403
 10
12.7734875461
 20
4.264821788
 10
12.7775899824
 20
4.2853888461
 10
12.7823138766
 20
4.3057815937
 10
12.7876136276
 20
4.3258255895
 10
12.7934463553
 20
4.3453587738
 10
12.7997657352
 20
4.3642079697
 10
12.8064904616
 20
4.3821139096
 10
12.813516951
 20
4.3988051122
 10
12.8207549006
 20
4.4140875891
 10
12.822580375
 20
4.4174878637
  0
LWPOLYLINE
  5
46A
100
AcDbEntity
  8
0
100
AcDbPolyline
 62
7
  6
CONTINUOUS
 90
5
 70
0
 10
12.6849861792
 20
-6.6796787973
 10
12.6863583648
 20
-6.6317615938
 10
12.6830377959
 20
-6.5830740405
 10
12.6748635295
 20
-6.5343759116
 10
12.6728529155
 20
-6.5255812209
  0
LWPOLYLINE
  5
46B
100
AcDbEntity
  8
0
100
AcDbPolyline
 62
253
  6
CONTINUOUS
 90
4
 70
0
 10
13.5668038069
 20
4.7655074528
 10
13.5691205309
 20
4.8004647856
 10
13.5752138924
 20
4.8320188242
 10
13.5840192844
 20
4.8571331469
  0
LINE
  5
46C
100
AcDbEntity
  8
0
100
AcDbLine
 62
7
  6
CONTINUOUS
 10
12.6849861792
 20
-6.6796787973
 11
12.6849774839
 21
-6.6797917812
  0
LWPOLYLINE
  5
46D
100
AcDbEntity
  8
0
100
AcDbPolyline
 62
253
  6
CONTINUOUS
 90
3
 70
0
 10
12.4892394221
 20
-7.4810549328
 10
12.5068506395
 20
-7.32607828
 10
12.5431141524
 20
-6.9246657136
  0
LWPOLYLINE
  5
46E
100
AcDbEntity
  8
0
100
AcDbPolyline
 62
253
  6
CONTINUOUS
 90
8
 70
0
 10
12.6849774839
 20
-6.6797917812
 10
12.6805181731
 20
-6.7131999032
 10
12.6701767861
 20
-6.7528587804
 10
12.6545274629
 20
-6.7912942123
 10
12.6337418884
 20
-6.8280843804
 10
12.6080480492
 20
-6.8628258575
 10
12.5777279081
 20
-6.8951377304
 10
12.5431141524
 20
-6.9246657136
  0
LWPOLYLINE
  5
46F
100
AcDbEntity
  8
0
100
AcDbPolyline
 62
7
  6
CONTINUOUS
 90
9
 70
0
 10
12.674039184
 20
-1.1301700234
 10
12.6598838526
 20
-1.1802667743
 10
12.6414853329
 20
-1.2266793526
 10
12.6198371575
 20
-1.2688016236
 10
12.5956297978
 20
-1.3068035275
 10
12.5692576134
 20
-1.3410989914
 10
12.5411725962
 20
-1.3718289039
 10
12.5120306905
 20
-1.3989176766
 10
12.4822970433
 20
-1.4225294408
  0
LWPOLYLINE
  5
470
100
AcDbEntity
  8
0
100
AcDbPolyline
 62
7
  6
CONTINUOUS
 90
3
 70
0
 10
14.6607895852
 20
4.9089657637
 10
14.657283297
 20
4.8967107936
 10
14.6419075285
 20
4.8609646693
  0
LWPOLYLINE
  5
471
100
AcDbEntity
  8
0
100
AcDbPolyline
 62
7
  6
CONTINUOUS
 90
4
 70
0
 10
15.0031664489
 20
4.6894343635
 10
15.0311084743
 20
4.7546977889
 10
15.0520268633
 20
4.8210902958
 10
15.0658231404
 20
4.8881281861
  0
LWPOLYLINE
  5
472
100
AcDbEntity
  8
0
100
AcDbPolyline
 62
7
  6
CONTINUOUS
 90
6
 70
0
 10
14.9942412262
 20
3.3652980089
 10
15.0247378465
 20
3.4315918227
 10
15.047933254
 20
3.4994013436
 10
15.0636190344
 20
3.5682167405
 10
15.0717241449
 20
3.6370980455
 10
15.07301739
 20
3.6780874029
  0
LWPOLYLINE
  5
473
100
AcDbEntity
  8
0
100
AcDbPolyline
 62
7
  6
CONTINUOUS
 90
6
 70
0
 10
14.9926055768
 20
2.7088617414
 10
15.0237542998
 20
2.7760693144
 10
15.0473176
 20
2.8444665105
 10
15.0632825768
 20
2.9135880805
 10
15.0716484758
 20
2.9826868898
 10
15.0730780647
 20
3.025759163
  0
LWPOLYLINE
  5
474
100
AcDbEntity
  8
0
100
AcDbPolyline
 62
7
  6
CONTINUOUS
 90
6
 70
0
 10
14.9915596672
 20
3.6868413808
 10
15.023096057
 20
3.754265297
 10
15.0470642401
 20
3.8231054869
 10
15.0632998891
 20
3.8928122926
 10
15.0717018283
 20
3.9624100192
 10
15.0730708332
 20
4.0046982912
  0
LWPOLYLINE
  5
475
100
AcDbEntity
  8
0
100
AcDbPolyline
 62
7
  6
CONTINUOUS
 90
6
 70
0
 10
14.9876887937
 20
4.3325919999
 10
15.0210726332
 20
4.4024318673
 10
15.0462367867
 20
4.4736690691
 10
15.0631384415
 20
4.5457234403
 10
15.0717192154
 20
4.6168055195
 10
15.073070366
 20
4.6587132738
  0
LWPOLYLINE
  5
476
100
AcDbEntity
  8
0
100
AcDbPolyline
 62
7
  6
CONTINUOUS
 90
6
 70
0
 10
14.9866029833
 20
4.0041102733
 10
15.0197833517
 20
4.0726359052
 10
15.0450579511
 20
4.1427966828
 10
15.0622643953
 20
4.2140144287
 10
15.0713469426
 20
4.2851385748
 10
15.0730049982
 20
4.3315995436
  0
LWPOLYLINE
  5
477
100
AcDbEntity
  8
0
100
AcDbPolyline
 62
7
  6
CONTINUOUS
 90
6
 70
0
 10
14.9854417306
 20
3.0223144956
 10
15.0196805558
 20
3.0928940733
 10
15.0455767448
 20
3.1650100337
 10
15.062984994
 20
3.2380194274
 10
15.0717649952
 20
3.3098768039
 10
15.0731082457
 20
3.3519132227
  0
LINE
  5
478
100
AcDbEntity
  8
0
100
AcDbLine
 62
7
  6
CONTINUOUS
 10
12.5049686805
 20
-3.3249488447
 11
12.4892394221
 21
-3.3514856034
  0
LWPOLYLINE
  5
479
100
AcDbEntity
  8
0
100
AcDbPolyline
 62
7
  6
CONTINUOUS
 90
7
 70
0
 10
14.6685058647
 20
-4.6641623457
 10
14.7401747813
 20
-4.6043397671
 10
14.8053234395
 20
-4.5416018437
 10
14.8638213211
 20
-4.4760644625
 10
14.9154240447
 20
-4.4080954945
 10
14.9600393938
 20
-4.3378996152
 10
14.9974823698
 20
-4.2657975501
  0
LWPOLYLINE
  5
47A
100
AcDbEntity
  8
0
100
AcDbPolyline
 62
7
  6
CONTINUOUS
 90
7
 70
0
 10
14.6558848294
 20
-4.3472761564
 10
14.7288556888
 20
-4.2876859436
 10
14.7956041685
 20
-4.2249003155
 10
14.8558333816
 20
-4.1590933545
 10
14.9090739005
 20
-4.090659098
 10
14.9551645829
 20
-4.0197681349
 10
14.993925452
 20
-3.9467514521
  0
LWPOLYLINE
  5
47B
100
AcDbEntity
  8
0
100
AcDbPolyline
 62
253
  6
CONTINUOUS
 90
7
 70
0
 10
14.6931354312
 20
-4.2586595235
 10
14.7632409598
 20
-4.2015708387
 10
14.826822499
 20
-4.141922423
 10
14.8837659082
 20
-4.0797498873
 10
14.9337820596
 20
-4.0151673461
 10
14.9764613217
 20
-3.9485596212
 10
15.0115417941
 20
-3.8803754574
  0
LWPOLYLINE
  5
47C
100
AcDbEntity
  8
0
100
AcDbPolyline
 62
253
  6
CONTINUOUS
 90
11
 70
0
 10
14.6867286423
 20
-3.9370022243
 10
14.7581365003
 20
-3.8794624892
 10
14.8229431369
 20
-3.819189929
 10
14.8808202948
 20
-3.7565154887
 10
14.9315333989
 20
-3.6916762278
 10
14.9747521118
 20
-3.625029018
 10
15.0102138721
 20
-3.5568975487
 10
15.0378241667
 20
-3.4875623953
 10
15.0575410746
 20
-3.4173223813
 10
15.069306526
 20
-3.3465257984
 10
15.0730781307
 20
-3.2779002146
  0
LWPOLYLINE
  5
47D
100
AcDbEntity
  8
0
100
AcDbPolyline
 62
7
  6
CONTINUOUS
 90
7
 70
0
 10
14.6476370842
 20
-4.0270144529
 10
14.7212924108
 20
-3.9677177172
 10
14.7889397378
 20
-3.9049659896
 10
14.8502261465
 20
-3.8389703118
 10
14.9046271539
 20
-3.7701781769
 10
14.9519428084
 20
-3.6986867944
 10
14.9917938476
 20
-3.6248265584
  0
LWPOLYLINE
  5
47E
100
AcDbEntity
  8
0
100
AcDbPolyline
 62
7
  6
CONTINUOUS
 90
7
 70
0
 10
14.6440082938
 20
-3.7031055554
 10
14.7183302353
 20
-3.6437448231
 10
14.7868137901
 20
-3.5805920644
 10
14.8489475836
 20
-3.5138993577
 10
14.9040498987
 20
-3.4443017628
 10
14.9519390074
 20
-3.3719455046
 10
14.992276792
 20
-3.2971675139
  0
LWPOLYLINE
  5
47F
100
AcDbEntity
  8
0
100
AcDbPolyline
 62
253
  6
CONTINUOUS
 90
7
 70
0
 10
14.6760029864
 20
-3.6183501944
 10
14.7489383526
 20
-3.5608146641
 10
14.8151387458
 20
-3.5004494473
 10
14.8743490981
 20
-3.4374867174
 10
14.9262457399
 20
-3.3723291967
 10
14.9706257112
 20
-3.3052672621
 10
15.0072565263
 20
-3.2366318579
  0
LINE
  5
480
100
AcDbEntity
  8
0
100
AcDbLine
 62
7
  6
CONTINUOUS
 10
14.696861598
 20
-4.9674812291
 11
14.7080859249
 21
-4.9586937274
  0
LWPOLYLINE
  5
481
100
AcDbEntity
  8
0
100
AcDbPolyline
 62
253
  6
CONTINUOUS
 90
7
 70
0
 10
14.6636862075
 20
-4.9329245956
 10
14.7196398247
 20
-4.8911711986
 10
14.7879724933
 20
-4.832602869
 10
14.8494951145
 20
-4.7715538425
 10
14.9037533494
 20
-4.7084611132
 10
14.9507045293
 20
-4.6434490893
 10
14.9904516687
 20
-4.5764027835
  0
LWPOLYLINE
  5
482
100
AcDbEntity
  8
0
100
AcDbPolyline
 62
253
  6
CONTINUOUS
 90
7
 70
0
 10
14.631358529
 20
-4.6296753965
 10
14.7059307105
 20
-4.5754314407
 10
14.7745446746
 20
-4.5182635505
 10
14.836889112
 20
-4.4582760341
 10
14.8924883613
 20
-4.3957980428
 10
14.9410427254
 20
-4.3311810832
 10
14.9823388839
 20
-4.2647115731
  0
LINE
  5
483
100
AcDbEntity
  8
0
100
AcDbLine
 62
253
  6
CONTINUOUS
 10
14.6167043569
 20
-4.3129978658
 11
14.6931354312
 21
-4.2586595235
  0
LINE
  5
484
100
AcDbEntity
  8
0
100
AcDbLine
 62
253
  6
CONTINUOUS
 10
14.6092831547
 20
-3.9913492566
 11
14.6867286423
 21
-3.9370022243
  0
LWPOLYLINE
  5
485
100
AcDbEntity
  8
0
100
AcDbPolyline
 62
7
  6
CONTINUOUS
 90
3
 70
0
 10
14.5095937402
 20
-4.7724165556
 10
14.5906241342
 20
-4.7208419056
 10
14.6685058647
 20
-4.6641623457
  0
LINE
  5
486
100
AcDbEntity
  8
0
100
AcDbLine
 62
253
  6
CONTINUOUS
 10
13.4209904486
 20
-6.3829120143
 11
13.1008029942
 21
-6.5677842375
  0
LINE
  5
487
100
AcDbEntity
  8
0
100
AcDbLine
 62
253
  6
CONTINUOUS
 10
12.6713656647
 20
-6.8438405815
 11
12.7527429364
 21
-6.7968543646
  0
LINE
  5
488
100
AcDbEntity
  8
0
100
AcDbLine
 62
253
  6
CONTINUOUS
 10
13.107458331
 20
-6.5920461414
 11
13.4747483294
 21
-6.3799774996
  0
LINE
  5
489
100
AcDbEntity
  8
0
100
AcDbLine
 62
253
  6
CONTINUOUS
 10
13.8279846667
 20
-6.4098351014
 11
13.162826344
 21
-6.7938891805
  0
LINE
  5
48A
100
AcDbEntity
  8
0
100
AcDbLine
 62
253
  6
CONTINUOUS
 10
12.8047617039
 20
-7.0006312161
 11
12.6487618451
 21
-7.0907035794
  0
LINE
  5
48B
100
AcDbEntity
  8
0
100
AcDbLine
 62
253
  6
CONTINUOUS
 10
12.4892394221
 20
-6.954170961
 11
12.5431141524
 21
-6.9246657136
  0
LINE
  5
48C
100
AcDbEntity
  8
0
100
AcDbLine
 62
253
  6
CONTINUOUS
 10
14.4337830704
 20
-6.3064988038
 11
14.7873364476
 21
-6.1166192681
  0
LWPOLYLINE
  5
48D
100
AcDbEntity
  8
0
100
AcDbPolyline
 62
253
  6
CONTINUOUS
 90
16
 70
0
 10
-19.0291259564
 20
9.5738642718
 10
-19.0496475526
 20
9.5706665346
 10
-19.0699443099
 20
9.5657147487
 10
-19.0897938528
 20
9.5590631668
 10
-19.1089787055
 20
9.550784665
 10
-19.1272886748
 20
9.5409699444
 10
-19.1445231527
 20
9.5297265371
 10
-19.1604933149
 20
9.5171776283
 10
-19.1750241888
 20
9.5034607063
 10
-19.1879565711
 20
9.4887260566
 10
-19.199148772
 20
9.4731351152
 10
-19.2084781673
 20
9.4568586997
 10
-19.2158425423
 20
9.4400751379
 10
-19.2211612113
 20
9.422968314
 10
-19.2243759018
 20
9.405725654
 10
-19.2254513931
 20
9.388536072
  0
LWPOLYLINE
  5
48E
100
AcDbEntity
  8
0
100
AcDbPolyline
 62
253
  6
CONTINUOUS
 90
13
 70
0
 10
-19.1006793297
 20
10.092582838
 10
-19.078145374
 20
10.0959073177
 10
-19.0564322244
 20
10.1007197829
 10
-19.0358335138
 20
10.1069551533
 10
-19.0166278044
 20
10.1145291061
 10
-18.9990748207
 20
10.1233392167
 10
-18.9834119365
 20
10.1332663433
 10
-18.9698509654
 20
10.1441762387
 10
-18.9585752965
 20
10.1559213652
 10
-18.9497374136
 20
10.1683428902
 10
-18.9434568341
 20
10.1812728338
 10
-18.9398184921
 20
10.1945363407
 10
-18.9388411287
 20
10.2059386846
  0
LWPOLYLINE
  5
48F
100
AcDbEntity
  8
0
100
AcDbPolyline
 62
253
  6
CONTINUOUS
 90
15
 70
0
 10
-19.1530951946
 20
14.4590230521
 10
-19.1701280218
 20
14.4599988916
 10
-19.1928491945
 20
14.462867275
 10
-19.2148400008
 20
14.467239277
 10
-19.2358030528
 20
14.473055774
 10
-19.2554548611
 20
14.4802381077
 10
-19.2735296687
 20
14.4886891494
 10
-19.2897830448
 20
14.4982946133
 10
-19.3039951905
 20
14.5089246019
 10
-19.3159739108
 20
14.5204353629
 10
-19.325557214
 20
14.5326712329
 10
-19.3326155026
 20
14.5454667429
 10
-19.3370533251
 20
14.5586488555
 10
-19.3388106678
 20
14.5720393053
 10
-19.3388411287
 20
14.5740546655
  0
LINE
  5
490
100
AcDbEntity
  8
0
100
AcDbLine
 62
253
  6
CONTINUOUS
 10
-7.8554876412
 20
18.2771024941
 11
1.3369005143
 21
12.9695327809
  0
LWPOLYLINE
  5
491
100
AcDbEntity
  8
0
100
AcDbPolyline
 62
253
  6
CONTINUOUS
 90
34
 70
0
 10
1.3369005143
 20
12.9695327809
 10
1.7844274648
 20
12.6988355521
 10
2.2309406228
 20
12.4041499868
 10
2.6754284924
 20
12.0861436427
 10
3.1168841657
 20
11.7455369063
 10
3.5543076034
 20
11.3831013615
 10
3.9867079009
 20
10.9996580413
 10
4.4131055324
 20
10.5960755682
 10
4.8325345702
 20
10.1732681863
 10
5.2440448725
 20
9.7321936904
 10
5.6467042361
 20
9.2738512559
 10
6.0396005081
 20
8.799279176
 10
6.4218436521
 20
8.3095525091
 10
6.7925677644
 20
7.8057806434
 10
7.1509330357
 20
7.2891047845
 10
7.4961276533
 20
6.7606953692
 10
7.8273696404
 20
6.2217494149
 10
8.1439086274
 20
5.6734878074
 10
8.4450275516
 20
5.1171525357
 10
8.7300442819
 20
4.554003878
 10
8.9983131637
 20
3.9853175473
 10
9.2492264816
 20
3.412381801
 10
9.4822158364
 20
2.8364945227
 10
9.6967534322
 20
2.2589602825
 10
9.8923532722
 20
1.6810873811
 10
10.0685722601
 20
1.1041848865
 10
10.225011203
 20
0.5295596684
 10
10.3613157165
 20
-0.0414865622
 10
10.4771770271
 20
-0.607660202
 10
10.5723326715
 20
-1.1676786856
 10
10.6465670916
 20
-1.7202733909
 10
10.6997121226
 20
-2.2641925134
 10
10.731647374
 20
-2.7982039011
 10
10.742300502
 20
-3.3210978465
  0
LINE
  5
492
100
AcDbEntity
  8
0
100
AcDbLine
 62
7
  6
CONTINUOUS
 10
14.4337830704
 20
4.6702116017
 11
14.4520892271
 21
4.6581777498
  0
LWPOLYLINE
  5
493
100
AcDbEntity
  8
0
100
AcDbPolyline
 62
253
  6
CONTINUOUS
 90
3
 70
0
 10
13.8101404497
 20
4.9884395534
 10
13.8190359706
 20
4.9817939718
 10
13.8262801031
 20
4.9731746096
  0
LWPOLYLINE
  5
494
100
AcDbEntity
  8
0
100
AcDbPolyline
 62
7
  6
CONTINUOUS
 90
4
 70
0
 10
14.4844671856
 20
4.9602698483
 10
14.5065404286
 20
4.9432361169
 10
14.5478837855
 20
4.9059804316
 10
14.5833548934
 20
4.8680764217
  0
LWPOLYLINE
  5
495
100
AcDbEntity
  8
0
100
AcDbPolyline
 62
7
  6
CONTINUOUS
 90
16
 70
0
 10
14.0802296798
 20
5.7258891791
 10
14.011538064
 20
5.7793020302
 10
13.9455582462
 20
5.8380756998
 10
13.8822902265
 20
5.902210188
 10
13.8212240891
 20
5.9723896654
 10
13.7628697499
 20
6.0479299613
 10
13.7087569558
 20
6.1267785639
 10
13.6589905751
 20
6.20901269
 10
13.6134657396
 20
6.2945551228
 10
13.5733975918
 20
6.3811216999
 10
13.5389171914
 20
6.4687403403
 10
13.5098934786
 20
6.5573831249
 10
13.4871484173
 20
6.6446821343
 10
13.4709559953
 20
6.7298480619
 10
13.4610422248
 20
6.8136702142
 10
13.4574071057
 20
6.8961485913
  0
LWPOLYLINE
  5
496
100
AcDbEntity
  8
0
100
AcDbPolyline
 62
253
  6
CONTINUOUS
 90
3
 70
0
 10
14.490185615
 20
4.686351708
 10
14.467369064
 20
4.7068901261
 10
14.4337830704
 20
4.7324390424
  0
LWPOLYLINE
  5
497
100
AcDbEntity
  8
0
100
AcDbPolyline
 62
253
  6
CONTINUOUS
 90
12
 70
0
 10
11.9149881007
 20
5.5407175838
 10
11.6325727036
 20
6.125147975
 10
11.3353034915
 20
6.7043049576
 10
11.0236893459
 20
7.2771970881
 10
10.6982636923
 20
7.8428436685
 10
10.3595836244
 20
8.4002763608
 10
10.0082289544
 20
8.9485408484
 10
9.6448011699
 20
9.4866985534
 10
9.2699223994
 20
10.0138282399
 10
8.8842343871
 20
10.5290275299
 10
8.488397381
 20
11.0314144688
 10
8.083089003
 20
11.520129035
  0
LWPOLYLINE
  5
498
100
AcDbEntity
  8
0
100
AcDbPolyline
 62
7
  6
CONTINUOUS
 90
13
 70
0
 10
12.0715934387
 20
5.6665983408
 10
11.7928996719
 20
6.2433295105
 10
11.4996039642
 20
6.8147506958
 10
11.1921942934
 20
7.379922367
 10
10.8711879707
 20
7.9379011949
 10
10.537107608
 20
8.4877822519
 10
10.1904768718
 20
9.028698817
 10
9.8318620362
 20
9.5597558156
 10
9.4618471721
 20
10.0800737435
 10
9.0810030387
 20
10.5888291532
 10
8.6899334755
 20
11.0851874464
 10
8.2892791436
 20
11.5683047054
 10
7.8796859907
 20
12.0373696003
  0
LWPOLYLINE
  5
499
100
AcDbEntity
  8
0
100
AcDbPolyline
 62
7
  6
CONTINUOUS
 90
11
 70
0
 10
12.0715849816
 20
5.6666163316
 10
12.0785583085
 20
5.6510440521
 10
12.0855688842
 20
5.6337587388
 10
12.0916707181
 20
5.6169800523
 10
12.0969669329
 20
5.6006592769
 10
12.1015405321
 20
5.5847587066
 10
12.1054025198
 20
5.5694931675
 10
12.1085956783
 20
5.555025143
 10
12.1112265855
 20
5.5412227078
 10
12.1134076504
 20
5.5277646819
 10
12.1152228834
 20
5.5142367761
  0
LWPOLYLINE
  5
49A
100
AcDbEntity
  8
0
100
AcDbPolyline
 62
7
  6
CONTINUOUS
 90
10
 70
0
 10
13.88346169
 20
-4.1138948393
 10
13.8836579346
 20
-4.1145176301
 10
13.8841112506
 20
-4.1156893188
 10
13.8849016489
 20
-4.117405015
 10
13.8861054106
 20
-4.1196547563
 10
13.8877814528
 20
-4.1224019166
 10
13.8899657707
 20
-4.1255871234
 10
13.8926903732
 20
-4.1291614811
 10
13.89598801
 20
-4.1330866789
 10
13.8998765316
 20
-4.137314037
  0
LWPOLYLINE
  5
49B
100
AcDbEntity
  8
0
100
AcDbPolyline
 62
7
  6
CONTINUOUS
 90
7
 70
0
 10
13.4977117814
 20
-4.2197107547
 10
13.504525176
 20
-4.2420275508
 10
13.5127378078
 20
-4.2642985446
 10
13.5223735095
 20
-4.2864639678
 10
13.5334449323
 20
-4.3084501274
 10
13.5459736235
 20
-4.3302109416
 10
13.5600021073
 20
-4.3517310711
  0
LINE
  5
49C
100
AcDbEntity
  8
0
100
AcDbLine
 62
7
  6
CONTINUOUS
 10
13.4977117814
 20
-4.2197107547
 11
12.6619496469
 21
-1.1729557775
  0
LINE
  5
49D
100
AcDbEntity
  8
0
100
AcDbLine
 62
7
  6
CONTINUOUS
 10
13.88346169
 20
-4.1138948393
 11
12.5873068061
 21
0.6112131562
  0
LWPOLYLINE
  5
49E
100
AcDbEntity
  8
0
100
AcDbPolyline
 62
253
  6
CONTINUOUS
 90
12
 70
0
 10
12.1152231458
 20
5.5142345952
 10
12.1146985703
 20
5.5162869578
 10
12.1106462231
 20
5.52140771
 10
12.1027602232
 20
5.5260079811
 10
12.0911019709
 20
5.5300524245
 10
12.0757624626
 20
5.5335084371
 10
12.0568615294
 20
5.5363481398
 10
12.0345463309
 20
5.5385498379
 10
12.0089901391
 20
5.5400965833
 10
11.9803916885
 20
5.5409763541
 10
11.9489738997
 20
5.5411820965
 10
11.9149814997
 20
5.5407121263
  0
LINE
  5
49F
100
AcDbEntity
  8
0
100
AcDbLine
 62
7
  6
CONTINUOUS
 10
9.9294303556
 20
15.7884625307
 11
9.9186786109
 21
15.8388476461
  0
LWPOLYLINE
  5
4A0
100
AcDbEntity
  8
0
100
AcDbPolyline
 62
253
  6
CONTINUOUS
 90
3
 70
0
 10
13.4977117814
 20
-4.2197107547
 10
13.4941311996
 20
-4.2018373735
 10
13.4930490676
 20
-4.1848674569
  0
LWPOLYLINE
  5
4A1
100
AcDbEntity
  8
0
100
AcDbPolyline
 62
253
  6
CONTINUOUS
 90
6
 70
0
 10
13.8279846612
 20
-6.4098351045
 10
13.8271882139
 20
-6.3943949563
 10
13.8248225893
 20
-6.3783280462
 10
13.8209404167
 20
-6.3618801797
 10
13.8156445494
 20
-6.3453771816
 10
13.811834149
 20
-6.3359571378
  0
LWPOLYLINE
  5
4A2
100
AcDbEntity
  8
0
100
AcDbPolyline
 62
7
  6
CONTINUOUS
 90
4
 70
0
 10
15.0730772987
 20
3.0244853629
 10
15.0703438983
 20
3.0844390379
 10
15.0597462414
 20
3.1553777923
 10
15.0510874964
 20
3.1881218717
  0
LWPOLYLINE
  5
4A3
100
AcDbEntity
  8
0
100
AcDbPolyline
 62
7
  6
CONTINUOUS
 90
4
 70
0
 10
15.0730053076
 20
2.6979658477
 10
15.0705193307
 20
2.7548990567
 10
15.0605201492
 20
2.8247789105
 10
15.0511974037
 20
2.861264413
  0
LWPOLYLINE
  5
4A4
100
AcDbEntity
  8
0
100
AcDbPolyline
 62
7
  6
CONTINUOUS
 90
4
 70
0
 10
15.0730708694
 20
4.0037485556
 10
15.0706480322
 20
4.059869527
 10
15.0608537781
 20
4.1291062219
 10
15.0510966343
 20
4.1677908882
  0
LWPOLYLINE
  5
4A5
100
AcDbEntity
  8
0
100
AcDbPolyline
 62
7
  6
CONTINUOUS
 90
4
 70
0
 10
15.0731084089
 20
3.3505380309
 10
15.0707387548
 20
3.4060911243
 10
15.0611125621
 20
3.4746920889
 10
15.051272149
 20
3.5140494759
  0
LWPOLYLINE
  5
4A6
100
AcDbEntity
  8
0
100
AcDbPolyline
 62
7
  6
CONTINUOUS
 90
4
 70
0
 10
15.0730699456
 20
4.6576355939
 10
15.0707275638
 20
4.7130299572
 10
15.0609905855
 20
4.7821607543
 10
15.0515420743
 20
4.8195516327
  0
LWPOLYLINE
  5
4A7
100
AcDbEntity
  8
0
100
AcDbPolyline
 62
7
  6
CONTINUOUS
 90
4
 70
0
 10
15.0730173119
 20
3.6774432313
 10
15.070790815
 20
3.731292189
 10
15.0610920903
 20
3.801399536
 10
15.0511932815
 20
3.8408332836
  0
LWPOLYLINE
  5
4A8
100
AcDbEntity
  8
0
100
AcDbPolyline
 62
7
  6
CONTINUOUS
 90
4
 70
0
 10
15.0730049992
 20
4.3309747459
 10
15.0709374817
 20
4.3828157435
 10
15.061884066
 20
4.4506087919
 10
15.0511905782
 20
4.4947878492
  0
LWPOLYLINE
  5
4A9
100
AcDbEntity
  8
0
100
AcDbPolyline
 62
253
  6
CONTINUOUS
 90
23
 70
0
 10
14.6726691015
 20
-3.2661896
 10
14.6716980057
 20
-3.2407370703
 10
14.6636587938
 20
-3.1816019618
 10
14.6485113369
 20
-3.1229177559
 10
14.6264199133
 20
-3.0650639949
 10
14.5975823524
 20
-3.0083993351
 10
14.5621348014
 20
-2.9531440467
 10
14.5201395493
 20
-2.8994748396
 10
14.4717339871
 20
-2.8476465018
 10
14.41723076
 20
-2.7979441939
 10
14.3569190851
 20
-2.750602841
 10
14.2910360322
 20
-2.7058323394
 10
14.2199515998
 20
-2.6639396656
 10
14.1442060083
 20
-2.6252779139
 10
14.0643019732
 20
-2.5900332816
 10
13.9806792909
 20
-2.5583170468
 10
13.8938965921
 20
-2.5302871839
 10
13.8044735677
 20
-2.5060766402
 10
13.7128613426
 20
-2.4857964986
 10
13.6195403038
 20
-2.4695154081
 10
13.5251087798
 20
-2.457253342
 10
13.4300212255
 20
-2.4490047416
 10
13.4267218531
 20
-2.4488584443
  0
LWPOLYLINE
  5
4AA
100
AcDbEntity
  8
0
100
AcDbPolyline
 62
253
  6
CONTINUOUS
 90
24
 70
0
 10
14.6730326021
 20
-2.9508635433
 10
14.6717601301
 20
-2.9159535429
 10
14.6640557071
 20
-2.8571567186
 10
14.6493450338
 20
-2.7987653897
 10
14.6276184008
 20
-2.7410532911
 10
14.5990195954
 20
-2.684334704
 10
14.5637181855
 20
-2.6288884606
 10
14.5218641436
 20
-2.5749754268
 10
14.4736498699
 20
-2.5229166607
 10
14.419341481
 20
-2.4730740774
 10
14.3592504099
 20
-2.4256992238
 10
14.2937488323
 20
-2.3810035315
 10
14.2232968313
 20
-2.3392477276
 10
14.1483233552
 20
-2.3006541508
 10
14.0691901476
 20
-2.2654077923
 10
13.9862987986
 20
-2.2336763924
 10
13.9001454867
 20
-2.2055742973
 10
13.8112191353
 20
-2.1812011577
 10
13.7199677575
 20
-2.1606497942
 10
13.6268803514
 20
-2.1440275459
 10
13.5324462886
 20
-2.1314323727
 10
13.4371283147
 20
-2.1228859909
 10
13.3414482468
 20
-2.1183838682
 10
13.3360614796
 20
-2.1183577758
  0
LWPOLYLINE
  5
4AB
100
AcDbEntity
  8
0
100
AcDbPolyline
 62
7
  6
CONTINUOUS
 90
5
 70
0
 10
14.9337829144
 20
-5.9126441838
 10
14.9326595594
 20
-5.8781680078
 10
14.9278750449
 20
-5.8338826726
 10
14.9197734195
 20
-5.7917718167
 10
14.9141589759
 20
-5.7714072068
  0
LWPOLYLINE
  5
4AC
100
AcDbEntity
  8
0
100
AcDbPolyline
 62
7
  6
CONTINUOUS
 90
4
 70
0
 10
15.0730710314
 20
-4.2582993459
 10
15.0724209764
 20
-4.2271921461
 10
15.0653481091
 20
-4.1504760508
 10
15.0545336028
 20
-4.0949026517
  0
LWPOLYLINE
  5
4AD
100
AcDbEntity
  8
0
100
AcDbPolyline
 62
7
  6
CONTINUOUS
 90
4
 70
0
 10
15.0731087952
 20
-3.6051196431
 10
15.0725550307
 20
-3.5763530933
 10
15.0656160866
 20
-3.4990009828
 10
15.0544082009
 20
-3.4410958952
  0
LWPOLYLINE
  5
4AE
100
AcDbEntity
  8
0
100
AcDbPolyline
 62
7
  6
CONTINUOUS
 90
4
 70
0
 10
15.0731139345
 20
-5.2380150897
 10
15.0726316052
 20
-5.2111703527
 10
15.0660804015
 20
-5.1352341404
 10
15.0544990808
 20
-5.0736387948
  0
LWPOLYLINE
  5
4AF
100
AcDbEntity
  8
0
100
AcDbPolyline
 62
7
  6
CONTINUOUS
 90
4
 70
0
 10
15.0730704637
 20
-4.9104614996
 10
15.0726103954
 20
-4.8842608541
 10
15.0661038019
 20
-4.8082526536
 10
15.0545874312
 20
-4.747128826
  0
LWPOLYLINE
  5
4B0
100
AcDbEntity
  8
0
100
AcDbPolyline
 62
7
  6
CONTINUOUS
 90
4
 70
0
 10
15.0730781589
 20
-3.2775511231
 10
15.0726281187
 20
-3.2516261667
 10
15.0660768064
 20
-3.1751175758
 10
15.0545485943
 20
-3.1142134894
  0
LWPOLYLINE
  5
4B1
100
AcDbEntity
  8
0
100
AcDbPolyline
 62
7
  6
CONTINUOUS
 90
4
 70
0
 10
15.0730173927
 20
-3.9314233258
 10
15.0725792862
 20
-3.9059233258
 10
15.0660414261
 20
-3.8288402472
 10
15.0545205696
 20
-3.767622299
  0
LWPOLYLINE
  5
4B2
100
AcDbEntity
  8
0
100
AcDbPolyline
 62
7
  6
CONTINUOUS
 90
26
 70
0
 10
15.0730054251
 20
-2.951276011
 10
15.0725725266
 20
-2.9259295625
 10
15.0662379369
 20
-2.8502674628
 10
15.0521637174
 20
-2.774188475
 10
15.0302685282
 20
-2.6985473626
 10
15.0005094363
 20
-2.6237486
 10
14.9629790391
 20
-2.5502216669
 10
14.9180467321
 20
-2.4787239791
 10
14.8659557945
 20
-2.4095925712
 10
14.806832667
 20
-2.3430135057
 10
14.7409772489
 20
-2.2793769465
 10
14.6685487905
 20
-2.2188567076
 10
14.5898437233
 20
-2.161632027
 10
14.5054743101
 20
-2.108065021
 10
14.4157887067
 20
-2.0583058574
 10
14.3211288736
 20
-2.0125197252
 10
14.2222691431
 20
-1.9710581684
 10
14.1197862037
 20
-1.9340585836
 10
14.01405861
 20
-1.9015140437
 10
13.905686936
 20
-1.8735055182
 10
13.795195336
 20
-1.8500924298
 10
13.6830312926
 20
-1.8313285472
 10
13.5697028697
 20
-1.8172782305
 10
13.4557062579
 20
-1.8079253243
 10
13.3415391268
 20
-1.8032275879
 10
13.2496007122
 20
-1.8031666912
  0
LWPOLYLINE
  5
4B3
100
AcDbEntity
  8
0
100
AcDbPolyline
 62
253
  6
CONTINUOUS
 90
3
 70
0
 10
14.7872860316
 20
-7.8900388636
 10
14.7877810748
 20
-7.9194208522
 10
14.7862513797
 20
-7.9474623874
  0
LWPOLYLINE
  5
4B4
100
AcDbEntity
  8
0
100
AcDbPolyline
 62
253
  6
CONTINUOUS
 90
6
 70
0
 10
14.7873364903
 20
-6.1166183108
 10
14.7865343545
 20
-6.068957714
 10
14.7815104956
 20
-6.0193974934
 10
14.7723218726
 20
-5.9685032425
 10
14.7590723553
 20
-5.9168560923
 10
14.7529615832
 20
-5.8984047889
  0
LWPOLYLINE
  5
4B5
100
AcDbEntity
  8
0
100
AcDbPolyline
 62
7
  6
CONTINUOUS
 90
4
 70
0
 10
15.0730050289
 20
-4.5842821498
 10
15.0726027362
 20
-4.5598535758
 10
15.0664388674
 20
-4.4847733833
 10
15.0546267534
 20
-4.4200247481
  0
LINE
  5
4B6
100
AcDbEntity
  8
0
100
AcDbLine
 62
7
  6
CONTINUOUS
 10
15.0730710726
 20
-4.2585418266
 11
15.0730710304
 21
-4.2582993459
  0
LINE
  5
4B7
100
AcDbEntity
  8
0
100
AcDbLine
 62
7
  6
CONTINUOUS
 10
15.0731087937
 20
-3.6051196431
 11
15.0731087867
 21
-3.6050769455
  0
LINE
  5
4B8
100
AcDbEntity
  8
0
100
AcDbLine
 62
253
  6
CONTINUOUS
 10
13.5668038069
 20
4.7655074528
 11
13.5668038069
 21
4.4008919374
  0
LINE
  5
4B9
100
AcDbEntity
  8
0
100
AcDbLine
 62
253
  6
CONTINUOUS
 10
13.8368253125
 20
4.4287536123
 11
13.8368253125
 21
4.9216239476
  0
LINE
  5
4BA
100
AcDbEntity
  8
0
100
AcDbLine
 62
253
  6
CONTINUOUS
 10
14.0393094746
 20
4.926728481
 11
14.0393094746
 21
4.4731656575
  0
LINE
  5
4BB
100
AcDbEntity
  8
0
100
AcDbLine
 62
7
  6
CONTINUOUS
 10
14.0802296798
 20
5.707826537
 11
14.0802296798
 21
5.7258891791
  0
LINE
  5
4BC
100
AcDbEntity
  8
0
100
AcDbLine
 62
253
  6
CONTINUOUS
 10
14.322646989
 20
-3.4380344776
 11
14.322646989
 21
-3.216219739
  0
LINE
  5
4BD
100
AcDbEntity
  8
0
100
AcDbLine
 62
7
  6
CONTINUOUS
 10
14.3629439346
 20
-3.239597671
 11
14.3629439346
 21
-3.41219889
  0
LINE
  5
4BE
100
AcDbEntity
  8
0
100
AcDbLine
 62
7
  6
CONTINUOUS
 10
14.4337830704
 20
4.9831693691
 11
14.4337830704
 21
4.6451773454
  0
LINE
  5
4BF
100
AcDbEntity
  8
0
100
AcDbLine
 62
7
  6
CONTINUOUS
 10
14.4337830704
 20
-6.1209655981
 11
14.4337830704
 21
-6.3064988038
  0
LINE
  5
4C0
100
AcDbEntity
  8
0
100
AcDbLine
 62
253
  6
CONTINUOUS
 10
14.7873364476
 20
-7.8903167789
 11
14.7873364476
 21
-6.1166192681
  0
LINE
  5
4C1
100
AcDbEntity
  8
0
100
AcDbLine
 62
7
  6
CONTINUOUS
 10
14.9337830704
 20
-5.9124800956
 11
14.9337830704
 21
-7.6861794736
  0
LINE
  5
4C2
100
AcDbEntity
  8
0
100
AcDbLine
 62
7
  6
CONTINUOUS
 10
15.0731139342
 20
-5.2380664304
 11
15.0731139313
 21
-5.2380150902
  0
LINE
  5
4C3
100
AcDbEntity
  8
0
100
AcDbLine
 62
7
  6
CONTINUOUS
 10
15.0730049992
 20
4.3309747459
 11
15.0730049982
 21
4.3315995436
  0
LINE
  5
4C4
100
AcDbEntity
  8
0
100
AcDbLine
 62
7
  6
CONTINUOUS
 10
15.0730173819
 20
-3.9320132234
 11
15.0730173925
 21
-3.9314233258
  0
LINE
  5
4C5
100
AcDbEntity
  8
0
100
AcDbLine
 62
7
  6
CONTINUOUS
 10
15.0730053985
 20
-2.9519125606
 11
15.0730054258
 21
-2.951276011
  0
LINE
  5
4C6
100
AcDbEntity
  8
0
100
AcDbLine
 62
7
  6
CONTINUOUS
 10
15.0730708696
 20
4.0037485556
 11
15.0730708332
 21
4.0046982912
  0
LINE
  5
4C7
100
AcDbEntity
  8
0
100
AcDbLine
 62
7
  6
CONTINUOUS
 10
15.0731084092
 20
3.3505380309
 11
15.0731082457
 21
3.3519132227
  0
LINE
  5
4C8
100
AcDbEntity
  8
0
100
AcDbLine
 62
7
  6
CONTINUOUS
 10
14.6730324133
 20
-2.9524185431
 11
14.6730326021
 21
-2.9508635433
  0
LINE
  5
4C9
100
AcDbEntity
  8
0
100
AcDbLine
 62
7
  6
CONTINUOUS
 10
15.0730173119
 20
3.6774432313
 11
15.07301739
 21
3.6780874029
  0
LINE
  5
4CA
100
AcDbEntity
  8
0
100
AcDbLine
 62
7
  6
CONTINUOUS
 10
15.0730053075
 20
2.6979658477
 11
15.07300541
 21
2.6986921835
  0
LINE
  5
4CB
100
AcDbEntity
  8
0
100
AcDbLine
 62
7
  6
CONTINUOUS
 10
15.0730049964
 20
-4.5849204731
 11
15.0730050287
 21
-4.5842821497
  0
LINE
  5
4CC
100
AcDbEntity
  8
0
100
AcDbLine
 62
7
  6
CONTINUOUS
 10
15.0730781307
 20
-3.2779002146
 11
15.0730781625
 21
-3.277551123
  0
LINE
  5
4CD
100
AcDbEntity
  8
0
100
AcDbLine
 62
7
  6
CONTINUOUS
 10
15.0730704284
 20
-4.9108678429
 11
15.0730704676
 21
-4.9104614993
  0
LINE
  5
4CE
100
AcDbEntity
  8
0
100
AcDbLine
 62
7
  6
CONTINUOUS
 10
15.0730699449
 20
4.6576355938
 11
15.073070366
 21
4.6587132738
  0
LINE
  5
4CF
100
AcDbEntity
  8
0
100
AcDbLine
 62
7
  6
CONTINUOUS
 10
15.073077298
 20
3.0244853629
 11
15.0730780647
 21
3.025759163
  0
LWPOLYLINE
  5
4D0
100
AcDbEntity
  8
0
100
AcDbPolyline
 62
7
  6
CONTINUOUS
 90
13
 70
0
 10
14.6730326021
 20
-2.9508635433
 10
14.6727418931
 20
-2.9663137183
 10
14.6676329333
 20
-3.0148296776
 10
14.6566767036
 20
-3.0613131839
 10
14.640300716
 20
-3.1062713369
 10
14.6182687499
 20
-3.1510703561
 10
14.5905868731
 20
-3.1956871746
 10
14.5575884892
 20
-3.2395704968
 10
14.5188968102
 20
-3.283082097
 10
14.4744565171
 20
-3.3259686608
 10
14.4245218806
 20
-3.367734693
 10
14.3689044958
 20
-3.4083773944
 10
14.3075602466
 20
-3.4477070433
  0
LINE
  5
4D1
100
AcDbEntity
  8
0
100
AcDbLine
 62
253
  6
CONTINUOUS
 10
13.8371673963
 20
4.9366748001
 11
13.8368253103
 21
4.9216239758
  0
LWPOLYLINE
  5
4D2
100
AcDbEntity
  8
0
100
AcDbPolyline
 62
253
  6
CONTINUOUS
 90
9
 70
0
 10
14.9337829533
 20
-5.9126776806
 10
14.9334442146
 20
-5.9231068639
 10
14.9288110216
 20
-5.9530919371
 10
14.9186638015
 20
-5.982937164
 10
14.9029705131
 20
-6.0122581691
 10
14.8818131503
 20
-6.0406406673
 10
14.8553465778
 20
-6.0677148897
 10
14.8237626454
 20
-6.0931534184
 10
14.7873364476
 20
-6.1166174001
  0
LINE
  5
4D3
100
AcDbEntity
  8
0
100
AcDbLine
 62
253
  6
CONTINUOUS
 10
15.0697667509
 20
3.2931962763
 11
15.0731084092
 21
3.3505380309
  0
LWPOLYLINE
  5
4D4
100
AcDbEntity
  8
0
100
AcDbPolyline
 62
253
  6
CONTINUOUS
 90
16
 70
0
 10
13.4930490676
 20
-4.1848674569
 10
13.4941311996
 20
-4.1676996201
 10
13.4973657396
 20
-4.1505219576
 10
13.5027172492
 20
-4.1335226713
 10
13.5101270963
 20
-4.1168880091
 10
13.5195140969
 20
-4.1008002237
 10
13.5307754052
 20
-4.0854355763
 10
13.5437876398
 20
-4.0709624053
 10
13.558408236
 20
-4.0575392816
 10
13.5744770076
 20
-4.0453132718
 10
13.5918179016
 20
-4.0344183267
 10
13.6102409277
 20
-4.0249738136
 10
13.6295442392
 20
-4.0170832085
 10
13.6495163451
 20
-4.0108329625
 10
13.6699384268
 20
-4.0062915547
 10
13.6905867357
 20
-4.0035087416
  0
LWPOLYLINE
  5
4D5
100
AcDbEntity
  8
0
100
AcDbPolyline
 62
253
  6
CONTINUOUS
 90
16
 70
0
 10
13.4930490676
 20
-9.4919242561
 10
13.4941311996
 20
-9.4747564193
 10
13.4973657396
 20
-9.4575787567
 10
13.5027172492
 20
-9.4405794705
 10
13.5101270963
 20
-9.4239448082
 10
13.5195140969
 20
-9.4078570229
 10
13.5307754052
 20
-9.3924923755
 10
13.5437876398
 20
-9.3780192044
 10
13.558408236
 20
-9.3645960807
 10
13.5744770076
 20
-9.352370071
 10
13.5918179016
 20
-9.3414751259
 10
13.6102409277
 20
-9.3320306127
 10
13.6295442392
 20
-9.3241400076
 10
13.6495163451
 20
-9.3178897617
 10
13.6699384268
 20
-9.3133483539
 10
13.6905867357
 20
-9.3105655408
  0
LINE
  5
4D6
100
AcDbEntity
  8
0
100
AcDbLine
 62
7
  6
CONTINUOUS
 10
15.0658231404
 20
4.8881281861
 11
15.0694937815
 21
4.9250612427
  0
LWPOLYLINE
  5
4D7
100
AcDbEntity
  8
0
100
AcDbPolyline
 62
253
  6
CONTINUOUS
 90
3
 70
0
 10
15.0661793481
 20
4.5746455723
 10
15.072663748
 20
4.6380323135
 10
15.0730699449
 20
4.6576355938
  0
LWPOLYLINE
  5
4D8
100
AcDbEntity
  8
0
100
AcDbPolyline
 62
253
  6
CONTINUOUS
 90
3
 70
0
 10
15.0654030039
 20
4.2432108302
 10
15.0724478708
 20
4.3074055982
 10
15.0730049992
 20
4.3309747459
  0
LINE
  5
4D9
100
AcDbEntity
  8
0
100
AcDbLine
 62
253
  6
CONTINUOUS
 10
15.0638929651
 20
3.9079963663
 11
15.0720881128
 21
3.9726231291
  0
LINE
  5
4DA
100
AcDbEntity
  8
0
100
AcDbLine
 62
253
  6
CONTINUOUS
 10
15.0583217776
 20
3.22939506
 11
15.0697667509
 21
3.2931962763
  0
LWPOLYLINE
  5
4DB
100
AcDbEntity
  8
0
100
AcDbPolyline
 62
7
  6
CONTINUOUS
 90
7
 70
0
 10
12.4892394221
 20
-8.2700951723
 10
12.4912666907
 20
-8.2600764424
 10
12.5451841463
 20
-7.9399092475
 10
12.5913464619
 20
-7.611204951
 10
12.630118554
 20
-7.2808325459
 10
12.6625559786
 20
-6.9500275393
 10
12.6849979922
 20
-6.6795242387
  0
LWPOLYLINE
  5
4DC
100
AcDbEntity
  8
0
100
AcDbPolyline
 62
253
  6
CONTINUOUS
 90
11
 70
0
 10
12.5431141524
 20
-6.9246657136
 10
12.5521071107
 20
-6.8864854354
 10
12.5574582761
 20
-6.8458643288
 10
12.5591144095
 20
-6.803206928
 10
12.5570591
 20
-6.7589380325
 10
12.5513128541
 20
-6.7134985171
 10
12.541932822
 20
-6.6673409791
 10
12.5290123572
 20
-6.6209251602
 10
12.5126801706
 20
-6.5747133211
 10
12.4930989356
 20
-6.5291657002
 10
12.4892394221
 20
-6.5215900263
  0
LWPOLYLINE
  5
4DD
100
AcDbEntity
  8
0
100
AcDbPolyline
 62
7
  6
CONTINUOUS
 90
5
 70
0
 10
15.0244527586
 20
-3.2211064625
 10
15.0484211999
 20
-3.1441641669
 10
15.0642437371
 20
-3.0668236732
 10
15.0720051111
 20
-2.9905408979
 10
15.0730053985
 20
-2.9519125606
  0
LWPOLYLINE
  5
4DE
100
AcDbEntity
  8
0
100
AcDbPolyline
 62
253
  6
CONTINUOUS
 90
5
 70
0
 10
15.0072565263
 20
-3.2366318579
 10
15.0358631393
 20
-3.1669068163
 10
15.0563143262
 20
-3.096469251
 10
15.0686688222
 20
-3.0255925622
 10
15.0730053985
 20
-2.9519125606
  0
LINE
  5
4DF
100
AcDbEntity
  8
0
100
AcDbLine
 62
7
  6
CONTINUOUS
 10
14.992276792
 20
-3.2971675139
 11
15.0244527586
 21
-3.2211064625
  0
LINE
  5
4E0
100
AcDbEntity
  8
0
100
AcDbLine
 62
7
  6
CONTINUOUS
 10
14.9917938476
 20
-3.6248265584
 11
15.0236873806
 21
-3.5495908235
  0
LWPOLYLINE
  5
4E1
100
AcDbEntity
  8
0
100
AcDbPolyline
 62
253
  6
CONTINUOUS
 90
6
 70
0
 10
14.9823388839
 20
-4.2647115731
 10
15.0161564331
 20
-4.1966863532
 10
15.0422476467
 20
-4.1274922852
 10
15.0604214793
 20
-4.0574615493
 10
15.0706056147
 20
-3.9868713527
 10
15.0730173819
 20
-3.9320132234
  0
LWPOLYLINE
  5
4E2
100
AcDbEntity
  8
0
100
AcDbPolyline
 62
253
  6
CONTINUOUS
 90
6
 70
0
 10
13.9404605019
 20
-6.3070133486
 10
13.9338150014
 20
-6.3159847432
 10
13.9092722258
 20
-6.344220795
 10
13.8836290008
 20
-6.3690277702
 10
13.8565331477
 20
-6.3908992056
 10
13.8279846667
 20
-6.4098351014
  0
LWPOLYLINE
  5
4E3
100
AcDbEntity
  8
0
100
AcDbPolyline
 62
7
  6
CONTINUOUS
 90
4
 70
0
 10
14.8582306549
 20
-5.1355688162
 10
14.9081125845
 20
-5.0716059782
 10
14.9545658203
 20
-5.000471249
 10
14.9936806087
 20
-4.9271559672
  0
LWPOLYLINE
  5
4E4
100
AcDbEntity
  8
0
100
AcDbPolyline
 62
253
  6
CONTINUOUS
 90
5
 70
0
 10
14.8354161288
 20
-5.1118044173
 10
14.8596512366
 20
-5.087028599
 10
14.9124361924
 20
-5.0237585906
 10
14.958067767
 20
-4.9585753669
 10
14.9963469099
 20
-4.8917585142
  0
LWPOLYLINE
  5
4E5
100
AcDbEntity
  8
0
100
AcDbPolyline
 62
7
  6
CONTINUOUS
 90
6
 70
0
 10
14.7080859249
 20
-4.9586937274
 10
14.7780270783
 20
-4.8955570548
 10
14.8414126423
 20
-4.8290174728
 10
14.8975189668
 20
-4.7596778954
 10
14.9461425726
 20
-4.6878624903
 10
14.9871919976
 20
-4.613794606
  0
LWPOLYLINE
  5
4E6
100
AcDbEntity
  8
0
100
AcDbPolyline
 62
7
  6
CONTINUOUS
 90
7
 70
0
 10
7.8398108152
 20
-11.7825438815
 10
7.8352185575
 20
-11.7865570842
 10
7.8332215563
 20
-11.7880529169
 10
7.8314306177
 20
-11.7891295307
 10
7.8298048322
 20
-11.7897606219
 10
7.8281617491
 20
-11.7898927366
 10
7.8274335717
 20
-11.7898081269
  0
LINE
  5
4E7
100
AcDbEntity
  8
0
100
AcDbLine
 62
253
  6
CONTINUOUS
 10
14.7530129407
 20
-8.0709903131
 11
14.7207872054
 21
-8.0942977102
  0
LWPOLYLINE
  5
4E8
100
AcDbEntity
  8
0
100
AcDbPolyline
 62
253
  6
CONTINUOUS
 90
3
 70
0
 10
14.1360180217
 20
-8.5257194935
 10
14.3965818353
 20
-8.3487869752
 10
14.7207872052
 20
-8.0942977092
  0
LWPOLYLINE
  5
4E9
100
AcDbEntity
  8
0
100
AcDbPolyline
 62
7
  6
CONTINUOUS
 90
8
 70
0
 10
14.1360180217
 20
-8.5257194935
 10
14.2077919647
 20
-8.4793001254
 10
14.2789002941
 20
-8.4317431593
 10
14.3493355093
 20
-8.3830523685
 10
14.4190871537
 20
-8.3332338521
 10
14.4881509777
 20
-8.2822895266
 10
14.5565286527
 20
-8.2302166217
 10
14.6242156905
 20
-8.177016589
  0
LINE
  5
4EA
100
AcDbEntity
  8
0
100
AcDbLine
 62
253
  6
CONTINUOUS
 10
14.8223560445
 20
-7.8678603316
 11
13.6615561073
 21
-8.6119990541
  0
LINE
  5
4EB
100
AcDbEntity
  8
0
100
AcDbLine
 62
253
  6
CONTINUOUS
 10
13.3088094152
 20
-8.8381275681
 11
12.4892394221
 21
-9.3635134859
  0
LINE
  5
4EC
100
AcDbEntity
  8
0
100
AcDbLine
 62
7
  6
CONTINUOUS
 10
12.4892394221
 20
-9.5251298203
 11
13.3465079381
 21
-8.9755568169
  0
LINE
  5
4ED
100
AcDbEntity
  8
0
100
AcDbLine
 62
7
  6
CONTINUOUS
 10
13.6992558505
 20
-8.7494327513
 11
14.7208100247
 21
-8.0943301648
  0
LINE
  5
4EE
100
AcDbEntity
  8
0
100
AcDbLine
 62
7
  6
CONTINUOUS
 10
14.1360180217
 20
-8.5257194935
 11
13.7118717766
 21
-8.7954238703
  0
LINE
  5
4EF
100
AcDbEntity
  8
0
100
AcDbLine
 62
7
  6
CONTINUOUS
 10
13.3586987261
 20
-9.0199981029
 11
12.4892394221
 21
-9.5728663232
  0
LINE
  5
4F0
100
AcDbEntity
  8
0
100
AcDbLine
 62
253
  6
CONTINUOUS
 10
7.8914430468
 20
-12.2306433695
 11
8.0213262103
 21
-12.1601711709
  0
LINE
  5
4F1
100
AcDbEntity
  8
0
100
AcDbLine
 62
7
  6
CONTINUOUS
 10
7.9251982171
 20
-11.887931637
 11
7.7687892127
 21
-11.972167608
  0
LINE
  5
4F2
100
AcDbEntity
  8
0
100
AcDbLine
 62
7
  6
CONTINUOUS
 10
7.8996301843
 20
-11.7556431989
 11
7.9046662109
 21
-11.7535654759
  0
LINE
  5
4F3
100
AcDbEntity
  8
0
100
AcDbLine
 62
253
  6
CONTINUOUS
 10
7.8914430468
 20
-12.3965359448
 11
8.0213262103
 21
-12.3440253434
  0
LWPOLYLINE
  5
4F4
100
AcDbEntity
  8
0
100
AcDbPolyline
 62
7
  6
CONTINUOUS
 90
7
 70
0
 10
7.8596770362
 20
-11.77059298
 10
7.8557338508
 20
-11.7721217681
 10
7.8520252687
 20
-11.7739163249
 10
7.8485661199
 20
-11.7759229119
 10
7.8453839168
 20
-11.7780932227
 10
7.8424771852
 20
-11.780339405
 10
7.8398108152
 20
-11.7825438815
  0
LWPOLYLINE
  5
4F5
100
AcDbEntity
  8
0
100
AcDbPolyline
 62
253
  6
CONTINUOUS
 90
10
 70
0
 10
7.8914430468
 20
-12.2306457096
 10
7.8827364566
 20
-12.2340109542
 10
7.8737933014
 20
-12.2371626079
 10
7.8646292889
 20
-12.2400951351
 10
7.8552605148
 20
-12.2428033852
 10
7.8457034344
 20
-12.2452826013
 10
7.8359748337
 20
-12.2475284289
 10
7.8260918
 20
-12.2495369236
 10
7.8160716919
 20
-12.2513045576
 10
7.8059321087
 20
-12.2528282261
  0
LWPOLYLINE
  5
4F6
100
AcDbEntity
  8
0
100
AcDbPolyline
 62
7
  6
CONTINUOUS
 90
5
 70
0
 10
7.8796110039
 20
-11.7635468954
 10
7.8845963322
 20
-11.7616308652
 10
7.889593425
 20
-11.75967293
 10
7.8946059224
 20
-11.7576790169
 10
7.8996301843
 20
-11.7556431989
  0
LWPOLYLINE
  5
4F7
100
AcDbEntity
  8
0
100
AcDbPolyline
 62
7
  6
CONTINUOUS
 90
5
 70
0
 10
7.8596672234
 20
-11.7705963773
 10
7.8646528107
 20
-11.7689250172
 10
7.8696392432
 20
-11.7671939714
 10
7.8746265209
 20
-11.7654032398
 10
7.8796110039
 20
-11.7635468954
  0
LWPOLYLINE
  5
4F8
100
AcDbEntity
  8
0
100
AcDbPolyline
 62
7
  6
CONTINUOUS
 90
19
 70
0
 10
-6.2490902793
 20
19.3668943829
 10
-6.7056648253
 20
19.6177281894
 10
-7.1590501278
 20
19.8420196791
 10
-7.6092461869
 20
20.0397688521
 10
-8.0572471834
 20
20.2112833901
 10
-8.5020589365
 20
20.3562556114
 10
-8.940698904
 20
20.4737624702
 10
-9.3731233656
 20
20.5636227163
 10
-9.7993760415
 20
20.6260175999
 10
-10.2166055506
 20
20.660567826
 10
-10.6247508321
 20
20.6670906402
 10
-11.0238729467
 20
20.6457687969
 10
-11.4113036949
 20
20.5967712643
 10
-11.7869661686
 20
20.5199162254
 10
-12.150937276
 20
20.4153854973
 10
-12.5007795423
 20
20.2838935001
 10
-12.8363992402
 20
20.1252633899
 10
-13.1578900971
 20
19.9396720105
 10
-13.4040211667
 20
19.7722147045
  0
LINE
  5
4F9
100
AcDbEntity
  8
0
100
AcDbLine
 62
7
  6
CONTINUOUS
 10
-6.2490902793
 20
19.3668943829
 11
2.9432978761
 21
14.0593246696
  0
LWPOLYLINE
  5
4FA
100
AcDbEntity
  8
0
100
AcDbPolyline
 62
7
  6
CONTINUOUS
 90
10
 70
0
 10
7.879675761
 20
12.0373604256
 10
7.8720200521
 20
12.0438963669
 10
7.857833902
 20
12.0502918287
 10
7.8401925502
 20
12.0530701235
 10
7.8190012349
 20
12.0521330726
 10
7.7943547178
 20
12.0475788546
 10
7.7669608587
 20
12.0395114968
 10
7.7370556107
 20
12.0279656751
 10
7.7044030207
 20
12.0129067135
 10
7.6690030886
 20
11.9943346123
  0
LWPOLYLINE
  5
4FB
100
AcDbEntity
  8
0
100
AcDbPolyline
 62
7
  6
CONTINUOUS
 90
35
 70
0
 10
7.9434158218
 20
12.8663386431
 10
7.6133636286
 20
13.2116227143
 10
7.2799634816
 20
13.5465795327
 10
6.9432153806
 20
13.8712090982
 10
6.6027834314
 20
14.1858064748
 10
6.2590035283
 20
14.4900765986
 10
5.9128833541
 20
14.7831342779
 10
5.5644174295
 20
15.0649462562
 10
5.2136112338
 20
15.3355457902
 10
4.8614888883
 20
15.5941474575
 10
4.5080546854
 20
15.8407129492
 10
4.1533043327
 20
16.0752805744
 10
3.7982490738
 20
16.2971798378
 10
3.4428710424
 20
16.5063846233
 10
3.0871881048
 20
16.702921047
 10
2.7322651035
 20
16.886196962
 10
2.3781069778
 20
17.0561697615
 10
2.0247087884
 20
17.2128820524
 10
1.6731205593
 20
17.3558695081
 10
1.3233522815
 20
17.4850892479
 10
0.9753939641
 20
17.6005841526
 10
0.6302656583
 20
17.7020185383
 10
0.2879753497
 20
17.7893513573
 10
-0.0514849473
 20
17.8626236573
 10
-0.3871191377
 20
17.9216228964
 10
-0.7189190213
 20
17.9663068656
 10
-1.0468927983
 20
17.996717774
 10
-1.3700689749
 20
18.0127697073
 10
-1.6884209491
 20
18.0144219741
 10
-2.0019753229
 20
18.0017152657
 10
-2.3098404086
 20
17.9746857419
 10
-2.61200798
 20
17.9332938953
 10
-2.9084862634
 20
17.8775792332
 10
-3.1984082503
 20
17.8076964379
 10
-3.4297459306
 20
17.7390402906
  0
LINE
  5
4FC
100
AcDbEntity
  8
0
100
AcDbLine
 62
253
  6
CONTINUOUS
 10
8.083089003
 20
11.520129035
 11
7.6690030886
 21
11.9943346123
  0
LWPOLYLINE
  5
4FD
100
AcDbEntity
  8
0
100
AcDbPolyline
 62
7
  6
CONTINUOUS
 90
3
 70
0
 10
14.5833548934
 20
4.8680764217
 10
14.6129632299
 20
4.8297722539
 10
14.6184267413
 20
4.8209421573
  0
LINE
  5
4FE
100
AcDbEntity
  8
0
100
AcDbLine
 62
253
  6
CONTINUOUS
 10
14.5952247841
 20
4.8956007261
 11
14.5729208879
 21
4.9250485699
  0
LWPOLYLINE
  5
4FF
100
AcDbEntity
  8
0
100
AcDbPolyline
 62
253
  6
CONTINUOUS
 90
4
 70
0
 10
13.7977343146
 20
4.9805158835
 10
13.8008678213
 20
4.9755492576
 10
13.806356461
 20
4.9625118955
 10
13.8102639086
 20
4.9476354998
  0
LWPOLYLINE
  5
500
100
AcDbEntity
  8
0
100
AcDbPolyline
 62
253
  6
CONTINUOUS
 90
4
 70
0
 10
13.8262801031
 20
4.9731746096
 10
13.8317929969
 20
4.9626746603
 10
13.8354632468
 20
4.9504358645
 10
13.8371673963
 20
4.9366748001
  0
LWPOLYLINE
  5
501
100
AcDbEntity
  8
0
100
AcDbPolyline
 62
7
  6
CONTINUOUS
 90
13
 70
0
 10
13.4868660846
 20
7.1123512031
 10
13.2325277023
 20
7.6188963166
 10
12.9670651131
 20
8.1191067525
 10
12.6904783172
 20
8.6129825109
 10
12.4023092587
 20
9.1012615676
 10
12.1030159933
 20
9.5832059467
 10
11.7939726883
 20
10.0566017213
 10
11.4751341879
 20
10.5214093
 10
11.1465456479
 20
10.9776682741
 10
10.8097167028
 20
11.4232834914
 10
10.4651505642
 20
11.8575565678
 10
10.1123440205
 20
12.2811858874
 10
9.7512970719
 20
12.6941714502
  0
LWPOLYLINE
  5
502
100
AcDbEntity
  8
0
100
AcDbPolyline
 62
253
  6
CONTINUOUS
 90
3
 70
0
 10
14.6286038763
 20
4.837754634
 10
14.6247619714
 20
4.8463020947
 10
14.5952247841
 20
4.8956007261
  0
LWPOLYLINE
  5
503
100
AcDbEntity
  8
0
100
AcDbPolyline
 62
7
  6
CONTINUOUS
 90
7
 70
0
 10
9.9186786109
 20
15.8388476461
 10
9.903681331
 20
15.889921089
 10
9.8846253628
 20
15.9410416585
 10
9.861754418
 20
15.9915720934
 10
9.8353595379
 20
16.040881159
 10
9.8057678495
 20
16.0883482644
 10
9.7733450254
 20
16.1333763215
  0
LINE
  5
504
100
AcDbEntity
  8
0
100
AcDbLine
 62
7
  6
CONTINUOUS
 10
14.0802296798
 20
5.707826537
 11
14.2160511569
 21
5.0815425273
  0
LINE
  5
505
100
AcDbEntity
  8
0
100
AcDbLine
 62
253
  6
CONTINUOUS
 10
13.8102639086
 20
4.9476354998
 11
13.8124864503
 21
4.9311548965
  0
LWPOLYLINE
  5
506
100
AcDbEntity
  8
0
100
AcDbPolyline
 62
253
  6
CONTINUOUS
 90
10
 70
0
 10
16.3247947973
 20
-12.167527604
 10
16.3250528337
 20
-12.1857184151
 10
16.3258234535
 20
-12.2021302833
 10
16.3270962353
 20
-12.2165412662
 10
16.3288539671
 20
-12.2287564801
 10
16.3310728783
 20
-12.2386107351
 10
16.3337229622
 20
-12.2459707693
 10
16.3367683808
 20
-12.2507370509
 10
16.3401679501
 20
-12.2528451242
 10
16.3406500943
 20
-12.2529239145
  0
LWPOLYLINE
  5
507
100
AcDbEntity
  8
0
100
AcDbPolyline
 62
253
  6
CONTINUOUS
 90
10
 70
0
 10
16.3247947973
 20
-6.8604708049
 10
16.3250528337
 20
-6.8786616159
 10
16.3258234535
 20
-6.8950734841
 10
16.3270962353
 20
-6.909484467
 10
16.3288539671
 20
-6.9216996809
 10
16.3310728783
 20
-6.9315539359
 10
16.3337229622
 20
-6.9389139702
 10
16.3367683808
 20
-6.9436802518
 10
16.3401679501
 20
-6.945788325
 10
16.3406500943
 20
-6.9458671154
  0
LWPOLYLINE
  5
508
100
AcDbEntity
  8
0
100
AcDbPolyline
 62
253
  6
CONTINUOUS
 90
23
 70
0
 10
15.7948414956
 20
-6.6381572232
 10
15.7960242688
 20
-6.6188213926
 10
15.7995565931
 20
-6.5989899503
 10
15.8053907001
 20
-6.5789310825
 10
15.8134476934
 20
-6.558916051
 10
15.8236186161
 20
-6.5392155247
 10
15.8357659238
 20
-6.5200959195
 10
15.849725345
 20
-6.5018157952
 10
15.8653081026
 20
-6.4846223592
 10
15.8823034664
 20
-6.4687481231
 10
15.9004816033
 20
-6.4544077588
 10
15.9195966852
 20
-6.4417951952
 10
15.9393902134
 20
-6.4310809954
 10
15.9595945144
 20
-6.4224100508
 10
15.9799363597
 20
-6.4158996208
 10
16.0001406607
 20
-6.411637748
 10
16.019934189
 20
-6.4096820668
 10
16.0390492709
 20
-6.4100590245
 10
16.0572274078
 20
-6.4127635234
 10
16.0742227716
 20
-6.4177589897
 10
16.0898055291
 20
-6.4249778684
 10
16.1037649504
 20
-6.4343225364
 10
16.1140407687
 20
-6.4436640364
  0
LWPOLYLINE
  5
509
100
AcDbEntity
  8
0
100
AcDbPolyline
 62
253
  6
CONTINUOUS
 90
23
 70
0
 10
15.7948414956
 20
-11.9452140223
 10
15.7960242688
 20
-11.9258781918
 10
15.7995565931
 20
-11.9060467495
 10
15.8053907001
 20
-11.8859878816
 10
15.8134476934
 20
-11.8659728501
 10
15.8236186161
 20
-11.8462723238
 10
15.8357659238
 20
-11.8271527186
 10
15.849725345
 20
-11.8088725943
 10
15.8653081026
 20
-11.7916791583
 10
15.8823034664
 20
-11.7758049223
 10
15.9004816033
 20
-11.761464558
 10
15.9195966852
 20
-11.7488519943
 10
15.9393902134
 20
-11.7381377946
 10
15.9595945144
 20
-11.7294668499
 10
15.9799363597
 20
-11.72295642
 10
16.0001406607
 20
-11.7186945472
 10
16.019934189
 20
-11.716738866
 10
16.0390492709
 20
-11.7171158237
 10
16.0572274078
 20
-11.7198203225
 10
16.0742227716
 20
-11.7248157888
 10
16.0898055291
 20
-11.7320346675
 10
16.1037649504
 20
-11.7413793356
 10
16.1140407687
 20
-11.7507208356
  0
LWPOLYLINE
  5
50A
100
AcDbEntity
  8
0
100
AcDbPolyline
 62
253
  6
CONTINUOUS
 90
7
 70
0
 10
14.7862513797
 20
-7.9474623874
 10
14.7827072567
 20
-7.9740041319
 10
14.77717567
 20
-7.9988767017
 10
14.7696876564
 20
-8.0219608513
 10
14.7602629475
 20
-8.0431737811
 10
14.7489340621
 20
-8.0623957435
 10
14.7357613964
 20
-8.0794854503
  0
LWPOLYLINE
  5
50B
100
AcDbEntity
  8
0
100
AcDbPolyline
 62
7
  6
CONTINUOUS
 90
4
 70
0
 10
15.0642148024
 20
-5.3501290238
 10
15.066465961
 20
-5.337788608
 10
15.0725966499
 20
-5.2659117982
 10
15.0731139342
 20
-5.2380664304
  0
LWPOLYLINE
  5
50C
100
AcDbEntity
  8
0
100
AcDbPolyline
 62
253
  6
CONTINUOUS
 90
4
 70
0
 10
15.0623747514
 20
-5.3482123632
 10
15.0679202892
 20
-5.3183821074
 10
15.0730355653
 20
-5.2479578873
 10
15.0731139342
 20
-5.2380664304
  0
LWPOLYLINE
  5
50D
100
AcDbEntity
  8
0
100
AcDbPolyline
 62
7
  6
CONTINUOUS
 90
4
 70
0
 10
14.917862293
 20
-7.8113485843
 10
14.9264135941
 20
-7.7717082202
 10
14.9318560967
 20
-7.7300344645
 10
14.9337830704
 20
-7.6861794736
  0
LWPOLYLINE
  5
50E
100
AcDbEntity
  8
0
100
AcDbPolyline
 62
7
  6
CONTINUOUS
 90
5
 70
0
 10
15.0250172776
 20
-4.8524955596
 10
15.048484913
 20
-4.7768823219
 10
15.0641008222
 20
-4.7007452463
 10
15.0719214315
 20
-4.6251318629
 10
15.0730049964
 20
-4.5849204731
  0
LWPOLYLINE
  5
50F
100
AcDbEntity
  8
0
100
AcDbPolyline
 62
7
  6
CONTINUOUS
 90
5
 70
0
 10
15.025024377
 20
-3.8723997831
 10
15.048421898
 20
-3.7971194426
 10
15.0640927582
 20
-3.7213249671
 10
15.0720003373
 20
-3.6459631312
 10
15.0731087867
 20
-3.6050769455
  0
LWPOLYLINE
  5
510
100
AcDbEntity
  8
0
100
AcDbPolyline
 62
7
  6
CONTINUOUS
 90
5
 70
0
 10
15.0236873806
 20
-3.5495908235
 10
15.0476316624
 20
-3.4734549284
 10
15.0636800099
 20
-3.3968215547
 10
15.0718483372
 20
-3.320762142
 10
15.0730781307
 20
-3.2779002146
  0
LWPOLYLINE
  5
511
100
AcDbEntity
  8
0
100
AcDbPolyline
 62
7
  6
CONTINUOUS
 90
5
 70
0
 10
15.0235328157
 20
-5.182971443
 10
15.0473479625
 20
-5.1074922587
 10
15.0634045004
 20
-5.0314804514
 10
15.0717274164
 20
-4.9556568002
 10
15.0730704284
 20
-4.9108678429
  0
LWPOLYLINE
  5
512
100
AcDbEntity
  8
0
100
AcDbPolyline
 62
7
  6
CONTINUOUS
 90
5
 70
0
 10
15.0203645927
 20
-4.5381172839
 10
15.0455687574
 20
-4.4611757688
 10
15.0626760298
 20
-4.3834564014
 10
15.071578255
 20
-4.305967188
 10
15.0730710726
 20
-4.2585418266
  0
LWPOLYLINE
  5
513
100
AcDbEntity
  8
0
100
AcDbPolyline
 62
253
  6
CONTINUOUS
 90
5
 70
0
 10
15.0115417941
 20
-3.8803754574
 10
15.0388663857
 20
-3.8109777284
 10
15.058321788
 20
-3.740632789
 10
15.0697667559
 20
-3.6696582402
 10
15.0731087937
 20
-3.6051196431
  0
LWPOLYLINE
  5
514
100
AcDbEntity
  8
0
100
AcDbPolyline
 62
7
  6
CONTINUOUS
 90
6
 70
0
 10
14.9974823698
 20
-4.2657975501
 10
15.0274567132
 20
-4.192456788
 10
15.0498881875
 20
-4.1182522967
 10
15.0647435026
 20
-4.0435837658
 10
15.0720859792
 20
-3.9692879123
 10
15.0730173819
 20
-3.9320132234
  0
LINE
  5
515
100
AcDbEntity
  8
0
100
AcDbLine
 62
7
  6
CONTINUOUS
 10
14.993925452
 20
-3.9467514521
 11
15.025024377
 21
-3.8723997831
  0
LINE
  5
516
100
AcDbEntity
  8
0
100
AcDbLine
 62
7
  6
CONTINUOUS
 10
14.9936806087
 20
-4.9271559672
 11
15.0250172776
 21
-4.8524955596
  0
LINE
  5
517
100
AcDbEntity
  8
0
100
AcDbLine
 62
7
  6
CONTINUOUS
 10
14.9919099906
 20
-5.2575364356
 11
15.0235328157
 21
-5.182971443
  0
LINE
  5
518
100
AcDbEntity
  8
0
100
AcDbLine
 62
7
  6
CONTINUOUS
 10
14.9871919976
 20
-4.613794606
 11
15.0203645927
 21
-4.5381172839
  0
LWPOLYLINE
  5
519
100
AcDbEntity
  8
0
100
AcDbPolyline
 62
253
  6
CONTINUOUS
 90
6
 70
0
 10
14.9963469099
 20
-4.8917585142
 10
15.0271652078
 20
-4.823341167
 10
15.0502753342
 20
-4.753437118
 10
15.0654030241
 20
-4.6825094194
 10
15.0724478761
 20
-4.6111206749
 10
15.0730049964
 20
-4.5849204731
  0
LWPOLYLINE
  5
51A
100
AcDbEntity
  8
0
100
AcDbPolyline
 62
253
  6
CONTINUOUS
 90
5
 70
0
 10
14.9904516687
 20
-4.5764027835
 10
15.0228274329
 20
-4.5073748898
 10
15.0474150519
 20
-4.4368872272
 10
15.0638929445
 20
-4.3655185302
 10
15.0720881051
 20
-4.2936435412
  0
LINE
  5
51B
100
AcDbEntity
  8
0
100
AcDbLine
 62
7
  6
CONTINUOUS
 10
14.9859476518
 20
-5.2686032547
 11
14.9919099906
 21
-5.2575364356
  0
LWPOLYLINE
  5
51C
100
AcDbEntity
  8
0
100
AcDbPolyline
 62
253
  6
CONTINUOUS
 90
7
 70
0
 10
14.9745290593
 20
-5.2567092539
 10
14.9995679604
 20
-5.2120959487
 10
15.0296037201
 20
-5.1434644558
 10
15.0518251563
 20
-5.0738634926
 10
15.0661793697
 20
-5.0037079545
 10
15.0726637582
 20
-4.9332195583
 10
15.0730704284
 20
-4.9108678429
  0
LWPOLYLINE
  5
51D
100
AcDbEntity
  8
0
100
AcDbPolyline
 62
7
  6
CONTINUOUS
 90
6
 70
0
 10
14.8313013858
 20
-7.9894601733
 10
14.8548392477
 20
-7.9558304802
 10
14.874910213
 20
-7.9215660579
 10
14.8919166702
 20
-7.8864632777
 10
14.9063263216
 20
-7.8495896186
 10
14.917862293
 20
-7.8113485843
  0
LINE
  5
51E
100
AcDbEntity
  8
0
100
AcDbLine
 62
7
  6
CONTINUOUS
 10
14.8048410434
 20
-8.0213152382
 11
14.8313013858
 21
-7.9894601733
  0
LINE
  5
51F
100
AcDbEntity
  8
0
100
AcDbLine
 62
7
  6
CONTINUOUS
 10
14.7753669302
 20
-8.0513101642
 11
14.8048410434
 21
-8.0213152382
  0
LINE
  5
520
100
AcDbEntity
  8
0
100
AcDbLine
 62
253
  6
CONTINUOUS
 10
14.7357613964
 20
-8.0794854503
 11
14.7208100247
 21
-8.0943301648
  0
LWPOLYLINE
  5
521
100
AcDbEntity
  8
0
100
AcDbPolyline
 62
253
  6
CONTINUOUS
 90
14
 70
0
 10
6.5290797244
 20
-16.6963119737
 10
6.7481720375
 20
-16.4934194122
 10
6.9519930073
 20
-16.2688011783
 10
7.1406552355
 20
-16.0226209997
 10
7.3126137625
 20
-15.7568027829
 10
7.4677449463
 20
-15.4711946814
 10
7.6061724289
 20
-15.1659485415
 10
7.7267221775
 20
-14.8434438087
 10
7.8292613661
 20
-14.5035431266
 10
7.9139228207
 20
-14.1463838514
 10
7.9799309862
 20
-13.7747574978
 10
8.0270273443
 20
-13.3895945706
 10
8.0554704132
 20
-12.9899645648
 10
8.0652601931
 20
-12.5758674806
  0
LINE
  5
522
100
AcDbEntity
  8
0
100
AcDbLine
 62
7
  6
CONTINUOUS
 10
14.7577939166
 20
-8.0669902974
 11
14.7753669302
 21
-8.0513101642
  0
LINE
  5
523
100
AcDbEntity
  8
0
100
AcDbLine
 62
7
  6
CONTINUOUS
 10
14.6912017299
 20
-8.1226956047
 11
14.7574794984
 21
-8.067257709
  0
LINE
  5
524
100
AcDbEntity
  8
0
100
AcDbLine
 62
7
  6
CONTINUOUS
 10
14.6242156905
 20
-8.177016589
 11
14.6912017299
 21
-8.1226956047
  0
LWPOLYLINE
  5
525
100
AcDbEntity
  8
0
100
AcDbPolyline
 62
253
  6
CONTINUOUS
 90
7
 70
0
 10
14.8223560445
 20
-7.8678603316
 10
14.8531183521
 20
-7.8434133521
 10
14.8792863325
 20
-7.817243686
 10
14.9005732842
 20
-7.7896380542
 10
14.9167459837
 20
-7.7608989097
 10
14.9276272407
 20
-7.7313411234
 10
14.9330978378
 20
-7.7012885362
  0
LINE
  5
526
100
AcDbEntity
  8
0
100
AcDbLine
 62
253
  6
CONTINUOUS
 10
6.3411171582
 20
-16.3703147923
 11
6.1207063351
 21
-16.5428273049
  0
LINE
  5
527
100
AcDbEntity
  8
0
100
AcDbLine
 62
253
  6
CONTINUOUS
 10
6.2948286697
 20
-16.8776425906
 11
6.5290797244
 21
-16.6963119737
  0
LWPOLYLINE
  5
528
100
AcDbEntity
  8
0
100
AcDbPolyline
 62
7
  6
CONTINUOUS
 90
15
 70
0
 10
6.247605007
 20
-16.7397550734
 10
6.4688387221
 20
-16.5779056795
 10
6.6767102254
 20
-16.3962417255
 10
6.8708136142
 20
-16.1953107446
 10
7.0507291338
 20
-15.9757614057
 10
7.216151384
 20
-15.7381939467
 10
7.3668533382
 20
-15.4831281387
 10
7.5024826446
 20
-15.2113477827
 10
7.6227919121
 20
-14.9235634274
 10
7.7276713463
 20
-14.6201628616
 10
7.816870227
 20
-14.3018900093
 10
7.8901519044
 20
-13.9696271908
 10
7.9473885969
 20
-13.6239193404
 10
7.9884179251
 20
-13.2655200005
 10
8.0130912374
 20
-12.8954420198
  0
LWPOLYLINE
  5
529
100
AcDbEntity
  8
0
100
AcDbPolyline
 62
253
  6
CONTINUOUS
 90
4
 70
0
 10
6.1207063351
 20
-16.5428273049
 10
5.8872020667
 20
-16.6943472542
 10
5.6413599285
 20
-16.8245982424
 10
5.3833188667
 20
-16.9332189337
  0
LINE
  5
52A
100
AcDbEntity
  8
0
100
AcDbLine
 62
253
  6
CONTINUOUS
 10
10.742300502
 20
-13.9352114448
 11
12.4892394221
 21
-13.0888446753
  0
LWPOLYLINE
  5
52B
100
AcDbEntity
  8
0
100
AcDbPolyline
 62
7
  6
CONTINUOUS
 90
13
 70
0
 10
10.0951955159
 20
13.3471644586
 10
10.5775798311
 20
12.7920226102
 10
11.045701122
 20
12.220055282
 10
11.4995593885
 20
11.6312624739
 10
11.9401558747
 20
11.0241798429
 10
12.3664893366
 20
10.4002717321
 10
12.7755560418
 20
9.7639311704
 10
13.1672332704
 20
9.1150697969
 10
13.5416437423
 20
8.4537759726
 10
13.8961518843
 20
7.7847078095
 10
14.2298791721
 20
7.1094180115
 10
14.5437041302
 20
6.4263538748
 10
14.8376267584
 20
5.7355153992
  0
LWPOLYLINE
  5
52C
100
AcDbEntity
  8
0
100
AcDbPolyline
 62
7
  6
CONTINUOUS
 90
13
 70
0
 10
15.094166923
 20
5.3477468921
 10
15.120680929
 20
5.3038179575
 10
15.1429537245
 20
5.2610749908
 10
15.1609853093
 20
5.219517992
 10
15.1748808979
 20
5.1786865913
 10
15.184535276
 20
5.1390411584
 10
15.1896328003
 20
5.1019628029
 10
15.1900122197
 20
5.0675706404
 10
15.1858347854
 20
5.0357455553
 10
15.1772686082
 20
5.0075113105
 10
15.1641278218
 20
4.9829765756
 10
15.1465982925
 20
4.9620326811
 10
15.1278915739
 20
4.9469765254
  0
LWPOLYLINE
  5
52D
100
AcDbEntity
  8
0
100
AcDbPolyline
 62
7
  6
CONTINUOUS
 90
18
 70
0
 10
15.8449961428
 20
5.8889528436
 10
15.5793640171
 20
6.5454018141
 10
15.2937669043
 20
7.1982618729
 10
14.988822606
 20
7.8461628599
 10
14.665188966
 20
8.4877394175
 10
14.3235538693
 20
9.1216509713
 10
13.9646330633
 20
9.746582175
 10
13.5891920294
 20
10.3612054555
 10
13.1980138604
 20
10.9642377279
 10
12.791882678
 20
11.5544575054
 10
12.3716457358
 20
12.1306112516
 10
11.9381730115
 20
12.691479026
 10
11.492311201
 20
13.2359275997
 10
11.0349696448
 20
13.7627981985
 10
10.5670932278
 20
14.2709493466
 10
10.0895992795
 20
14.7593240095
 10
9.6034436315
 20
15.2268737166
 10
9.1096304819
 20
15.6725567455
  0
LWPOLYLINE
  5
52E
100
AcDbEntity
  8
0
100
AcDbPolyline
 62
253
  6
CONTINUOUS
 90
16
 70
0
 10
15.6971580687
 20
5.7426155382
 10
15.446616611
 20
6.3634269483
 10
15.178298119
 20
6.9814090462
 10
14.89271499
 20
7.5953816956
 10
14.590412591
 20
8.2041724166
 10
14.2719682171
 20
8.8066186253
 10
13.9379899893
 20
9.4015698536
 10
13.5891156926
 20
9.9878899462
 10
13.2260115589
 20
10.5644592304
 10
12.849370994
 20
11.1301766544
 10
12.4599132537
 20
11.6839618895
 10
12.0583820704
 20
12.2247573935
 10
11.6455442325
 20
12.7515304303
 10
11.2221881204
 20
13.2632750419
 10
10.7891222009
 20
13.7590139695
 10
10.347173483
 20
14.2378005197
  0
LWPOLYLINE
  5
52F
100
AcDbEntity
  8
0
100
AcDbPolyline
 62
253
  6
CONTINUOUS
 90
13
 70
0
 10
15.6971582054
 20
5.7426155531
 10
15.715665813
 20
5.6942208609
 10
15.7301267563
 20
5.6465092194
 10
15.7405058815
 20
5.6000084403
 10
15.7467921554
 20
5.5554882391
 10
15.7491300042
 20
5.5130788193
 10
15.7475595046
 20
5.4723886533
 10
15.7419565303
 20
5.4336884311
 10
15.7322833286
 20
5.3977184655
 10
15.7185263099
 20
5.3649060979
 10
15.7007033231
 20
5.3356945263
 10
15.6789279562
 20
5.3105855964
 10
15.652238757
 20
5.289269241
  0
LWPOLYLINE
  5
530
100
AcDbEntity
  8
0
100
AcDbPolyline
 62
253
  6
CONTINUOUS
 90
10
 70
0
 10
15.8449961428
 20
5.8889528436
 10
15.8465554411
 20
5.879961067
 10
15.8439546028
 20
5.8674767238
 10
15.8364823728
 20
5.8533212841
 10
15.8242170235
 20
5.8376430275
 10
15.8072870356
 20
5.8206061852
 10
15.7858697525
 20
5.8023892199
 10
15.7601895221
 20
5.783182956
 10
15.7305153476
 20
5.7631885811
 10
15.6971580687
 20
5.7426155382
  0
LWPOLYLINE
  5
531
100
AcDbEntity
  8
0
100
AcDbPolyline
 62
253
  6
CONTINUOUS
 90
5
 70
0
 10
18.9412729997
 20
-11.8965194506
 10
18.941438824
 20
-11.9012208966
 10
18.9437353315
 20
-11.9145841105
 10
18.9487031972
 20
-11.9277030309
 10
18.956275239
 20
-11.9404002469
  0
LINE
  5
532
100
AcDbEntity
  8
0
100
AcDbLine
 62
7
  6
CONTINUOUS
 10
18.9412729997
 20
-11.8965194506
 11
18.9412729997
 21
-7.5284034698
  0
LWPOLYLINE
  5
533
100
AcDbEntity
  8
0
100
AcDbPolyline
 62
253
  6
CONTINUOUS
 90
16
 70
0
 10
18.5386755701
 20
-7.1089407418
 10
18.5388846244
 20
-7.0912508899
 10
18.539509497
 20
-7.0725129014
 10
18.5405433415
 20
-7.0529320736
 10
18.541974831
 20
-7.032722938
 10
18.5437882817
 20
-7.0121069103
 10
18.5459638252
 20
-6.991309864
 10
18.5484776257
 20
-6.9705596557
 10
18.5513021414
 20
-6.9500836293
 10
18.5544064265
 20
-6.9301061242
 10
18.5577564696
 20
-6.9108460182
 10
18.5613155671
 20
-6.8925143292
 10
18.5650447247
 20
-6.8753119028
 10
18.568903085
 20
-6.8594272124
 10
18.572848375
 20
-6.8450342942
 10
18.5768373692
 20
-6.8322908398
  0
LWPOLYLINE
  5
534
100
AcDbEntity
  8
0
100
AcDbPolyline
 62
253
  6
CONTINUOUS
 90
16
 70
0
 10
18.5386755701
 20
-12.4159975409
 10
18.5388846244
 20
-12.3983076891
 10
18.539509497
 20
-12.3795697006
 10
18.5405433415
 20
-12.3599888727
 10
18.541974831
 20
-12.3397797372
 10
18.5437882817
 20
-12.3191637095
 10
18.5459638252
 20
-12.2983666631
 10
18.5484776257
 20
-12.2776164549
 10
18.5513021414
 20
-12.2571404284
 10
18.5544064265
 20
-12.2371629234
 10
18.5577564696
 20
-12.2179028174
 10
18.5613155671
 20
-12.1995711283
 10
18.5650447247
 20
-12.1823687019
 10
18.568903085
 20
-12.1664840116
 10
18.572848375
 20
-12.1520910933
 10
18.5768373692
 20
-12.139347639
  0
LWPOLYLINE
  5
535
100
AcDbEntity
  8
0
100
AcDbPolyline
 62
253
  6
CONTINUOUS
 90
24
 70
0
 10
19.3127064598
 20
-7.5878787757
 10
19.2995888339
 20
-7.5989679115
 10
19.2843302579
 20
-7.6091027844
 10
19.2671370779
 20
-7.6181463374
 10
19.2482418021
 20
-7.6259762721
 10
19.2278999568
 20
-7.6324867021
 10
19.2063866306
 20
-7.6375895849
 10
19.1839927541
 20
-7.6412159127
 10
19.1610211663
 20
-7.6433166459
 10
19.1377825184
 20
-7.6438633754
 10
19.1145910732
 20
-7.6428487078
 10
19.0917604554
 20
-7.6402863647
 10
19.0695994098
 20
-7.6362109973
 10
19.0484076265
 20
-7.6306777181
 10
19.0284716881
 20
-7.6237613551
 10
19.0100611939
 20
-7.6155554404
 10
18.9934251143
 20
-7.6061709447
 10
18.9787884237
 20
-7.5957347773
 10
18.9663490582
 20
-7.5843880695
 10
18.956275239
 20
-7.572284266
 10
18.9487031972
 20
-7.5595870501
 10
18.9437353315
 20
-7.5464681297
 10
18.941438824
 20
-7.5331049158
 10
18.9412729997
 20
-7.5284034698
  0
LINE
  5
536
100
AcDbEntity
  8
0
100
AcDbLine
 62
253
  6
CONTINUOUS
 10
6.1839918433
 20
-16.5466896685
 11
5.9444280416
 21
-16.6998604893
  0
LINE
  5
537
100
AcDbEntity
  8
0
100
AcDbLine
 62
7
  6
CONTINUOUS
 10
6.3476196568
 20
-16.6665867028
 11
6.3165808028
 21
-16.6858740036
  0
LINE
  5
538
100
AcDbEntity
  8
0
100
AcDbLine
 62
253
  6
CONTINUOUS
 10
6.0729229461
 20
-16.848222874
 11
6.247605007
 21
-16.7397550734
  0
LWPOLYLINE
  5
539
100
AcDbEntity
  8
0
100
AcDbPolyline
 62
253
  6
CONTINUOUS
 90
4
 70
0
 10
5.9444280416
 20
-16.6998604893
 10
5.6919804687
 20
-16.8307159637
 10
5.4273410657
 20
-16.9388974259
 10
5.3219653503
 20
-16.9745624416
  0
LINE
  5
53A
100
AcDbEntity
  8
0
100
AcDbLine
 62
7
  6
CONTINUOUS
 10
6.4265489603
 20
-16.5952987527
 11
6.4815306936
 21
-16.5668138574
  0
LINE
  5
53B
100
AcDbEntity
  8
0
100
AcDbLine
 62
7
  6
CONTINUOUS
 10
6.3165808028
 20
-16.6858740036
 11
6.0601911754
 21
-16.81870415
  0
LINE
  5
53C
100
AcDbEntity
  8
0
100
AcDbLine
 62
7
  6
CONTINUOUS
 10
6.1574027924
 20
-16.7054134473
 11
6.4265489603
 21
-16.5952987527
  0
LWPOLYLINE
  5
53D
100
AcDbEntity
  8
0
100
AcDbPolyline
 62
7
  6
CONTINUOUS
 90
3
 70
0
 10
6.0601911754
 20
-16.81870415
 10
5.790755225
 20
-16.9289374022
 10
5.5104174885
 20
-17.015675636
  0
LINE
  5
53E
100
AcDbEntity
  8
0
100
AcDbLine
 62
7
  6
CONTINUOUS
 10
6.0493423314
 20
-16.742053714
 11
6.1574027924
 21
-16.7054134473
  0
LWPOLYLINE
  5
53F
100
AcDbEntity
  8
0
100
AcDbPolyline
 62
253
  6
CONTINUOUS
 90
8
 70
0
 10
5.3833188667
 20
-16.9332189337
 10
5.1133099788
 20
-17.0197604468
 10
4.8324954865
 20
-17.0840409025
 10
4.5414091509
 20
-17.1257614548
 10
4.2395845956
 20
-17.1444206101
 10
3.9286983397
 20
-17.1399514835
 10
3.6096618138
 20
-17.1121408492
 10
3.3612159209
 20
-17.0750805936
  0
LINE
  5
540
100
AcDbEntity
  8
0
100
AcDbLine
 62
7
  6
CONTINUOUS
 10
5.3219653503
 20
-16.9745624416
 11
6.0493659072
 21
-16.7421023507
  0
LWPOLYLINE
  5
541
100
AcDbEntity
  8
0
100
AcDbPolyline
 62
253
  6
CONTINUOUS
 90
16
 70
0
 10
-19.0291259564
 20
14.880921071
 10
-19.0496475526
 20
14.8777233338
 10
-19.0699443099
 20
14.8727715478
 10
-19.0897938528
 20
14.8661199659
 10
-19.1089787055
 20
14.8578414642
 10
-19.1272886748
 20
14.8480267436
 10
-19.1445231527
 20
14.8367833363
 10
-19.1604933149
 20
14.8242344274
 10
-19.1750241888
 20
14.8105175054
 10
-19.1879565711
 20
14.7957828558
 10
-19.199148772
 20
14.7801919144
 10
-19.2084781673
 20
14.7639154989
 10
-19.2158425423
 20
14.7471319371
 10
-19.2211612113
 20
14.7300251132
 10
-19.2243759018
 20
14.7127824531
 10
-19.2254513931
 20
14.6955928711
  0
LWPOLYLINE
  5
542
100
AcDbEntity
  8
0
100
AcDbPolyline
 62
7
  6
CONTINUOUS
 90
21
 70
0
 10
-19.1155497017
 20
15.0183227758
 10
-19.1275421092
 20
15.0166327064
 10
-19.1529886717
 20
15.0106920571
 10
-19.1779765045
 20
15.0015060024
 10
-19.2019375747
 20
14.9891419942
 10
-19.223947991
 20
14.9741111685
 10
-19.2439111289
 20
14.9566426299
 10
-19.2616288426
 20
14.9370813653
 10
-19.27655331
 20
14.9164771713
 10
-19.2888600309
 20
14.8953722484
 10
-19.2990676067
 20
14.8736663037
 10
-19.3074935424
 20
14.8514024753
 10
-19.3144208555
 20
14.8285968372
 10
-19.3201871069
 20
14.8048473206
 10
-19.3250595428
 20
14.7795112768
 10
-19.3291242158
 20
14.7524238901
 10
-19.3324656974
 20
14.723214456
 10
-19.3351542427
 20
14.6910540106
 10
-19.3371576333
 20
14.6555314432
 10
-19.3384079345
 20
14.6165972697
 10
-19.3388411287
 20
14.5740546655
  0
LWPOLYLINE
  5
543
100
AcDbEntity
  8
0
100
AcDbPolyline
 62
7
  6
CONTINUOUS
 90
3
 70
0
 10
4.8040327494
 20
19.0467022405
 10
4.7676814925
 20
19.0421948804
 10
4.7332856113
 20
19.033344046
  0
LWPOLYLINE
  5
544
100
AcDbEntity
  8
0
100
AcDbPolyline
 62
7
  6
CONTINUOUS
 90
13
 70
0
 10
3.9796456686
 20
18.7305742121
 10
3.4720922372
 20
18.8801666853
 10
2.9700780362
 20
18.9992601407
 10
2.4754936247
 20
19.0874680712
 10
1.9893949699
 20
19.1447491251
 10
1.5125717168
 20
19.1711505474
 10
1.0464444675
 20
19.1667663831
 10
0.5920605542
 20
19.13184402
 10
0.1501305752
 20
19.0666776143
 10
-0.2784328617
 20
18.9716331349
 10
-0.692737732
 20
18.8471551329
 10
-1.0919465699
 20
18.6937560656
 10
-1.4752376459
 20
18.5120264887
  0
LINE
  5
545
100
AcDbEntity
  8
0
100
AcDbLine
 62
7
  6
CONTINUOUS
 10
4.4916358524
 20
18.550826665
 11
3.9796456686
 21
18.7305742121
  0
LWPOLYLINE
  5
546
100
AcDbEntity
  8
0
100
AcDbPolyline
 62
253
  6
CONTINUOUS
 90
13
 70
0
 10
4.254576709
 20
18.5317219325
 10
3.796206319
 20
18.6932043256
 10
3.3420242533
 20
18.829980916
 10
2.8928429544
 20
18.9418070374
 10
2.4494659195
 20
19.0284826547
 10
2.0126862629
 20
19.0898527223
 10
1.5832852977
 20
19.1258074613
 10
1.1620311379
 20
19.1362825555
 10
0.7496773245
 20
19.1212592673
 10
0.3469614774
 20
19.0807644702
 10
-0.0453960238
 20
19.0148706015
 10
-0.4266933286
 20
18.9236955323
 10
-0.795932394
 20
18.8075017901
  0
LINE
  5
547
100
AcDbEntity
  8
0
100
AcDbLine
 62
7
  6
CONTINUOUS
 10
5.0071899755
 20
18.3412387747
 11
4.4916358524
 21
18.550826665
  0
LWPOLYLINE
  5
548
100
AcDbEntity
  8
0
100
AcDbPolyline
 62
253
  6
CONTINUOUS
 90
3
 70
0
 10
5.180596698
 20
18.1358388569
 10
4.7163154887
 20
18.3458225971
 10
4.254576709
 20
18.5317219325
  0
LINE
  5
549
100
AcDbEntity
  8
0
100
AcDbLine
 62
7
  6
CONTINUOUS
 10
5.5246809005
 20
18.1025109609
 11
5.0071899755
 21
18.3412387747
  0
LWPOLYLINE
  5
54A
100
AcDbEntity
  8
0
100
AcDbPolyline
 62
253
  6
CONTINUOUS
 90
3
 70
0
 10
6.1134613118
 20
17.6451630506
 10
5.6465898291
 20
17.9021463313
 10
5.180596698
 20
18.1358388569
  0
LWPOLYLINE
  5
54B
100
AcDbEntity
  8
0
100
AcDbPolyline
 62
7
  6
CONTINUOUS
 90
3
 70
0
 10
6.5611240892
 20
17.5400404412
 10
6.0429571638
 20
17.8352644635
 10
5.5246809005
 20
18.1025109609
  0
LWPOLYLINE
  5
54C
100
AcDbEntity
  8
0
100
AcDbPolyline
 62
253
  6
CONTINUOUS
 90
12
 70
0
 10
9.6633417587
 20
16.2483985575
 10
9.2680410077
 20
16.5722737773
 10
8.8699097006
 20
16.8805798881
 10
8.4695091878
 20
17.1728822159
 10
8.0674040834
 20
17.4487686086
 10
7.6641612723
 20
17.7078501537
 10
7.2603491094
 20
17.949761699
 10
6.8565368829
 20
18.1741621968
 10
6.4532940137
 20
18.3807352129
 10
6.0511890535
 20
18.5691894899
 10
5.6507889499
 20
18.7392593169
 10
5.2526582466
 20
18.890704904
  0
LWPOLYLINE
  5
54D
100
AcDbEntity
  8
0
100
AcDbPolyline
 62
7
  6
CONTINUOUS
 90
13
 70
0
 10
9.7325761047
 20
16.2553713673
 10
9.3379254692
 20
16.5787111911
 10
8.9402937952
 20
16.8866227636
 10
8.5402266547
 20
17.1786688038
 10
8.138266376
 20
17.4544371789
 10
7.734972485
 20
17.7135268823
 10
7.3309182627
 20
17.9555532869
 10
6.9266442565
 20
18.1801756288
 10
6.5227175694
 20
18.387060679
 10
6.1197465253
 20
18.5758819916
 10
5.7182987209
 20
18.7463621882
 10
5.3189044177
 20
18.8982632623
 10
4.9221104292
 20
19.0313619274
  0
LWPOLYLINE
  5
54E
100
AcDbEntity
  8
0
100
AcDbPolyline
 62
7
  6
CONTINUOUS
 90
6
 70
0
 10
9.1096304819
 20
15.6725567455
 10
8.6091556638
 20
16.0953939366
 10
8.102975919
 20
16.4944856177
 10
7.5921650552
 20
16.8688874531
 10
7.0778878013
 20
17.2176570031
 10
6.5611240892
 20
17.5400404412
  0
LINE
  5
54F
100
AcDbEntity
  8
0
100
AcDbLine
 62
7
  6
CONTINUOUS
 10
9.7016749872
 20
16.2139024479
 11
9.6633419542
 21
16.2483993547
  0
LWPOLYLINE
  5
550
100
AcDbEntity
  8
0
100
AcDbPolyline
 62
253
  6
CONTINUOUS
 90
10
 70
0
 10
10.347173483
 20
14.2378005197
 10
9.8971859392
 20
14.6987203725
 10
9.440018893
 20
15.1408933272
 10
8.9765453788
 20
15.5634749831
 10
8.5076504737
 20
15.9656583526
 10
8.0342296083
 20
16.3466754017
 10
7.5571868559
 20
16.705798517
 10
7.0774332065
 20
17.0423418949
 10
6.5958848271
 20
17.3556628517
 10
6.1134613118
 20
17.6451630506
  0
LWPOLYLINE
  5
551
100
AcDbEntity
  8
0
100
AcDbPolyline
 62
7
  6
CONTINUOUS
 90
3
 70
0
 10
9.7733450254
 20
16.1333763215
 10
9.7384989919
 20
16.1754019048
 10
9.7016749872
 20
16.2139024479
  0
LINE
  5
552
100
AcDbEntity
  8
0
100
AcDbLine
 62
7
  6
CONTINUOUS
 10
19.3412729997
 20
-11.8965194506
 11
19.3412729997
 21
-7.5284034698
  0
LINE
  5
553
100
AcDbEntity
  8
0
100
AcDbLine
 62
7
  6
CONTINUOUS
 10
19.3390998615
 20
-11.9469803482
 11
19.3412729997
 21
-11.8965194506
  0
LWPOLYLINE
  5
554
100
AcDbEntity
  8
0
100
AcDbPolyline
 62
253
  6
CONTINUOUS
 90
3
 70
0
 10
19.3412729997
 20
-7.5284034698
 10
19.3407012684
 20
-7.5371288167
 10
19.3375984364
 20
-7.5504376143
  0
LWPOLYLINE
  5
555
100
AcDbEntity
  8
0
100
AcDbPolyline
 62
253
  6
CONTINUOUS
 90
7
 70
0
 10
18.5768373692
 20
-6.8322908398
 10
18.5808263634
 20
-6.8213364693
 10
18.5847716533
 20
-6.812291201
 10
18.5886300136
 20
-6.8052541367
 10
18.5923591712
 20
-6.8003023761
 10
18.5959182687
 20
-6.7974901716
 10
18.5991438712
 20
-6.796832738
  0
LWPOLYLINE
  5
556
100
AcDbEntity
  8
0
100
AcDbPolyline
 62
253
  6
CONTINUOUS
 90
3
 70
0
 10
19.3375984364
 20
-7.5504376143
 10
19.3318406395
 20
-7.5634484378
 10
19.3235057423
 20
-7.5759853383
  0
LINE
  5
557
100
AcDbEntity
  8
0
100
AcDbLine
 62
253
  6
CONTINUOUS
 10
19.3235057423
 20
-7.5759853383
 11
19.3127064598
 21
-7.5878787757
  0
LWPOLYLINE
  5
558
100
AcDbEntity
  8
0
100
AcDbPolyline
 62
253
  6
CONTINUOUS
 90
5
 70
0
 10
4.9136216007
 20
19.0334603489
 10
4.9000168771
 20
19.034674105
 10
4.8859553337
 20
19.033396452
 10
4.8716533555
 20
19.0296037775
 10
4.8573581853
 20
19.0233134119
  0
LWPOLYLINE
  5
559
100
AcDbEntity
  8
0
100
AcDbPolyline
 62
7
  6
CONTINUOUS
 90
6
 70
0
 10
4.8573581389
 20
19.0233137264
 10
4.8196106151
 20
19.03274172
 10
4.7832981968
 20
19.0364649927
 10
4.7488684688
 20
19.0344335818
 10
4.7167445664
 20
19.0266692946
 10
4.6953538044
 20
19.0176238573
  0
LWPOLYLINE
  5
55A
100
AcDbEntity
  8
0
100
AcDbPolyline
 62
7
  6
CONTINUOUS
 90
4
 70
0
 10
4.9221171762
 20
19.0313604585
 10
4.8817753745
 20
19.0415000461
 10
4.8422785088
 20
19.0465630855
 10
4.8040327494
 20
19.0467022405
  0
LINE
  5
55B
100
AcDbEntity
  8
0
100
AcDbLine
 62
253
  6
CONTINUOUS
 10
5.2526582466
 20
18.890704904
 11
4.8573582877
 21
19.0233127207
  0
LWPOLYLINE
  5
55C
100
AcDbEntity
  8
0
100
AcDbPolyline
 62
253
  6
CONTINUOUS
 90
3
 70
0
 10
19.3375984364
 20
-11.9185535951
 10
19.3407012684
 20
-11.9052447976
 10
19.3412729997
 20
-11.8965194506
  0
LWPOLYLINE
  5
55D
100
AcDbEntity
  8
0
100
AcDbPolyline
 62
7
  6
CONTINUOUS
 90
4
 70
0
 10
18.9323913584
 20
-11.9523611805
 10
18.9354045293
 20
-11.942298378
 10
18.9397678178
 20
-11.9201061245
 10
18.9412729997
 20
-11.8965194506
  0
LWPOLYLINE
  5
55E
100
AcDbEntity
  8
0
100
AcDbPolyline
 62
7
  6
CONTINUOUS
 90
4
 70
0
 10
19.311269304
 20
-12.08062777
 10
19.3218317353
 20
-12.0456113925
 10
19.3326005185
 20
-11.9967843373
 10
19.3390998615
 20
-11.9469803482
  0
LWPOLYLINE
  5
55F
100
AcDbEntity
  8
0
100
AcDbPolyline
 62
253
  6
CONTINUOUS
 90
7
 70
0
 10
18.5768373692
 20
-12.139347639
 10
18.5808263634
 20
-12.1283932684
 10
18.5847716533
 20
-12.1193480001
 10
18.5886300136
 20
-12.1123109359
 10
18.5923591712
 20
-12.1073591753
 10
18.5959182687
 20
-12.1045469708
 10
18.5991438712
 20
-12.1038895372
  0
LWPOLYLINE
  5
560
100
AcDbEntity
  8
0
100
AcDbPolyline
 62
253
  6
CONTINUOUS
 90
4
 70
0
 10
19.3127064598
 20
-11.9559947565
 10
19.3235057423
 20
-11.9441013192
 10
19.3318406395
 20
-11.9315644187
 10
19.3375984364
 20
-11.9185535951
  0
LWPOLYLINE
  5
561
100
AcDbEntity
  8
0
100
AcDbPolyline
 62
7
  6
CONTINUOUS
 90
19
 70
0
 10
9.2631486198
 20
-19.4869714024
 10
9.530606837
 20
-19.3578554091
 10
9.8520976939
 20
-19.1722640298
 10
10.1573034174
 20
-18.9609563325
 10
10.4461177073
 20
-18.7237627351
 10
10.7186468638
 20
-18.4608528198
 10
10.9730534944
 20
-18.1739802846
 10
11.2092185851
 20
-17.8629876297
 10
11.42726115
 20
-17.5280323549
 10
11.6257008383
 20
-17.1713406566
 10
11.8044099043
 20
-16.7927682939
 10
11.9635160938
 20
-16.3924595078
 10
12.1019222936
 20
-15.9730732175
 10
12.2194933941
 20
-15.5344809537
 10
12.3163645049
 20
-15.0768111858
 10
12.3918438416
 20
-14.6031082412
 10
12.4457008092
 20
-14.1143868958
 10
12.4781660028
 20
-13.6096323739
 10
12.4892394221
 20
-13.0888446753
  0
LINE
  5
562
100
AcDbEntity
  8
0
100
AcDbLine
 62
7
  6
CONTINUOUS
 10
7.5637128189
 20
-20.2391530616
 11
9.2631552299
 21
-19.4869838572
  0
ELLIPSE
  5
563
100
AcDbEntity
  8
0
100
AcDbEllipse
 62
7
  6
CONTINUOUS
 10
14.4289617724
 20
5.3102787102
 30
0.0
 11
-0.3608239404
 21
0.3600520653
 31
0.0
 40
0.4935626057
 41
-4.0609003574
 42
-3.5725119289
  0
ELLIPSE
  5
564
100
AcDbEntity
  8
0
100
AcDbEllipse
 62
7
  6
CONTINUOUS
 10
13.77242246
 20
-2.8431489209
 30
0.0
 11
0.1499879069
 21
-0.0976407367
 31
0.0
 40
0.01950697
 41
0.7980963375
 42
2.3339860791
  0
ELLIPSE
  5
565
100
AcDbEntity
  8
0
100
AcDbEllipse
 62
7
  6
CONTINUOUS
 10
14.2129439346
 20
-3.1420019576
 30
0.0
 11
0.1499879069
 21
-0.0976407367
 31
0.0
 40
0.01950697
 41
-0.7377934043
 42
0.7431034142
  0
ELLIPSE
  5
566
100
AcDbEntity
  8
0
100
AcDbEllipse
 62
7
  6
CONTINUOUS
 10
5.5261493714
 20
4.6808345912
 30
0.0
 11
-11.3020332889
 21
11.3876966125
 31
0.0
 40
0.4916072255
 41
-1.9720666435
 42
-1.9413913745
  0
ENDSEC
  0
SECTION
  2
OBJECTS
  0
DICTIONARY
  5
C
100
AcDbDictionary
280
0
281
1
  3
ACAD_GROUP
350
D
  3
ACAD_MLINESTYLE
350
17
  3
ACAD_LAYOUT
350
1A
  3
ACAD_PLOTSETTINGS
350
19
  3
ACAD_PLOTSTYLENAME
350
E
  0
DICTIONARY
  5
D
102
{ACAD_REACTORS
330
C
102
}
100
AcDbDictionary
280
0
281
1
  0
ACDBDICTIONARYWDFLT
  5
E
102
{ACAD_REACTORS
330
C
102
}
100
AcDbDictionary
281
1
  3
Normal
350
F
100
AcDbDictionaryWithDefault
340
F
  0
DICTIONARY
  5
17
102
{ACAD_REACTORS
330
C
102
}
100
AcDbDictionary
280
0
281
1
  3
Standard
350
18
  0
DICTIONARY
  5
19
102
{ACAD_REACTORS
330
C
102
}
100
AcDbDictionary
281
1
  0
DICTIONARY
  5
1A
102
{ACAD_REACTORS
330
C
102
}
100
AcDbDictionary
281
1
  3
Model
350
567
  3
Layout1
350
568
  0
ACDBPLACEHOLDER
  5
F
102
{ACAD_REACTORS
330
E
102
}
  0
MLINESTYLE
  5
18
102
{ACAD_REACTORS
330
17
102
}
100
AcDbMlineStyle
  2
STANDARD
 70
0
  3

 62
256
 51
90.0
 52
90.0
 71
2
 49
0.5
 62
256
  6
BYLAYER
 49
-0.5
 62
256
  6
BYLAYER
  0
LAYOUT
  5
567
102
{ACAD_REACTORS
330
1A
102
}
100
AcDbPlotSettings
  1

  2
none_device
  4
ISO_A4_(297.00_x_210.00_MM)
  6

 40
0.0
 41
0.0
 42
0.0
 43
0.0
 44
297.0
 45
210.0
 46
0.0
 47
0.0
 48
0.0
 49
0.0
140
0.0
141
0.0
142
1.0
143
1.0
 70
1024
 72
1
 73
0
 74
0
  7

 75
0
147
1.0
148
0.0
149
0.0
100
AcDbLayout
  1
Model
 70
0
 71
0
 10
0.0
 20
0.0
 11
297.0
 21
210.0
 12
0.0
 22
0.0
 32
0.0
 14
0.0
 24
0.0
 34
0.0
 15
0.0
 25
0.0
 35
0.0
146
0.0
 13
0.0
 23
0.0
 33
0.0
 16
1.0
 26
0.0
 36
0.0
 17
0.0
 27
1.0
 37
0.0
 76
0
330
210
345
0
346
0
  0
LAYOUT
  5
568
102
{ACAD_REACTORS
330
1A
102
}
100
AcDbPlotSettings
  1

  2
none_device
  4
ISO_A4_(297.00_x_210.00_MM)
  6

 40
0.0
 41
0.0
 42
0.0
 43
0.0
 44
297.0
 45
210.0
 46
0.0
 47
0.0
 48
0.0
 49
0.0
140
0.0
141
0.0
142
1.0
143
1.0
 70
0
 72
1
 73
0
 74
0
  7

 75
0
147
1.0
148
0.0
149
0.0
100
AcDbLayout
  1
Layout1
 70
0
 71
1
 10
0.0
 20
0.0
 11
297.0
 21
210.0
 12
0.0
 22
0.0
 32
0.0
 14
0.0
 24
0.0
 34
0.0
 15
0.0
 25
0.0
 35
0.0
146
0.0
 13
0.0
 23
0.0
 33
0.0
 16
1.0
 26
0.0
 36
0.0
 17
0.0
 27
1.0
 37
0.0
 76
0
330
211
345
0
346
0
  0
ENDSEC
  0
EOF
