  0
SECTION
  2
HEADER
  9
$ACADVER
  1
AC1021
  9
$DWGCODEPAGE
  3
ANSI_1252
  9
$EXTMAX
 10
297.0
 20
210.0
 30
0.0
  9
$EXTMIN
 10
0.0
 20
0.0
 30
0.0
  9
$LIMMIN
 10
0.0
 20
0.0
  9
$LIMMAX
 10
297.0
 20
210.0
  9
$VIEWCTR
 10
148.5
 20
105.0
  9
$VIEWSIZE
 40
210.0
  9
$CLAYER
  8
0
  9
$LTSCALE
 40
16.335
  9
$CELTYPE
  6
BYLAYER
  9
$DIMSCALE
 40
1.0
  9
$DIMASZ
 40
3.0
  9
$DIMEXO
 40
0.5
  9
$DIMDLI
 40
11.286
  9
$DIMEXE
 40
1.5
  9
$DIMCEN
 40
2.673
  9
$DIMLFAC
 40
1.0
  9
$DIMBLK
  1
_FILLED
  9
$DIMALT
 70
0
  9
$DIMALTF
 40
0.0393700787
  9
$DIMTXT
 40
3.0
  9
$DIMTOL
 70
1
  9
$DIMLIM
 70
0
  9
$DIMTFAC
 40
1.0
  9
$DIMTP
 40
0.01
  9
$DIMTM
 40
0.01
  9
$DIMGAP
 40
0.625
  9
$DIMDSEP
 70
44
  9
$AUNITS
 70
0
  9
$PDMODE
 70
3
  9
$PDSIZE
 40
3.0
  9
$HANDSEED
  5
634
  9
$TILEMODE
 70
1
  9
$MEASUREMENT
 70
1
  9
$INSUNITS
 70
4
  0
ENDSEC
  0
SECTION
  2
CLASSES
  0
CLASS
  1
ACDBDICTIONARYWDFLT
  2
AcDbDictionaryWithDefault
  3
AutoCAD 2000
 90
0
 91
1
280
0
281
0
  0
CLASS
  1
ACDBPLACEHOLDER
  2
AcDbPlaceHolder
  3
AutoCAD 2000
 90
0
 91
1
280
0
281
0
  0
CLASS
  1
LAYOUT
  2
AcDbLayout
  3
AutoCAD 2000
 90
0
 91
0
280
0
281
0
  0
ENDSEC
  0
SECTION
  2
TABLES
  0
TABLE
  2
VPORT
  5
8
100
AcDbSymbolTable
 70
2
  0
VPORT
  5
1F4
100
AcDbSymbolTableRecord
100
AcDbViewportTableRecord
  2
*ACTIVE
 70
0
 10
0.0
 20
0.0
 11
1.0
 21
1.0
 12
148.5
 22
105.0
 13
0.0
 23
0.0
 14
1.0
 24
1.0
 15
0.0
 25
0.0
 16
0.0
 26
0.0
 36
1.0
 17
0.0
 27
0.0
 37
0.0
 40
210.0
 41
1.4142857143
 42
50.0
 43
0.0
 44
0.0
 50
0.0
 51
0.0
 71
0
 72
100
 73
1
 74
1
 75
0
 76
0
 77
0
 78
0
  0
ENDTAB
  0
TABLE
  2
LTYPE
  5
5
100
AcDbSymbolTable
 70
6
  0
LTYPE
  5
14
100
AcDbSymbolTableRecord
100
AcDbLinetypeTableRecord
  2
BYBLOCK
 70
0
  3

 72
65
 73
0
 40
0.0
  0
LTYPE
  5
15
100
AcDbSymbolTableRecord
100
AcDbLinetypeTableRecord
  2
BYLAYER
 70
0
  3

 72
65
 73
0
 40
0.0
  0
LTYPE
  5
16
100
AcDbSymbolTableRecord
100
AcDbLinetypeTableRecord
  2
CONTINUOUS
 70
64
  3
Solid line
 72
65
 73
0
 40
0.0
  0
LTYPE
  5
1F5
100
AcDbSymbolTableRecord
100
AcDbLinetypeTableRecord
  2
CENTER
 70
64
  3
____ _ ____ _ ____ _ ____ _ ____ _ ____ _ ____
 72
65
 73
4
 40
0.6
 49
0.375
 74
0
 49
-0.075
 74
0
 49
0.075
 74
0
 49
-0.075
 74
0
  0
LTYPE
  5
1F6
100
AcDbSymbolTableRecord
100
AcDbLinetypeTableRecord
  2
HIDDEN
 70
64
  3
- - - - - - - - - - - - - - - - - - - -
 72
65
 73
2
 40
0.2
 49
0.1
 74
0
 49
-0.1
 74
0
  0
LTYPE
  5
1F7
100
AcDbSymbolTableRecord
100
AcDbLinetypeTableRecord
  2
PHANTOM
 70
64
  3
_____ _ _ _____ _ _ _____ _ _ _____
 72
65
 73
6
 40
0.8
 49
0.45
 74
0
 49
-0.05
 74
0
 49
0.1
 74
0
 49
-0.05
 74
0
 49
0.1
 74
0
 49
-0.05
 74
0
  0
LTYPE
  5
1F8
100
AcDbSymbolTableRecord
100
AcDbLinetypeTableRecord
  2
DOT
 70
64
  3
. . . . . . . . . . . . . . . . . . . .
 72
65
 73
2
 40
0.2
 49
0.1
 74
0
 49
-0.1
 74
0
  0
LTYPE
  5
1F9
100
AcDbSymbolTableRecord
100
AcDbLinetypeTableRecord
  2
DASHED
 70
64
  3
- - - - - - - - - - - - - - - - - - - -
 72
65
 73
2
 40
0.2
 49
0.1
 74
0
 49
-0.1
 74
0
  0
ENDTAB
  0
TABLE
  2
LAYER
  5
2
100
AcDbSymbolTable
 70
36
  0
LAYER
  5
10
100
AcDbSymbolTableRecord
100
AcDbLayerTableRecord
  2
0
 70
0
 62
7
  6
CONTINUOUS
370
-3
390
F
  0
LAYER
  5
1FA
100
AcDbSymbolTableRecord
100
AcDbLayerTableRecord
  2
DEFAULT_1
 70
0
 62
7
  6
CENTER
370
-3
390
F
  0
LAYER
  5
1FB
100
AcDbSymbolTableRecord
100
AcDbLayerTableRecord
  2
DEFAULT_2
 70
0
 62
7
  6
HIDDEN
370
-3
390
F
  0
LAYER
  5
1FC
100
AcDbSymbolTableRecord
100
AcDbLayerTableRecord
  2
DEFAULT_3
 70
0
 62
7
  6
PHANTOM
370
-3
390
F
  0
LAYER
  5
1FD
100
AcDbSymbolTableRecord
100
AcDbLayerTableRecord
  2
ASSI
 70
0
 62
7
  6
CONTINUOUS
370
-3
390
F
  0
LAYER
  5
1FE
100
AcDbSymbolTableRecord
100
AcDbLayerTableRecord
  2
COORDINATE
 70
0
 62
7
  6
CONTINUOUS
370
-3
390
F
  0
LAYER
  5
1FF
100
AcDbSymbolTableRecord
100
AcDbLayerTableRecord
  2
COSMETICI
 70
0
 62
7
  6
CONTINUOUS
370
-3
390
F
  0
LAYER
  5
200
100
AcDbSymbolTableRecord
100
AcDbLayerTableRecord
  2
CURVE
 70
0
 62
7
  6
CONTINUOUS
370
-3
390
F
  0
LAYER
  5
201
100
AcDbSymbolTableRecord
100
AcDbLayerTableRecord
  2
INTF_7
 70
0
 62
7
  6
CONTINUOUS
370
-3
390
F
  0
LAYER
  5
202
100
AcDbSymbolTableRecord
100
AcDbLayerTableRecord
  2
NOTE
 70
0
 62
7
  6
CONTINUOUS
370
-3
390
F
  0
LAYER
  5
203
100
AcDbSymbolTableRecord
100
AcDbLayerTableRecord
  2
PIANI
 70
0
 62
7
  6
CONTINUOUS
370
-3
390
F
  0
LAYER
  5
204
100
AcDbSymbolTableRecord
100
AcDbLayerTableRecord
  2
PUNTI
 70
0
 62
7
  6
CONTINUOUS
370
-3
390
F
  0
LAYER
  5
205
100
AcDbSymbolTableRecord
100
AcDbLayerTableRecord
  2
RGB__255__255__255__
 70
0
 62
7
  6
CONTINUOUS
370
-3
390
F
  0
LAYER
  5
206
100
AcDbSymbolTableRecord
100
AcDbLayerTableRecord
  2
SIMBOLI
 70
0
 62
7
  6
CONTINUOUS
370
-3
390
F
  0
LAYER
  5
207
100
AcDbSymbolTableRecord
100
AcDbLayerTableRecord
  2
SNAPLINE
 70
0
 62
7
  6
CONTINUOUS
370
-3
390
F
  0
LAYER
  5
208
100
AcDbSymbolTableRecord
100
AcDbLayerTableRecord
  2
SUPERFICI
 70
0
 62
7
  6
CONTINUOUS
370
-3
390
F
  0
ENDTAB
  0
TABLE
  2
STYLE
  5
3
100
AcDbSymbolTable
 70
1
  0
STYLE
  5
11
100
AcDbSymbolTableRecord
100
AcDbTextStyleTableRecord
  2
STANDARD
 70
0
 40
0.0
 41
0.8
 50
0.0
 71
0
 42
0.2
  3
txt
  4

  0
STYLE
  5
209
100
AcDbSymbolTableRecord
100
AcDbTextStyleTableRecord
  2
TEXTSTYLE_1
 70
0
 40
0.0
 41
0.8
 50
0.0
 71
0
 42
0.2
  3
gdt
  4

  0
ENDTAB
  0
TABLE
  2
VIEW
  5
6
100
AcDbSymbolTable
 70
0
  0
ENDTAB
  0
TABLE
  2
UCS
  5
7
100
AcDbSymbolTable
 70
0
  0
ENDTAB
  0
TABLE
  2
APPID
  5
9
100
AcDbSymbolTable
 70
1
  0
APPID
  5
20A
100
AcDbSymbolTableRecord
100
AcDbRegAppTableRecord
  2
ACAD
 70
0
  0
ENDTAB
  0
TABLE
  2
BLOCK_RECORD
  5
1
100
AcDbSymbolTable
 70
0
  0
BLOCK_RECORD
  5
20B
100
AcDbSymbolTableRecord
100
AcDbBlockTableRecord
  2
*Model_Space
  0
BLOCK_RECORD
  5
20C
100
AcDbSymbolTableRecord
100
AcDbBlockTableRecord
  2
*Paper_Space
  0
ENDTAB
  0
TABLE
  2
DIMSTYLE
  5
A
100
AcDbSymbolTable
 70
1
100
AcDbDimStyleTable
 71
0
  0
DIMSTYLE
105
20D
100
AcDbSymbolTableRecord
100
AcDbDimStyleTableRecord
  2
STANDARD
 70
0
  3

  4

 40
1.0
 41
3.0
 42
0.5
 43
0.38
 44
1.5
 45
0.0
 46
0.0
 47
0.01
 48
0.01
140
3.0
141
0.09
142
0.0
143
25.4
144
1.0
145
0.0
146
1.0
147
0.625
 71
1.0
 72
0.0
 73
0
 74
0
 75
0
 76
0
 77
1
 78
8
170
0
171
2
172
0
173
0
174
0
175
0
176
0
177
0
178
0
270
2
271
2
272
2
273
2
274
2
275
0
280
0
281
0
282
0
283
1
284
8
285
0
286
0
287
3
288
0
340
11
278
44
  0
ENDTAB
  0
ENDSEC
  0
SECTION
  2
BLOCKS
  0
BLOCK
  5
20
100
AcDbEntity
  8
0
100
AcDbBlockBegin
  2
*Model_Space
 70
0
 10
0.0
 20
0.0
 30
0.0
  3
*Model_Space
  1

  0
ENDBLK
  5
21
100
AcDbEntity
  8
0
100
AcDbBlockEnd
  0
BLOCK
  5
1C
100
AcDbEntity
  8
0
100
AcDbBlockBegin
  2
*Paper_Space
 70
0
 10
0.0
 20
0.0
 30
0.0
  3
*Paper_Space
  1

  0
ENDBLK
  5
1D
100
AcDbEntity
  8
0
100
AcDbBlockEnd
  0
ENDSEC
  0
SECTION
  2
ENTITIES
  0
LINE
  5
20E
100
AcDbEntity
  8
0
100
AcDbLine
 62
7
  6
CONTINUOUS
 10
-34.6782528424
 20
31.7436741612
 11
-33.9983041862
 21
32.1967426959
  0
LWPOLYLINE
  5
20F
100
AcDbEntity
  8
0
100
AcDbPolyline
 62
7
  6
CONTINUOUS
 90
19
 70
0
 10
-34.6781793196
 20
31.7435528627
 10
-34.5109392197
 20
31.8521599189
 10
-33.8930155868
 20
32.2088675854
 10
-33.2479366485
 20
32.5137543009
 10
-32.575522286
 20
32.766480154
 10
-31.875952618
 20
32.967385056
 10
-31.153912782
 20
33.1150963967
 10
-30.4092549915
 20
33.2092647165
 10
-29.6421270329
 20
33.2502394749
 10
-28.8576574031
 20
33.2376964395
 10
-28.0557287781
 20
33.1712843608
 10
-27.2364584819
 20
33.0513544883
 10
-26.4053269832
 20
32.8786363376
 10
-25.5622502887
 20
32.6527815616
 10
-24.7073123917
 20
32.3741385075
 10
-23.8462457412
 20
32.0444817327
 10
-22.9809611533
 20
31.6644027565
 10
-22.1095478119
 20
31.2333100598
 10
-21.2320057169
 20
30.7512036424
  0
LINE
  5
210
100
AcDbEntity
  8
0
100
AcDbLine
 62
7
  6
CONTINUOUS
 10
-9.3493875137
 20
45.5869791436
 11
-33.5160455826
 21
33.6291188308
  0
LWPOLYLINE
  5
211
100
AcDbEntity
  8
0
100
AcDbPolyline
 62
7
  6
CONTINUOUS
 90
17
 70
0
 10
-33.515974212
 20
33.6289889107
 10
-33.0281837258
 20
33.8527758155
 10
-32.3284969251
 20
34.1157519705
 10
-31.6005534275
 20
34.3248053698
 10
-30.8492283948
 20
34.4785077312
 10
-30.0743680466
 20
34.5764954217
 10
-29.2761261633
 20
34.6191320743
 10
-28.4598392483
 20
34.6060803062
 10
-27.6253852192
 20
34.5369746216
 10
-26.7728861584
 20
34.4121805162
 10
-25.9080448169
 20
34.2324570942
 10
-25.0307737947
 20
33.9974418796
 10
-24.1411604918
 20
33.7074973485
 10
-23.2451698593
 20
33.3644700324
 10
-22.3447902143
 20
32.968975442
 10
-21.4380332398
 20
32.5203980667
 10
-20.5248989357
 20
32.0187379066
  0
LWPOLYLINE
  5
212
100
AcDbEntity
  8
0
100
AcDbPolyline
 62
7
  6
CONTINUOUS
 90
16
 70
0
 10
-39.5584396305
 20
21.1605011921
 10
-39.4960382184
 20
22.1306755623
 10
-39.3925198955
 20
23.0700316122
 10
-39.2474413048
 20
23.9805197521
 10
-39.0612458032
 20
24.8601895717
 10
-38.8352634614
 20
25.7031898407
 10
-38.5692345918
 20
26.5092735898
 10
-38.263418882
 20
27.2786877882
 10
-37.9199254651
 20
28.0063221138
 10
-37.5385088157
 20
28.6918992907
 10
-37.1194144593
 20
29.3356965948
 10
-36.6654881052
 20
29.9334355317
 10
-36.1765010195
 20
30.48481335
 10
-35.6526819361
 20
30.9901328012
 10
-35.0975627661
 20
31.4460236458
 10
-34.6781793196
 20
31.7435528627
  0
LWPOLYLINE
  5
213
100
AcDbEntity
  8
0
100
AcDbPolyline
 62
7
  6
CONTINUOUS
 90
17
 70
0
 10
-32.6776723467
 20
31.2546482634
 10
-33.1398388386
 20
31.0072475251
 10
-33.7647464225
 20
30.6076979818
 10
-34.35433357
 20
30.1510334913
 10
-34.9069842638
 20
29.6385057392
 10
-35.4211837265
 20
29.0715195284
 10
-35.8955225734
 20
28.4516289287
 10
-36.3287006746
 20
27.7805330171
 10
-36.7195307189
 20
27.060071221
 10
-37.0669414685
 20
26.292218276
 10
-37.3699806946
 20
25.4790788136
 10
-37.6278177878
 20
24.6228815926
 10
-37.8397460344
 20
23.7259733901
 10
-38.005184554
 20
22.7908125691
 10
-38.123679891
 20
21.8199623404
 10
-38.1949072579
 20
20.816083737
 10
-38.2186714255
 20
19.7819283204
  0
LINE
  5
214
100
AcDbEntity
  8
0
100
AcDbLine
 62
7
  6
CONTINUOUS
 10
-39.5645332205
 20
-1.8006958946
 11
-39.594635189
 21
-1.297922755
  0
LWPOLYLINE
  5
215
100
AcDbEntity
  8
0
100
AcDbPolyline
 62
7
  6
CONTINUOUS
 90
31
 70
0
 10
-38.2186714255
 20
-1.4462988762
 10
-38.1949072579
 20
-2.5078965579
 10
-38.123679891
 20
-3.5940267392
 10
-38.005184554
 20
-4.7017124129
 10
-37.8397460344
 20
-5.8279174894
 10
-37.6278177878
 20
-6.969555119
 10
-37.3699806946
 20
-8.1234961522
 10
-37.0669414685
 20
-9.286577717
 10
-36.7195307189
 20
-10.4556118875
 10
-36.3287006746
 20
-11.6273944223
 10
-35.8955225734
 20
-12.7987135471
 10
-35.4211837265
 20
-13.9663587574
 10
-34.9069842638
 20
-15.127129619
 10
-34.35433357
 20
-16.2778445395
 10
-33.7647464225
 20
-17.4153494895
 10
-33.1398388386
 20
-18.5365266467
 10
-32.4813236466
 20
-19.6383029427
 10
-31.7910057907
 20
-20.7176584852
 10
-31.0707773843
 20
-21.7716348356
 10
-30.3226125235
 20
-22.797343118
 10
-29.5485618759
 20
-23.7919719374
 10
-28.7507470608
 20
-24.7527950852
 10
-27.9313548329
 20
-25.6771790121
 10
-27.0926310896
 20
-26.5625900458
 10
-26.2368747141
 20
-27.4066013364
 10
-25.3664312754
 20
-28.2068995075
 10
-24.4836865984
 20
-28.9612909975
 10
-23.5910602248
 20
-29.6677080718
 10
-22.6909987815
 20
-30.3242144901
 10
-21.7859692743
 20
-30.9290108142
 10
-20.8784523263
 20
-31.4804393393
  0
LINE
  5
216
100
AcDbEntity
  8
0
100
AcDbLine
 62
7
  6
CONTINUOUS
 10
-39.594635189
 20
-1.297922755
 11
-39.6167820277
 21
-0.2307727436
  0
LWPOLYLINE
  5
217
100
AcDbEntity
  8
0
100
AcDbPolyline
 62
7
  6
CONTINUOUS
 90
34
 70
0
 10
-39.1845972518
 20
-1.2968600033
 10
-39.1637711225
 20
-2.3003453301
 10
-39.1027135547
 20
-3.3201342807
 10
-39.0014245483
 20
-4.3562268552
 10
-38.8594702944
 20
-5.4110324123
 10
-38.6772846019
 20
-6.4821415932
 10
-38.4561688977
 20
-7.5623263215
 10
-38.1958690869
 20
-8.6516383688
 10
-37.8966392645
 20
-9.7500259635
 10
-37.5605431424
 20
-10.8501057136
 10
-37.1873404827
 20
-11.9518837352
 10
-36.7772715235
 20
-13.0553539122
 10
-36.3331206902
 20
-14.1531145049
 10
-35.854664175
 20
-15.2451277294
 10
-35.3421257857
 20
-16.3314313695
 10
-34.7989613722
 20
-17.4047370368
 10
-34.2249710441
 20
-18.4649566146
 10
-33.6203546918
 20
-19.5121782195
 10
-32.9891678365
 20
-20.5393778132
 10
-32.3312342384
 20
-21.5464263217
 10
-31.6467301374
 20
-22.5334528189
 10
-30.9402397742
 20
-23.4938204879
 10
-30.2116185449
 20
-24.4273543801
 10
-29.4610110533
 20
-25.3342294441
 10
-28.6934353517
 20
-26.2083337092
 10
-27.9087766426
 20
-27.0494560554
 10
-27.1071497236
 20
-27.8578076026
 10
-26.2939170387
 20
-28.6279097399
 10
-25.4689964035
 20
-29.3595165265
 10
-24.6324700025
 20
-30.0528739032
 10
-23.7899468336
 20
-30.7032410815
 10
-22.9432965626
 20
-31.3090377984
 10
-22.0906495237
 20
-31.871844317
 10
-21.2320057169
 20
-32.3916606371
  0
LINE
  5
218
100
AcDbEntity
  8
0
100
AcDbLine
 62
7
  6
CONTINUOUS
 10
-39.6167820277
 20
20.997454453
 11
-39.6167820277
 21
-0.2307727436
  0
LINE
  5
219
100
AcDbEntity
  8
0
100
AcDbLine
 62
7
  6
CONTINUOUS
 10
-39.5797241316
 20
20.1595085016
 11
-39.5797241316
 21
-1.068718695
  0
LINE
  5
21A
100
AcDbEntity
  8
0
100
AcDbLine
 62
7
  6
CONTINUOUS
 10
-39.1845972518
 20
19.9313671933
 11
-39.1845972518
 21
-1.2968600033
  0
LINE
  5
21B
100
AcDbEntity
  8
0
100
AcDbLine
 62
7
  6
CONTINUOUS
 10
-38.2186714255
 20
19.7819283204
 11
-38.2186714255
 21
-1.4462988762
  0
LWPOLYLINE
  5
21C
100
AcDbEntity
  8
0
100
AcDbPolyline
 62
7
  6
CONTINUOUS
 90
19
 70
0
 10
-39.6167820277
 20
20.997454453
 10
-39.594634249
 20
22.0390463823
 10
-39.5297018996
 20
23.0485700319
 10
-39.4219849794
 20
24.0260254017
 10
-39.2710221496
 20
24.9734420085
 10
-39.0772747491
 20
25.8887903355
 10
-38.8421267948
 20
26.7659818325
 10
-38.5653080666
 20
27.6047595132
 10
-38.2470887846
 20
28.405380364
 10
-37.8896636263
 20
29.162526793
 10
-37.4927771081
 20
29.8759102784
 10
-37.0566847136
 20
30.5458193421
 10
-36.5843475713
 20
31.1678019585
 10
-36.0755276699
 20
31.7415430966
 10
-35.5304630207
 20
32.2673577874
 10
-34.9528287854
 20
32.741739098
 10
-34.3424123885
 20
33.1643478426
 10
-33.6994264056
 20
33.535523207
 10
-33.515974212
 20
33.6289889107
  0
LINE
  5
21D
100
AcDbEntity
  8
0
100
AcDbLine
 62
7
  6
CONTINUOUS
 10
-39.5797241316
 20
20.1595085016
 11
-39.5584396305
 21
21.1605011921
  0
LINE
  5
21E
100
AcDbEntity
  8
0
100
AcDbLine
 62
253
  6
CONTINUOUS
 10
-20.5248989357
 20
31.2022676298
 11
-21.2320057169
 21
30.7512036424
  0
LINE
  5
21F
100
AcDbEntity
  8
0
100
AcDbLine
 62
253
  6
CONTINUOUS
 10
2.8096248434
 20
44.0797494825
 11
-20.5248989357
 21
32.0187379066
  0
LWPOLYLINE
  5
220
100
AcDbEntity
  8
0
100
AcDbPolyline
 62
7
  6
CONTINUOUS
 90
17
 70
0
 10
-2.4936760155
 20
-42.0955787658
 10
-1.5861590674
 20
-42.5921280646
 10
-0.6811295603
 20
-43.03243713
 10
0.218931883
 20
-43.4152991055
 10
1.1115582566
 20
-43.739664593
 10
1.9943029337
 20
-44.0046445293
 10
2.8647463724
 20
-44.2095126228
 10
3.7205027478
 20
-44.3537073443
 10
4.5592264912
 20
-44.436833466
 10
5.378618719
 20
-44.458663145
 10
6.1764335342
 20
-44.4191365478
 10
6.9504841817
 20
-44.318362014
 10
7.6986490426
 20
-44.1566157595
 10
8.418877449
 20
-43.9343411196
 10
9.1091953048
 20
-43.6521473336
 10
9.7677104969
 20
-43.3108078752
 10
10.2142185548
 20
-43.0335513167
  0
LINE
  5
221
100
AcDbEntity
  8
0
100
AcDbLine
 62
7
  6
CONTINUOUS
 10
-1.969687311
 20
-43.9451450032
 11
-2.847229406
 21
-43.4630385858
  0
LWPOLYLINE
  5
222
100
AcDbEntity
  8
0
100
AcDbPolyline
 62
7
  6
CONTINUOUS
 90
34
 70
0
 10
-2.847229406
 20
-43.0068000636
 10
-1.9885716939
 20
-43.4785310971
 10
-1.1359118378
 20
-43.9003452766
 10
-0.2892498379
 20
-44.2722426018
 10
0.5532840137
 20
-44.5948017155
 10
1.3898200091
 20
-44.867443975
 10
2.2147490251
 20
-45.0884334529
 10
3.0279888392
 20
-45.2574292806
 10
3.829621674
 20
-45.3747723268
 10
4.6142850743
 20
-45.4397492695
 10
5.3818642062
 20
-45.4520164113
 10
6.1324739037
 20
-45.4119174496
 10
6.8610962127
 20
-45.3197701551
 10
7.5675864958
 20
-45.1752325928
 10
8.2520893905
 20
-44.9786466976
 10
8.9100208559
 20
-44.7313560447
 10
9.5412046232
 20
-44.4330280527
 10
10.1458169611
 20
-44.0839953031
 10
10.7198026346
 20
-43.6865991155
 10
11.2629617302
 20
-43.240520565
 10
11.7754941613
 20
-42.7460785765
 10
12.2539444326
 20
-42.2065712452
 10
12.6980887204
 20
-41.6217023692
 10
13.1081508483
 20
-40.9917681503
 10
13.4813467925
 20
-40.3209552889
 10
13.8174363077
 20
-39.608992518
 10
14.1166596391
 20
-38.8561511046
 10
14.376953499
 20
-38.06743155
 10
14.5980637932
 20
-37.2425922479
 10
14.7802446158
 20
-36.3818748046
 10
14.9221949612
 20
-35.4910045398
 10
15.023481161
 20
-34.5718898935
 10
15.0845368835
 20
-33.6226224258
 10
15.1053621289
 20
-32.6432021367
  0
LINE
  5
223
100
AcDbEntity
  8
0
100
AcDbLine
 62
7
  6
CONTINUOUS
 10
-20.5248989357
 20
-33.2988842368
 11
-2.1401226249
 21
-43.9140236634
  0
LINE
  5
224
100
AcDbEntity
  8
0
100
AcDbLine
 62
7
  6
CONTINUOUS
 10
-21.2320057169
 20
-32.8478991593
 11
-2.847229406
 21
-43.4630385858
  0
LINE
  5
225
100
AcDbEntity
  8
0
100
AcDbLine
 62
7
  6
CONTINUOUS
 10
-21.2320057169
 20
-32.3916606371
 11
-2.847229406
 21
-43.0068000636
  0
LINE
  5
226
100
AcDbEntity
  8
0
100
AcDbLine
 62
7
  6
CONTINUOUS
 10
-20.8784523263
 20
-31.4804393393
 11
-2.4936760155
 21
-42.0955787658
  0
LINE
  5
227
100
AcDbEntity
  8
0
100
AcDbLine
 62
7
  6
CONTINUOUS
 10
-20.5248989357
 20
-33.2988842368
 11
-21.4380480276
 21
-32.7460701675
  0
LWPOLYLINE
  5
228
100
AcDbEntity
  8
0
100
AcDbPolyline
 62
7
  6
CONTINUOUS
 90
34
 70
0
 10
-21.2320057169
 20
-32.8478991593
 10
-22.1095620233
 20
-32.3166327132
 10
-22.980988464
 20
-31.7414293851
 10
-23.846285039
 20
-31.122289175
 10
-24.7073626072
 20
-30.4575968491
 10
-25.5623103098
 20
-29.7489676411
 10
-26.4053955696
 20
-29.0012472531
 10
-27.2365343544
 20
-28.2141843527
 10
-28.0558106966
 20
-27.3880302721
 10
-28.8577441161
 20
-26.5283847107
 10
-29.6422172517
 20
-25.6350319322
 10
-30.4093474647
 20
-24.7081876728
 10
-31.1540063587
 20
-23.7540988406
 10
-31.8760461128
 20
-22.7725866749
 10
-32.5756145479
 20
-21.7638299363
 10
-33.2480267308
 20
-20.7346118151
 10
-33.8931025132
 20
-19.6848004404
 10
-34.5110220433
 20
-18.6145276829
 10
-35.0976408326
 20
-17.5309723454
 10
-35.6527545677
 20
-16.4340444192
 10
-36.1765675618
 20
-15.3238339128
 10
-36.6655482662
 20
-14.2077896548
 10
-37.1194679307
 20
-13.0858730788
 10
-37.5385553054
 20
-11.9581227511
 10
-37.9199650916
 20
-10.8321031989
 10
-38.2634517561
 20
-9.7078207202
 10
-38.569260832
 20
-8.5852690169
 10
-38.8352836197
 20
-7.4719937221
 10
-39.0612604325
 20
-6.3680477917
 10
-39.247450957
 20
-5.2733782699
 10
-39.3925255532
 20
-4.1953719227
 10
-39.4960410077
 20
-3.1364910055
 10
-39.5584405338
 20
-2.0942732629
 10
-39.5797241316
 20
-1.068718695
  0
LINE
  5
229
100
AcDbEntity
  8
0
100
AcDbLine
 62
7
  6
CONTINUOUS
 10
-21.4380480276
 20
-32.7460701675
 11
-21.857002245
 21
-32.4695306354
  0
LWPOLYLINE
  5
22A
100
AcDbEntity
  8
0
100
AcDbPolyline
 62
7
  6
CONTINUOUS
 90
10
 70
0
 10
-23.2188101078
 20
24.005002803
 10
-22.9871825189
 20
24.404987369
 10
-22.7458354682
 20
24.7929573723
 10
-22.4947689555
 20
25.1689128129
 10
-22.233855255
 20
25.5330198739
 10
-21.9632220926
 20
25.8851123722
 10
-21.6832526459
 20
26.2246917583
 10
-21.3940746407
 20
26.5515918491
 10
-21.0955603511
 20
26.8659788276
 10
-20.7877097772
 20
27.1678526939
  0
LWPOLYLINE
  5
22B
100
AcDbEntity
  8
0
100
AcDbPolyline
 62
7
  6
CONTINUOUS
 90
9
 70
0
 10
-19.3317793084
 20
28.8989887995
 10
-19.3953982759
 20
28.8209293682
 10
-19.5038566744
 20
28.6509917838
 10
-19.5965749384
 20
28.4629078135
 10
-19.6737993531
 20
28.2569736371
 10
-19.7341407691
 20
28.0365722613
 10
-19.7771361366
 20
27.8028313549
 10
-19.8032485054
 20
27.5546232492
 10
-19.8124778754
 20
27.291947944
  0
LWPOLYLINE
  5
22C
100
AcDbEntity
  8
0
100
AcDbPolyline
 62
7
  6
CONTINUOUS
 90
10
 70
0
 10
-19.7578056336
 20
26.1884212979
 10
-20.0817697931
 20
25.8860309595
 10
-20.3954251363
 20
25.5696418498
 10
-20.6987716631
 20
25.2392539687
 10
-20.9919644561
 20
24.8946707174
 10
-21.2748484328
 20
24.5360886947
 10
-21.5469583458
 20
24.1640976974
 10
-21.8081391126
 20
23.7788943245
 10
-22.0585458157
 20
23.3802819769
 10
-22.2981784552
 20
22.9682606548
  0
LINE
  5
22D
100
AcDbEntity
  8
0
100
AcDbLine
 62
7
  6
CONTINUOUS
 10
-17.289302969
 20
27.7196885594
 11
-19.7205864898
 21
26.3778452303
  0
LINE
  5
22E
100
AcDbEntity
  8
0
100
AcDbLine
 62
7
  6
CONTINUOUS
 10
-19.7567726823
 20
26.1868683491
 11
-17.1370025066
 21
27.6317521812
  0
LINE
  5
22F
100
AcDbEntity
  8
0
100
AcDbLine
 62
253
  6
CONTINUOUS
 10
-20.7247257984
 20
28.876715944
 11
-38.2186714255
 21
19.7819283204
  0
LWPOLYLINE
  5
230
100
AcDbEntity
  8
0
100
AcDbPolyline
 62
7
  6
CONTINUOUS
 90
10
 70
0
 10
12.6182945865
 20
-30.693044082
 10
12.2029155637
 20
-30.8086732115
 10
11.7813681119
 20
-30.9099605024
 10
11.3536522314
 20
-30.9969059545
 10
10.9195601284
 20
-31.0695370714
 10
10.4792995966
 20
-31.1278263495
 10
10.0334940166
 20
-31.1716912782
 10
9.5823511818
 20
-31.2011043538
 10
9.1256632989
 20
-31.21609308
 10
8.6634303676
 20
-31.2166574568
  0
LWPOLYLINE
  5
231
100
AcDbEntity
  8
0
100
AcDbPolyline
 62
7
  6
CONTINUOUS
 90
4
 70
0
 10
-22.2981784552
 20
22.9682606548
 10
-22.3125866953
 20
22.9481675641
 10
-22.3292207932
 20
22.9324950555
 10
-22.3416998976
 20
22.9244190514
  0
LINE
  5
232
100
AcDbEntity
  8
0
100
AcDbLine
 62
253
  6
CONTINUOUS
 10
-15.7789049482
 20
26.4989392903
 11
-22.2986329459
 21
22.9687892334
  0
LINE
  5
233
100
AcDbEntity
  8
0
100
AcDbLine
 62
7
  6
CONTINUOUS
 10
-22.2898709298
 20
22.9529167319
 11
-15.7701835415
 21
26.4828137964
  0
LWPOLYLINE
  5
234
100
AcDbEntity
  8
0
100
AcDbPolyline
 62
7
  6
CONTINUOUS
 90
4
 70
0
 10
-22.3416998976
 20
22.9244190514
 10
-22.3480807489
 20
22.9212431291
 10
-22.3695245049
 20
22.9144108086
 10
-22.3931941187
 20
22.9119990703
  0
LWPOLYLINE
  5
235
100
AcDbEntity
  8
0
100
AcDbPolyline
 62
7
  6
CONTINUOUS
 90
10
 70
0
 10
11.4115226759
 20
-29.5587212605
 10
11.510108292
 20
-29.5345120448
 10
11.6083143959
 20
-29.50948574
 10
11.7061409876
 20
-29.4836423463
 10
11.8035908134
 20
-29.4569810861
 10
11.9006611269
 20
-29.429502737
 10
11.9973436892
 20
-29.4012096312
 10
12.0936357541
 20
-29.372102546
 10
12.1895400677
 20
-29.3421807041
 10
12.2850566302
 20
-29.3114441055
  0
LINE
  5
236
100
AcDbEntity
  8
0
100
AcDbLine
 62
7
  6
CONTINUOUS
 10
11.2721363048
 20
-29.5416211961
 11
11.2978151479
 21
-29.5356863916
  0
LINE
  5
237
100
AcDbEntity
  8
0
100
AcDbLine
 62
253
  6
CONTINUOUS
 10
12.7108211279
 20
-27.9268197873
 11
12.6372470581
 21
-27.9438239693
  0
LINE
  5
238
100
AcDbEntity
  8
0
100
AcDbLine
 62
253
  6
CONTINUOUS
 10
12.8078690455
 20
-27.7976145567
 11
12.8852323493
 21
-27.7797346202
  0
LWPOLYLINE
  5
239
100
AcDbEntity
  8
0
100
AcDbPolyline
 62
7
  6
CONTINUOUS
 90
10
 70
0
 10
12.2850566302
 20
-29.3114441055
 10
12.3029776609
 20
-29.3073223138
 10
12.321663585
 20
-29.3059831259
 10
12.3411144026
 20
-29.307426542
 10
12.3615456326
 20
-29.3117245564
 10
12.382741756
 20
-29.3188051748
 10
12.4040562157
 20
-29.3284524138
 10
12.4252734927
 20
-29.3405942791
 10
12.446609106
 20
-29.3553027651
 10
12.4680630556
 20
-29.3725778718
  0
LINE
  5
23A
100
AcDbEntity
  8
0
100
AcDbLine
 62
253
  6
CONTINUOUS
 10
12.7355109033
 20
-27.9238944509
 11
12.710822367
 21
-27.9268183709
  0
LWPOLYLINE
  5
23B
100
AcDbEntity
  8
0
100
AcDbPolyline
 62
253
  6
CONTINUOUS
 90
7
 70
0
 10
12.885229088
 20
-27.7797365808
 10
12.9081988939
 20
-27.7770884766
 10
12.9327966645
 20
-27.778955337
 10
12.9586003354
 20
-27.7852635515
 10
12.9850409239
 20
-27.7958041276
 10
13.0118090009
 20
-27.8103863801
 10
13.0388718755
 20
-27.8290422068
  0
LWPOLYLINE
  5
23C
100
AcDbEntity
  8
0
100
AcDbPolyline
 62
7
  6
CONTINUOUS
 90
10
 70
0
 10
8.2259165192
 20
-29.9010229859
 10
8.568916095
 20
-29.9015999604
 10
8.9088095731
 20
-29.8938845695
 10
9.2455969534
 20
-29.8778768133
 10
9.5793719782
 20
-29.8535674566
 10
9.9100409052
 20
-29.8209657346
 10
10.2373225076
 20
-29.7800993529
 10
10.5611230432
 20
-29.7309775467
 10
10.8815362542
 20
-29.673591081
 10
11.1985621407
 20
-29.6079399555
  0
LWPOLYLINE
  5
23D
100
AcDbEntity
  8
0
100
AcDbPolyline
 62
7
  6
CONTINUOUS
 90
10
 70
0
 10
14.8465430838
 20
-31.6301909137
 10
14.7003128838
 20
-31.6188802802
 10
14.450176546
 20
-31.5777810695
 10
14.1958392402
 20
-31.5148810452
 10
13.9372465691
 20
-31.4298979137
 10
13.67445293
 20
-31.3231139688
 10
13.4108243131
 20
-31.1958995765
 10
13.1474827153
 20
-31.0487115256
 10
12.8833061398
 20
-30.8810930274
 10
12.6182945865
 20
-30.693044082
  0
LWPOLYLINE
  5
23E
100
AcDbEntity
  8
0
100
AcDbPolyline
 62
7
  6
CONTINUOUS
 90
13
 70
0
 10
8.6634303676
 20
-31.2166574568
 10
8.6362633206
 20
-31.2133506514
 10
8.6090450941
 20
-31.2057774577
 10
8.5817756882
 20
-31.1939378756
 10
8.5540367306
 20
-31.1774863583
 10
8.5262465936
 20
-31.1567684526
 10
8.4996603934
 20
-31.1328207992
 10
8.474314724
 20
-31.1055452705
 10
8.4501729915
 20
-31.0750399941
 10
8.4283805307
 20
-31.0426359937
 10
8.4093191196
 20
-31.0087769438
 10
8.3926069802
 20
-30.9730191699
 10
8.3782441124
 20
-30.9353626719
  0
LWPOLYLINE
  5
23F
100
AcDbEntity
  8
0
100
AcDbPolyline
 62
7
  6
CONTINUOUS
 90
6
 70
0
 10
-15.8989515679
 20
26.8330251535
 10
-15.9103896802
 20
26.8118178404
 10
-15.9181426344
 20
26.7932888814
 10
-15.9219640012
 20
26.7775805247
 10
-15.921581875
 20
26.7646143539
 10
-15.9188271424
 20
26.7573564978
  0
LINE
  5
240
100
AcDbEntity
  8
0
100
AcDbLine
 62
7
  6
CONTINUOUS
 10
-15.8989515679
 20
26.8330251535
 11
-15.8606735039
 21
26.8948158112
  0
LWPOLYLINE
  5
241
100
AcDbEntity
  8
0
100
AcDbPolyline
 62
253
  6
CONTINUOUS
 90
13
 70
0
 10
-11.9700985872
 20
22.8725410174
 10
-11.9499077043
 20
22.8857977069
 10
-11.9279847886
 20
22.9026076058
 10
-11.9046975261
 20
22.9226887824
 10
-11.8804364854
 20
22.9457044398
 10
-11.855608567
 20
22.9712685649
 10
-11.830630179
 20
22.9989524021
 10
-11.805920253
 20
23.0282916445
 10
-11.7818932181
 20
23.0587942211
 10
-11.7589520503
 20
23.08994855
 10
-11.7374815133
 20
23.1212321178
 10
-11.7178417061
 20
23.1521202441
 10
-11.7003620229
 20
23.1820948802
  0
LINE
  5
242
100
AcDbEntity
  8
0
100
AcDbLine
 62
253
  6
CONTINUOUS
 10
-14.2115636474
 20
23.8002893856
 11
-13.2312032524
 21
24.3662467032
  0
LINE
  5
243
100
AcDbEntity
  8
0
100
AcDbLine
 62
253
  6
CONTINUOUS
 10
-13.5009398167
 20
24.0566928404
 11
-14.0752176508
 21
23.7251761032
  0
LINE
  5
244
100
AcDbEntity
  8
0
100
AcDbLine
 62
253
  6
CONTINUOUS
 10
-12.5598693844
 20
22.5320805664
 11
-11.9700985872
 21
22.8725410174
  0
LINE
  5
245
100
AcDbEntity
  8
0
100
AcDbLine
 62
253
  6
CONTINUOUS
 10
-11.7003620229
 20
22.8357486368
 11
-12.2901328201
 21
22.4952881858
  0
LINE
  5
246
100
AcDbEntity
  8
0
100
AcDbLine
 62
253
  6
CONTINUOUS
 10
-12.2901328201
 20
22.4952881858
 11
-12.2920574428
 21
22.4942052827
  0
LINE
  5
247
100
AcDbEntity
  8
0
100
AcDbLine
 62
253
  6
CONTINUOUS
 10
-10.5373978641
 20
23.821223173
 11
-11.7003620229
 21
23.1820948802
  0
LINE
  5
248
100
AcDbEntity
  8
0
100
AcDbLine
 62
253
  6
CONTINUOUS
 10
-11.7003620229
 20
22.8357486368
 11
-10.2300688292
 21
23.64377524
  0
LINE
  5
249
100
AcDbEntity
  8
0
100
AcDbLine
 62
7
  6
CONTINUOUS
 10
-10.2143087796
 20
23.6346755849
 11
-12.2901328201
 21
22.4952881858
  0
LWPOLYLINE
  5
24A
100
AcDbEntity
  8
0
100
AcDbPolyline
 62
253
  6
CONTINUOUS
 90
7
 70
0
 10
-14.0752176508
 20
23.7251761032
 10
-14.0894056502
 20
23.7179505948
 10
-14.1021663421
 20
23.7129705435
 10
-14.1134207056
 20
23.7102173701
 10
-14.1230376638
 20
23.709646836
 10
-14.1310713437
 20
23.7111691339
 10
-14.1373354661
 20
23.7145771222
  0
LWPOLYLINE
  5
24B
100
AcDbEntity
  8
0
100
AcDbPolyline
 62
7
  6
CONTINUOUS
 90
9
 70
0
 10
-12.2920574428
 20
22.4942052827
 10
-12.326607297
 20
22.4780106067
 10
-12.3633555447
 20
22.4662247766
 10
-12.4016171176
 20
22.4592179922
 10
-12.4406413429
 20
22.4572237632
 10
-12.4796231997
 20
22.4603228242
 10
-12.5178517949
 20
22.4684606344
 10
-12.5547258481
 20
22.4815119674
 10
-12.5896260991
 20
22.499272073
  0
LWPOLYLINE
  5
24C
100
AcDbEntity
  8
0
100
AcDbPolyline
 62
253
  6
CONTINUOUS
 90
10
 70
0
 10
-11.7003620229
 20
22.8357486368
 10
-11.727457293
 20
22.8233888494
 10
-11.7563088687
 20
22.8150708077
 10
-11.7864915751
 20
22.8109170916
 10
-11.8175606213
 20
22.8109889128
 10
-11.8490581544
 20
22.8152852129
 10
-11.8805200074
 20
22.823742679
 10
-11.9114825389
 20
22.8362366765
 10
-11.9414894657
 20
22.8525830863
 10
-11.9700985872
 20
22.8725410174
  0
LWPOLYLINE
  5
24D
100
AcDbEntity
  8
0
100
AcDbPolyline
 62
253
  6
CONTINUOUS
 90
3
 70
0
 10
-12.3460758007
 20
22.4746111733
 10
-12.3172258894
 20
22.4829292118
 10
-12.2901328201
 20
22.4952881858
  0
LWPOLYLINE
  5
24E
100
AcDbEntity
  8
0
100
AcDbPolyline
 62
7
  6
CONTINUOUS
 90
7
 70
0
 10
-20.831728405
 20
27.8804504255
 10
-20.8211405074
 20
28.2080132642
 10
-20.7907372532
 20
28.519206807
 10
-20.7405186424
 20
28.814031054
 10
-20.6700319084
 20
29.0938067013
 10
-20.5797298179
 20
29.3572130527
 10
-20.4864538329
 20
29.5656833985
  0
LWPOLYLINE
  5
24F
100
AcDbEntity
  8
0
100
AcDbPolyline
 62
253
  6
CONTINUOUS
 90
13
 70
0
 10
-13.2312032524
 20
24.3662467032
 10
-13.2486829356
 20
24.3362720671
 10
-13.2683227428
 20
24.3053839409
 10
-13.2897932798
 20
24.274100373
 10
-13.3127344476
 20
24.2429460441
 10
-13.3367614825
 20
24.2124434675
 10
-13.3614714085
 20
24.1831042251
 10
-13.3864497965
 20
24.1554203879
 10
-13.4112777149
 20
24.1298562629
 10
-13.4355387556
 20
24.1068406054
 10
-13.4588260181
 20
24.0867594288
 10
-13.4807489338
 20
24.0699495299
 10
-13.5009398167
 20
24.0566928404
  0
LWPOLYLINE
  5
250
100
AcDbEntity
  8
0
100
AcDbPolyline
 62
7
  6
CONTINUOUS
 90
31
 70
0
 10
-13.3085334195
 20
16.2226925425
 10
-13.4376228922
 20
16.1056148225
 10
-13.5525886798
 20
15.9724037088
 10
-13.6534307826
 20
15.8230592013
 10
-13.7405056366
 20
15.6565065876
 10
-13.8134568056
 20
15.4738205801
 10
-13.8712149815
 20
15.2782253168
 10
-13.9135354032
 20
15.069534828
 10
-13.9406628317
 20
14.8479350834
 10
-13.9522622417
 20
14.6172081299
 10
-13.9480893215
 20
14.3772245739
 10
-13.9283883829
 20
14.128113809
 10
-13.8935573353
 20
13.8740460631
 10
-13.8433604663
 20
13.6149513599
 10
-13.7780334884
 20
13.3508996757
 10
-13.6986814494
 20
13.0862711665
 10
-13.605084937
 20
12.8210568082
 10
-13.4974633634
 20
12.555265625
 10
-13.3775800132
 20
12.2933048449
 10
-13.2452390629
 20
12.0352266958
 10
-13.1006363359
 20
11.7809789498
 10
-12.9461225875
 20
11.5348121518
 10
-12.7815324783
 20
11.2968388471
 10
-12.6070313477
 20
11.0669464903
 10
-12.4254659681
 20
10.8490479898
 10
-12.236707976
 20
10.6433139694
 10
-12.040885735
 20
10.4495738054
 10
-11.8412311085
 20
10.2712285349
 10
-11.6388213844
 20
10.109411837
 10
-11.4325792748
 20
9.9629900325
 10
-11.2225047797
 20
9.8319631217
  0
LWPOLYLINE
  5
251
100
AcDbEntity
  8
0
100
AcDbPolyline
 62
7
  6
CONTINUOUS
 90
28
 70
0
 10
-12.16162555
 20
15.9605062651
 10
-12.2711061208
 20
15.8909388799
 10
-12.3906240518
 20
15.7892403786
 10
-12.4966451222
 20
15.6682489775
 10
-12.5883439664
 20
15.5289065849
 10
-12.6650067164
 20
15.3722979704
 10
-12.7260365586
 20
15.1996423195
 10
-12.7709583806
 20
15.0122837426
 10
-12.7994224697
 20
14.8116808114
 10
-12.8112072351
 20
14.5993952036
 10
-12.8062209335
 20
14.3770795457
 10
-12.7845023826
 20
14.1464645475
 10
-12.7462206599
 20
13.9093455284
 10
-12.6916737853
 20
13.6675684409
 10
-12.621286402
 20
13.4230155004
 10
-12.5356064701
 20
13.177590532
 10
-12.4353010011
 20
12.9332041496
 10
-12.3211508651
 20
12.6917588816
 10
-12.1940447117
 20
12.4551343602
 10
-12.0549720523
 20
12.2251726885
 10
-11.9050155563
 20
12.0036640996
 10
-11.7453426232
 20
11.7923330204
 10
-11.5771962939
 20
11.5928246463
 10
-11.4018855743
 20
11.4066921342
 10
-11.2207752444
 20
11.2353845109
 10
-11.0352752335
 20
11.0802353924
 10
-10.8468296446
 20
10.9424526024
 10
-10.6569055114
 20
10.8231087689
  0
LINE
  5
252
100
AcDbEntity
  8
0
100
AcDbLine
 62
7
  6
CONTINUOUS
 10
-12.1390217668
 20
15.9725527667
 11
-10.194525369
 21
17.0400265534
  0
LINE
  5
253
100
AcDbEntity
  8
0
100
AcDbLine
 62
253
  6
CONTINUOUS
 10
-2.1401226249
 20
21.4035984801
 11
21.1944011543
 21
33.464610056
  0
LWPOLYLINE
  5
254
100
AcDbEntity
  8
0
100
AcDbPolyline
 62
7
  6
CONTINUOUS
 90
8
 70
0
 10
-10.8091525229
 20
-17.626083891
 10
-10.7950524374
 20
-17.6371507786
 10
-10.7743436827
 20
-17.6437295288
 10
-10.7477925183
 20
-17.6452396578
 10
-10.7163760628
 20
-17.6414984693
 10
-10.6804200225
 20
-17.6324450646
 10
-10.6395986911
 20
-17.6181403424
 10
-10.5939120686
 20
-17.5985843027
  0
LWPOLYLINE
  5
255
100
AcDbEntity
  8
0
100
AcDbPolyline
 62
253
  6
CONTINUOUS
 90
10
 70
0
 10
-12.0548817879
 20
-18.328403843
 10
-12.7273880687
 20
-17.5374699231
 10
-13.386723101
 20
-16.7298825414
 10
-14.032886885
 20
-15.9056416979
 10
-14.666550221
 20
-15.0638193131
 10
-15.2870423088
 20
-14.2053434665
 10
-15.8923507468
 20
-13.3329983966
 10
-16.4818047346
 20
-12.4477121828
 10
-17.0560750727
 20
-11.5485567458
 10
-17.6151617611
 20
-10.6355320854
  0
LWPOLYLINE
  5
256
100
AcDbEntity
  8
0
100
AcDbPolyline
 62
7
  6
CONTINUOUS
 90
8
 70
0
 10
-12.1317492018
 20
-18.8450883166
 10
-12.932268081
 20
-17.9019323585
 10
-13.7657646222
 20
-16.8713305928
 10
-14.5787532443
 20
-15.8149567577
 10
-15.3700370404
 20
-14.734470932
 10
-16.1385046399
 20
-13.6314855008
 10
-16.8831181902
 20
-12.5075633554
 10
-17.6027790104
 20
-11.3644178274
  0
LWPOLYLINE
  5
257
100
AcDbEntity
  8
0
100
AcDbPolyline
 62
7
  6
CONTINUOUS
 90
9
 70
0
 10
-12.1315734215
 20
-18.8449463736
 10
-12.1490264396
 20
-18.8210972706
 10
-12.1695856522
 20
-18.7740828468
 10
-12.1786685078
 20
-18.7184748468
 10
-12.1765004549
 20
-18.6544638602
 10
-12.1630792029
 20
-18.583390941
 10
-12.1384039881
 20
-18.5057031072
 10
-12.102475574
 20
-18.4209533409
 10
-12.0552939608
 20
-18.3291416419
  0
LWPOLYLINE
  5
258
100
AcDbEntity
  8
0
100
AcDbPolyline
 62
253
  6
CONTINUOUS
 90
10
 70
0
 10
-17.1809153212
 20
-10.1972277882
 10
-16.6343065229
 20
-11.0945276792
 10
-16.0725428784
 20
-11.9781198898
 10
-15.4956243877
 20
-12.8480044201
 10
-14.9028761466
 20
-13.705117633
 10
-14.2949730593
 20
-14.5485231656
 10
-13.6739398384
 20
-15.3754119287
 10
-13.0404513883
 20
-16.1848475595
 10
-12.3938328046
 20
-16.9777664208
 10
-11.7340840875
 20
-17.7541685127
  0
LWPOLYLINE
  5
259
100
AcDbEntity
  8
0
100
AcDbPolyline
 62
7
  6
CONTINUOUS
 90
9
 70
0
 10
-17.6027790104
 20
-11.3644178274
 10
-18.2964378953
 20
-10.2037593224
 10
-18.9631573036
 20
-9.0271752628
 10
-19.6019368081
 20
-7.836423884
 10
-20.2118107464
 20
-6.6332831479
 10
-20.7919263345
 20
-5.4193830699
 10
-21.3414064172
 20
-4.1964680079
 10
-21.8593608847
 20
-2.9664049179
 10
-22.3162127042
 20
-1.8066834057
  0
LWPOLYLINE
  5
25A
100
AcDbEntity
  8
0
100
AcDbPolyline
 62
253
  6
CONTINUOUS
 90
10
 70
0
 10
-17.6151617611
 20
-10.6355320854
 10
-18.1644739668
 20
-9.698483859
 10
-18.6945248131
 20
-8.753281395
 10
-19.2053143001
 20
-7.7999246931
 10
-19.6973678079
 20
-6.8373350351
 10
-20.1701599564
 20
-5.8665911393
 10
-20.622114605
 20
-4.8909291609
 10
-21.0527063737
 20
-3.9114278182
 10
-21.4624606425
 20
-2.927008393
 10
-21.8513774114
 20
-1.9376708852
  0
LWPOLYLINE
  5
25B
100
AcDbEntity
  8
0
100
AcDbPolyline
 62
253
  6
CONTINUOUS
 90
10
 70
0
 10
-21.2113353081
 20
-1.8975704086
 10
-20.840427384
 20
-2.8410815494
 10
-20.44992662
 20
-3.7800099148
 10
-20.0398330161
 20
-4.7143555049
 10
-19.6096616254
 20
-5.6451169484
 10
-19.1598973948
 20
-6.5712956165
 10
-18.691995165
 20
-7.4898956232
 10
-18.2064398829
 20
-8.3999183397
 10
-17.7027466017
 20
-9.3023623947
 10
-17.1809153212
 20
-10.1972277882
  0
LWPOLYLINE
  5
25C
100
AcDbEntity
  8
0
100
AcDbPolyline
 62
7
  6
CONTINUOUS
 90
12
 70
0
 10
-22.3160013512
 20
-1.8065938889
 10
-22.3220878567
 20
-1.7857238928
 10
-22.3244278729
 20
-1.7403472129
 10
-22.3134737505
 20
-1.6898407128
 10
-22.289473614
 20
-1.6343001596
 10
-22.2528874625
 20
-1.5748523219
 10
-22.2034961428
 20
-1.5114374096
 10
-22.141518808
 20
-1.4441152128
 10
-22.0680729166
 20
-1.3741918707
 10
-21.9835309546
 20
-1.3021027629
 10
-21.887520436
 20
-1.2274125097
 10
-21.7800413607
 20
-1.1501211112
  0
LWPOLYLINE
  5
25D
100
AcDbEntity
  8
0
100
AcDbPolyline
 62
7
  6
CONTINUOUS
 90
10
 70
0
 10
-19.8124778754
 20
27.291947944
 10
-19.8113135906
 20
27.1945443691
 10
-19.8078444121
 20
27.0960306354
 10
-19.80207034
 20
26.996406743
 10
-19.7939833914
 20
26.8955943971
 10
-19.7835915492
 20
26.7936718924
 10
-19.7709187618
 20
26.6908741131
 10
-19.7559730119
 20
26.5872793539
 10
-19.7387463168
 20
26.48280932
 10
-19.7192386764
 20
26.3774640115
  0
LWPOLYLINE
  5
25E
100
AcDbEntity
  8
0
100
AcDbPolyline
 62
7
  6
CONTINUOUS
 90
9
 70
0
 10
-13.2275527401
 20
22.9982680498
 10
-13.2456960011
 20
22.8749202562
 10
-13.3442144828
 20
21.9819699828
 10
-13.4130023457
 20
21.0670999859
 10
-13.4520085698
 20
20.131533982
 10
-13.4610800953
 20
19.1789431208
 10
-13.4401659021
 20
18.2105511187
 10
-13.3893170102
 20
17.2251342593
 10
-13.3085334195
 20
16.2226925425
  0
LINE
  5
25F
100
AcDbEntity
  8
0
100
AcDbLine
 62
253
  6
CONTINUOUS
 10
-2.847229406
 20
20.1360642159
 11
-2.1401226249
 21
20.5871282033
  0
LINE
  5
260
100
AcDbEntity
  8
0
100
AcDbLine
 62
7
  6
CONTINUOUS
 10
-12.1390217668
 20
15.9725527667
 11
-12.16162555
 21
15.9605062651
  0
LINE
  5
261
100
AcDbEntity
  8
0
100
AcDbLine
 62
253
  6
CONTINUOUS
 10
-38.2186714255
 20
-1.4462988762
 11
-15.3161343134
 21
10.4603181624
  0
LWPOLYLINE
  5
262
100
AcDbEntity
  8
0
100
AcDbPolyline
 62
253
  6
CONTINUOUS
 90
19
 70
0
 10
-15.3161343134
 20
10.4603181624
 10
-15.2659695718
 20
10.4832203142
 10
-15.2111522369
 20
10.5022380588
 10
-15.1525790819
 20
10.5170602792
 10
-15.0912083223
 20
10.5274444945
 10
-15.0280439407
 20
10.5332208261
 10
-14.9641192619
 20
10.5342947773
 10
-14.9004800487
 20
10.530648779
 10
-14.8381673939
 20
10.5223424772
 10
-14.7782006887
 20
10.5095117571
 10
-14.7215609463
 20
10.4923665203
 10
-14.669174753
 20
10.4711872508
 10
-14.6218991101
 20
10.4463204267
 10
-14.5805074139
 20
10.4181728515
 10
-14.5456768034
 20
10.3872049999
 10
-14.517977083
 20
10.3539234842
 10
-14.4978614005
 20
10.3188727666
 10
-14.4856588345
 20
10.282626252
 10
-14.4815690102
 20
10.2457769082
  0
LWPOLYLINE
  5
263
100
AcDbEntity
  8
0
100
AcDbPolyline
 62
7
  6
CONTINUOUS
 90
7
 70
0
 10
-5.3615332182
 20
-17.0500356706
 10
-5.1814139334
 20
-17.0592872758
 10
-5.0094177213
 20
-17.0542501558
 10
-4.8466304274
 20
-17.0351200018
 10
-4.6939054362
 20
-17.002126794
 10
-4.5523068632
 20
-16.9556266501
 10
-4.4769737697
 20
-16.9232743478
  0
LWPOLYLINE
  5
264
100
AcDbEntity
  8
0
100
AcDbPolyline
 62
7
  6
CONTINUOUS
 90
7
 70
0
 10
13.699536963
 20
-17.3099979582
 10
13.549203474
 20
-17.3008110784
 10
13.4044426572
 20
-17.3078722357
 10
13.2661001077
 20
-17.3311401835
 10
13.1349839296
 20
-17.3704790061
 10
13.0118600151
 20
-17.4256589126
 10
12.9984914884
 20
-17.4328717795
  0
LINE
  5
265
100
AcDbEntity
  8
0
100
AcDbLine
 62
253
  6
CONTINUOUS
 10
-5.3224838077
 20
-16.9629334491
 11
-5.4669838143
 21
-16.9530282588
  0
LINE
  5
266
100
AcDbEntity
  8
0
100
AcDbLine
 62
253
  6
CONTINUOUS
 10
-5.4669838143
 20
-16.9530282588
 11
-5.6207147692
 21
-16.9334032444
  0
LINE
  5
267
100
AcDbEntity
  8
0
100
AcDbLine
 62
7
  6
CONTINUOUS
 10
-5.5632450148
 20
-17.0239470632
 11
-5.3615332182
 21
-17.0500356706
  0
LINE
  5
268
100
AcDbEntity
  8
0
100
AcDbLine
 62
7
  6
CONTINUOUS
 10
-5.5631792014
 20
-17.0239584165
 11
-5.563072522
 21
-17.0239764911
  0
LINE
  5
269
100
AcDbEntity
  8
0
100
AcDbLine
 62
7
  6
CONTINUOUS
 10
-5.5973026702
 20
-17.0161440655
 11
-5.563072522
 21
-17.0239764911
  0
LWPOLYLINE
  5
26A
100
AcDbEntity
  8
0
100
AcDbPolyline
 62
7
  6
CONTINUOUS
 90
3
 70
0
 10
-5.6356476855
 20
-17.0020762231
 10
-5.6287957323
 20
-17.005032446
 10
-5.5973026702
 20
-17.0161440655
  0
LINE
  5
26B
100
AcDbEntity
  8
0
100
AcDbLine
 62
253
  6
CONTINUOUS
 10
-5.6354275259
 20
-17.0021744307
 11
-5.635578477
 21
-17.0021070468
  0
LWPOLYLINE
  5
26C
100
AcDbEntity
  8
0
100
AcDbPolyline
 62
253
  6
CONTINUOUS
 90
10
 70
0
 10
-4.3947716555
 20
-16.5740115988
 10
-4.3630796458
 20
-16.5892255242
 10
-4.330312319
 20
-16.6014147032
 10
-4.2969192062
 20
-16.6104013736
 10
-4.2634095085
 20
-16.6160454958
 10
-4.2301980595
 20
-16.6182742039
 10
-4.1976070973
 20
-16.6170331733
 10
-4.1660648715
 20
-16.6122745329
 10
-4.1360904344
 20
-16.6040094403
 10
-4.1081443845
 20
-16.5923019511
  0
LINE
  5
26D
100
AcDbEntity
  8
0
100
AcDbLine
 62
7
  6
CONTINUOUS
 10
-5.6354968771
 20
-17.002147587
 11
-5.7254156483
 21
-16.9588407831
  0
LWPOLYLINE
  5
26E
100
AcDbEntity
  8
0
100
AcDbPolyline
 62
253
  6
CONTINUOUS
 90
7
 70
0
 10
-5.7255210959
 20
-16.8506056603
 10
-5.8006687122
 20
-16.8143145288
 10
-5.8754765066
 20
-16.7728510952
 10
-5.9499444792
 20
-16.7262153593
 10
-6.0243570265
 20
-16.6741886
 10
-6.098429752
 20
-16.6169895385
 10
-6.1713094663
 20
-16.5552743385
  0
LINE
  5
26F
100
AcDbEntity
  8
0
100
AcDbLine
 62
7
  6
CONTINUOUS
 10
-5.7254156483
 20
-16.9588407831
 11
-5.8144925235
 21
-16.9095367397
  0
LWPOLYLINE
  5
270
100
AcDbEntity
  8
0
100
AcDbPolyline
 62
253
  6
CONTINUOUS
 90
4
 70
0
 10
-5.642121505
 20
-16.9989450881
 10
-5.6559547536
 20
-16.9905357555
 10
-5.6685485591
 20
-16.9805727416
 10
-5.6798531683
 20
-16.9692626163
  0
LWPOLYLINE
  5
271
100
AcDbEntity
  8
0
100
AcDbPolyline
 62
7
  6
CONTINUOUS
 90
24
 70
0
 10
-8.7977427321
 20
-13.4168724645
 10
-8.7868747813
 20
-13.4235166422
 10
-8.7757359589
 20
-13.4308105092
 10
-8.7643457127
 20
-13.438737058
 10
-8.7526845949
 20
-13.4473132961
 10
-8.7407519676
 20
-13.4564990066
 10
-8.7285490389
 20
-13.4662874711
 10
-8.7160746008
 20
-13.4766854079
 10
-8.7033243922
 20
-13.4876727552
 10
-8.6903004983
 20
-13.4992437596
 10
-8.6770008339
 20
-13.5114041745
 10
-8.6634148815
 20
-13.5241511978
 10
-8.6495459993
 20
-13.537478374
 10
-8.6353908292
 20
-13.5513921586
 10
-8.6209287786
 20
-13.5659091163
 10
-8.6061590949
 20
-13.5810273494
 10
-8.5910825309
 20
-13.5967487554
 10
-8.5756807525
 20
-13.6130955921
 10
-8.5599541578
 20
-13.6300653803
 10
-8.5439023488
 20
-13.647660599
 10
-8.5275057969
 20
-13.6659109427
 10
-8.5107579927
 20
-13.6848263097
 10
-8.4936654457
 20
-13.7043968016
 10
-8.4762281558
 20
-13.7246224185
  0
LWPOLYLINE
  5
272
100
AcDbEntity
  8
0
100
AcDbPolyline
 62
7
  6
CONTINUOUS
 90
3
 70
0
 10
-5.8144925235
 20
-16.9095367397
 10
-5.9024809303
 20
-16.8545060138
 10
-5.989231642
 20
-16.7939590554
  0
LWPOLYLINE
  5
273
100
AcDbEntity
  8
0
100
AcDbPolyline
 62
7
  6
CONTINUOUS
 90
4
 70
0
 10
-5.989231642
 20
-16.7939590554
 10
-6.0744907587
 20
-16.7281746823
 10
-6.1578748363
 20
-16.6575614627
 10
-6.2391138381
 20
-16.5824760135
  0
LWPOLYLINE
  5
274
100
AcDbEntity
  8
0
100
AcDbPolyline
 62
253
  6
CONTINUOUS
 90
3
 70
0
 10
-6.1713094663
 20
-16.5552743385
 10
-6.242711773
 20
-16.489261721
 10
-6.3129210685
 20
-16.418732965
  0
LINE
  5
275
100
AcDbEntity
  8
0
100
AcDbLine
 62
7
  6
CONTINUOUS
 10
-6.2391138381
 20
-16.5824760135
 11
-6.3180717439
 21
-16.5031612265
  0
LINE
  5
276
100
AcDbEntity
  8
0
100
AcDbLine
 62
253
  6
CONTINUOUS
 10
-6.3129210685
 20
-16.418732965
 11
-6.3819373529
 21
-16.3436880705
  0
LINE
  5
277
100
AcDbEntity
  8
0
100
AcDbLine
 62
7
  6
CONTINUOUS
 10
-6.3180717439
 20
-16.5031612265
 11
-6.394530138
 21
-16.41993812
  0
LINE
  5
278
100
AcDbEntity
  8
0
100
AcDbLine
 62
253
  6
CONTINUOUS
 10
-10.7468666399
 20
-17.4196357574
 11
-10.594061159
 21
-17.5986545359
  0
LWPOLYLINE
  5
279
100
AcDbEntity
  8
0
100
AcDbPolyline
 62
7
  6
CONTINUOUS
 90
16
 70
0
 10
-8.8760747152
 20
-15.5034841783
 10
-9.6236362337
 20
-14.6250139701
 10
-10.3527616009
 20
-13.7245417357
 10
-11.0634508168
 20
-12.8020674749
 10
-11.7567962205
 20
-11.8560253216
 10
-12.4317054729
 20
-10.887981142
 10
-13.0849015562
 20
-9.9026325347
 10
-13.7162785391
 20
-8.8998949852
 10
-14.3259423529
 20
-7.8798530079
 10
-14.9109337741
 20
-6.8474577451
 10
-15.4711323548
 20
-5.8026489701
 10
-16.0066585429
 20
-4.7454869096
 10
-16.5149144589
 20
-3.6811033852
 10
-16.9950341428
 20
-2.6112090042
 10
-17.4478835545
 20
-1.5340931593
 10
-17.8734626941
 20
-0.4497558505
  0
LWPOLYLINE
  5
27A
100
AcDbEntity
  8
0
100
AcDbPolyline
 62
7
  6
CONTINUOUS
 90
6
 70
0
 10
-20.6261154938
 20
-1.2014574135
 10
-20.6168588051
 20
-1.2148624226
 10
-20.6005751039
 20
-1.225008745
 10
-20.5774073844
 20
-1.231523762
 10
-20.5472743241
 20
-1.2346198917
 10
-20.5101759231
 20
-1.2342971341
  0
LWPOLYLINE
  5
27B
100
AcDbEntity
  8
0
100
AcDbPolyline
 62
253
  6
CONTINUOUS
 90
10
 70
0
 10
-14.8663427002
 20
-8.8055800308
 10
-14.3504645252
 20
-9.6523953671
 10
-13.818921369
 20
-10.4879552096
 10
-13.2723120924
 20
-11.3113181789
 10
-12.7112525299
 20
-12.1215566371
 10
-12.1363747967
 20
-12.917757733
 10
-11.548326576
 20
-13.6990244305
 10
-10.9477703893
 20
-14.4644765192
 10
-10.3353828506
 20
-15.2132516062
 10
-9.7118539032
 20
-15.9445060877
  0
LWPOLYLINE
  5
27C
100
AcDbEntity
  8
0
100
AcDbPolyline
 62
7
  6
CONTINUOUS
 90
10
 70
0
 10
-15.8026378394
 20
-4.5029146474
 10
-15.251982552
 20
-5.5970472677
 10
-14.6756257775
 20
-6.6759885544
 10
-14.073567516
 20
-7.7397385076
 10
-13.4446358405
 20
-8.7901503832
 10
-12.790002678
 20
-9.8253709253
 10
-12.1131838091
 20
-10.839840366
 10
-11.4153511608
 20
-11.8317054494
 10
-10.6953328062
 20
-12.8028194314
 10
-9.9531287452
 20
-13.753182312
  0
LINE
  5
27D
100
AcDbEntity
  8
0
100
AcDbLine
 62
7
  6
CONTINUOUS
 10
-17.1862961751
 20
-1.3967431785
 11
-17.0739818128
 21
-1.6723720332
  0
LINE
  5
27E
100
AcDbEntity
  8
0
100
AcDbLine
 62
7
  6
CONTINUOUS
 10
-17.2966920219
 20
-1.1208867055
 11
-17.1862961751
 21
-1.3967431785
  0
LWPOLYLINE
  5
27F
100
AcDbEntity
  8
0
100
AcDbPolyline
 62
253
  6
CONTINUOUS
 90
10
 70
0
 10
-18.6703794731
 20
-0.9557993138
 10
-18.3219159826
 20
-1.8465680692
 10
-17.9538891475
 20
-2.734946124
 10
-17.5667017438
 20
-3.61996122
 10
-17.1607775166
 20
-4.5006447795
 10
-16.7365607175
 20
-5.3760329653
 10
-16.2945156176
 20
-6.2451677357
 10
-15.8351259994
 20
-7.1070978925
 10
-15.358894628
 20
-7.9608801229
 10
-14.8663427002
 20
-8.8055800308
  0
LINE
  5
280
100
AcDbEntity
  8
0
100
AcDbLine
 62
7
  6
CONTINUOUS
 10
-17.4051648641
 20
-0.8448139875
 11
-17.2966920219
 21
-1.1208867055
  0
LINE
  5
281
100
AcDbEntity
  8
0
100
AcDbLine
 62
253
  6
CONTINUOUS
 10
-20.4923915026
 20
-1.0375396612
 11
-20.417736048
 21
-1.2285055104
  0
LWPOLYLINE
  5
282
100
AcDbEntity
  8
0
100
AcDbPolyline
 62
7
  6
CONTINUOUS
 90
3
 70
0
 10
-17.5642359456
 20
-0.4303819063
 10
-17.5116967441
 20
-0.568570517
 10
-17.4051648641
 20
-0.8448139875
  0
LINE
  5
283
100
AcDbEntity
  8
0
100
AcDbLine
 62
253
  6
CONTINUOUS
 10
-17.2765771654
 20
1.8842633214
 11
-17.3231596074
 21
2.0213117929
  0
LINE
  5
284
100
AcDbEntity
  8
0
100
AcDbLine
 62
7
  6
CONTINUOUS
 10
-17.3457951578
 20
1.9026648057
 11
-17.4022548727
 21
2.0694805034
  0
LINE
  5
285
100
AcDbEntity
  8
0
100
AcDbLine
 62
253
  6
CONTINUOUS
 10
-17.3231596074
 20
2.0213117929
 11
-17.3609127286
 21
2.1555727736
  0
LWPOLYLINE
  5
286
100
AcDbEntity
  8
0
100
AcDbPolyline
 62
7
  6
CONTINUOUS
 90
14
 70
0
 10
-17.4022548727
 20
2.0694805034
 10
-17.4475721581
 20
2.2366107667
 10
-17.4812240089
 20
2.4028512612
 10
-17.502779472
 20
2.5676528315
 10
-17.5116120257
 20
2.7291841119
 10
-17.5073763908
 20
2.8846958973
 10
-17.4899501913
 20
3.0337580624
 10
-17.4592731739
 20
3.1749832094
 10
-17.4162803958
 20
3.3049676163
 10
-17.3621897333
 20
3.4224265192
 10
-17.2975166147
 20
3.5279974306
 10
-17.2229894413
 20
3.6214626639
 10
-17.1401623536
 20
3.7018589558
 10
-17.070421242
 20
3.7555299016
  0
LWPOLYLINE
  5
287
100
AcDbEntity
  8
0
100
AcDbPolyline
 62
253
  6
CONTINUOUS
 90
17
 70
0
 10
-17.3609127286
 20
2.1555727736
 10
-17.3898365292
 20
2.2870462633
 10
-17.4099875647
 20
2.4166333256
 10
-17.4213092795
 20
2.543432897
 10
-17.423632007
 20
2.6647417874
 10
-17.4167766693
 20
2.7804532495
 10
-17.4009223442
 20
2.8906740306
 10
-17.3764365991
 20
2.9930211825
 10
-17.3431448366
 20
3.0873355075
 10
-17.301221654
 20
3.1737762033
 10
-17.2515584119
 20
3.2504379142
 10
-17.1940022078
 20
3.3171246474
 10
-17.1287059441
 20
3.3740323957
 10
-17.0570196883
 20
3.4198437812
 10
-16.979393463
 20
3.4541196779
 10
-16.8953772455
 20
3.4772992118
 10
-16.8049710359
 20
3.4893823829
  0
LWPOLYLINE
  5
288
100
AcDbEntity
  8
0
100
AcDbPolyline
 62
7
  6
CONTINUOUS
 90
10
 70
0
 10
-20.7877097772
 20
27.1678526939
 10
-20.796938119
 20
27.249101749
 10
-20.8050831088
 20
27.3298490091
 10
-20.8121447465
 20
27.4100944742
 10
-20.8181243572
 20
27.4898595941
 10
-20.8230206159
 20
27.569122919
 10
-20.8268295474
 20
27.6478200996
 10
-20.829549827
 20
27.7259296859
 10
-20.8311827795
 20
27.8034731279
 10
-20.831728405
 20
27.8804504255
  0
LWPOLYLINE
  5
289
100
AcDbEntity
  8
0
100
AcDbPolyline
 62
7
  6
CONTINUOUS
 90
4
 70
0
 10
-14.8343177954
 20
-3.0263546263
 10
-14.8464631486
 20
-2.8779415148
 10
-14.8715599682
 20
-2.7290078028
 10
-14.9083743723
 20
-2.5819579748
  0
LWPOLYLINE
  5
28A
100
AcDbEntity
  8
0
100
AcDbPolyline
 62
253
  6
CONTINUOUS
 90
10
 70
0
 10
-14.4815690102
 20
9.7034138641
 10
-14.4758610574
 20
9.6279299137
 10
-14.4587806398
 20
9.5530204419
 10
-14.4304577497
 20
9.4792555547
 10
-14.3911079414
 20
9.4071966477
 10
-14.3410306908
 20
9.3373921325
 10
-14.2806071159
 20
9.2703732638
 10
-14.2102970767
 20
9.2066500954
 10
-14.1306356749
 20
9.1467075993
 10
-14.042229182
 20
9.0910019741
  0
LWPOLYLINE
  5
28B
100
AcDbEntity
  8
0
100
AcDbPolyline
 62
253
  6
CONTINUOUS
 90
10
 70
0
 10
-14.9002754482
 20
-3.2270106484
 10
-14.9028063762
 20
-3.1392237907
 10
-14.9103875717
 20
-3.0489162418
 10
-14.9229843216
 20
-2.9565015044
 10
-14.9405389476
 20
-2.8624027297
 10
-14.96297107
 20
-2.7670507799
 10
-14.9901779761
 20
-2.6708822554
 10
-15.0220350899
 20
-2.5743374952
 10
-15.0583965434
 20
-2.4778585613
 10
-15.0990958435
 20
-2.3818872142
  0
LINE
  5
28C
100
AcDbEntity
  8
0
100
AcDbLine
 62
253
  6
CONTINUOUS
 10
-15.3161343134
 20
10.4603181624
 11
-15.3161343134
 21
25.7134618977
  0
LINE
  5
28D
100
AcDbEntity
  8
0
100
AcDbLine
 62
7
  6
CONTINUOUS
 10
-14.4815690102
 20
9.7034138641
 11
-14.4815690102
 21
24.2679523919
  0
LINE
  5
28E
100
AcDbEntity
  8
0
100
AcDbLine
 62
253
  6
CONTINUOUS
 10
-14.042229182
 20
23.6396960623
 11
-14.042229182
 21
9.0910019741
  0
LWPOLYLINE
  5
28F
100
AcDbEntity
  8
0
100
AcDbPolyline
 62
7
  6
CONTINUOUS
 90
10
 70
0
 10
-15.7437198816
 20
-4.0705094237
 10
-15.7444585622
 20
-4.1227200584
 10
-15.7466543103
 20
-4.1739269225
 10
-15.7503071257
 20
-4.2241300162
 10
-15.7554238452
 20
-4.2733795155
 10
-15.7619976322
 20
-4.3216252443
 10
-15.7700079761
 20
-4.3687166747
 10
-15.7794480402
 20
-4.4146036307
 10
-15.7903246613
 20
-4.4593362883
 10
-15.8026378394
 20
-4.5029146474
  0
LWPOLYLINE
  5
290
100
AcDbEntity
  8
0
100
AcDbPolyline
 62
7
  6
CONTINUOUS
 90
8
 70
0
 10
-12.1325927335
 20
22.5817594792
 10
-12.2147719239
 20
21.8140732671
 10
-12.2805123943
 20
20.8866270931
 10
-12.3149269869
 20
19.9389297292
 10
-12.317967516
 20
18.9723080926
 10
-12.2896297245
 20
17.9881155974
 10
-12.2299532895
 20
16.9877302593
 10
-12.1390217668
 20
15.9725527667
  0
LWPOLYLINE
  5
291
100
AcDbEntity
  8
0
100
AcDbPolyline
 62
253
  6
CONTINUOUS
 90
4
 70
0
 10
-14.9114576975
 20
-3.4016513137
 10
-14.9052500027
 20
-3.3450968089
 10
-14.9015197871
 20
-3.2868395377
 10
-14.9002754482
 20
-3.2270106484
  0
LINE
  5
292
100
AcDbEntity
  8
0
100
AcDbLine
 62
7
  6
CONTINUOUS
 10
-9.7365327643
 20
20.9975227076
 11
-9.6232179704
 21
21.7743928112
  0
LWPOLYLINE
  5
293
100
AcDbEntity
  8
0
100
AcDbPolyline
 62
7
  6
CONTINUOUS
 90
4
 70
0
 10
-9.4856954379
 20
21.7405742468
 10
-9.4606579484
 20
21.9009999238
 10
-9.4483642136
 20
22.0677458244
 10
-9.44722837
 20
22.181049353
  0
LINE
  5
294
100
AcDbEntity
  8
0
100
AcDbLine
 62
7
  6
CONTINUOUS
 10
-9.6232179704
 20
21.7743928112
 11
-9.4830768434
 21
22.5303752221
  0
LWPOLYLINE
  5
295
100
AcDbEntity
  8
0
100
AcDbPolyline
 62
7
  6
CONTINUOUS
 90
4
 70
0
 10
-14.8776180276
 20
-3.4300227653
 10
-14.8503088273
 20
-3.3028583583
 10
-14.8357656481
 20
-3.1684160256
 10
-14.8343177954
 20
-3.0263546263
  0
LWPOLYLINE
  5
296
100
AcDbEntity
  8
0
100
AcDbPolyline
 62
7
  6
CONTINUOUS
 90
3
 70
0
 10
-14.9642696027
 20
-3.6505338882
 10
-14.9165338638
 20
-3.5471026811
 10
-14.8776180276
 20
-3.4300227653
  0
LWPOLYLINE
  5
297
100
AcDbEntity
  8
0
100
AcDbPolyline
 62
253
  6
CONTINUOUS
 90
7
 70
0
 10
-14.9995588519
 20
-3.6983862133
 10
-14.9789741157
 20
-3.654571545
 10
-14.9607001468
 20
-3.6083568322
 10
-14.9447782244
 20
-3.559845953
 10
-14.9312442518
 20
-3.5091476043
 10
-14.9201289657
 20
-3.4563761116
 10
-14.9114576975
 20
-3.4016513137
  0
LWPOLYLINE
  5
298
100
AcDbEntity
  8
0
100
AcDbPolyline
 62
253
  6
CONTINUOUS
 90
13
 70
0
 10
-16.7069376041
 20
3.8786720882
 10
-16.7318418747
 20
3.8595093266
 10
-16.7544982009
 20
3.8365504648
 10
-16.7745780252
 20
3.8101908126
 10
-16.7917225669
 20
3.7810195076
 10
-16.8058039091
 20
3.7493907497
 10
-16.8167759056
 20
3.715302556
 10
-16.8243944123
 20
3.6789940841
 10
-16.8283420154
 20
3.6412075082
 10
-16.8284407994
 20
3.6026934279
 10
-16.8246220379
 20
3.5641375114
 10
-16.8168775204
 20
3.5261396963
 10
-16.8052648075
 20
3.4893639773
  0
LINE
  5
299
100
AcDbEntity
  8
0
100
AcDbLine
 62
7
  6
CONTINUOUS
 10
-17.0699410029
 20
3.75571378
 11
-12.3257005927
 21
7.0340089707
  0
LINE
  5
29A
100
AcDbEntity
  8
0
100
AcDbLine
 62
253
  6
CONTINUOUS
 10
-16.7069341941
 20
3.8786723019
 11
-11.965442677
 21
7.1550725484
  0
LWPOLYLINE
  5
29B
100
AcDbEntity
  8
0
100
AcDbPolyline
 62
7
  6
CONTINUOUS
 90
7
 70
0
 10
-9.1145796067
 20
10.6832078872
 10
-9.0764296797
 20
10.7075125883
 10
-8.9613267302
 20
10.7968933578
 10
-8.8577155014
 20
10.9033133929
 10
-8.7662982146
 20
11.0260514359
 10
-8.6876944468
 20
11.1642756343
 10
-8.6224369322
 20
11.3170491789
  0
LWPOLYLINE
  5
29C
100
AcDbEntity
  8
0
100
AcDbPolyline
 62
7
  6
CONTINUOUS
 90
5
 70
0
 10
-17.0699410029
 20
3.75571378
 10
-17.0049117949
 20
3.7954403154
 10
-16.9121295315
 20
3.8366280391
 10
-16.8125302219
 20
3.8644175856
 10
-16.706891743
 20
3.8785678936
  0
LINE
  5
29D
100
AcDbEntity
  8
0
100
AcDbLine
 62
7
  6
CONTINUOUS
 10
8.0775703633
 20
-11.9044754146
 11
7.9950746508
 21
-11.9263302571
  0
LINE
  5
29E
100
AcDbEntity
  8
0
100
AcDbLine
 62
7
  6
CONTINUOUS
 10
8.7787845093
 20
-11.3365320561
 11
8.4900493977
 21
-11.4130239046
  0
LINE
  5
29F
100
AcDbEntity
  8
0
100
AcDbLine
 62
7
  6
CONTINUOUS
 10
11.0297411747
 20
-9.5266704578
 11
10.9472456983
 21
-9.5485254365
  0
LINE
  5
2A0
100
AcDbEntity
  8
0
100
AcDbLine
 62
7
  6
CONTINUOUS
 10
10.9472456983
 20
-9.3748083558
 11
10.9884929645
 21
-9.3638805984
  0
LINE
  5
2A1
100
AcDbEntity
  8
0
100
AcDbLine
 62
7
  6
CONTINUOUS
 10
7.5207237731
 20
-10.1584791023
 11
7.6032196036
 21
-10.1366243371
  0
LINE
  5
2A2
100
AcDbEntity
  8
0
100
AcDbLine
 62
7
  6
CONTINUOUS
 10
7.7446409598
 20
-10.0549694185
 11
7.6621451293
 21
-10.0768241836
  0
LWPOLYLINE
  5
2A3
100
AcDbEntity
  8
0
100
AcDbPolyline
 62
7
  6
CONTINUOUS
 90
6
 70
0
 10
5.2718233431
 20
-13.4501981831
 10
5.1751013536
 20
-13.4406120423
 10
5.0822391897
 20
-13.4428121532
 10
4.9939435887
 20
-13.4567817718
 10
4.9108865334
 20
-13.4824145806
 10
4.8441962562
 20
-13.5136044312
  0
LINE
  5
2A4
100
AcDbEntity
  8
0
100
AcDbLine
 62
7
  6
CONTINUOUS
 10
5.3716690455
 20
-13.4714976192
 11
5.2718233431
 21
-13.4501981831
  0
LWPOLYLINE
  5
2A5
100
AcDbEntity
  8
0
100
AcDbPolyline
 62
7
  6
CONTINUOUS
 90
4
 70
0
 10
14.1750601724
 20
-17.4340380668
 10
14.0133819477
 20
-17.3768065778
 10
13.8545649773
 20
-17.3353792114
 10
13.699536963
 20
-17.3099979582
  0
LWPOLYLINE
  5
2A6
100
AcDbEntity
  8
0
100
AcDbPolyline
 62
7
  6
CONTINUOUS
 90
6
 70
0
 10
14.8465430838
 20
-19.7483611967
 10
14.0249528748
 20
-19.3779740923
 10
13.1882079534
 20
-18.9643851317
 10
12.3509624686
 20
-18.5142006592
 10
11.5120317442
 20
-18.0266809993
 10
10.6726004564
 20
-17.5025658276
  0
LWPOLYLINE
  5
2A7
100
AcDbEntity
  8
0
100
AcDbPolyline
 62
7
  6
CONTINUOUS
 90
3
 70
0
 10
14.503211527
 20
-22.5702692757
 10
14.6910013739
 20
-22.6692296006
 10
14.8465430838
 20
-22.7353928684
  0
LWPOLYLINE
  5
2A8
100
AcDbEntity
  8
0
100
AcDbPolyline
 62
7
  6
CONTINUOUS
 90
6
 70
0
 10
13.9376122587
 20
-23.5614149229
 10
14.160179784
 20
-23.6790613628
 10
14.3784309961
 20
-23.7744110873
 10
14.592365895
 20
-23.8474640963
 10
14.8033225525
 20
-23.8983731634
 10
14.8465430838
 20
-23.9043576726
  0
LWPOLYLINE
  5
2A9
100
AcDbEntity
  8
0
100
AcDbPolyline
 62
7
  6
CONTINUOUS
 90
10
 70
0
 10
10.092738533
 20
-19.4567376058
 10
10.4098685173
 20
-19.6372537863
 10
10.7269350089
 20
-19.8125524296
 10
11.0438745278
 20
-19.9825984394
 10
11.3606236195
 20
-20.1473577705
 10
11.6771188675
 20
-20.3067974365
 10
11.9932969062
 20
-20.4608855159
 10
12.3090944336
 20
-20.6095911587
 10
12.6244482236
 20
-20.7528845924
 10
12.9392951392
 20
-20.8907371283
  0
LWPOLYLINE
  5
2AA
100
AcDbEntity
  8
0
100
AcDbPolyline
 62
7
  6
CONTINUOUS
 90
10
 70
0
 10
9.5271392647
 20
-20.4478832531
 10
9.8222088638
 20
-20.616064326
 10
10.1171332129
 20
-20.7797943399
 10
10.411912312
 20
-20.9390732946
 10
10.7065949298
 20
-21.0939260934
 10
11.0011322976
 20
-21.244327833
 10
11.2953781092
 20
-21.3902038041
 10
11.589283596
 20
-21.5315291036
 10
11.8828975265
 20
-21.6683286347
 10
12.1762199009
 20
-21.8006023972
  0
LINE
  5
2AB
100
AcDbEntity
  8
0
100
AcDbLine
 62
253
  6
CONTINUOUS
 10
14.8465430838
 20
-25.6604554396
 11
0.88358475
 21
-17.5984182946
  0
LINE
  5
2AC
100
AcDbEntity
  8
0
100
AcDbLine
 62
7
  6
CONTINUOUS
 10
14.8465430838
 20
-24.6968400593
 11
0.6454112811
 21
-16.4972845384
  0
LINE
  5
2AD
100
AcDbEntity
  8
0
100
AcDbLine
 62
253
  6
CONTINUOUS
 10
0.3347511093
 20
-15.8106583241
 11
14.8465430838
 21
-24.1895851347
  0
LWPOLYLINE
  5
2AE
100
AcDbEntity
  8
0
100
AcDbPolyline
 62
253
  6
CONTINUOUS
 90
3
 70
0
 10
0.3347511093
 20
-15.8106583241
 10
-0.3743973543
 20
-15.3807587821
 10
-0.7200032456
 20
-15.1517359312
  0
LWPOLYLINE
  5
2AF
100
AcDbEntity
  8
0
100
AcDbPolyline
 62
253
  6
CONTINUOUS
 90
5
 70
0
 10
0.88358475
 20
-17.5984182946
 10
0.063298486
 20
-17.1007999178
 10
-0.7548832244
 20
-16.5564675099
 10
-1.5688612269
 20
-15.9668176283
 10
-1.8992004859
 20
-15.7077380859
  0
LWPOLYLINE
  5
2B0
100
AcDbEntity
  8
0
100
AcDbPolyline
 62
7
  6
CONTINUOUS
 90
4
 70
0
 10
0.6453750409
 20
-16.4972636158
 10
-0.1372387583
 20
-16.0225263066
 10
-0.914219016
 20
-15.5056405335
 10
-1.1335834003
 20
-15.3467427115
  0
LWPOLYLINE
  5
2B1
100
AcDbEntity
  8
0
100
AcDbPolyline
 62
7
  6
CONTINUOUS
 90
6
 70
0
 10
-13.2970517603
 20
-6.8254716323
 10
-13.3132074923
 20
-6.8155819634
 10
-13.3298117147
 20
-6.8060311219
 10
-13.346862755
 20
-6.7967912879
 10
-13.3643434616
 20
-6.7878767871
 10
-13.3822436331
 20
-6.7792803977
  0
LWPOLYLINE
  5
2B2
100
AcDbEntity
  8
0
100
AcDbPolyline
 62
253
  6
CONTINUOUS
 90
19
 70
0
 10
1.1150932753
 20
-16.7684206217
 10
1.144946695
 20
-16.79037665
 10
1.1702337921
 20
-16.8190641367
 10
1.1905288072
 20
-16.8540068002
 10
1.2054997282
 20
-16.8946330034
 10
1.2149016413
 20
-16.94027813
 10
1.2185807379
 20
-16.9901954578
 10
1.2164768305
 20
-17.0435683745
 10
1.2086243376
 20
-17.0995237366
 10
1.1951517204
 20
-17.1571461539
 10
1.1762793814
 20
-17.215492964
 10
1.152316059
 20
-17.2736096542
 10
1.1236537761
 20
-17.3305454763
 10
1.0907614276
 20
-17.3853690002
 10
1.0541771092
 20
-17.4371833516
 10
1.0144993146
 20
-17.4851408843
 10
0.9723771445
 20
-17.5284570466
 10
0.9284996882
 20
-17.5664232167
 10
0.88358475
 20
-17.5984182946
  0
LWPOLYLINE
  5
2B3
100
AcDbEntity
  8
0
100
AcDbPolyline
 62
7
  6
CONTINUOUS
 90
5
 70
0
 10
-13.2367805437
 20
-6.8692118536
 10
-13.2511846558
 20
-6.8576456955
 10
-13.2660353681
 20
-6.84649928
 10
-13.2813286136
 20
-6.8357689471
 10
-13.2970517603
 20
-6.8254716323
  0
LWPOLYLINE
  5
2B4
100
AcDbEntity
  8
0
100
AcDbPolyline
 62
7
  6
CONTINUOUS
 90
12
 70
0
 10
12.4680630556
 20
-29.3725778718
 10
12.6953027339
 20
-29.5594738219
 10
12.9227388783
 20
-29.7264255642
 10
13.1503714885
 20
-29.8734330987
 10
13.3794856814
 20
-30.0010635701
 10
13.6087963403
 20
-30.1087498338
 10
13.834448115
 20
-30.1947904555
 10
14.0563723101
 20
-30.2588322183
 10
14.2746376209
 20
-30.3012283391
 10
14.4855947841
 20
-30.3213370353
 10
14.6891228846
 20
-30.3187976584
 10
14.8465430838
 20
-30.2988800098
  0
LWPOLYLINE
  5
2B5
100
AcDbEntity
  8
0
100
AcDbPolyline
 62
253
  6
CONTINUOUS
 90
7
 70
0
 10
13.0388718755
 20
-27.8290422068
 10
13.0659444009
 20
-27.8517512981
 10
13.0923634977
 20
-27.8781392834
 10
13.1175200354
 20
-27.907718066
 10
13.1409011788
 20
-27.9399716154
 10
13.1620822719
 20
-27.9744087903
 10
13.1806264166
 20
-28.0104376901
  0
LINE
  5
2B6
100
AcDbEntity
  8
0
100
AcDbLine
 62
7
  6
CONTINUOUS
 10
-13.2150674636
 20
-6.8882530691
 11
-13.2367805437
 21
-6.8692118536
  0
LINE
  5
2B7
100
AcDbEntity
  8
0
100
AcDbLine
 62
7
  6
CONTINUOUS
 10
-12.0999685499
 20
-8.0554632674
 11
-12.0999987596
 21
-8.0554327358
  0
LINE
  5
2B8
100
AcDbEntity
  8
0
100
AcDbLine
 62
253
  6
CONTINUOUS
 10
-12.4014871563
 20
-7.8167441896
 11
-12.1142775804
 21
-8.1105460919
  0
LWPOLYLINE
  5
2B9
100
AcDbEntity
  8
0
100
AcDbPolyline
 62
7
  6
CONTINUOUS
 90
5
 70
0
 10
-12.3239994039
 20
-7.8260200618
 10
-12.4942758067
 20
-7.649842984
 10
-12.6634699162
 20
-7.4732255585
 10
-12.8315726992
 20
-7.2961780164
 10
-12.9985751142
 20
-7.1187106472
  0
LINE
  5
2BA
100
AcDbEntity
  8
0
100
AcDbLine
 62
253
  6
CONTINUOUS
 10
-12.6856200991
 20
-7.5217355569
 11
-12.4014871563
 21
-7.8167441896
  0
LINE
  5
2BB
100
AcDbEntity
  8
0
100
AcDbLine
 62
253
  6
CONTINUOUS
 10
-12.9666409556
 20
-7.2255769079
 11
-12.6856200991
 21
-7.5217355569
  0
LWPOLYLINE
  5
2BC
100
AcDbEntity
  8
0
100
AcDbPolyline
 62
7
  6
CONTINUOUS
 90
3
 70
0
 10
-13.1880053428
 20
-6.9154230107
 10
-13.1942624408
 20
-6.908772934
 10
-13.2150674636
 20
-6.8882530691
  0
LINE
  5
2BD
100
AcDbEntity
  8
0
100
AcDbLine
 62
7
  6
CONTINUOUS
 10
-12.9985751142
 20
-7.1187106472
 11
-13.1879877073
 21
-6.915485298
  0
LWPOLYLINE
  5
2BE
100
AcDbEntity
  8
0
100
AcDbPolyline
 62
253
  6
CONTINUOUS
 90
3
 70
0
 10
-13.3822440778
 20
-6.7792796167
 10
-13.2445049275
 20
-6.9283088927
 10
-12.9666409556
 20
-7.2255769079
  0
LWPOLYLINE
  5
2BF
100
AcDbEntity
  8
0
100
AcDbPolyline
 62
253
  6
CONTINUOUS
 90
10
 70
0
 10
-5.7255189617
 20
-16.8506019076
 10
-5.7153884322
 20
-16.8616699368
 10
-5.7048140215
 20
-16.8722896618
 10
-5.6938370849
 20
-16.8824428355
 10
-5.6825330477
 20
-16.892085366
 10
-5.6709105586
 20
-16.9012342688
 10
-5.6588991774
 20
-16.9099550414
 10
-5.6464908678
 20
-16.9182503808
 10
-5.6337521017
 20
-16.9260727994
 10
-5.6207145775
 20
-16.9334029012
  0
LINE
  5
2C0
100
AcDbEntity
  8
0
100
AcDbLine
 62
7
  6
CONTINUOUS
 10
-6.3945315448
 20
-16.4199471495
 11
-6.4110815742
 21
-16.4012060964
  0
LINE
  5
2C1
100
AcDbEntity
  8
0
100
AcDbLine
 62
253
  6
CONTINUOUS
 10
-6.3819373529
 20
-16.3436880705
 11
-6.3996849489
 21
-16.3235901153
  0
LINE
  5
2C2
100
AcDbEntity
  8
0
100
AcDbLine
 62
7
  6
CONTINUOUS
 10
-8.5055181156
 20
-13.6877000243
 11
-8.8461744569
 21
-13.2671749127
  0
LWPOLYLINE
  5
2C3
100
AcDbEntity
  8
0
100
AcDbPolyline
 62
253
  6
CONTINUOUS
 90
10
 70
0
 10
-8.8853637046
 20
-13.3945538063
 10
-9.1821488018
 20
-13.0224475172
 10
-9.4760205402
 20
-12.6463881665
 10
-9.7668986736
 20
-12.2664784432
 10
-10.0547037647
 20
-11.8828220987
 10
-10.3393572321
 20
-11.4955238856
 10
-10.6207813707
 20
-11.1046895284
 10
-10.8988993401
 20
-10.7104257384
 10
-11.1736351869
 20
-10.3128401859
 10
-11.444913889
 20
-9.9120414373
  0
LWPOLYLINE
  5
2C4
100
AcDbEntity
  8
0
100
AcDbPolyline
 62
7
  6
CONTINUOUS
 90
8
 70
0
 10
-8.8461744569
 20
-13.2671749127
 10
-9.2166091918
 20
-12.798740612
 10
-9.5824772178
 20
-12.3241557714
 10
-9.9436198782
 20
-11.8436225056
 10
-10.2998782494
 20
-11.3573487594
 10
-10.6510934916
 20
-10.8655482325
 10
-10.9971114678
 20
-10.3684340636
 10
-11.3377825384
 20
-9.8662187164
  0
LWPOLYLINE
  5
2C5
100
AcDbEntity
  8
0
100
AcDbPolyline
 62
253
  6
CONTINUOUS
 90
9
 70
0
 10
-5.6798531683
 20
-16.9692626163
 10
-5.6893658411
 20
-16.9571490473
 10
-5.697395888
 20
-16.9445572785
 10
-5.7048154783
 20
-16.9307854815
 10
-5.7111444724
 20
-16.9159594399
 10
-5.715996154
 20
-16.901120916
 10
-5.7199499303
 20
-16.8860231512
 10
-5.7232503771
 20
-16.8693841207
 10
-5.7255187369
 20
-16.8506009365
  0
LWPOLYLINE
  5
2C6
100
AcDbEntity
  8
0
100
AcDbPolyline
 62
7
  6
CONTINUOUS
 90
3
 70
0
 10
-8.4762659507
 20
-13.7246484542
 10
-8.4910541233
 20
-13.7057955455
 10
-8.5055181156
 20
-13.6877000243
  0
LWPOLYLINE
  5
2C7
100
AcDbEntity
  8
0
100
AcDbPolyline
 62
7
  6
CONTINUOUS
 90
5
 70
0
 10
-17.3369010275
 20
1.8789591805
 10
-17.3313130536
 20
1.8708080151
 10
-17.3215478305
 20
1.8647196258
 10
-17.3076496486
 20
1.8608106169
 10
-17.2895700437
 20
1.8589534225
  0
LINE
  5
2C8
100
AcDbEntity
  8
0
100
AcDbLine
 62
7
  6
CONTINUOUS
 10
-11.3377825384
 20
-9.8662187164
 11
-11.4922228071
 21
-9.6338757963
  0
LWPOLYLINE
  5
2C9
100
AcDbEntity
  8
0
100
AcDbPolyline
 62
7
  6
CONTINUOUS
 90
9
 70
0
 10
-12.0722737363
 20
-8.0907814546
 10
-12.0750471125
 20
-8.0864114492
 10
-12.0785505163
 20
-8.0812250094
 10
-12.0822091561
 20
-8.0761578808
 10
-12.086026277
 20
-8.0712051044
 10
-12.0899985522
 20
-8.066371496
 10
-12.0941144713
 20
-8.0616706952
 10
-12.0983693372
 20
-8.0571068694
 10
-12.3239994039
 20
-7.8260200618
  0
LINE
  5
2CA
100
AcDbEntity
  8
0
100
AcDbLine
 62
7
  6
CONTINUOUS
 10
-8.8670180378
 20
-15.4873341405
 11
-9.9531984121
 21
-13.753223265
  0
LINE
  5
2CB
100
AcDbEntity
  8
0
100
AcDbLine
 62
253
  6
CONTINUOUS
 10
-12.0451453885
 20
-8.2223363789
 11
-12.1142775804
 21
-8.1105460919
  0
LINE
  5
2CC
100
AcDbEntity
  8
0
100
AcDbLine
 62
7
  6
CONTINUOUS
 10
-12.0029594793
 20
-8.2028661437
 11
-12.0722737415
 21
-8.0907814462
  0
LINE
  5
2CD
100
AcDbEntity
  8
0
100
AcDbLine
 62
7
  6
CONTINUOUS
 10
-13.1435480166
 20
-6.9632651687
 11
-13.2220625527
 21
-6.8268688942
  0
LWPOLYLINE
  5
2CE
100
AcDbEntity
  8
0
100
AcDbPolyline
 62
7
  6
CONTINUOUS
 90
9
 70
0
 10
-15.0821625096
 20
-2.1553868935
 10
-15.1582885788
 20
-2.022261384
 10
-15.2426668601
 20
-1.8946672461
 10
-15.3349834755
 20
-1.7732643977
 10
-15.4344993305
 20
-1.6593746646
 10
-15.5403165136
 20
-1.5543778461
 10
-15.6528558885
 20
-1.4584703005
 10
-15.7709250932
 20
-1.3734617812
 10
-15.8911654715
 20
-1.3020184083
  0
LWPOLYLINE
  5
2CF
100
AcDbEntity
  8
0
100
AcDbPolyline
 62
7
  6
CONTINUOUS
 90
8
 70
0
 10
-13.2220625527
 20
-6.8268688942
 10
-13.4660136848
 20
-6.3960457094
 10
-13.70573163
 20
-5.9630040682
 10
-13.9411488375
 20
-5.527866306
 10
-14.1721979231
 20
-5.0907573953
 10
-14.3988117789
 20
-4.6518049793
 10
-14.6209257565
 20
-4.2111352422
 10
-14.8384775972
 20
-3.7688728014
  0
LWPOLYLINE
  5
2D0
100
AcDbEntity
  8
0
100
AcDbPolyline
 62
253
  6
CONTINUOUS
 90
10
 70
0
 10
-13.3822440778
 20
-6.7792796167
 10
-13.5726802358
 20
-6.4418807083
 10
-13.7605072066
 20
-6.1031136437
 10
-13.9456924449
 20
-5.7630371172
 10
-14.1282034325
 20
-5.4217108628
 10
-14.3080089891
 20
-5.0791932105
 10
-14.485079213
 20
-4.7355410483
 10
-14.6593837748
 20
-4.3908130725
 10
-14.8308919872
 20
-4.0450698058
 10
-14.9995740709
 20
-3.6983711329
  0
LWPOLYLINE
  5
2D1
100
AcDbEntity
  8
0
100
AcDbPolyline
 62
253
  6
CONTINUOUS
 90
5
 70
0
 10
-6.394530138
 20
-16.41993812
 10
-6.3994490903
 20
-16.4108876547
 10
-6.4008212876
 20
-16.3984262104
 10
-6.3983517896
 20
-16.3829517406
 10
-6.3920121662
 20
-16.3646530105
  0
LINE
  5
2D2
100
AcDbEntity
  8
0
100
AcDbLine
 62
7
  6
CONTINUOUS
 10
-12.0029594801
 20
-8.2028661425
 11
-11.9906763733
 21
-8.2259061769
  0
LINE
  5
2D3
100
AcDbEntity
  8
0
100
AcDbLine
 62
7
  6
CONTINUOUS
 10
-14.8384775972
 20
-3.7688728014
 11
-14.9306731325
 21
-3.5777388809
  0
LWPOLYLINE
  5
2D4
100
AcDbEntity
  8
0
100
AcDbPolyline
 62
253
  6
CONTINUOUS
 90
9
 70
0
 10
-15.0990958435
 20
-2.3818872142
 10
-15.157227643
 20
-2.2604727223
 10
-15.2217249103
 20
-2.1415205885
 10
-15.2921038078
 20
-2.0259231533
 10
-15.3678363757
 20
-1.9145475914
 10
-15.4483544926
 20
-1.8082294062
 10
-15.5330541378
 20
-1.7077661626
 10
-15.6213002646
 20
-1.6139111585
 10
-15.7124305583
 20
-1.5273688644
  0
LINE
  5
2D5
100
AcDbEntity
  8
0
100
AcDbLine
 62
7
  6
CONTINUOUS
 10
-15.9720849443
 20
-1.2627949056
 11
-16.0607038627
 21
-1.0501671567
  0
LWPOLYLINE
  5
2D6
100
AcDbEntity
  8
0
100
AcDbPolyline
 62
253
  6
CONTINUOUS
 90
7
 70
0
 10
-11.9834908064
 20
-8.2441344555
 10
-11.9844852589
 20
-8.2417414326
 10
-11.9885230488
 20
-8.2359511715
 10
-11.9944051565
 20
-8.2317169044
 10
-12.0028278075
 20
-8.2279902828
 10
-12.0142383796
 20
-8.2245665205
 10
-12.0283710046
 20
-8.2225212738
  0
LINE
  5
2D7
100
AcDbEntity
  8
0
100
AcDbLine
 62
7
  6
CONTINUOUS
 10
-8.4762281558
 20
-13.7246224185
 11
-7.8826307647
 21
-15.1584211187
  0
LWPOLYLINE
  5
2D8
100
AcDbEntity
  8
0
100
AcDbPolyline
 62
7
  6
CONTINUOUS
 90
7
 70
0
 10
-16.0607038627
 20
-1.0501671567
 10
-16.1467767425
 20
-0.8407811171
 10
-16.2317669473
 20
-0.6312600682
 10
-16.3156692936
 20
-0.4216171154
 10
-16.3984785617
 20
-0.2118656514
 10
-16.480189717
 20
-0.0020188019
 10
-16.5607979056
 20
0.2079105813
  0
LINE
  5
2D9
100
AcDbEntity
  8
0
100
AcDbLine
 62
253
  6
CONTINUOUS
 10
-16.0918927264
 20
-1.2664136395
 11
-16.2348210397
 21
-0.919849328
  0
LINE
  5
2DA
100
AcDbEntity
  8
0
100
AcDbLine
 62
253
  6
CONTINUOUS
 10
-16.2348210397
 20
-0.919849328
 11
-16.3747703629
 21
-0.5728978574
  0
LINE
  5
2DB
100
AcDbEntity
  8
0
100
AcDbLine
 62
7
  6
CONTINUOUS
 10
-11.9906763733
 20
-8.2259061769
 11
-11.9834908064
 21
-8.2441344555
  0
LINE
  5
2DC
100
AcDbEntity
  8
0
100
AcDbLine
 62
253
  6
CONTINUOUS
 10
-16.3747703629
 20
-0.5728978574
 11
-16.5117185169
 21
-0.2256148835
  0
LWPOLYLINE
  5
2DD
100
AcDbEntity
  8
0
100
AcDbPolyline
 62
253
  6
CONTINUOUS
 90
3
 70
0
 10
-16.5117185169
 20
-0.2256148835
 10
-16.645646723
 20
0.1219517345
 10
-16.7114710417
 20
0.2958225314
  0
LINE
  5
2DE
100
AcDbEntity
  8
0
100
AcDbLine
 62
7
  6
CONTINUOUS
 10
-16.5607979056
 20
0.2079105813
 11
-16.6385518127
 21
0.4132638166
  0
LINE
  5
2DF
100
AcDbEntity
  8
0
100
AcDbLine
 62
7
  6
CONTINUOUS
 10
-17.336983159
 20
1.8789244003
 11
-17.3458138597
 21
1.9026691933
  0
LINE
  5
2E0
100
AcDbEntity
  8
0
100
AcDbLine
 62
253
  6
CONTINUOUS
 10
-17.2672379065
 20
1.8591524977
 11
-17.2765771654
 21
1.8842633214
  0
LINE
  5
2E1
100
AcDbEntity
  8
0
100
AcDbLine
 62
253
  6
CONTINUOUS
 10
-11.5821864049
 20
-9.5411110525
 11
-11.444913889
 21
-9.9120414373
  0
LWPOLYLINE
  5
2E2
100
AcDbEntity
  8
0
100
AcDbPolyline
 62
7
  6
CONTINUOUS
 90
6
 70
0
 10
-11.4723372634
 20
-9.6877596058
 10
-11.5685524193
 20
-9.4258055835
 10
-11.6493762896
 20
-9.2023979926
 10
-11.7293993526
 20
-8.9780857007
 10
-11.8086166016
 20
-8.7528810675
 10
-11.8870231185
 20
-8.526796394
  0
LINE
  5
2E3
100
AcDbEntity
  8
0
100
AcDbLine
 62
253
  6
CONTINUOUS
 10
-11.7172618587
 20
-9.1675288182
 11
-11.5821864049
 21
-9.5411110525
  0
LINE
  5
2E4
100
AcDbEntity
  8
0
100
AcDbLine
 62
253
  6
CONTINUOUS
 10
-11.8501057655
 20
-8.7913501578
 11
-11.7172618587
 21
-9.1675288182
  0
LINE
  5
2E5
100
AcDbEntity
  8
0
100
AcDbLine
 62
253
  6
CONTINUOUS
 10
-11.980703323
 20
-8.4126310627
 11
-11.8501057655
 21
-8.7913501578
  0
LINE
  5
2E6
100
AcDbEntity
  8
0
100
AcDbLine
 62
7
  6
CONTINUOUS
 10
-11.8870231185
 20
-8.526796394
 11
-11.9834692054
 21
-8.2441972428
  0
LINE
  5
2E7
100
AcDbEntity
  8
0
100
AcDbLine
 62
253
  6
CONTINUOUS
 10
-12.0451453885
 20
-8.2223363789
 11
-11.980703323
 21
-8.4126310627
  0
LWPOLYLINE
  5
2E8
100
AcDbEntity
  8
0
100
AcDbPolyline
 62
7
  6
CONTINUOUS
 90
8
 70
0
 10
-16.6385642957
 20
0.4132585297
 10
-16.6377305278
 20
0.4107614876
 10
-16.6366478847
 20
0.3963226524
 10
-16.6409477532
 20
0.3796390285
 10
-16.6505920601
 20
0.3611920375
 10
-16.6655681142
 20
0.3411421531
 10
-16.6858886068
 20
0.3193289015
 10
-16.7115535377
 20
0.2957522827
  0
LWPOLYLINE
  5
2E9
100
AcDbEntity
  8
0
100
AcDbPolyline
 62
7
  6
CONTINUOUS
 90
4
 70
0
 10
-14.9083743723
 20
-2.5819579748
 10
-14.9564310594
 20
-2.436155315
 10
-15.0147047987
 20
-2.2934835315
 10
-15.0821625096
 20
-2.1553868935
  0
LWPOLYLINE
  5
2EA
100
AcDbEntity
  8
0
100
AcDbPolyline
 62
253
  6
CONTINUOUS
 90
7
 70
0
 10
-14.7710221976
 20
5.3442788213
 10
-14.7992636776
 20
5.4745813735
 10
-14.9846992691
 20
6.5045969342
 10
-15.1294226647
 20
7.5207637368
 10
-15.2330625574
 20
8.52047467
 10
-15.2953530451
 20
9.5011648423
 10
-15.3161343134
 20
10.4603181624
  0
LWPOLYLINE
  5
2EB
100
AcDbEntity
  8
0
100
AcDbPolyline
 62
7
  6
CONTINUOUS
 90
6
 70
0
 10
-14.1373408973
 20
5.782155948
 10
-14.168648988
 20
5.9561688934
 10
-14.3048239224
 20
6.9129333014
 10
-14.4027100847
 20
7.8578296091
 10
-14.4617828454
 20
8.7887153697
 10
-14.4815690102
 20
9.7034138641
  0
LWPOLYLINE
  5
2EC
100
AcDbEntity
  8
0
100
AcDbPolyline
 62
7
  6
CONTINUOUS
 90
10
 70
0
 10
-19.7192386764
 20
26.3774640115
 10
-19.7150055252
 20
26.3502477632
 10
-19.7129360304
 20
26.3244174191
 10
-19.7130301919
 20
26.2999729793
 10
-19.7153334285
 20
26.2766918153
 10
-19.7198003215
 20
26.2547965556
 10
-19.7262946141
 20
26.2349550855
 10
-19.7347708876
 20
26.2173900334
 10
-19.7452745608
 20
26.2018787709
 10
-19.7578056336
 20
26.1884212979
  0
LWPOLYLINE
  5
2ED
100
AcDbEntity
  8
0
100
AcDbPolyline
 62
253
  6
CONTINUOUS
 90
5
 70
0
 10
-13.80954395
 20
6.0086653705
 10
-13.8862228071
 20
6.5620475081
 10
-13.9725196387
 20
7.418965378
 10
-14.0245217637
 20
8.2619502
 10
-14.042229182
 20
9.0910019741
  0
LWPOLYLINE
  5
2EE
100
AcDbEntity
  8
0
100
AcDbPolyline
 62
7
  6
CONTINUOUS
 90
4
 70
0
 10
-11.4445208589
 20
-9.8182502486
 10
-11.4499741543
 20
-9.7733652874
 10
-11.4590609212
 20
-9.7301233788
 10
-11.4722537898
 20
-9.6878405579
  0
LWPOLYLINE
  5
2EF
100
AcDbEntity
  8
0
100
AcDbPolyline
 62
7
  6
CONTINUOUS
 90
8
 70
0
 10
-10.194525369
 20
17.0400265534
 10
-10.2861915365
 20
18.0585341521
 10
-10.3464143458
 20
19.0594647321
 10
-10.3751937971
 20
20.0428182934
 10
-10.3724816872
 20
21.0099349063
 10
-10.3383262192
 20
21.9594745006
 10
-10.2728720024
 20
22.8874168647
 10
-10.1942602384
 20
23.6230998085
  0
LWPOLYLINE
  5
2F0
100
AcDbEntity
  8
0
100
AcDbPolyline
 62
7
  6
CONTINUOUS
 90
4
 70
0
 10
-9.798747178
 20
14.8522488766
 10
-9.8600192904
 20
15.6758004087
 10
-9.8972449113
 20
16.4855233513
 10
-9.9073788667
 20
16.9190241172
  0
LWPOLYLINE
  5
2F1
100
AcDbEntity
  8
0
100
AcDbPolyline
 62
7
  6
CONTINUOUS
 90
14
 70
0
 10
-8.4928483767
 20
11.4643576056
 10
-8.500739021
 20
11.6604589432
 10
-8.5259951536
 20
11.9200542606
 10
-8.5679275596
 20
12.1878110054
 10
-8.6258163691
 20
12.458887454
 10
-8.6999480845
 20
12.7333517185
 10
-8.7900362035
 20
13.0111356869
 10
-8.8945013496
 20
13.2871933003
 10
-9.013606096
 20
13.5615071515
 10
-9.1470878694
 20
13.8340946477
 10
-9.292579574
 20
14.0999619521
 10
-9.4492921776
 20
14.3574444522
 10
-9.6180147122
 20
14.6082067603
 10
-9.798747178
 20
14.8522488766
  0
LWPOLYLINE
  5
2F2
100
AcDbEntity
  8
0
100
AcDbPolyline
 62
7
  6
CONTINUOUS
 90
8
 70
0
 10
-9.44722837
 20
22.181049353
 10
-9.4488142336
 20
22.2408119486
 10
-9.4622487
 20
22.4215009381
 10
-9.4884269213
 20
22.6085101512
 10
-9.5266268222
 20
22.7979316629
 10
-9.5770598978
 20
22.9897824304
 10
-9.6395146532
 20
23.1840454966
 10
-9.6972102121
 20
23.3361093528
  0
LWPOLYLINE
  5
2F3
100
AcDbEntity
  8
0
100
AcDbPolyline
 62
7
  6
CONTINUOUS
 90
6
 70
0
 10
-9.9172544752
 20
17.5660607059
 10
-9.9189965653
 20
17.7027020412
 10
-9.9141610541
 20
18.5522900896
 10
-9.8821033408
 20
19.3853745697
 10
-9.8228670445
 20
20.2008219527
 10
-9.7365327643
 20
20.9975227076
  0
LINE
  5
2F4
100
AcDbEntity
  8
0
100
AcDbLine
 62
7
  6
CONTINUOUS
 10
-9.9073788667
 20
16.9190241172
 11
-9.9104240406
 21
17.2814177045
  0
LINE
  5
2F5
100
AcDbEntity
  8
0
100
AcDbLine
 62
253
  6
CONTINUOUS
 10
-9.4830768434
 20
22.5303752221
 11
-9.4856954379
 21
21.7405742467
  0
LWPOLYLINE
  5
2F6
100
AcDbEntity
  8
0
100
AcDbPolyline
 62
7
  6
CONTINUOUS
 90
7
 70
0
 10
-9.9104240406
 20
17.2814177045
 10
-9.8995132361
 20
18.0644393645
 10
-9.86455594
 20
18.8336324352
 10
-9.8056824795
 20
19.5861292276
 10
-9.7229362968
 20
20.3209738455
 10
-9.6162739496
 20
21.0391221853
 10
-9.4856954379
 20
21.7405742468
  0
LWPOLYLINE
  5
2F7
100
AcDbEntity
  8
0
100
AcDbPolyline
 62
253
  6
CONTINUOUS
 90
37
 70
0
 10
-7.2949310597
 20
13.3680648615
 10
-7.2862812502
 20
13.579809886
 10
-7.2620623003
 20
13.7776806296
 10
-7.22227421
 20
13.9616770922
 10
-7.1663245251
 20
14.132999129
 10
-7.0948056998
 20
14.290446885
 10
-7.0094950968
 20
14.4304207947
 10
-6.9100449405
 20
14.5524416464
 10
-6.7968030065
 20
14.6569886518
 10
-6.672589984
 20
14.7418998815
 10
-6.5374116534
 20
14.8067188017
 10
-6.3912622342
 20
14.8519019461
 10
-6.2369450743
 20
14.8766569865
 10
-6.0740305435
 20
14.8806149189
 10
-5.902948272
 20
14.8641447474
 10
-5.7277904971
 20
14.8275611564
 10
-5.5485676098
 20
14.7703780958
 10
-5.3652692192
 20
14.6930816157
 10
-5.1819563897
 20
14.5974445507
 10
-4.9986865827
 20
14.4831371129
 10
-4.8154023368
 20
14.3504890903
 10
-4.6359923318
 20
14.202262681
 10
-4.4604480511
 20
14.0380600889
 10
-4.2887780114
 20
13.8582791101
 10
-4.1248964424
 20
13.6668753323
 10
-3.9690554131
 20
13.4637761495
 10
-3.8210028545
 20
13.2490541677
 10
-3.6838967895
 20
13.0268827922
 10
-3.5577519387
 20
12.796699519
 10
-3.4425535814
 20
12.5590668521
 10
-3.341415578
 20
12.3198457095
 10
-3.2547755982
 20
12.0789328935
 10
-3.1821959724
 20
11.8364316018
 10
-3.1254775518
 20
11.5985123457
 10
-3.0852206202
 20
11.3672319621
 10
-3.0608248938
 20
11.1405336141
 10
-3.0522903726
 20
10.9184173016
  0
LWPOLYLINE
  5
2F8
100
AcDbEntity
  8
0
100
AcDbPolyline
 62
7
  6
CONTINUOUS
 90
3
 70
0
 10
-11.4449136814
 20
-9.9120417472
 10
-11.4428749471
 20
-9.8644806211
 10
-11.4445208589
 20
-9.8182502486
  0
LINE
  5
2F9
100
AcDbEntity
  8
0
100
AcDbLine
 62
7
  6
CONTINUOUS
 10
-8.5336363325
 20
11.6620110489
 11
-8.5154956126
 21
11.812134662
  0
LWPOLYLINE
  5
2FA
100
AcDbEntity
  8
0
100
AcDbPolyline
 62
253
  6
CONTINUOUS
 90
5
 70
0
 10
-12.0999336687
 20
-8.0855267183
 10
-12.0974027929
 20
-8.073209094
 10
-12.0971274478
 20
-8.06327486
 10
-12.0989888362
 20
-8.0566781599
 10
-12.0999685499
 20
-8.0554632674
  0
LWPOLYLINE
  5
2FB
100
AcDbEntity
  8
0
100
AcDbPolyline
 62
7
  6
CONTINUOUS
 90
3
 70
0
 10
-8.6224369322
 20
11.3170491789
 10
-8.5709679511
 20
11.4833366528
 10
-8.5336363325
 20
11.6620110489
  0
LINE
  5
2FC
100
AcDbEntity
  8
0
100
AcDbLine
 62
253
  6
CONTINUOUS
 10
-20.8784523263
 20
-31.4804393393
 11
-21.2320057169
 21
-32.3916606371
  0
LWPOLYLINE
  5
2FD
100
AcDbEntity
  8
0
100
AcDbPolyline
 62
7
  6
CONTINUOUS
 90
3
 70
0
 10
-14.9641468658
 20
-3.6503030423
 10
-14.9781629332
 20
-3.6728201058
 10
-14.9995629425
 20
-3.6983942306
  0
LINE
  5
2FE
100
AcDbEntity
  8
0
100
AcDbLine
 62
7
  6
CONTINUOUS
 10
-14.9995588519
 20
-3.6983862133
 11
-15.0856132117
 21
-3.7873397996
  0
LINE
  5
2FF
100
AcDbEntity
  8
0
100
AcDbLine
 62
7
  6
CONTINUOUS
 10
-15.0856132117
 20
-3.7873397996
 11
-15.2600830042
 21
-3.9653462856
  0
LINE
  5
300
100
AcDbEntity
  8
0
100
AcDbLine
 62
7
  6
CONTINUOUS
 10
-15.2600830042
 20
-3.9653462856
 11
-15.4378345818
 21
-4.1439880874
  0
LINE
  5
301
100
AcDbEntity
  8
0
100
AcDbLine
 62
7
  6
CONTINUOUS
 10
-15.4378345818
 20
-4.1439880874
 11
-15.6186815112
 21
-4.3230912179
  0
LINE
  5
302
100
AcDbEntity
  8
0
100
AcDbLine
 62
7
  6
CONTINUOUS
 10
-15.6186815112
 20
-4.3230912179
 11
-15.8026260155
 21
-4.5028756657
  0
LINE
  5
303
100
AcDbEntity
  8
0
100
AcDbLine
 62
7
  6
CONTINUOUS
 10
-17.5642359456
 20
-0.4303819063
 11
-16.7115535377
 21
0.2957522827
  0
LWPOLYLINE
  5
304
100
AcDbEntity
  8
0
100
AcDbPolyline
 62
7
  6
CONTINUOUS
 90
8
 70
0
 10
-20.4922563216
 20
-1.0374461842
 10
-20.5320625782
 20
-1.06684078
 10
-20.5650149919
 20
-1.0943111499
 10
-20.5911135628
 20
-1.1198572938
 10
-20.6104767791
 20
-1.1437650143
 10
-20.6229861525
 20
-1.1657485088
 10
-20.6282862182
 20
-1.1849503699
 10
-20.6261154938
 20
-1.2014574135
  0
LINE
  5
305
100
AcDbEntity
  8
0
100
AcDbLine
 62
7
  6
CONTINUOUS
 10
-17.3493213796
 20
1.9130833696
 11
-21.7800413607
 21
-1.1501211112
  0
LINE
  5
306
100
AcDbEntity
  8
0
100
AcDbLine
 62
7
  6
CONTINUOUS
 10
-20.4922563216
 20
-1.0374461842
 11
-16.2063892209
 21
1.9256177157
  0
LINE
  5
307
100
AcDbEntity
  8
0
100
AcDbLine
 62
7
  6
CONTINUOUS
 10
-17.6413234267
 20
0.1948483165
 11
-19.4824055846
 21
-0.9741681678
  0
LINE
  5
308
100
AcDbEntity
  8
0
100
AcDbLine
 62
7
  6
CONTINUOUS
 10
-18.6692712694
 20
-0.9550955841
 11
-17.8734626941
 21
-0.4497558505
  0
LINE
  5
309
100
AcDbEntity
  8
0
100
AcDbLine
 62
253
  6
CONTINUOUS
 10
-11.9743633986
 20
4.1751814588
 11
-6.7641883064
 21
7.4809460778
  0
LWPOLYLINE
  5
30A
100
AcDbEntity
  8
0
100
AcDbPolyline
 62
7
  6
CONTINUOUS
 90
19
 70
0
 10
-18.6692712694
 20
-0.9550955841
 10
-18.7973183525
 20
-1.0337153184
 10
-18.9305326229
 20
-1.110765921
 10
-19.0689140806
 20
-1.186247392
 10
-19.2134571551
 20
-1.2606299202
 10
-19.363167417
 20
-1.3334433168
 10
-19.5150615777
 20
-1.4032770151
 10
-19.6692144168
 20
-1.470094339
 10
-19.8255511547
 20
-1.5339319646
 10
-19.9808641653
 20
-1.5934893537
 10
-20.1351340351
 20
-1.6486850375
 10
-20.2883801775
 20
-1.6996004847
 10
-20.4374532067
 20
-1.7451795634
 10
-20.5823196291
 20
-1.7853279661
 10
-20.7230129384
 20
-1.8201400002
 10
-20.8564842301
 20
-1.8488424562
 10
-20.981717203
 20
-1.8711775974
 10
-21.0997281584
 20
-1.8874031605
 10
-21.2105170963
 20
-1.8975191453
  0
LWPOLYLINE
  5
30B
100
AcDbEntity
  8
0
100
AcDbPolyline
 62
7
  6
CONTINUOUS
 90
13
 70
0
 10
-17.6413234267
 20
0.1948483165
 10
-17.5913458679
 20
0.2248804018
 10
-17.5395030168
 20
0.25353464
 10
-17.4857948734
 20
0.2808110311
 10
-17.4294105792
 20
0.3070387973
 10
-17.3711609927
 20
0.3318887163
 10
-17.3134786892
 20
0.3543731221
 10
-17.2563669844
 20
0.3744310028
 10
-17.1998225627
 20
0.3921233701
 10
-17.1462680515
 20
0.4066455937
 10
-17.0965109934
 20
0.4177294633
 10
-17.0497438459
 20
0.4256431891
 10
-17.005966609
 20
0.430386771
  0
LINE
  5
30C
100
AcDbEntity
  8
0
100
AcDbLine
 62
7
  6
CONTINUOUS
 10
5.8501840026
 20
-10.1320026426
 11
6.1389192617
 21
-10.0555108307
  0
LINE
  5
30D
100
AcDbEntity
  8
0
100
AcDbLine
 62
7
  6
CONTINUOUS
 10
6.1126880255
 20
-10.0182704758
 11
5.9916053588
 21
-10.050347724
  0
LINE
  5
30E
100
AcDbEntity
  8
0
100
AcDbLine
 62
7
  6
CONTINUOUS
 10
10.5347664279
 20
-7.8163981724
 11
10.6172619044
 21
-7.7945432028
  0
LINE
  5
30F
100
AcDbEntity
  8
0
100
AcDbLine
 62
7
  6
CONTINUOUS
 10
10.7586832606
 20
-7.7128882841
 11
10.6761877841
 21
-7.7347432537
  0
LWPOLYLINE
  5
310
100
AcDbEntity
  8
0
100
AcDbPolyline
 62
7
  6
CONTINUOUS
 90
11
 70
0
 10
-8.8852948435
 20
-13.3944996809
 10
-8.8788554151
 20
-13.3928018836
 10
-8.8718301719
 20
-13.3920029785
 10
-8.8642191137
 20
-13.3921029656
 10
-8.8559470018
 20
-13.3931244528
 10
-8.847089075
 20
-13.3950448323
 10
-8.8378710503
 20
-13.3977962806
 10
-8.8283576597
 20
-13.4013862367
 10
-8.8184841713
 20
-13.4058072617
 10
-8.8082821049
 20
-13.4109692155
 10
-8.7977427321
 20
-13.4168724645
  0
LWPOLYLINE
  5
311
100
AcDbEntity
  8
0
100
AcDbPolyline
 62
253
  6
CONTINUOUS
 90
13
 70
0
 10
-2.4660250954
 20
-11.0160328614
 10
-2.4418574073
 20
-11.0121518637
 10
-2.4147320456
 20
-11.0064201586
 10
-2.3850626491
 20
-10.9989209653
 10
-2.3532833175
 20
-10.9897593702
 10
-2.3199055724
 20
-10.9790773615
 10
-2.2855193801
 20
-10.9670617421
 10
-2.2506665741
 20
-10.9539042059
 10
-2.2158936136
 20
-10.9398135576
 10
-2.1818104791
 20
-10.9250417275
 10
-2.1489612431
 20
-10.9098340321
 10
-2.1178185928
 20
-10.8944194491
 10
-2.0888448379
 20
-10.879036169
  0
LINE
  5
312
100
AcDbEntity
  8
0
100
AcDbLine
 62
253
  6
CONTINUOUS
 10
-12.0283710046
 20
-8.2225212738
 11
-12.0451468602
 21
-8.2223401248
  0
LINE
  5
313
100
AcDbEntity
  8
0
100
AcDbLine
 62
7
  6
CONTINUOUS
 10
6.9638771829
 20
-10.4276009596
 11
7.0257490263
 21
-10.4285815746
  0
LINE
  5
314
100
AcDbEntity
  8
0
100
AcDbLine
 62
7
  6
CONTINUOUS
 10
9.9366716275
 20
-8.8260589646
 11
9.9985434708
 21
-8.8270395797
  0
LINE
  5
315
100
AcDbEntity
  8
0
100
AcDbLine
 62
7
  6
CONTINUOUS
 10
10.8235020116
 20
-8.6084919911
 11
10.9472456983
 21
-8.6104532212
  0
LINE
  5
316
100
AcDbEntity
  8
0
100
AcDbLine
 62
7
  6
CONTINUOUS
 10
10.9890882894
 20
-8.5272200655
 11
10.9649233678
 21
-8.5268370724
  0
LINE
  5
317
100
AcDbEntity
  8
0
100
AcDbLine
 62
7
  6
CONTINUOUS
 10
9.9366716275
 20
-8.2354208895
 11
9.9985434708
 21
-8.2364015045
  0
LWPOLYLINE
  5
318
100
AcDbEntity
  8
0
100
AcDbPolyline
 62
253
  6
CONTINUOUS
 90
5
 70
0
 10
-12.0722840758
 20
-8.0907646887
 10
-12.0738173548
 20
-8.0906326388
 10
-12.0789411549
 20
-8.0924522979
 10
-12.0875071813
 20
-8.0964730842
 10
-12.0993648159
 20
-8.102560592
  0
LINE
  5
319
100
AcDbEntity
  8
0
100
AcDbLine
 62
253
  6
CONTINUOUS
 10
-12.0045264922
 20
-8.2026773098
 11
-12.002959365
 21
-8.2028663281
  0
LINE
  5
31A
100
AcDbEntity
  8
0
100
AcDbLine
 62
7
  6
CONTINUOUS
 10
7.8919548332
 20
-11.693073086
 11
7.9744505457
 21
-11.7059616646
  0
LINE
  5
31B
100
AcDbEntity
  8
0
100
AcDbLine
 62
7
  6
CONTINUOUS
 10
7.7063393032
 20
-10.3698814187
 11
7.6238434727
 21
-10.356992772
  0
LINE
  5
31C
100
AcDbEntity
  8
0
100
AcDbLine
 62
7
  6
CONTINUOUS
 10
10.9472456983
 20
-9.5485254365
 11
10.8647492778
 21
-9.5356364522
  0
LINE
  5
31D
100
AcDbEntity
  8
0
100
AcDbLine
 62
7
  6
CONTINUOUS
 10
7.9950746508
 20
-11.9263302571
 11
7.8919548332
 21
-11.9015335817
  0
LINE
  5
31E
100
AcDbEntity
  8
0
100
AcDbLine
 62
7
  6
CONTINUOUS
 10
7.0463730134
 20
-10.6489500776
 11
6.9432531958
 21
-10.6241533992
  0
LINE
  5
31F
100
AcDbEntity
  8
0
100
AcDbLine
 62
7
  6
CONTINUOUS
 10
7.6032196036
 20
-10.1366243371
 11
7.7063393032
 21
-10.1614209474
  0
LINE
  5
320
100
AcDbEntity
  8
0
100
AcDbLine
 62
7
  6
CONTINUOUS
 10
7.8477606594
 20
-10.0797660287
 11
7.7446409598
 21
-10.0549694185
  0
LINE
  5
321
100
AcDbEntity
  8
0
100
AcDbLine
 62
7
  6
CONTINUOUS
 10
5.4542857964
 20
-13.4980510369
 11
5.3716690455
 21
-13.4714976192
  0
LWPOLYLINE
  5
322
100
AcDbEntity
  8
0
100
AcDbPolyline
 62
7
  6
CONTINUOUS
 90
5
 70
0
 10
12.5394358918
 20
-17.9247748645
 10
12.2687246913
 20
-17.8048139135
 10
11.9976099665
 20
-17.6803600475
 10
11.7261419942
 20
-17.5514363457
 10
11.4543711166
 20
-17.4180667164
  0
LINE
  5
323
100
AcDbEntity
  8
0
100
AcDbLine
 62
7
  6
CONTINUOUS
 10
14.2760701787
 20
-17.478926702
 11
14.1750601724
 21
-17.4340380668
  0
LWPOLYLINE
  5
324
100
AcDbEntity
  8
0
100
AcDbPolyline
 62
7
  6
CONTINUOUS
 90
7
 70
0
 10
11.6080344394
 20
-17.4199177329
 10
11.3775148048
 20
-17.3138734601
 10
11.1467976535
 20
-17.2045358267
 10
10.9158829856
 20
-17.0919048327
 10
10.6847377591
 20
-16.975963448
 10
10.4533950159
 20
-16.8567287028
 10
10.2219538822
 20
-16.7342516869
  0
LINE
  5
325
100
AcDbEntity
  8
0
100
AcDbLine
 62
7
  6
CONTINUOUS
 10
-15.8911654715
 20
-1.3020184083
 11
-15.9896573438
 21
-1.2542771653
  0
LWPOLYLINE
  5
326
100
AcDbEntity
  8
0
100
AcDbPolyline
 62
7
  6
CONTINUOUS
 90
6
 70
0
 10
11.4543711166
 20
-17.4180667164
 10
11.1823477319
 20
-17.2802758922
 10
10.9101222855
 20
-17.1380894256
 10
10.6377452599
 20
-16.9915336843
 10
10.3652671659
 20
-16.8406358461
 10
10.092738533
 20
-16.6854238944
  0
LWPOLYLINE
  5
327
100
AcDbEntity
  8
0
100
AcDbPolyline
 62
7
  6
CONTINUOUS
 90
34
 70
0
 10
5.1166662708
 20
-13.2656112401
 10
4.9562963616
 20
-13.181783239
 10
4.7997558766
 20
-13.1157355889
 10
4.6470448159
 20
-13.06746829
 10
4.4970409885
 20
-13.036921251
 10
4.3508665853
 20
-13.0241545631
 10
4.2118881786
 20
-13.0293485001
 10
4.080280923
 20
-13.0529124047
 10
3.9558696638
 20
-13.0944369341
 10
3.8414955093
 20
-13.1528743334
 10
3.7373927239
 20
-13.228605858
 10
3.6433270432
 20
-13.3212502526
 10
3.5614367813
 20
-13.4286159957
 10
3.4920007271
 20
-13.551035234
 10
3.4347400918
 20
-13.6881758209
 10
3.3909568227
 20
-13.8368497957
 10
3.3609579487
 20
-13.9973169467
 10
3.3444364411
 20
-14.1693174857
 10
3.341773161
 20
-14.3488840859
 10
3.3532832766
 20
-14.5361916186
 10
3.3786516197
 20
-14.7310652126
 10
3.4173135467
 20
-14.9290129283
 10
3.4695725327
 20
-15.1301093908
 10
3.5351251025
 20
-15.334279975
 10
3.6124961872
 20
-15.5368088664
 10
3.7019591534
 20
-15.7376694622
 10
3.8032406344
 20
-15.9368883651
 10
3.9140454606
 20
-16.129829569
 10
4.0346003638
 20
-16.3163645336
 10
4.1646786121
 20
-16.4966217991
 10
4.3013048413
 20
-16.6663509799
 10
4.443487263
 20
-16.8241352807
 10
4.5922176655
 20
-16.9713914968
 10
4.7474960488
 20
-17.1081196281
  0
LWPOLYLINE
  5
328
100
AcDbEntity
  8
0
100
AcDbPolyline
 62
7
  6
CONTINUOUS
 90
16
 70
0
 10
13.9376122587
 20
-17.2564800274
 10
13.750302074
 20
-17.1559249628
 10
13.5655513276
 20
-17.0711340637
 10
13.3833600194
 20
-17.0021073302
 10
13.202907266
 20
-16.9486701092
 10
13.0250139508
 20
-16.9109970538
 10
12.8521427246
 20
-16.8896121231
 10
12.6843635979
 20
-16.8847426497
 10
12.5216065602
 20
-16.896161301
 10
12.3661242306
 20
-16.9237100385
 10
12.2180182203
 20
-16.9676139779
 10
12.0771869181
 20
-17.0276480034
 10
11.9455781102
 20
-17.1029787302
 10
11.8238410589
 20
-17.1933283633
 10
11.711326502
 20
-17.2989746975
 10
11.6080344394
 20
-17.4199177329
  0
LINE
  5
329
100
AcDbEntity
  8
0
100
AcDbLine
 62
253
  6
CONTINUOUS
 10
-15.9962054855
 20
-1.3178116495
 11
-16.0918926428
 21
-1.2663950223
  0
LINE
  5
32A
100
AcDbEntity
  8
0
100
AcDbLine
 62
7
  6
CONTINUOUS
 10
12.037394346
 20
-17.6538935218
 11
12.5394358918
 21
-17.9247748645
  0
LINE
  5
32B
100
AcDbEntity
  8
0
100
AcDbLine
 62
7
  6
CONTINUOUS
 10
10.2219538822
 20
-16.7342516869
 11
9.9904474002
 21
-16.6085494303
  0
LINE
  5
32C
100
AcDbEntity
  8
0
100
AcDbLine
 62
7
  6
CONTINUOUS
 10
11.6080344394
 20
-17.4199177329
 11
12.037394346
 21
-17.6538935218
  0
LWPOLYLINE
  5
32D
100
AcDbEntity
  8
0
100
AcDbPolyline
 62
7
  6
CONTINUOUS
 90
3
 70
0
 10
9.9904474002
 20
-16.6085494303
 10
9.7588425277
 20
-16.4796049029
 10
9.5271392647
 20
-16.3474181049
  0
LWPOLYLINE
  5
32E
100
AcDbEntity
  8
0
100
AcDbPolyline
 62
253
  6
CONTINUOUS
 90
10
 70
0
 10
-2.3612209266
 20
-11.0988336067
 10
-2.3747252285
 20
-11.0912286732
 10
-2.3877936735
 20
-11.0831692313
 10
-2.4004007887
 20
-11.0746898072
 10
-2.4124880756
 20
-11.0658520866
 10
-2.4240732835
 20
-11.0566658905
 10
-2.4352380604
 20
-11.0470764971
 10
-2.4459864814
 20
-11.0370769149
 10
-2.4562574158
 20
-11.0267203741
 10
-2.4660253109
 20
-11.0160326131
  0
LINE
  5
32F
100
AcDbEntity
  8
0
100
AcDbLine
 62
7
  6
CONTINUOUS
 10
10.092738533
 20
-16.6854238944
 11
9.7391695785
 21
-16.4776710605
  0
LINE
  5
330
100
AcDbEntity
  8
0
100
AcDbLine
 62
7
  6
CONTINUOUS
 10
9.5271392647
 20
-16.3474181049
 11
9.1837388454
 21
-16.1456238985
  0
LINE
  5
331
100
AcDbEntity
  8
0
100
AcDbLine
 62
7
  6
CONTINUOUS
 10
5.1480356623
 20
-13.2840450017
 11
5.1166662708
 21
-13.2656112401
  0
LINE
  5
332
100
AcDbEntity
  8
0
100
AcDbLine
 62
7
  6
CONTINUOUS
 10
13.9858443271
 20
-17.2849399727
 11
13.9376122587
 21
-17.2564800274
  0
LWPOLYLINE
  5
333
100
AcDbEntity
  8
0
100
AcDbPolyline
 62
7
  6
CONTINUOUS
 90
5
 70
0
 10
9.1837388454
 20
-16.1456238985
 10
9.0744435876
 20
-16.0799332701
 10
8.6224797559
 20
-15.8007510288
 10
8.1712477695
 20
-15.5098713812
 10
7.7205027438
 20
-15.2071232144
  0
LINE
  5
334
100
AcDbEntity
  8
0
100
AcDbLine
 62
7
  6
CONTINUOUS
 10
10.6726004564
 20
-17.5025658276
 11
9.8362226342
 21
-16.9440741708
  0
LWPOLYLINE
  5
335
100
AcDbEntity
  8
0
100
AcDbPolyline
 62
7
  6
CONTINUOUS
 90
19
 70
0
 10
-17.0739818128
 20
-1.6723720332
 10
-16.9541331261
 20
-1.7559984046
 10
-16.83744418
 20
-1.8486811785
 10
-16.7239149746
 20
-1.9504203549
 10
-16.6128193837
 20
-2.0620564533
 10
-16.5048835334
 20
-2.1827489542
 10
-16.4022858023
 20
-2.3099762993
 10
-16.3051357965
 20
-2.4438524198
 10
-16.2133239099
 20
-2.5842633845
 10
-16.1286997022
 20
-2.7283458421
 10
-16.0513986307
 20
-2.876169078
 10
-15.9812852381
 20
-3.0276638068
 10
-15.9198027128
 20
-3.1797588203
 10
-15.8671107201
 20
-3.3324779025
 10
-15.8230495947
 20
-3.4857972696
 10
-15.7885835289
 20
-3.6365743612
 10
-15.7640339201
 20
-3.7837616574
 10
-15.749079371
 20
-3.9284066783
 10
-15.7437198816
 20
-4.0705094237
  0
LWPOLYLINE
  5
336
100
AcDbEntity
  8
0
100
AcDbPolyline
 62
7
  6
CONTINUOUS
 90
5
 70
0
 10
7.7205027438
 20
-15.2071232144
 10
7.2704895634
 20
-14.8926776412
 10
6.8219428827
 20
-14.5670479995
 10
6.3751075864
 20
-14.2304054017
 10
5.9297387897
 20
-13.8825787353
  0
LINE
  5
337
100
AcDbEntity
  8
0
100
AcDbLine
 62
7
  6
CONTINUOUS
 10
9.8362226342
 20
-16.9440741708
 11
9.0040829539
 21
-16.3519457045
  0
LWPOLYLINE
  5
338
100
AcDbEntity
  8
0
100
AcDbPolyline
 62
7
  6
CONTINUOUS
 90
3
 70
0
 10
9.0040829539
 20
-16.3519457045
 10
8.1749967393
 20
-15.7254407531
 10
7.3489639903
 20
-15.0645593167
  0
LWPOLYLINE
  5
339
100
AcDbEntity
  8
0
100
AcDbPolyline
 62
7
  6
CONTINUOUS
 90
10
 70
0
 10
4.7474960488
 20
-17.1081196281
 10
5.2724986834
 20
-17.5327211293
 10
5.799235745
 20
-17.9440952481
 10
6.3277072338
 20
-18.3422419843
 10
6.8582027746
 20
-18.7273637126
 10
7.3904327425
 20
-19.0992580584
 10
7.923528263
 20
-19.4573178977
 10
8.457199711
 20
-19.801340856
 10
8.9917367116
 20
-20.1315293078
 10
9.5271392647
 20
-20.4478832531
  0
LWPOLYLINE
  5
33A
100
AcDbEntity
  8
0
100
AcDbPolyline
 62
7
  6
CONTINUOUS
 90
10
 70
0
 10
5.4327605535
 20
-16.2005897625
 10
5.9441586137
 20
-16.614213949
 10
6.4578032032
 20
-17.0153630628
 10
6.9734161742
 20
-17.4038198746
 10
7.4907183134
 20
-17.7793740282
 10
8.0094294924
 20
-18.1418221544
 10
8.52926882
 20
-18.4909679812
 10
9.049954794
 20
-18.8266224398
 10
9.5712054538
 20
-19.1486037676
 10
10.092738533
 20
-19.4567376058
  0
LWPOLYLINE
  5
33B
100
AcDbEntity
  8
0
100
AcDbPolyline
 62
253
  6
CONTINUOUS
 90
4
 70
0
 10
-15.7124305583
 20
-1.5273688644
 10
-15.8057603043
 20
-1.4487893502
 10
-15.900588956
 20
-1.3787620519
 10
-15.9962054855
 20
-1.3178116495
  0
LWPOLYLINE
  5
33C
100
AcDbEntity
  8
0
100
AcDbPolyline
 62
253
  6
CONTINUOUS
 90
13
 70
0
 10
-2.3612216391
 20
-11.098834882
 10
-2.2623326499
 20
-11.2142026936
 10
-2.176526516
 20
-11.327386777
 10
-2.1038032373
 20
-11.4383871324
 10
-2.0444839732
 20
-11.5475551921
 10
-1.9982475644
 20
-11.6545395237
 10
-1.9641305324
 20
-11.7582858299
 10
-1.9418859672
 20
-11.8586439813
 10
-1.9317607787
 20
-11.9557641073
 10
-1.9335322186
 20
-12.0490422983
 10
-1.9471260373
 20
-12.1382772512
 10
-1.9726164844
 20
-12.2236702692
 10
-2.0100035599
 20
-12.3052213523
  0
LWPOLYLINE
  5
33D
100
AcDbEntity
  8
0
100
AcDbPolyline
 62
7
  6
CONTINUOUS
 90
13
 70
0
 10
-3.5068896327
 20
-11.1454193517
 10
-4.3409989943
 20
-10.170860035
 10
-5.1475887676
 20
-9.1660527145
 10
-5.9266589525
 20
-8.1309973903
 10
-6.6801682333
 20
-7.0627288273
 10
-7.4061579257
 20
-5.9642122606
 10
-8.0987519774
 20
-4.8443433959
 10
-8.7576806517
 20
-3.7029497704
 10
-9.3832136853
 20
-2.540203847
 10
-9.9702842357
 20
-1.3655187187
 10
-10.5172033554
 20
-0.1820320833
 10
-11.0256599919
 20
1.0133937569
 10
-11.4956541452
 20
2.220758802
  0
LWPOLYLINE
  5
33E
100
AcDbEntity
  8
0
100
AcDbPolyline
 62
253
  6
CONTINUOUS
 90
12
 70
0
 10
13.0579733441
 20
-28.1135263023
 10
13.0336879291
 20
-28.0849796227
 10
13.007072279
 20
-28.0576220662
 10
12.9785859667
 20
-28.0318920811
 10
12.948862872
 20
-28.0083064136
 10
12.9182575778
 20
-27.9870936401
 10
12.8868003032
 20
-27.9683127871
 10
12.8547973493
 20
-27.9522798332
 10
12.8230038398
 20
-27.9395080869
 10
12.7921318717
 20
-27.9303714196
 10
12.7627952107
 20
-27.9251138507
 10
12.7355109033
 20
-27.9238944509
  0
LWPOLYLINE
  5
33F
100
AcDbEntity
  8
0
100
AcDbPolyline
 62
253
  6
CONTINUOUS
 90
10
 70
0
 10
-3.7520744787
 20
-9.2865471093
 10
-2.903899164
 20
-10.2773458845
 10
-2.8381842282
 20
-10.36093402
 10
-2.7753810542
 20
-10.4473857545
 10
-2.7152558847
 20
-10.5370791582
 10
-2.658042477
 20
-10.6296361608
 10
-2.6044421028
 20
-10.7239225518
 10
-2.5546885192
 20
-10.8195602608
 10
-2.5085479691
 20
-10.9169273582
 10
-2.4660204524
 20
-11.0160238438
  0
LWPOLYLINE
  5
340
100
AcDbEntity
  8
0
100
AcDbPolyline
 62
253
  6
CONTINUOUS
 90
10
 70
0
 10
-2.6801479571
 20
-9.9125998855
 10
-2.6005820565
 20
-10.0073610149
 10
-2.5237995586
 20
-10.1062700473
 10
-2.4501152961
 20
-10.2089217074
 10
-2.3798326218
 20
-10.3148974257
 10
-2.3132370848
 20
-10.4237621802
 10
-2.2505950445
 20
-10.5350662354
 10
-2.1921595387
 20
-10.6483535405
 10
-2.1381695347
 20
-10.7631636129
 10
-2.0888437031
 20
-10.879028499
  0
LWPOLYLINE
  5
341
100
AcDbEntity
  8
0
100
AcDbPolyline
 62
253
  6
CONTINUOUS
 90
13
 70
0
 10
-2.0888445003
 20
-10.879035684
 10
-1.9817085936
 20
-11.0164932198
 10
-1.8888124723
 20
-11.153381396
 10
-1.8103310883
 20
-11.2885764833
 10
-1.7465335532
 20
-11.4204977154
 10
-1.6969331268
 20
-11.5486207935
 10
-1.6608021253
 20
-11.6734948628
 10
-1.6381772495
 20
-11.7940506739
 10
-1.6288192452
 20
-11.9095718315
 10
-1.6325017883
 20
-12.0210605182
 10
-1.649515988
 20
-12.1281412099
 10
-1.6798794147
 20
-12.2292481344
 10
-1.723376799
 20
-12.3235111233
  0
LWPOLYLINE
  5
342
100
AcDbEntity
  8
0
100
AcDbPolyline
 62
253
  6
CONTINUOUS
 90
12
 70
0
 10
-10.4362133118
 20
2.2910081934
 10
-9.9975921139
 20
1.1629492374
 10
-9.5229277108
 20
0.046011898
 10
-9.0122201022
 20
-1.0598038247
 10
-8.4638800782
 20
-2.1574563197
 10
-7.8794968489
 20
-3.2439871982
 10
-7.2638380443
 20
-4.3105212929
 10
-6.6166450054
 20
-5.3568936118
 10
-5.9381763911
 20
-6.383269147
 10
-5.2339758089
 20
-7.3812677073
 10
-4.5058911278
 20
-8.3480958958
 10
-3.7520744787
 20
-9.2865471093
  0
LWPOLYLINE
  5
343
100
AcDbEntity
  8
0
100
AcDbPolyline
 62
253
  6
CONTINUOUS
 90
13
 70
0
 10
-10.0490703264
 20
2.4165128864
 10
-9.618296201
 20
1.3076879901
 10
-9.1492214019
 20
0.2038890124
 10
-8.643125262
 20
-0.8918735966
 10
-8.1013880842
 20
-1.976611305
 10
-7.5254873774
 20
-3.0473656496
 10
-6.9169938263
 20
-4.1012163047
 10
-6.2775671114
 20
-5.1352888855
 10
-5.6089510811
 20
-6.1467632793
 10
-4.9129689516
 20
-7.132881299
 10
-4.1915187599
 20
-8.0909535615
 10
-3.4465682326
 20
-9.0183668608
 10
-2.6801490869
 20
-9.9125917605
  0
LWPOLYLINE
  5
344
100
AcDbEntity
  8
0
100
AcDbPolyline
 62
253
  6
CONTINUOUS
 90
13
 70
0
 10
-12.0726906024
 20
3.7858733478
 10
-12.0838780842
 20
3.8210195486
 10
-12.0915452664
 20
3.8574073437
 10
-12.0956092931
 20
3.8944592293
 10
-12.0960512258
 20
3.9314187937
 10
-12.0929298027
 20
3.9679012041
 10
-12.0862072589
 20
4.0038712869
 10
-12.0757972228
 20
4.0389435152
 10
-12.0617833269
 20
4.0722721819
 10
-12.0443644628
 20
4.1031159754
 10
-12.0237972437
 20
4.1308724321
 10
-12.0003476738
 20
4.1550557767
 10
-11.9743633991
 20
4.1751814587
  0
LWPOLYLINE
  5
345
100
AcDbEntity
  8
0
100
AcDbPolyline
 62
253
  6
CONTINUOUS
 90
6
 70
0
 10
-5.6207097858
 20
-16.933403706
 10
-5.6136367721
 20
-16.961364356
 10
-5.6045805161
 20
-16.984711362
 10
-5.5937201109
 20
-17.002982754
 10
-5.581270558
 20
-17.0158167906
 10
-5.5674779352
 20
-17.022959768
  0
LWPOLYLINE
  5
346
100
AcDbEntity
  8
0
100
AcDbPolyline
 62
253
  6
CONTINUOUS
 90
3
 70
0
 10
-12.114285349
 20
-8.1105503943
 10
-12.1055073671
 20
-8.098425046
 10
-12.0999336687
 20
-8.0855267183
  0
LINE
  5
347
100
AcDbEntity
  8
0
100
AcDbLine
 62
253
  6
CONTINUOUS
 10
-10.0490703264
 20
2.4165128864
 11
-4.8287194209
 21
5.6944028761
  0
LWPOLYLINE
  5
348
100
AcDbEntity
  8
0
100
AcDbPolyline
 62
7
  6
CONTINUOUS
 90
31
 70
0
 10
7.6475927685
 20
9.5380708805
 10
7.5255770989
 20
9.4731653391
 10
7.3780646854
 20
9.3662441059
 10
7.2448985805
 20
9.2389973514
 10
7.1260302459
 20
9.0908649724
 10
7.0215082199
 20
8.922407072
 10
6.9336410412
 20
8.7369503986
 10
6.8628532169
 20
8.534115069
 10
6.8087202399
 20
8.3142809663
 10
6.7722771269
 20
8.0819144884
 10
6.753879152
 20
7.8369522422
 10
6.7531710411
 20
7.5794576207
 10
6.7701219892
 20
7.314087201
 10
6.8050270429
 20
7.0406380938
 10
6.8575911556
 20
6.7593131885
 10
6.9268983824
 20
6.4753777298
 10
7.0133073991
 20
6.1886816733
 10
7.1164595299
 20
5.8993750635
 10
7.2343628019
 20
5.6131732788
 10
7.3670770318
 20
5.3304537268
 10
7.5145424029
 20
5.0508389998
 10
7.6745874922
 20
4.7789122533
 10
7.8478066068
 20
4.5142365672
 10
8.0336054396
 20
4.2572488616
 10
8.2280296467
 20
4.0138430523
 10
8.4312670315
 20
3.784477134
 10
8.6431297906
 20
3.5686931121
 10
8.8591001689
 20
3.371010919
 10
9.0776722482
 20
3.192937199
 10
9.3003519468
 20
3.0329653078
 10
9.5271392647
 20
2.8910952455
  0
LWPOLYLINE
  5
349
100
AcDbEntity
  8
0
100
AcDbPolyline
 62
253
  6
CONTINUOUS
 90
13
 70
0
 10
-10.0490820382
 20
2.4165117277
 10
-10.0781387354
 20
2.4011470247
 10
-10.1093712327
 20
2.3860266387
 10
-10.1422725781
 20
2.3713826959
 10
-10.176152393
 20
2.3575010409
 10
-10.2106394021
 20
2.3445136375
 10
-10.2457124183
 20
2.3324418474
 10
-10.2810398352
 20
2.3214477783
 10
-10.3158213376
 20
2.3118292093
 10
-10.3493227335
 20
2.3038215286
 10
-10.3809149549
 20
2.2975986336
 10
-10.4100686905
 20
2.2932898904
 10
-10.4362334227
 20
2.2910072899
  0
LINE
  5
34A
100
AcDbEntity
  8
0
100
AcDbLine
 62
7
  6
CONTINUOUS
 10
-16.8564247456
 20
-1.5786731157
 11
-17.0739480867
 21
-1.6724540649
  0
LINE
  5
34B
100
AcDbEntity
  8
0
100
AcDbLine
 62
7
  6
CONTINUOUS
 10
-16.6384966523
 20
-1.486920293
 11
-16.8564247456
 21
-1.5786731157
  0
LINE
  5
34C
100
AcDbEntity
  8
0
100
AcDbLine
 62
7
  6
CONTINUOUS
 10
-16.4201577628
 20
-1.3972013758
 11
-16.6384966523
 21
-1.486920293
  0
LWPOLYLINE
  5
34D
100
AcDbEntity
  8
0
100
AcDbPolyline
 62
7
  6
CONTINUOUS
 90
3
 70
0
 10
-16.0918927264
 20
-1.2664136395
 10
-16.2014179043
 20
-1.3095012078
 10
-16.4201577628
 20
-1.3972013758
  0
LINE
  5
34E
100
AcDbEntity
  8
0
100
AcDbLine
 62
7
  6
CONTINUOUS
 10
-16.0634951319
 20
-1.2566308132
 11
-16.0919024886
 21
-1.2663902259
  0
LINE
  5
34F
100
AcDbEntity
  8
0
100
AcDbLine
 62
7
  6
CONTINUOUS
 10
9.7923043077
 20
-7.4571966732
 11
9.7304324643
 21
-7.4562160582
  0
LINE
  5
350
100
AcDbEntity
  8
0
100
AcDbLine
 62
253
  6
CONTINUOUS
 10
-39.1845972518
 20
-1.2968600033
 11
-38.2186714255
 21
-1.4462988762
  0
LINE
  5
351
100
AcDbEntity
  8
0
100
AcDbLine
 62
7
  6
CONTINUOUS
 10
10.8441256447
 20
-9.3500115411
 11
10.9472456983
 21
-9.3748083558
  0
LINE
  5
352
100
AcDbEntity
  8
0
100
AcDbLine
 62
7
  6
CONTINUOUS
 10
11.0450654753
 20
-9.2826687618
 11
10.9855470009
 21
-9.2683566224
  0
LINE
  5
353
100
AcDbEntity
  8
0
100
AcDbLine
 62
7
  6
CONTINUOUS
 10
10.019168048
 20
-9.0126650328
 11
9.9160479944
 21
-8.9878682211
  0
LINE
  5
354
100
AcDbEntity
  8
0
100
AcDbLine
 62
7
  6
CONTINUOUS
 10
10.019168048
 20
-8.4220269363
 11
9.9160479944
 21
-8.3972301703
  0
LINE
  5
355
100
AcDbEntity
  8
0
100
AcDbLine
 62
7
  6
CONTINUOUS
 10
10.7410055911
 20
-8.0049649042
 11
10.6378864815
 21
-7.9801686346
  0
LINE
  5
356
100
AcDbEntity
  8
0
100
AcDbLine
 62
7
  6
CONTINUOUS
 10
9.7098088312
 20
-7.2705911714
 11
9.8129279408
 21
-7.295387441
  0
LINE
  5
357
100
AcDbEntity
  8
0
100
AcDbLine
 62
7
  6
CONTINUOUS
 10
9.954349297
 20
-7.2137325223
 11
9.8512301875
 21
-7.1889362528
  0
LINE
  5
358
100
AcDbEntity
  8
0
100
AcDbLine
 62
7
  6
CONTINUOUS
 10
10.6172619044
 20
-7.7945432028
 11
10.7616301682
 21
-7.8431562171
  0
LINE
  5
359
100
AcDbEntity
  8
0
100
AcDbLine
 62
7
  6
CONTINUOUS
 10
10.9030515245
 20
-7.7615012985
 11
10.7586832606
 21
-7.7128882841
  0
LWPOLYLINE
  5
35A
100
AcDbEntity
  8
0
100
AcDbPolyline
 62
7
  6
CONTINUOUS
 90
5
 70
0
 10
-15.9896520165
 20
-1.2542939023
 10
-15.9961296861
 20
-1.2519572686
 10
-16.0152533804
 20
-1.2491769442
 10
-16.0378243709
 20
-1.2508133145
 10
-16.0634951319
 20
-1.2566308132
  0
LINE
  5
35B
100
AcDbEntity
  8
0
100
AcDbLine
 62
7
  6
CONTINUOUS
 10
7.8919548332
 20
-11.9015335817
 11
7.7063393032
 21
-11.794361501
  0
LINE
  5
35C
100
AcDbEntity
  8
0
100
AcDbLine
 62
7
  6
CONTINUOUS
 10
6.5720221947
 20
-11.1394210189
 11
6.448278508
 21
-11.067972965
  0
LINE
  5
35D
100
AcDbEntity
  8
0
100
AcDbLine
 62
7
  6
CONTINUOUS
 10
7.7063393032
 20
-11.5859010053
 11
7.8919548332
 21
-11.693073086
  0
LINE
  5
35E
100
AcDbEntity
  8
0
100
AcDbLine
 62
7
  6
CONTINUOUS
 10
7.8477606594
 20
-11.5042460866
 11
8.0333761895
 21
-11.6114181674
  0
LINE
  5
35F
100
AcDbEntity
  8
0
100
AcDbLine
 62
7
  6
CONTINUOUS
 10
8.0569464942
 20
-11.5798767075
 11
8.1806901809
 21
-11.6513247614
  0
LINE
  5
360
100
AcDbEntity
  8
0
100
AcDbLine
 62
7
  6
CONTINUOUS
 10
8.1983678504
 20
-11.4982217889
 11
8.3221115371
 21
-11.5696698427
  0
LINE
  5
361
100
AcDbEntity
  8
0
100
AcDbLine
 62
7
  6
CONTINUOUS
 10
6.9432531958
 20
-10.6241533992
 11
6.5720221947
 21
-10.4098092718
  0
LINE
  5
362
100
AcDbEntity
  8
0
100
AcDbLine
 62
7
  6
CONTINUOUS
 10
6.5720221947
 20
-10.2013488004
 11
6.9638771829
 21
-10.4276009596
  0
LINE
  5
363
100
AcDbEntity
  8
0
100
AcDbLine
 62
7
  6
CONTINUOUS
 10
6.7134435509
 20
-10.1196938818
 11
7.0680694418
 21
-10.3244504267
  0
LINE
  5
364
100
AcDbEntity
  8
0
100
AcDbLine
 62
7
  6
CONTINUOUS
 10
8.1806901809
 20
-10.8522262392
 11
8.0569464942
 21
-10.7807781854
  0
LINE
  5
365
100
AcDbEntity
  8
0
100
AcDbLine
 62
7
  6
CONTINUOUS
 10
7.8919548332
 20
-10.4770534995
 11
7.7063393032
 21
-10.3698814187
  0
LINE
  5
366
100
AcDbEntity
  8
0
100
AcDbLine
 62
7
  6
CONTINUOUS
 10
6.9638771829
 20
-9.9064496838
 11
6.5720221947
 21
-9.6801975247
  0
LINE
  5
367
100
AcDbEntity
  8
0
100
AcDbLine
 62
7
  6
CONTINUOUS
 10
6.448278508
 20
-9.4350324114
 11
6.9432531958
 21
-9.7208245927
  0
LINE
  5
368
100
AcDbEntity
  8
0
100
AcDbLine
 62
7
  6
CONTINUOUS
 10
7.7063393032
 20
-10.1614209474
 11
7.8919548332
 21
-10.2685930281
  0
LINE
  5
369
100
AcDbEntity
  8
0
100
AcDbLine
 62
7
  6
CONTINUOUS
 10
6.5896998642
 20
-9.3533774928
 11
7.084674552
 21
-9.639169674
  0
LINE
  5
36A
100
AcDbEntity
  8
0
100
AcDbLine
 62
7
  6
CONTINUOUS
 10
7.8477606594
 20
-10.0797660287
 11
8.0333761895
 21
-10.1869381095
  0
LWPOLYLINE
  5
36B
100
AcDbEntity
  8
0
100
AcDbPolyline
 62
7
  6
CONTINUOUS
 90
10
 70
0
 10
5.9297387897
 20
-13.8825787353
 10
5.4452863239
 20
-13.4907726171
 10
5.4046021914
 20
-13.458998891
 10
5.3637840952
 20
-13.4282468218
 10
5.3228096651
 20
-13.3985007785
 10
5.2817012714
 20
-13.3697763922
 10
5.240526024
 20
-13.3421205559
 10
5.1993062932
 20
-13.3155489006
 10
5.1580197088
 20
-13.2900457953
 10
5.1480356623
 20
-13.2840450017
  0
LWPOLYLINE
  5
36C
100
AcDbEntity
  8
0
100
AcDbPolyline
 62
7
  6
CONTINUOUS
 90
5
 70
0
 10
7.3489639903
 20
-15.0645593167
 10
7.2448615221
 20
-14.9727359677
 10
7.1453072222
 20
-14.8738242912
 10
7.0503010908
 20
-14.7678242871
 10
6.9837248723
 20
-14.6844962241
  0
LWPOLYLINE
  5
36D
100
AcDbEntity
  8
0
100
AcDbPolyline
 62
253
  6
CONTINUOUS
 90
10
 70
0
 10
0.3347511093
 20
-15.8106583241
 10
0.3387872415
 20
-15.915068022
 10
0.3508649206
 20
-16.0140222749
 10
0.3708922282
 20
-16.106767981
 10
0.3987167445
 20
-16.1925992896
 10
0.434126708
 20
-16.2708629726
 10
0.4768526275
 20
-16.340963396
 10
0.5265693331
 20
-16.4023670533
 10
0.5828984504
 20
-16.4546066257
 10
0.6453750409
 20
-16.4972636158
  0
LWPOLYLINE
  5
36E
100
AcDbEntity
  8
0
100
AcDbPolyline
 62
253
  6
CONTINUOUS
 90
37
 70
0
 10
-3.0522903726
 20
10.9184173016
 10
-3.0609401821
 20
10.7066722771
 10
-3.085159132
 20
10.5088015336
 10
-3.1249472223
 20
10.3248050709
 10
-3.1808969072
 20
10.1534830341
 10
-3.2524157325
 20
9.9960352781
 10
-3.3377263355
 20
9.8560613684
 10
-3.4371764918
 20
9.7340405167
 10
-3.5504184258
 20
9.6294935113
 10
-3.6746314483
 20
9.5445822816
 10
-3.8098097789
 20
9.4797633614
 10
-3.9559591981
 20
9.4345802171
 10
-4.110276358
 20
9.4098251766
 10
-4.2731908888
 20
9.4058672442
 10
-4.4442731603
 20
9.4223374157
 10
-4.6194309352
 20
9.4589210067
 10
-4.7986538225
 20
9.5161040673
 10
-4.9819522131
 20
9.5934005474
 10
-5.1652650426
 20
9.6890376124
 10
-5.3485348496
 20
9.8033450502
 10
-5.5318190955
 20
9.9359930728
 10
-5.7112291005
 20
10.0842194821
 10
-5.8867733812
 20
10.2484220743
 10
-6.0584434209
 20
10.428203053
 10
-6.2223249899
 20
10.6196068308
 10
-6.3781660192
 20
10.8227060136
 10
-6.5262185778
 20
11.0374279954
 10
-6.6633246428
 20
11.2595993709
 10
-6.7894694936
 20
11.4897826441
 10
-6.9046678509
 20
11.727415311
 10
-7.0058058543
 20
11.9666364536
 10
-7.0924458341
 20
12.2075492696
 10
-7.1650254599
 20
12.4500505613
 10
-7.2217438805
 20
12.6879698174
 10
-7.2620008121
 20
12.919250201
 10
-7.2863965385
 20
13.145948549
 10
-7.2949310597
 20
13.3680648615
  0
LWPOLYLINE
  5
36F
100
AcDbEntity
  8
0
100
AcDbPolyline
 62
7
  6
CONTINUOUS
 90
6
 70
0
 10
-10.790142254
 20
-17.4971001111
 10
-10.8068216066
 20
-17.5315863623
 10
-10.8171565637
 20
-17.5616148241
 10
-10.8211471253
 20
-17.5871854967
 10
-10.8186259629
 20
-17.6085019906
 10
-10.8091525229
 20
-17.626083891
  0
LINE
  5
370
100
AcDbEntity
  8
0
100
AcDbLine
 62
7
  6
CONTINUOUS
 10
-11.7340840875
 20
-17.7541685127
 11
-12.0548817879
 21
-18.328403843
  0
LINE
  5
371
100
AcDbEntity
  8
0
100
AcDbLine
 62
7
  6
CONTINUOUS
 10
-10.7900750356
 20
-17.4969797887
 11
-10.5934913775
 21
-17.1450904775
  0
LINE
  5
372
100
AcDbEntity
  8
0
100
AcDbLine
 62
7
  6
CONTINUOUS
 10
-8.8670849599
 20
-15.4873923069
 11
-8.8760747152
 21
-15.5034841783
  0
LINE
  5
373
100
AcDbEntity
  8
0
100
AcDbLine
 62
7
  6
CONTINUOUS
 10
-8.1760795394
 20
-15.6837404
 11
-7.882595204
 21
-15.1583966273
  0
LWPOLYLINE
  5
374
100
AcDbEntity
  8
0
100
AcDbPolyline
 62
7
  6
CONTINUOUS
 90
19
 70
0
 10
-11.7336742302
 20
-17.7534348588
 10
-11.67511362
 20
-17.6559517567
 10
-11.6075214093
 20
-17.555386314
 10
-11.5308975981
 20
-17.4517385306
 10
-11.4445474856
 20
-17.3442133333
 10
-11.3491657727
 20
-17.2336057953
 10
-11.246836562
 20
-17.1223011366
 10
-11.1374547253
 20
-17.0103245369
 10
-11.021125391
 20
-16.8976508164
 10
-10.9002480465
 20
-16.7865896551
 10
-10.7747360327
 20
-16.6771717008
 10
-10.6446760088
 20
-16.5693663057
 10
-10.5127274402
 20
-16.4653912061
 10
-10.3788880919
 20
-16.3653382324
 10
-10.243160199
 20
-16.2691155542
 10
-10.1082099316
 20
-16.1786654172
 10
-9.9749260132
 20
-16.0946352364
 10
-9.8424197204
 20
-16.0163775968
 10
-9.7106910532
 20
-15.9438924983
  0
LINE
  5
375
100
AcDbEntity
  8
0
100
AcDbLine
 62
7
  6
CONTINUOUS
 10
-21.2105170963
 20
-1.8975191453
 11
-21.852199789
 21
-1.9377224095
  0
LINE
  5
376
100
AcDbEntity
  8
0
100
AcDbLine
 62
7
  6
CONTINUOUS
 10
-20.1178264671
 20
-1.2097153135
 11
-20.5100419282
 21
-1.234288739
  0
LWPOLYLINE
  5
377
100
AcDbEntity
  8
0
100
AcDbPolyline
 62
7
  6
CONTINUOUS
 90
9
 70
0
 10
-21.852199789
 20
-1.9377224095
 10
-21.9523970275
 20
-1.9408209121
 10
-22.0409389952
 20
-1.9375342281
 10
-22.1178256921
 20
-1.9278623575
 10
-22.1834259074
 20
-1.9116347449
 10
-22.2373708519
 20
-1.8890219457
 10
-22.2785541575
 20
-1.8605356262
 10
-22.3067018265
 20
-1.8260665196
 10
-22.3160013512
 20
-1.8065938889
  0
LINE
  5
378
100
AcDbEntity
  8
0
100
AcDbLine
 62
7
  6
CONTINUOUS
 10
10.8647492778
 20
-9.5356364522
 11
10.6997583249
 21
-9.4403727438
  0
LINE
  5
379
100
AcDbEntity
  8
0
100
AcDbLine
 62
7
  6
CONTINUOUS
 10
9.9160479944
 20
-8.9878682211
 11
9.8335525179
 21
-8.940236367
  0
LINE
  5
37A
100
AcDbEntity
  8
0
100
AcDbLine
 62
7
  6
CONTINUOUS
 10
8.9260985007
 20
-8.4162837905
 11
8.802354814
 21
-8.3448357367
  0
LINE
  5
37B
100
AcDbEntity
  8
0
100
AcDbLine
 62
7
  6
CONTINUOUS
 10
8.2248841187
 20
-8.0114113946
 11
8.101140432
 21
-7.9399633408
  0
LINE
  5
37C
100
AcDbEntity
  8
0
100
AcDbLine
 62
7
  6
CONTINUOUS
 10
6.7812080885
 20
-7.1778509482
 11
6.6574644018
 21
-7.1064028944
  0
LINE
  5
37D
100
AcDbEntity
  8
0
100
AcDbLine
 62
7
  6
CONTINUOUS
 10
5.5437709854
 20
-6.4633702736
 11
5.4200272987
 21
-6.3919222198
  0
LINE
  5
37E
100
AcDbEntity
  8
0
100
AcDbLine
 62
7
  6
CONTINUOUS
 10
4.8425568394
 20
-6.058498014
 11
4.7188131527
 21
-5.9870499602
  0
LINE
  5
37F
100
AcDbEntity
  8
0
100
AcDbLine
 62
7
  6
CONTINUOUS
 10
4.5538214917
 20
-5.891785843
 11
4.430077805
 21
-5.8203377892
  0
LINE
  5
380
100
AcDbEntity
  8
0
100
AcDbLine
 62
7
  6
CONTINUOUS
 10
3.8526073457
 20
-5.4869135834
 11
3.728863659
 21
-5.4154655295
  0
LINE
  5
381
100
AcDbEntity
  8
0
100
AcDbLine
 62
7
  6
CONTINUOUS
 10
3.5638721161
 20
-5.3202014805
 11
3.4401284293
 21
-5.2487534266
  0
LINE
  5
382
100
AcDbEntity
  8
0
100
AcDbLine
 62
7
  6
CONTINUOUS
 10
2.862657852
 20
-4.9153291527
 11
2.7389141653
 21
-4.8438810989
  0
LINE
  5
383
100
AcDbEntity
  8
0
100
AcDbLine
 62
7
  6
CONTINUOUS
 10
2.5739225634
 20
-4.7486170157
 11
2.4501788767
 21
-4.6771689619
  0
LINE
  5
384
100
AcDbEntity
  8
0
100
AcDbLine
 62
7
  6
CONTINUOUS
 10
1.8727083584
 20
-4.343744722
 11
1.7489646717
 21
-4.2722966682
  0
LINE
  5
385
100
AcDbEntity
  8
0
100
AcDbLine
 62
7
  6
CONTINUOUS
 10
9.8129279408
 20
-8.7546109108
 11
9.9366716275
 21
-8.8260589646
  0
LINE
  5
386
100
AcDbEntity
  8
0
100
AcDbLine
 62
7
  6
CONTINUOUS
 10
10.720381958
 20
-9.2785634873
 11
10.8441256447
 21
-9.3500115411
  0
LINE
  5
387
100
AcDbEntity
  8
0
100
AcDbLine
 62
7
  6
CONTINUOUS
 10
9.954349297
 20
-8.6729559921
 11
10.0780929837
 21
-8.744404046
  0
LINE
  5
388
100
AcDbEntity
  8
0
100
AcDbLine
 62
7
  6
CONTINUOUS
 10
10.8618033142
 20
-9.1969085686
 11
10.9855470009
 21
-9.2683566224
  0
LINE
  5
389
100
AcDbEntity
  8
0
100
AcDbLine
 62
7
  6
CONTINUOUS
 10
9.5448169343
 20
-8.3913464802
 11
9.6479365158
 21
-8.4508864342
  0
LINE
  5
38A
100
AcDbEntity
  8
0
100
AcDbLine
 62
7
  6
CONTINUOUS
 10
10.4110227412
 20
-8.891482857
 11
10.5141427948
 21
-8.9510230836
  0
LINE
  5
38B
100
AcDbEntity
  8
0
100
AcDbLine
 62
7
  6
CONTINUOUS
 10
8.4311237539
 20
-7.64408376
 11
8.2248841187
 21
-7.5250035794
  0
LINE
  5
38C
100
AcDbEntity
  8
0
100
AcDbLine
 62
7
  6
CONTINUOUS
 10
8.101140432
 20
-7.4535555256
 11
7.6061656851
 21
-7.1677633103
  0
LINE
  5
38D
100
AcDbEntity
  8
0
100
AcDbLine
 62
7
  6
CONTINUOUS
 10
6.9874472516
 20
-6.8105230411
 11
6.7812080885
 21
-6.6914431331
  0
LINE
  5
38E
100
AcDbEntity
  8
0
100
AcDbLine
 62
7
  6
CONTINUOUS
 10
6.6574644018
 20
-6.6199950793
 11
6.1624896549
 21
-6.3342028639
  0
LINE
  5
38F
100
AcDbEntity
  8
0
100
AcDbLine
 62
7
  6
CONTINUOUS
 10
9.6862382905
 20
-8.3096915615
 11
9.7893578721
 21
-8.3692315155
  0
LINE
  5
390
100
AcDbEntity
  8
0
100
AcDbLine
 62
7
  6
CONTINUOUS
 10
10.5524440974
 20
-8.8098279383
 11
10.6555641511
 21
-8.8693681649
  0
LINE
  5
391
100
AcDbEntity
  8
0
100
AcDbLine
 62
7
  6
CONTINUOUS
 10
9.9160479944
 20
-8.3972301703
 11
9.8129279408
 21
-8.3376899438
  0
LINE
  5
392
100
AcDbEntity
  8
0
100
AcDbLine
 62
7
  6
CONTINUOUS
 10
7.4411742602
 20
-6.9682690937
 11
7.1524391486
 21
-6.8015570589
  0
LINE
  5
393
100
AcDbEntity
  8
0
100
AcDbLine
 62
7
  6
CONTINUOUS
 10
5.9974977579
 20
-6.1347083748
 11
5.7087626463
 21
-5.96799634
  0
LINE
  5
394
100
AcDbEntity
  8
0
100
AcDbLine
 62
7
  6
CONTINUOUS
 10
6.3068569747
 20
-6.209098225
 11
6.6574644018
 21
-6.4115345592
  0
LINE
  5
395
100
AcDbEntity
  8
0
100
AcDbLine
 62
7
  6
CONTINUOUS
 10
6.7812080885
 20
-6.4829826131
 11
6.9874472516
 21
-6.6020625211
  0
LINE
  5
396
100
AcDbEntity
  8
0
100
AcDbLine
 62
7
  6
CONTINUOUS
 10
7.750533477
 20
-7.0426589439
 11
8.101140432
 21
-7.2450950056
  0
LINE
  5
397
100
AcDbEntity
  8
0
100
AcDbLine
 62
7
  6
CONTINUOUS
 10
8.2248841187
 20
-7.3165430594
 11
8.4311237539
 21
-7.43562324
  0
LINE
  5
398
100
AcDbEntity
  8
0
100
AcDbLine
 62
7
  6
CONTINUOUS
 10
10.8235020116
 20
-8.7474656387
 11
10.7410055911
 21
-8.6998332394
  0
LINE
  5
399
100
AcDbEntity
  8
0
100
AcDbLine
 62
7
  6
CONTINUOUS
 10
5.7087626463
 20
-5.7942792319
 11
5.9974977579
 21
-5.9609912666
  0
LINE
  5
39A
100
AcDbEntity
  8
0
100
AcDbLine
 62
7
  6
CONTINUOUS
 10
7.1524391486
 20
-6.6278399508
 11
7.4411742602
 21
-6.7945519855
  0
LINE
  5
39B
100
AcDbEntity
  8
0
100
AcDbLine
 62
7
  6
CONTINUOUS
 10
9.7923043077
 20
-8.1520650084
 11
9.9366716275
 21
-8.2354208895
  0
LINE
  5
39C
100
AcDbEntity
  8
0
100
AcDbLine
 62
7
  6
CONTINUOUS
 10
6.448278331
 20
-6.1274433064
 11
6.6574644018
 21
-6.2482247219
  0
LINE
  5
39D
100
AcDbEntity
  8
0
100
AcDbLine
 62
7
  6
CONTINUOUS
 10
6.9226294447
 20
-6.4013276944
 11
7.1288686078
 21
-6.5204076024
  0
LINE
  5
39E
100
AcDbEntity
  8
0
100
AcDbLine
 62
7
  6
CONTINUOUS
 10
7.8919548332
 20
-6.9610040252
 11
8.101140432
 21
-7.0817851683
  0
LINE
  5
39F
100
AcDbEntity
  8
0
100
AcDbLine
 62
7
  6
CONTINUOUS
 10
8.3663054749
 20
-7.2348881408
 11
8.5725451101
 21
-7.3539683213
  0
LINE
  5
3A0
100
AcDbEntity
  8
0
100
AcDbLine
 62
7
  6
CONTINUOUS
 10
10.7410055911
 20
-8.5608595918
 11
10.8235020116
 21
-8.6084919911
  0
LINE
  5
3A1
100
AcDbEntity
  8
0
100
AcDbLine
 62
7
  6
CONTINUOUS
 10
5.8501840026
 20
-5.7126243132
 11
6.1389191142
 21
-5.879336348
  0
LINE
  5
3A2
100
AcDbEntity
  8
0
100
AcDbLine
 62
7
  6
CONTINUOUS
 10
7.2938605048
 20
-6.5461850321
 11
7.5825956165
 21
-6.7128970669
  0
LINE
  5
3A3
100
AcDbEntity
  8
0
100
AcDbLine
 62
7
  6
CONTINUOUS
 10
9.9337256639
 20
-8.0704100897
 11
10.0780929837
 21
-8.1537659708
  0
LINE
  5
3A4
100
AcDbEntity
  8
0
100
AcDbLine
 62
7
  6
CONTINUOUS
 10
10.8824269473
 20
-8.4792046731
 11
10.9649233678
 21
-8.5268370724
  0
LINE
  5
3A5
100
AcDbEntity
  8
0
100
AcDbLine
 62
7
  6
CONTINUOUS
 10
10.5347664279
 20
-8.0943454675
 11
10.4316463743
 21
-8.034805241
  0
LINE
  5
3A6
100
AcDbEntity
  8
0
100
AcDbLine
 62
7
  6
CONTINUOUS
 10
10.8235020116
 20
-8.0525973035
 11
10.7410055911
 21
-8.0049649042
  0
LINE
  5
3A7
100
AcDbEntity
  8
0
100
AcDbLine
 62
7
  6
CONTINUOUS
 10
9.9366716275
 20
-7.5405525543
 11
9.7923043077
 21
-7.4571966732
  0
LINE
  5
3A8
100
AcDbEntity
  8
0
100
AcDbLine
 62
7
  6
CONTINUOUS
 10
9.2148336123
 20
-7.1237723311
 11
8.5961151788
 21
-6.766532062
  0
LINE
  5
3A9
100
AcDbEntity
  8
0
100
AcDbLine
 62
7
  6
CONTINUOUS
 10
1.7489646717
 20
-2.6393561146
 11
1.8727083584
 21
-2.7108041685
  0
LINE
  5
3AA
100
AcDbEntity
  8
0
100
AcDbLine
 62
7
  6
CONTINUOUS
 10
2.4501788767
 20
-3.0442284083
 11
2.5739225634
 21
-3.1156764622
  0
LINE
  5
3AB
100
AcDbEntity
  8
0
100
AcDbLine
 62
7
  6
CONTINUOUS
 10
2.7389141653
 20
-3.2109405453
 11
2.862657852
 21
-3.2823885991
  0
LINE
  5
3AC
100
AcDbEntity
  8
0
100
AcDbLine
 62
7
  6
CONTINUOUS
 10
3.4401284293
 20
-3.6158128731
 11
3.5638721161
 21
-3.6872609269
  0
LINE
  5
3AD
100
AcDbEntity
  8
0
100
AcDbLine
 62
7
  6
CONTINUOUS
 10
3.728863659
 20
-3.7825249759
 11
3.8526073457
 21
-3.8539730298
  0
LINE
  5
3AE
100
AcDbEntity
  8
0
100
AcDbLine
 62
7
  6
CONTINUOUS
 10
4.430077805
 20
-4.1873972356
 11
4.5538214917
 21
-4.2588452894
  0
LINE
  5
3AF
100
AcDbEntity
  8
0
100
AcDbLine
 62
7
  6
CONTINUOUS
 10
4.7188131527
 20
-4.3541094066
 11
4.8425568394
 21
-4.4255574604
  0
LINE
  5
3B0
100
AcDbEntity
  8
0
100
AcDbLine
 62
7
  6
CONTINUOUS
 10
5.4200272987
 20
-4.7589816662
 11
5.5437709854
 21
-4.8304297201
  0
LINE
  5
3B1
100
AcDbEntity
  8
0
100
AcDbLine
 62
7
  6
CONTINUOUS
 10
6.6574644018
 20
-5.4734623408
 11
6.7812080885
 21
-5.5449103947
  0
LINE
  5
3B2
100
AcDbEntity
  8
0
100
AcDbLine
 62
7
  6
CONTINUOUS
 10
8.101140432
 20
-6.3070227872
 11
8.2248841187
 21
-6.378470841
  0
LINE
  5
3B3
100
AcDbEntity
  8
0
100
AcDbLine
 62
7
  6
CONTINUOUS
 10
8.5961151788
 20
-6.5928150025
 11
9.3385772991
 21
-7.0215033255
  0
LINE
  5
3B4
100
AcDbEntity
  8
0
100
AcDbLine
 62
7
  6
CONTINUOUS
 10
9.8129279408
 20
-7.295387441
 11
9.9160479944
 21
-7.3549276676
  0
LINE
  5
3B5
100
AcDbEntity
  8
0
100
AcDbLine
 62
7
  6
CONTINUOUS
 10
10.7616301682
 20
-7.8431562171
 11
10.8028774344
 21
-7.8669718717
  0
LINE
  5
3B6
100
AcDbEntity
  8
0
100
AcDbLine
 62
7
  6
CONTINUOUS
 10
1.8903860279
 20
-2.557701196
 11
2.0141297146
 21
-2.6291492498
  0
LINE
  5
3B7
100
AcDbEntity
  8
0
100
AcDbLine
 62
7
  6
CONTINUOUS
 10
2.5916002329
 20
-2.9625734897
 11
2.7153439196
 21
-3.0340215435
  0
LINE
  5
3B8
100
AcDbEntity
  8
0
100
AcDbLine
 62
7
  6
CONTINUOUS
 10
2.8803355216
 20
-3.1292856266
 11
3.0040792083
 21
-3.2007336805
  0
LINE
  5
3B9
100
AcDbEntity
  8
0
100
AcDbLine
 62
7
  6
CONTINUOUS
 10
3.5815497856
 20
-3.5341579544
 11
3.7052934723
 21
-3.6056060082
  0
LINE
  5
3BA
100
AcDbEntity
  8
0
100
AcDbLine
 62
7
  6
CONTINUOUS
 10
3.8702850152
 20
-3.7008700573
 11
3.9940287019
 21
-3.7723181111
  0
LINE
  5
3BB
100
AcDbEntity
  8
0
100
AcDbLine
 62
7
  6
CONTINUOUS
 10
4.5714991612
 20
-4.1057423169
 11
4.6952428479
 21
-4.1771903707
  0
LINE
  5
3BC
100
AcDbEntity
  8
0
100
AcDbLine
 62
7
  6
CONTINUOUS
 10
4.8602345089
 20
-4.2724544879
 11
4.9839781956
 21
-4.3439025418
  0
LINE
  5
3BD
100
AcDbEntity
  8
0
100
AcDbLine
 62
7
  6
CONTINUOUS
 10
5.5614486549
 20
-4.6773267476
 11
5.6851923416
 21
-4.7487748014
  0
LINE
  5
3BE
100
AcDbEntity
  8
0
100
AcDbLine
 62
7
  6
CONTINUOUS
 10
6.798885758
 20
-5.3918074222
 11
6.9226294447
 21
-5.463255476
  0
LINE
  5
3BF
100
AcDbEntity
  8
0
100
AcDbLine
 62
7
  6
CONTINUOUS
 10
8.2425617882
 20
-6.2253678685
 11
8.3663054749
 21
-6.2968159223
  0
LINE
  5
3C0
100
AcDbEntity
  8
0
100
AcDbLine
 62
7
  6
CONTINUOUS
 10
8.737536535
 20
-6.5111600838
 11
9.4799986553
 21
-6.9398484068
  0
LINE
  5
3C1
100
AcDbEntity
  8
0
100
AcDbLine
 62
7
  6
CONTINUOUS
 10
9.954349297
 20
-7.2137325223
 11
10.0574693506
 21
-7.2732727489
  0
LINE
  5
3C2
100
AcDbEntity
  8
0
100
AcDbLine
 62
7
  6
CONTINUOUS
 10
10.9030515245
 20
-7.7615012985
 11
10.9442987907
 21
-7.785316953
  0
LINE
  5
3C3
100
AcDbEntity
  8
0
100
AcDbLine
 62
7
  6
CONTINUOUS
 10
10.9472456983
 20
-8.8536571044
 11
10.8235020116
 21
-8.7474656387
  0
LINE
  5
3C4
100
AcDbEntity
  8
0
100
AcDbLine
 62
7
  6
CONTINUOUS
 10
7.7063393032
 20
-11.794361501
 11
7.6032196036
 21
-11.7000780639
  0
LINE
  5
3C5
100
AcDbEntity
  8
0
100
AcDbLine
 62
7
  6
CONTINUOUS
 10
6.9432531958
 20
-9.7208245927
 11
7.0463730134
 21
-9.8151080949
  0
LINE
  5
3C6
100
AcDbEntity
  8
0
100
AcDbLine
 62
7
  6
CONTINUOUS
 10
7.1877943696
 20
-9.7334531762
 11
7.084674552
 21
-9.639169674
  0
LINE
  5
3C7
100
AcDbEntity
  8
0
100
AcDbLine
 62
7
  6
CONTINUOUS
 10
7.8919548332
 20
-10.2685930281
 11
7.9950746508
 21
-10.3628765303
  0
LINE
  5
3C8
100
AcDbEntity
  8
0
100
AcDbLine
 62
7
  6
CONTINUOUS
 10
8.1364960071
 20
-10.2812216116
 11
8.0333761895
 21
-10.1869381095
  0
LINE
  5
3C9
100
AcDbEntity
  8
0
100
AcDbLine
 62
7
  6
CONTINUOUS
 10
9.8335525179
 20
-8.940236367
 11
9.7304324643
 21
-8.8459527255
  0
LINE
  5
3CA
100
AcDbEntity
  8
0
100
AcDbLine
 62
7
  6
CONTINUOUS
 10
10.6172619043
 20
-9.1842798488
 11
10.720381958
 21
-9.2785634873
  0
LINE
  5
3CB
100
AcDbEntity
  8
0
100
AcDbLine
 62
7
  6
CONTINUOUS
 10
9.8129279408
 20
-8.3376899438
 11
9.7098088312
 21
-8.2434068017
  0
LINE
  5
3CC
100
AcDbEntity
  8
0
100
AcDbLine
 62
7
  6
CONTINUOUS
 10
10.8618033142
 20
-9.1969085686
 11
10.7586832606
 21
-9.1026249301
  0
LINE
  5
3CD
100
AcDbEntity
  8
0
100
AcDbLine
 62
7
  6
CONTINUOUS
 10
7.6238434727
 20
-11.5035255348
 11
7.7063393032
 21
-11.5859010053
  0
LINE
  5
3CE
100
AcDbEntity
  8
0
100
AcDbLine
 62
7
  6
CONTINUOUS
 10
7.8477606594
 20
-11.5042460866
 11
7.7652648289
 21
-11.4218706161
  0
LINE
  5
3CF
100
AcDbEntity
  8
0
100
AcDbLine
 62
7
  6
CONTINUOUS
 10
7.9744505457
 20
-10.5594289018
 11
7.8919548332
 21
-10.4770534995
  0
LWPOLYLINE
  5
3D0
100
AcDbEntity
  8
0
100
AcDbPolyline
 62
7
  6
CONTINUOUS
 90
6
 70
0
 10
14.8465430838
 20
-17.9631284516
 10
14.8071851313
 20
-17.9230388287
 10
14.5947614993
 20
-17.7285919909
 10
14.3797630904
 20
-17.5534222064
 10
14.1607133435
 20
-17.3960515519
 10
13.9858443271
 20
-17.2849399727
  0
LINE
  5
3D1
100
AcDbEntity
  8
0
100
AcDbLine
 62
7
  6
CONTINUOUS
 10
-22.5784229699
 20
23.0155409328
 11
-23.1178007564
 21
23.6173872024
  0
LWPOLYLINE
  5
3D2
100
AcDbEntity
  8
0
100
AcDbPolyline
 62
7
  6
CONTINUOUS
 90
16
 70
0
 10
2.7619462686
 20
-7.0057504439
 10
2.1212020328
 20
-6.2758978035
 10
1.4970136479
 20
-5.5252299821
 10
0.8893811138
 20
-4.7537469798
 10
0.2972001525
 20
-3.9598883929
 10
-0.2784249581
 20
-3.1452146252
 10
-0.8341813836
 20
-2.3144068875
 10
-1.3699538071
 20
-1.4673709307
 10
-1.8858575456
 20
-0.6042010041
 10
-2.3789257154
 20
0.2701389341
 10
-2.8490252539
 20
1.1557134421
 10
-3.2962892237
 20
2.0524579616
 10
-3.7181499291
 20
2.9552148594
 10
-4.1137514714
 20
3.8622649246
 10
-4.4839497493
 20
4.7753273681
 10
-4.8287447627
 20
5.69440219
  0
LINE
  5
3D3
100
AcDbEntity
  8
0
100
AcDbLine
 62
7
  6
CONTINUOUS
 10
7.0257490263
 20
-9.9769171226
 11
6.9638771829
 21
-9.9064496838
  0
LWPOLYLINE
  5
3D4
100
AcDbEntity
  8
0
100
AcDbPolyline
 62
7
  6
CONTINUOUS
 90
13
 70
0
 10
-23.1178007564
 20
23.6173872024
 10
-23.1432311518
 20
23.6486546601
 10
-23.1658424047
 20
23.6810070009
 10
-23.185634515
 20
23.7144442249
 10
-23.202800822
 20
23.7495187901
 10
-23.2171479864
 20
23.7856782383
 10
-23.2280959902
 20
23.8212651958
 10
-23.2355415497
 20
23.8562622816
 10
-23.2395879485
 20
23.8906868767
 10
-23.2399650204
 20
23.9229337495
 10
-23.2365827099
 20
23.9524678229
 10
-23.2295310723
 20
23.9798241741
 10
-23.2188101078
 20
24.005002803
  0
LINE
  5
3D5
100
AcDbEntity
  8
0
100
AcDbLine
 62
7
  6
CONTINUOUS
 10
6.1389192617
 20
-10.0555108307
 11
5.8501840026
 21
-9.6455948275
  0
LINE
  5
3D6
100
AcDbEntity
  8
0
100
AcDbLine
 62
7
  6
CONTINUOUS
 10
7.6032196036
 20
-11.7000780639
 11
7.5207237731
 21
-11.5829591724
  0
LINE
  5
3D7
100
AcDbEntity
  8
0
100
AcDbLine
 62
7
  6
CONTINUOUS
 10
8.4900493977
 20
-11.4130239046
 11
8.7787845093
 21
-11.8229398713
  0
LINE
  5
3D8
100
AcDbEntity
  8
0
100
AcDbLine
 62
7
  6
CONTINUOUS
 10
8.9202058655
 20
-11.7412849526
 11
8.6577019548
 21
-11.3686093063
  0
LINE
  5
3D9
100
AcDbEntity
  8
0
100
AcDbLine
 62
253
  6
CONTINUOUS
 10
-21.2320057169
 20
30.2949651202
 11
-20.8784523263
 21
29.7920184157
  0
LINE
  5
3DA
100
AcDbEntity
  8
0
100
AcDbLine
 62
7
  6
CONTINUOUS
 10
5.8914318994
 20
-9.5651806105
 11
6.283286906
 21
-10.1388668992
  0
LINE
  5
3DB
100
AcDbEntity
  8
0
100
AcDbLine
 62
7
  6
CONTINUOUS
 10
6.4247082623
 20
-10.0572119805
 11
6.0328532556
 21
-9.4835256918
  0
LINE
  5
3DC
100
AcDbEntity
  8
0
100
AcDbLine
 62
7
  6
CONTINUOUS
 10
8.7375367711
 20
-11.9033541798
 11
8.3456816058
 21
-11.3296677509
  0
LWPOLYLINE
  5
3DD
100
AcDbEntity
  8
0
100
AcDbPolyline
 62
7
  6
CONTINUOUS
 90
10
 70
0
 10
12.1762199009
 20
-21.8006023972
 10
12.3457851634
 20
-22.0506896605
 10
12.5227952244
 20
-22.2880748167
 10
12.7072500842
 20
-22.5127578658
 10
12.900361141
 20
-22.7259498075
 10
13.1009169965
 20
-22.926439642
 10
13.3052834555
 20
-23.1105943708
 10
13.5122491197
 20
-23.277202994
 10
13.7230253874
 20
-23.4274765114
 10
13.9376122587
 20
-23.5614149229
  0
LWPOLYLINE
  5
3DE
100
AcDbEntity
  8
0
100
AcDbPolyline
 62
253
  6
CONTINUOUS
 90
8
 70
0
 10
-14.1638880607
 20
23.8278070077
 10
-14.1559455558
 20
23.8146902839
 10
-14.1474694734
 20
23.8019279006
 10
-14.1384819629
 20
23.7895532078
 10
-14.1290065099
 20
23.7775985424
 10
-14.1190678751
 20
23.7660951438
 10
-14.1086920297
 20
23.7550730719
 10
-14.0979060874
 20
23.7445611292
  0
LINE
  5
3DF
100
AcDbEntity
  8
0
100
AcDbLine
 62
7
  6
CONTINUOUS
 10
-15.9188213897
 20
26.7573465338
 11
-14.2115636474
 21
23.8002893856
  0
LINE
  5
3E0
100
AcDbEntity
  8
0
100
AcDbLine
 62
253
  6
CONTINUOUS
 10
-14.1638880607
 20
23.8278070077
 11
-15.8989515679
 21
26.8330251535
  0
LINE
  5
3E1
100
AcDbEntity
  8
0
100
AcDbLine
 62
253
  6
CONTINUOUS
 10
-14.8230507847
 20
26.2957054576
 11
-13.5896102266
 21
24.159323745
  0
LWPOLYLINE
  5
3E2
100
AcDbEntity
  8
0
100
AcDbPolyline
 62
253
  6
CONTINUOUS
 90
13
 70
0
 10
-11.7003620229
 20
23.1820948802
 10
-11.6825429531
 20
23.1472188876
 10
-11.6675209142
 20
23.1114830257
 10
-11.6555559106
 20
23.0754973784
 10
-11.6468551965
 20
23.0398728159
 10
-11.641573253
 20
23.0052246988
 10
-11.639804457
 20
22.972160707
 10
-11.6415790255
 20
22.9412461535
 10
-11.6468664722
 20
22.9130116744
 10
-11.6555708677
 20
22.8879523711
 10
-11.6675358473
 20
22.8664951245
 10
-11.682553203
 20
22.8489964061
 10
-11.7003620229
 20
22.8357486368
  0
LINE
  5
3E3
100
AcDbEntity
  8
0
100
AcDbLine
 62
253
  6
CONTINUOUS
 10
14.8465430838
 20
-32.0854886705
 11
15.1053621289
 21
-32.6432021367
  0
LWPOLYLINE
  5
3E4
100
AcDbEntity
  8
0
100
AcDbPolyline
 62
7
  6
CONTINUOUS
 90
19
 70
0
 10
-4.8287447627
 20
5.69440219
 10
-4.8929740496
 20
5.8581770459
 10
-4.9651993292
 20
6.017773029
 10
-5.0454206015
 20
6.1731901393
 10
-5.1343898268
 20
6.3255375304
 10
-5.2313550447
 20
6.4737060487
 10
-5.3340603747
 20
6.6143682334
 10
-5.4426182953
 20
6.7473518271
 10
-5.5569163278
 20
6.8728290872
 10
-5.6743611561
 20
6.9879893249
 10
-5.7950189022
 20
7.092616062
 10
-5.9188234439
 20
7.1869257768
 10
-6.0429830993
 20
7.2687572151
 10
-6.167502564
 20
7.3378513265
 10
-6.2923771423
 20
7.3944671614
 10
-6.4148010647
 20
7.4372206159
 10
-6.5338390747
 20
7.4656503223
 10
-6.6504264288
 20
7.4802176484
 10
-6.7645631269
 20
7.4809225942
  0
LINE
  5
3E5
100
AcDbEntity
  8
0
100
AcDbLine
 62
7
  6
CONTINUOUS
 10
8.3782441124
 20
-30.9353626719
 11
8.1267281207
 21
-30.1673407366
  0
LWPOLYLINE
  5
3E6
100
AcDbEntity
  8
0
100
AcDbPolyline
 62
7
  6
CONTINUOUS
 90
11
 70
0
 10
8.1267281207
 20
-30.1673407366
 10
8.1166640132
 20
-30.1307244234
 10
8.1101109414
 20
-30.096109755
 10
8.1070689053
 20
-30.0634967314
 10
8.1076232749
 20
-30.0324827139
 10
8.1116886802
 20
-30.0034703413
 10
8.1190090109
 20
-29.9776675295
 10
8.1296787372
 20
-29.9551674462
 10
8.1436033889
 20
-29.9358769238
 10
8.1602434451
 20
-29.9207243752
 10
8.1661702887
 20
-29.9167958478
  0
LWPOLYLINE
  5
3E7
100
AcDbEntity
  8
0
100
AcDbPolyline
 62
7
  6
CONTINUOUS
 90
16
 70
0
 10
4.4822128404
 20
-14.2963784972
 10
4.4871517789
 20
-14.4248158345
 10
4.5019279411
 20
-14.5578993405
 10
4.5264197015
 20
-14.6945335779
 10
4.5604254633
 20
-14.8335938824
 10
4.6036653182
 20
-14.9739356207
 10
4.6557833503
 20
-15.1144036113
 10
4.7163505654
 20
-15.2538416338
 10
4.7848684225
 20
-15.3911019454
 10
4.8607729372
 20
-15.5250547289
 10
4.9434393241
 20
-15.6545973915
 10
5.0321871394
 20
-15.7786636415
 10
5.1262858818
 20
-15.8962322644
 10
5.2249610056
 20
-16.0063355289
 10
5.3274002956
 20
-16.1080671528
 10
5.4327605535
 20
-16.2005897625
  0
LWPOLYLINE
  5
3E8
100
AcDbEntity
  8
0
100
AcDbPolyline
 62
7
  6
CONTINUOUS
 90
6
 70
0
 10
-6.3997205803
 20
-16.3236538965
 10
-6.4097300047
 20
-16.3443469563
 10
-6.4159313492
 20
-16.3623635507
 10
-6.4183246137
 20
-16.3777036796
 10
-6.4168091447
 20
-16.3904892684
 10
-6.4110158969
 20
-16.4011530451
  0
LINE
  5
3E9
100
AcDbEntity
  8
0
100
AcDbLine
 62
253
  6
CONTINUOUS
 10
-6.3920121662
 20
-16.3646530105
 11
-6.3818364626
 21
-16.3437899163
  0
LINE
  5
3EA
100
AcDbEntity
  8
0
100
AcDbLine
 62
7
  6
CONTINUOUS
 10
1.7489646717
 20
-4.2722966682
 11
2.0995717742
 21
-3.6408908323
  0
LINE
  5
3EB
100
AcDbEntity
  8
0
100
AcDbLine
 62
7
  6
CONTINUOUS
 10
-6.3996849489
 20
-16.3235901153
 11
-3.5068896327
 21
-11.1454193517
  0
LINE
  5
3EC
100
AcDbEntity
  8
0
100
AcDbLine
 62
253
  6
CONTINUOUS
 10
-2.4660204524
 20
-11.0160238438
 11
-5.7255210959
 21
-16.8506056603
  0
LINE
  5
3ED
100
AcDbEntity
  8
0
100
AcDbLine
 62
253
  6
CONTINUOUS
 10
-2.3612216391
 20
-11.098834882
 11
-5.6207147692
 21
-16.9334032444
  0
LINE
  5
3EE
100
AcDbEntity
  8
0
100
AcDbLine
 62
253
  6
CONTINUOUS
 10
-4.3947716555
 20
-16.5740115988
 11
-2.0100035599
 21
-12.3052213523
  0
LINE
  5
3EF
100
AcDbEntity
  8
0
100
AcDbLine
 62
253
  6
CONTINUOUS
 10
-1.723376288
 20
-12.3235117029
 11
-4.108141794
 21
-16.592297314
  0
LINE
  5
3F0
100
AcDbEntity
  8
0
100
AcDbLine
 62
7
  6
CONTINUOUS
 10
2.1614436175
 20
-3.5376412117
 11
2.4501788767
 21
-3.0442284083
  0
LINE
  5
3F1
100
AcDbEntity
  8
0
100
AcDbLine
 62
7
  6
CONTINUOUS
 10
2.1614436175
 20
-3.8503319187
 11
1.8727083584
 21
-4.343744722
  0
LINE
  5
3F2
100
AcDbEntity
  8
0
100
AcDbLine
 62
7
  6
CONTINUOUS
 10
2.0141297146
 20
-4.2620898034
 11
2.1964388526
 21
-3.9505460622
  0
LINE
  5
3F3
100
AcDbEntity
  8
0
100
AcDbLine
 62
7
  6
CONTINUOUS
 10
2.5739225634
 20
-3.1156764622
 11
2.2233154609
 21
-3.7123388862
  0
LINE
  5
3F4
100
AcDbEntity
  8
0
100
AcDbLine
 62
7
  6
CONTINUOUS
 10
2.3647368171
 20
-3.6306839675
 11
2.7153439196
 21
-3.0340215435
  0
LWPOLYLINE
  5
3F5
100
AcDbEntity
  8
0
100
AcDbPolyline
 62
253
  6
CONTINUOUS
 90
13
 70
0
 10
-2.9725271288
 20
-10.1966236515
 10
-2.9594340522
 20
-10.1746481913
 10
-2.9432822364
 20
-10.151181021
 10
-2.9243540088
 20
-10.1266018908
 10
-2.9030786086
 20
-10.1014246757
 10
-2.8797196189
 20
-10.0759229549
 10
-2.8542720797
 20
-10.0501131517
 10
-2.8269034423
 20
-10.0242427457
 10
-2.7981628252
 20
-9.9989051889
 10
-2.7686146974
 20
-9.9746433325
 10
-2.7387807473
 20
-9.9519157478
 10
-2.7091207621
 20
-9.9311030454
 10
-2.6801479571
 20
-9.9125998855
  0
LINE
  5
3F6
100
AcDbEntity
  8
0
100
AcDbLine
 62
7
  6
CONTINUOUS
 10
1.7489646717
 20
-2.6393561146
 11
1.8903860279
 21
-2.557701196
  0
LINE
  5
3F7
100
AcDbEntity
  8
0
100
AcDbLine
 62
7
  6
CONTINUOUS
 10
1.8727083584
 20
-2.7108041685
 11
2.0141297146
 21
-2.6291492498
  0
LINE
  5
3F8
100
AcDbEntity
  8
0
100
AcDbLine
 62
7
  6
CONTINUOUS
 10
2.4501788767
 20
-3.0442284083
 11
2.5916002329
 21
-2.9625734897
  0
LINE
  5
3F9
100
AcDbEntity
  8
0
100
AcDbLine
 62
7
  6
CONTINUOUS
 10
2.5739225634
 20
-3.1156764622
 11
2.7153439196
 21
-3.0340215435
  0
LINE
  5
3FA
100
AcDbEntity
  8
0
100
AcDbLine
 62
7
  6
CONTINUOUS
 10
2.7389141653
 20
-3.2109405453
 11
2.8803355216
 21
-3.1292856266
  0
LINE
  5
3FB
100
AcDbEntity
  8
0
100
AcDbLine
 62
7
  6
CONTINUOUS
 10
2.862657852
 20
-3.2823885991
 11
3.0040792083
 21
-3.2007336805
  0
LINE
  5
3FC
100
AcDbEntity
  8
0
100
AcDbLine
 62
7
  6
CONTINUOUS
 10
2.2233154609
 20
-3.7123388862
 11
2.3647368171
 21
-3.6306839675
  0
LWPOLYLINE
  5
3FD
100
AcDbEntity
  8
0
100
AcDbPolyline
 62
253
  6
CONTINUOUS
 90
5
 70
0
 10
-12.0451468602
 20
-8.2223401248
 10
-12.0302373392
 20
-8.2143320817
 10
-12.0183415639
 20
-8.2083082972
 10
-12.0097105945
 20
-8.2043958508
 10
-12.0045264922
 20
-8.2026773098
  0
LINE
  5
3FE
100
AcDbEntity
  8
0
100
AcDbLine
 62
253
  6
CONTINUOUS
 10
-12.0993648159
 20
-8.102560592
 11
-12.114285349
 21
-8.1105503943
  0
LWPOLYLINE
  5
3FF
100
AcDbEntity
  8
0
100
AcDbPolyline
 62
7
  6
CONTINUOUS
 90
13
 70
0
 10
-20.1177007333
 20
-1.2097074359
 10
-20.0739258671
 20
-1.2049647724
 10
-20.0271614396
 20
-1.1970516831
 10
-19.9774074508
 20
-1.1859681679
 10
-19.9238562124
 20
-1.1714459197
 10
-19.8673154127
 20
-1.1537532456
 10
-19.8102081166
 20
-1.1336950671
 10
-19.7525312143
 20
-1.1112105094
 10
-19.6942878156
 20
-1.0863604474
 10
-19.637910314
 20
-1.0601324276
 10
-19.5842095072
 20
-1.0328556321
 10
-19.5323745974
 20
-1.0042008789
 10
-19.4824055846
 20
-0.9741681678
  0
LINE
  5
400
100
AcDbEntity
  8
0
100
AcDbLine
 62
7
  6
CONTINUOUS
 10
-17.5642359456
 20
-0.4303819063
 11
-17.8734626941
 21
-0.4497558505
  0
LINE
  5
401
100
AcDbEntity
  8
0
100
AcDbLine
 62
7
  6
CONTINUOUS
 10
-17.005966609
 20
0.430386771
 11
-16.7546810877
 21
0.4461305309
  0
LINE
  5
402
100
AcDbEntity
  8
0
100
AcDbLine
 62
7
  6
CONTINUOUS
 10
-11.4956541452
 20
2.220758802
 11
-17.2672379065
 21
1.8591524977
  0
LINE
  5
403
100
AcDbEntity
  8
0
100
AcDbLine
 62
253
  6
CONTINUOUS
 10
-16.8049710359
 20
3.4893823829
 11
-12.072996233
 21
3.7858541991
  0
LWPOLYLINE
  5
404
100
AcDbEntity
  8
0
100
AcDbPolyline
 62
7
  6
CONTINUOUS
 90
7
 70
0
 10
-16.7546810877
 20
0.4461305309
 10
-16.7224703231
 20
0.4467255962
 10
-16.6953471604
 20
0.4447246992
 10
-16.6733115995
 20
0.4401278399
 10
-16.6562653372
 20
0.4328179602
 10
-16.6443066767
 20
0.4229121182
 10
-16.6385642957
 20
0.4132585297
  0
LWPOLYLINE
  5
405
100
AcDbEntity
  8
0
100
AcDbPolyline
 62
253
  6
CONTINUOUS
 90
7
 70
0
 10
-17.2767001378
 20
1.8846969296
 10
-17.2983152256
 20
1.8844119658
 10
-17.3162035652
 20
1.8860442133
 10
-17.3301276883
 20
1.8895476899
 10
-17.3398784718
 20
1.8948181311
 10
-17.3454302736
 20
1.9017685901
 10
-17.3457951578
 20
1.9026648057
  0
LINE
  5
406
100
AcDbEntity
  8
0
100
AcDbLine
 62
7
  6
CONTINUOUS
 10
-17.2895700437
 20
1.8589534225
 11
-17.2673090158
 21
1.8591480425
  0
LWPOLYLINE
  5
407
100
AcDbEntity
  8
0
100
AcDbPolyline
 62
253
  6
CONTINUOUS
 90
19
 70
0
 10
-12.072996233
 20
3.7858541991
 10
-11.9769774003
 20
3.7853297612
 10
-11.8788895871
 20
3.7732404905
 10
-11.7787327934
 20
3.7495863868
 10
-11.6757348792
 20
3.7139906605
 10
-11.5706679845
 20
3.6668301013
 10
-11.4658485294
 20
3.6092350787
 10
-11.3612792303
 20
3.5409929782
 10
-11.2569573706
 20
3.4623164143
 10
-11.155191221
 20
3.3749736011
 10
-11.056033343
 20
3.2787860482
 10
-10.959431175
 20
3.1739322461
 10
-10.8675353019
 20
3.0627158793
 10
-10.7804359227
 20
2.9449938429
 10
-10.6980428385
 20
2.820909242
 10
-10.6222360365
 20
2.6931950765
 10
-10.5536421793
 20
2.5627623466
 10
-10.4916346044
 20
2.4287000523
 10
-10.4362133118
 20
2.2910081934
  0
LWPOLYLINE
  5
408
100
AcDbEntity
  8
0
100
AcDbPolyline
 62
253
  6
CONTINUOUS
 90
19
 70
0
 10
-11.9743573488
 20
4.1751672581
 10
-11.864288189
 20
4.1743964001
 10
-11.7497392016
 20
4.159642013
 10
-11.6316055479
 20
4.131033554
 10
-11.5108186078
 20
4.0888076128
 10
-11.3883038543
 20
4.033305598
 10
-11.264972672
 20
3.9649622416
 10
-11.1417722142
 20
3.8843109246
 10
-11.0196525101
 20
3.7919761582
 10
-10.8995245012
 20
3.6886555625
 10
-10.7823066618
 20
3.5751437132
 10
-10.6688996047
 20
3.4523099939
 10
-10.5601559991
 20
3.3210699172
 10
-10.4569081456
 20
3.1824292853
 10
-10.3599507775
 20
3.0374477506
 10
-10.2700239291
 20
2.8872004882
 10
-10.1878219862
 20
2.7328271529
 10
-10.1139836625
 20
2.5755267019
 10
-10.0490820382
 20
2.4165117277
  0
LWPOLYLINE
  5
409
100
AcDbEntity
  8
0
100
AcDbPolyline
 62
7
  6
CONTINUOUS
 90
22
 70
0
 10
-11.2225047797
 20
9.8319631217
 10
-11.0051950646
 20
9.7168580495
 10
-10.791967084
 20
9.6229934463
 10
-10.5828208379
 20
9.5503693122
 10
-10.3765369684
 20
9.4988383363
 10
-10.1743348334
 20
9.4685478294
 10
-9.9798725061
 20
9.4599397237
 10
-9.7932977749
 20
9.4734016683
 10
-9.6144628513
 20
9.5085460141
 10
-9.4465824434
 20
9.5646517467
 10
-9.2898571325
 20
9.6420901944
 10
-9.1440863373
 20
9.7404900289
 10
-9.0118830218
 20
9.858016251
 10
-8.8934906926
 20
9.9950080997
 10
-8.7886658432
 20
10.151126336
 10
-8.699290918
 20
10.3235182436
 10
-8.6256421263
 20
10.5124718955
 10
-8.5674432589
 20
10.7176992187
 10
-8.525748133
 20
10.9354832786
 10
-8.5008505102
 20
11.1660501999
 10
-8.492456629
 20
11.4091738579
 10
-8.4928483767
 20
11.4643576056
  0
LWPOLYLINE
  5
40A
100
AcDbEntity
  8
0
100
AcDbPolyline
 62
7
  6
CONTINUOUS
 90
11
 70
0
 10
-10.6569055114
 20
10.8231087689
 10
-10.4796738102
 20
10.7292082017
 10
-10.3036432902
 20
10.6528056337
 10
-10.1300069914
 20
10.5944188803
 10
-9.9599417273
 20
10.5544436556
 10
-9.7946001088
 20
10.5331508902
 10
-9.6351027324
 20
10.5306848949
 10
-9.4825305855
 20
10.547062383
 10
-9.33791772
 20
10.5821723565
 10
-9.2022442441
 20
10.6357768592
 10
-9.1145796067
 20
10.6832078872
  0
LINE
  5
40B
100
AcDbEntity
  8
0
100
AcDbLine
 62
7
  6
CONTINUOUS
 10
10.8028774344
 20
-7.8669718717
 11
10.9472456983
 21
-7.9850717098
  0
LINE
  5
40C
100
AcDbEntity
  8
0
100
AcDbLine
 62
7
  6
CONTINUOUS
 10
11.0886670545
 20
-7.9034167911
 11
10.9442987906
 21
-7.785316953
  0
LINE
  5
40D
100
AcDbEntity
  8
0
100
AcDbLine
 62
7
  6
CONTINUOUS
 10
9.9160479944
 20
-7.3549276676
 11
10.019168048
 21
-7.449211306
  0
LINE
  5
40E
100
AcDbEntity
  8
0
100
AcDbLine
 62
7
  6
CONTINUOUS
 10
10.9266211211
 20
-8.1468803968
 11
10.8235020116
 21
-8.0525973035
  0
LINE
  5
40F
100
AcDbEntity
  8
0
100
AcDbLine
 62
7
  6
CONTINUOUS
 10
10.1605894042
 20
-7.3675563874
 11
10.0574693506
 21
-7.2732727489
  0
LINE
  5
410
100
AcDbEntity
  8
0
100
AcDbLine
 62
7
  6
CONTINUOUS
 10
10.6997583249
 20
-9.4403727438
 11
10.6172619044
 21
-9.3579969296
  0
LINE
  5
411
100
AcDbEntity
  8
0
100
AcDbLine
 62
7
  6
CONTINUOUS
 10
9.7510560974
 20
-8.684143472
 11
9.8129279408
 21
-8.7546109108
  0
LINE
  5
412
100
AcDbEntity
  8
0
100
AcDbLine
 62
7
  6
CONTINUOUS
 10
9.954349297
 20
-8.6729559921
 11
9.8924774536
 21
-8.6024885533
  0
LINE
  5
413
100
AcDbEntity
  8
0
100
AcDbLine
 62
7
  6
CONTINUOUS
 10
9.7304324643
 20
-8.0815975695
 11
9.7923043077
 21
-8.1520650084
  0
LINE
  5
414
100
AcDbEntity
  8
0
100
AcDbLine
 62
7
  6
CONTINUOUS
 10
9.9337256639
 20
-8.0704100897
 11
9.8718538205
 21
-7.9999426509
  0
LINE
  5
415
100
AcDbEntity
  8
0
100
AcDbLine
 62
7
  6
CONTINUOUS
 10
9.9985434708
 20
-7.6110199931
 11
9.9366716275
 21
-7.5405525543
  0
LINE
  5
416
100
AcDbEntity
  8
0
100
AcDbLine
 62
7
  6
CONTINUOUS
 10
10.9884929645
 20
-8.7732425233
 11
11.0916130181
 21
-8.9022695736
  0
LINE
  5
417
100
AcDbEntity
  8
0
100
AcDbLine
 62
7
  6
CONTINUOUS
 10
11.2330343743
 20
-8.8206146549
 11
11.1299143207
 21
-8.6915876046
  0
LINE
  5
418
100
AcDbEntity
  8
0
100
AcDbLine
 62
7
  6
CONTINUOUS
 10
7.9950746508
 20
-10.3628765303
 11
8.0775703633
 21
-10.4799953445
  0
LINE
  5
419
100
AcDbEntity
  8
0
100
AcDbLine
 62
7
  6
CONTINUOUS
 10
8.2189917195
 20
-10.3983404259
 11
8.1364960071
 21
-10.2812216116
  0
LINE
  5
41A
100
AcDbEntity
  8
0
100
AcDbLine
 62
7
  6
CONTINUOUS
 10
10.6172619044
 20
-9.3579969296
 11
10.5347664279
 21
-9.2408782425
  0
LINE
  5
41B
100
AcDbEntity
  8
0
100
AcDbLine
 62
7
  6
CONTINUOUS
 10
10.5760146382
 20
-9.1257207824
 11
10.6172619043
 21
-9.1842798488
  0
LINE
  5
41C
100
AcDbEntity
  8
0
100
AcDbLine
 62
7
  6
CONTINUOUS
 10
10.7586832606
 20
-9.1026249301
 11
10.7174359944
 21
-9.0440658637
  0
LINE
  5
41D
100
AcDbEntity
  8
0
100
AcDbLine
 62
7
  6
CONTINUOUS
 10
10.9472456983
 20
-7.9850717098
 11
11.0297411747
 21
-8.1021903877
  0
LINE
  5
41E
100
AcDbEntity
  8
0
100
AcDbLine
 62
7
  6
CONTINUOUS
 10
11.171162531
 20
-8.0205354691
 11
11.0886670545
 21
-7.9034167911
  0
LWPOLYLINE
  5
41F
100
AcDbEntity
  8
0
100
AcDbPolyline
 62
7
  6
CONTINUOUS
 90
5
 70
0
 10
-14.2115636474
 20
23.8002893856
 10
-14.1926521925
 20
23.7714909657
 10
-14.1710569947
 20
23.7455773642
 10
-14.1463848271
 20
23.7219921454
 10
-14.1373354661
 20
23.7145771222
  0
LINE
  5
420
100
AcDbEntity
  8
0
100
AcDbLine
 62
7
  6
CONTINUOUS
 10
9.7304324643
 20
-8.8459527255
 11
9.6273128827
 21
-8.6821825267
  0
LINE
  5
421
100
AcDbEntity
  8
0
100
AcDbLine
 62
7
  6
CONTINUOUS
 10
9.7098088312
 20
-8.2434068017
 11
9.6066887776
 21
-8.0796363395
  0
LINE
  5
422
100
AcDbEntity
  8
0
100
AcDbLine
 62
7
  6
CONTINUOUS
 10
10.019168048
 20
-7.449211306
 11
10.1222871575
 21
-7.6129812232
  0
LINE
  5
423
100
AcDbEntity
  8
0
100
AcDbLine
 62
7
  6
CONTINUOUS
 10
7.5619716293
 20
-11.3983146597
 11
7.6238434727
 21
-11.5035255348
  0
LINE
  5
424
100
AcDbEntity
  8
0
100
AcDbLine
 62
7
  6
CONTINUOUS
 10
7.7652648289
 20
-11.4218706161
 11
7.7033929856
 21
-11.3166597411
  0
LINE
  5
425
100
AcDbEntity
  8
0
100
AcDbLine
 62
7
  6
CONTINUOUS
 10
8.036322389
 20
-10.6646397525
 11
7.9744505457
 21
-10.5594289018
  0
LINE
  5
426
100
AcDbEntity
  8
0
100
AcDbLine
 62
7
  6
CONTINUOUS
 10
9.689184254
 20
-8.5789326213
 11
9.7510560974
 21
-8.684143472
  0
LINE
  5
427
100
AcDbEntity
  8
0
100
AcDbLine
 62
7
  6
CONTINUOUS
 10
9.8924774536
 20
-8.6024885533
 11
9.8306056103
 21
-8.4972777026
  0
LINE
  5
428
100
AcDbEntity
  8
0
100
AcDbLine
 62
7
  6
CONTINUOUS
 10
9.668560621
 20
-7.9763867189
 11
9.7304324643
 21
-8.0815975695
  0
LINE
  5
429
100
AcDbEntity
  8
0
100
AcDbLine
 62
7
  6
CONTINUOUS
 10
10.5347664279
 20
-9.2408782425
 11
10.4728945846
 21
-9.1356673796
  0
LINE
  5
42A
100
AcDbEntity
  8
0
100
AcDbLine
 62
7
  6
CONTINUOUS
 10
9.8718538205
 20
-7.9999426509
 11
9.8099819772
 21
-7.8947318002
  0
LWPOLYLINE
  5
42B
100
AcDbEntity
  8
0
100
AcDbPolyline
 62
7
  6
CONTINUOUS
 90
13
 70
0
 10
12.9392951392
 20
-20.8907371284
 10
13.0431200652
 20
-21.068901542
 10
13.1536319292
 20
-21.2425478655
 10
13.2703246081
 20
-21.4108808322
 10
13.3926636719
 20
-21.5731295094
 10
13.5200888312
 20
-21.7285508295
 10
13.6520165034
 20
-21.8764329925
 10
13.787842485
 20
-22.0160987268
 10
13.9269447191
 20
-22.1469083901
 10
14.0686861444
 20
-22.2682628994
 10
14.2124176123
 20
-22.3796064742
 10
14.3574808605
 20
-22.4804291825
 10
14.503211527
 20
-22.5702692757
  0
LINE
  5
42C
100
AcDbEntity
  8
0
100
AcDbLine
 62
253
  6
CONTINUOUS
 10
-14.1062166922
 20
25.8818144366
 11
-13.2312032524
 21
24.3662467032
  0
LINE
  5
42D
100
AcDbEntity
  8
0
100
AcDbLine
 62
7
  6
CONTINUOUS
 10
7.0463730134
 20
-9.8151080949
 11
7.1288687259
 21
-9.966970321
  0
LINE
  5
42E
100
AcDbEntity
  8
0
100
AcDbLine
 62
7
  6
CONTINUOUS
 10
7.2702900821
 20
-9.8853154024
 11
7.1877943696
 21
-9.7334531762
  0
LINE
  5
42F
100
AcDbEntity
  8
0
100
AcDbLine
 62
7
  6
CONTINUOUS
 10
7.5207237731
 20
-11.5829591724
 11
7.4382279426
 21
-11.396353454
  0
LINE
  5
430
100
AcDbEntity
  8
0
100
AcDbLine
 62
7
  6
CONTINUOUS
 10
7.0669968825
 20
-10.0702199417
 11
7.0257490263
 21
-9.9769171226
  0
LINE
  5
431
100
AcDbEntity
  8
0
100
AcDbLine
 62
7
  6
CONTINUOUS
 10
8.0775703633
 20
-10.4799953445
 11
8.1600660758
 21
-10.6666009826
  0
LINE
  5
432
100
AcDbEntity
  8
0
100
AcDbLine
 62
7
  6
CONTINUOUS
 10
8.301487432
 20
-10.5849460639
 11
8.2189917195
 21
-10.3983404259
  0
LWPOLYLINE
  5
433
100
AcDbEntity
  8
0
100
AcDbPolyline
 62
7
  6
CONTINUOUS
 90
28
 70
0
 10
-5.4291117458
 20
20.8717627902
 10
-5.2969416491
 20
20.5500324686
 10
-5.0302988992
 20
19.9670478269
 10
-4.7390071292
 20
19.3893416339
 10
-4.4268022938
 20
18.8240345161
 10
-4.0934594381
 20
18.2712910598
 10
-3.739203517
 20
17.7309466788
 10
-3.3684453497
 20
17.2096282403
 10
-2.9810063532
 20
16.7075579478
 10
-2.5770651106
 20
16.2245135978
 10
-2.1615681897
 20
15.7664554481
 10
-1.7343614715
 20
15.3336430139
 10
-1.295599075
 20
14.92581678
 10
-0.850689926
 20
14.548158458
 10
-0.399160762
 20
14.2008688387
 10
0.0585151546
 20
13.8837471313
 10
0.515509111
 20
13.6013726758
 10
0.9708445814
 20
13.3546142913
 10
1.4254980916
 20
13.1426031587
 10
1.8755705069
 20
12.9673121608
 10
2.3219115692
 20
12.8287042187
 10
2.7636715365
 20
12.7268164113
 10
3.1944020482
 20
12.6637328587
 10
3.6139057881
 20
12.6401736884
 10
4.0223800724
 20
12.6554187727
 10
4.4139684897
 20
12.7093918488
 10
4.7867189028
 20
12.8020674955
 10
4.997025022
 20
12.879723417
  0
LINE
  5
434
100
AcDbEntity
  8
0
100
AcDbLine
 62
7
  6
CONTINUOUS
 10
7.1288687259
 20
-9.966970321
 11
7.1907405692
 21
-10.1416679955
  0
LINE
  5
435
100
AcDbEntity
  8
0
100
AcDbLine
 62
7
  6
CONTINUOUS
 10
7.3321619255
 20
-10.0600130768
 11
7.2702900821
 21
-9.8853154024
  0
LINE
  5
436
100
AcDbEntity
  8
0
100
AcDbLine
 62
7
  6
CONTINUOUS
 10
2.0995717742
 20
-3.6408908323
 11
1.7489646717
 21
-2.6393561146
  0
LINE
  5
437
100
AcDbEntity
  8
0
100
AcDbLine
 62
7
  6
CONTINUOUS
 10
3.0895212383
 20
-4.2124752459
 11
2.7389141653
 21
-3.2109405453
  0
LINE
  5
438
100
AcDbEntity
  8
0
100
AcDbLine
 62
7
  6
CONTINUOUS
 10
4.07947085
 20
-4.7840597447
 11
3.728863659
 21
-3.7825249759
  0
LINE
  5
439
100
AcDbEntity
  8
0
100
AcDbLine
 62
7
  6
CONTINUOUS
 10
5.0694203437
 20
-5.3556441754
 11
4.7188131527
 21
-4.3541094066
  0
LINE
  5
43A
100
AcDbEntity
  8
0
100
AcDbLine
 62
7
  6
CONTINUOUS
 10
2.4501788767
 20
-4.6771689619
 11
2.1614436175
 21
-3.8503319187
  0
LINE
  5
43B
100
AcDbEntity
  8
0
100
AcDbLine
 62
7
  6
CONTINUOUS
 10
1.8727083584
 20
-2.7108041685
 11
2.1614436175
 21
-3.5376412117
  0
LINE
  5
43C
100
AcDbEntity
  8
0
100
AcDbLine
 62
7
  6
CONTINUOUS
 10
2.2678697387
 20
-3.3557721495
 11
2.0141297146
 21
-2.6291492498
  0
LINE
  5
43D
100
AcDbEntity
  8
0
100
AcDbLine
 62
7
  6
CONTINUOUS
 10
3.4401284293
 20
-5.2487534266
 11
3.1513930817
 21
-4.4219163323
  0
LINE
  5
43E
100
AcDbEntity
  8
0
100
AcDbLine
 62
7
  6
CONTINUOUS
 10
2.862657852
 20
-3.2823885991
 11
3.1513930817
 21
-4.1092256253
  0
LINE
  5
43F
100
AcDbEntity
  8
0
100
AcDbLine
 62
7
  6
CONTINUOUS
 10
3.2578192209
 20
-3.9273566068
 11
3.0040792083
 21
-3.2007336805
  0
LINE
  5
440
100
AcDbEntity
  8
0
100
AcDbLine
 62
7
  6
CONTINUOUS
 10
4.430077805
 20
-5.8203377892
 11
4.1413426934
 21
-4.9935008311
  0
LINE
  5
441
100
AcDbEntity
  8
0
100
AcDbLine
 62
7
  6
CONTINUOUS
 10
3.8526073457
 20
-3.8539730298
 11
4.1413426934
 21
-4.6808101241
  0
LINE
  5
442
100
AcDbEntity
  8
0
100
AcDbLine
 62
7
  6
CONTINUOUS
 10
4.247768782
 20
-4.4989409932
 11
3.9940287019
 21
-3.7723181111
  0
LINE
  5
443
100
AcDbEntity
  8
0
100
AcDbLine
 62
7
  6
CONTINUOUS
 10
5.4200272987
 20
-6.3919222198
 11
5.131292187
 21
-5.5650852618
  0
LINE
  5
444
100
AcDbEntity
  8
0
100
AcDbLine
 62
7
  6
CONTINUOUS
 10
4.8425568394
 20
-4.4255574604
 11
5.131292187
 21
-5.2523945548
  0
LINE
  5
445
100
AcDbEntity
  8
0
100
AcDbLine
 62
7
  6
CONTINUOUS
 10
5.2377182756
 20
-5.0705254239
 11
4.9839781956
 21
-4.3439025418
  0
LINE
  5
446
100
AcDbEntity
  8
0
100
AcDbLine
 62
7
  6
CONTINUOUS
 10
2.2233154609
 20
-3.7123388862
 11
2.5739225634
 21
-4.7486170157
  0
LINE
  5
447
100
AcDbEntity
  8
0
100
AcDbLine
 62
7
  6
CONTINUOUS
 10
2.7153439196
 20
-4.6669620971
 11
2.3647368171
 21
-3.6306839675
  0
LINE
  5
448
100
AcDbEntity
  8
0
100
AcDbLine
 62
7
  6
CONTINUOUS
 10
3.213264925
 20
-4.2839232998
 11
3.5638721161
 21
-5.3202014805
  0
LINE
  5
449
100
AcDbEntity
  8
0
100
AcDbLine
 62
7
  6
CONTINUOUS
 10
3.7052934723
 20
-5.2385465618
 11
3.3546862813
 21
-4.2022683811
  0
LINE
  5
44A
100
AcDbEntity
  8
0
100
AcDbLine
 62
7
  6
CONTINUOUS
 10
4.2032145367
 20
-4.8555077986
 11
4.5538214917
 21
-5.891785843
  0
LINE
  5
44B
100
AcDbEntity
  8
0
100
AcDbLine
 62
7
  6
CONTINUOUS
 10
4.6952428479
 20
-5.8101309243
 11
4.3446358929
 21
-4.7738528799
  0
LINE
  5
44C
100
AcDbEntity
  8
0
100
AcDbLine
 62
7
  6
CONTINUOUS
 10
5.1931640304
 20
-5.4270922292
 11
5.5437709854
 21
-6.4633702736
  0
LINE
  5
44D
100
AcDbEntity
  8
0
100
AcDbLine
 62
7
  6
CONTINUOUS
 10
5.6851923416
 20
-6.381715355
 11
5.3345853866
 21
-5.3454373106
  0
LINE
  5
44E
100
AcDbEntity
  8
0
100
AcDbLine
 62
7
  6
CONTINUOUS
 10
5.8914318993
 20
-10.260048897
 11
5.8501840026
 21
-10.1320026426
  0
LINE
  5
44F
100
AcDbEntity
  8
0
100
AcDbLine
 62
7
  6
CONTINUOUS
 10
7.5207237731
 20
-11.2702684289
 11
7.5619716293
 21
-11.3983146597
  0
LINE
  5
450
100
AcDbEntity
  8
0
100
AcDbLine
 62
7
  6
CONTINUOUS
 10
7.7033929856
 20
-11.3166597411
 11
7.6621451293
 21
-11.1886135102
  0
LINE
  5
451
100
AcDbEntity
  8
0
100
AcDbLine
 62
7
  6
CONTINUOUS
 10
7.4382279426
 20
-11.396353454
 11
7.3969800864
 21
-11.2335637869
  0
LINE
  5
452
100
AcDbEntity
  8
0
100
AcDbLine
 62
7
  6
CONTINUOUS
 10
5.7087626463
 20
-5.96799634
 11
5.7087626463
 21
-5.7942792319
  0
LINE
  5
453
100
AcDbEntity
  8
0
100
AcDbLine
 62
7
  6
CONTINUOUS
 10
5.9974977579
 20
-5.9609912666
 11
5.9974977579
 21
-6.1347083748
  0
LINE
  5
454
100
AcDbEntity
  8
0
100
AcDbLine
 62
7
  6
CONTINUOUS
 10
6.1389191142
 20
-5.879336348
 11
6.1389191142
 21
-6.0530534561
  0
LINE
  5
455
100
AcDbEntity
  8
0
100
AcDbLine
 62
7
  6
CONTINUOUS
 10
6.1624896549
 20
-6.3342028639
 11
6.1624896549
 21
-6.1257423439
  0
LINE
  5
456
100
AcDbEntity
  8
0
100
AcDbLine
 62
7
  6
CONTINUOUS
 10
6.448278508
 20
-11.067972965
 11
6.448278508
 21
-9.4350324114
  0
LINE
  5
457
100
AcDbEntity
  8
0
100
AcDbLine
 62
7
  6
CONTINUOUS
 10
6.5720221947
 20
-9.6801975247
 11
6.5720221947
 21
-10.2013488004
  0
LINE
  5
458
100
AcDbEntity
  8
0
100
AcDbLine
 62
7
  6
CONTINUOUS
 10
6.5720221947
 20
-10.4098092718
 11
6.5720221947
 21
-11.1394210189
  0
LINE
  5
459
100
AcDbEntity
  8
0
100
AcDbLine
 62
7
  6
CONTINUOUS
 10
6.6574644018
 20
-7.1064028944
 11
6.6574644018
 21
-6.6199950793
  0
LINE
  5
45A
100
AcDbEntity
  8
0
100
AcDbLine
 62
7
  6
CONTINUOUS
 10
6.6574644018
 20
-6.4115345592
 11
6.6574644018
 21
-5.751409636
  0
LINE
  5
45B
100
AcDbEntity
  8
0
100
AcDbLine
 62
7
  6
CONTINUOUS
 10
6.7134435509
 20
-9.7618524434
 11
6.7134435509
 21
-10.1196938818
  0
LINE
  5
45C
100
AcDbEntity
  8
0
100
AcDbLine
 62
7
  6
CONTINUOUS
 10
6.7134435509
 20
-10.4914641905
 11
6.7134435509
 21
-11.0577661002
  0
LINE
  5
45D
100
AcDbEntity
  8
0
100
AcDbLine
 62
7
  6
CONTINUOUS
 10
6.7812080885
 20
-5.5449103947
 11
6.7812080885
 21
-6.4829826131
  0
LINE
  5
45E
100
AcDbEntity
  8
0
100
AcDbLine
 62
7
  6
CONTINUOUS
 10
6.7812080885
 20
-6.6914431331
 11
6.7812080885
 21
-7.1778509482
  0
LINE
  5
45F
100
AcDbEntity
  8
0
100
AcDbLine
 62
7
  6
CONTINUOUS
 10
6.9226294447
 20
-5.463255476
 11
6.9226294447
 21
-6.4013276944
  0
LINE
  5
460
100
AcDbEntity
  8
0
100
AcDbLine
 62
7
  6
CONTINUOUS
 10
6.9226294447
 20
-6.7730980518
 11
6.9226294447
 21
-7.0961960296
  0
LINE
  5
461
100
AcDbEntity
  8
0
100
AcDbLine
 62
7
  6
CONTINUOUS
 10
6.9874472516
 20
-6.6020625211
 11
6.9874472516
 21
-6.8105230411
  0
LINE
  5
462
100
AcDbEntity
  8
0
100
AcDbLine
 62
7
  6
CONTINUOUS
 10
7.0876208696
 20
-10.290588542
 11
7.0876208696
 21
-10.186358209
  0
LINE
  5
463
100
AcDbEntity
  8
0
100
AcDbLine
 62
7
  6
CONTINUOUS
 10
7.1288686078
 20
-6.5204076024
 11
7.1288686078
 21
-6.7288681224
  0
LINE
  5
464
100
AcDbEntity
  8
0
100
AcDbLine
 62
7
  6
CONTINUOUS
 10
7.1524391486
 20
-6.8015570589
 11
7.1524391486
 21
-6.6278399508
  0
LINE
  5
465
100
AcDbEntity
  8
0
100
AcDbLine
 62
7
  6
CONTINUOUS
 10
7.2113645563
 20
-10.2578062629
 11
7.2113645563
 21
-10.3967800078
  0
LINE
  5
466
100
AcDbEntity
  8
0
100
AcDbLine
 62
7
  6
CONTINUOUS
 10
7.3527859126
 20
-10.1761513442
 11
7.3527859126
 21
-10.3151250891
  0
LINE
  5
467
100
AcDbEntity
  8
0
100
AcDbLine
 62
7
  6
CONTINUOUS
 10
7.3763560993
 20
-11.0479386958
 11
7.3763560993
 21
-10.5267874687
  0
LINE
  5
468
100
AcDbEntity
  8
0
100
AcDbLine
 62
7
  6
CONTINUOUS
 10
7.4411742602
 20
-6.7945519855
 11
7.4411742602
 21
-6.9682690937
  0
LINE
  5
469
100
AcDbEntity
  8
0
100
AcDbLine
 62
7
  6
CONTINUOUS
 10
7.500099786
 20
-10.5982355226
 11
7.500099786
 21
-11.1193867496
  0
LINE
  5
46A
100
AcDbEntity
  8
0
100
AcDbLine
 62
7
  6
CONTINUOUS
 10
7.5825956165
 20
-6.7128970669
 11
7.5825956165
 21
-6.886614175
  0
LINE
  5
46B
100
AcDbEntity
  8
0
100
AcDbLine
 62
7
  6
CONTINUOUS
 10
7.6061656851
 20
-7.1677633103
 11
7.6061656851
 21
-6.9593027903
  0
LINE
  5
46C
100
AcDbEntity
  8
0
100
AcDbLine
 62
7
  6
CONTINUOUS
 10
7.6415211422
 20
-10.5165806039
 11
7.6415211422
 21
-11.0377318309
  0
LINE
  5
46D
100
AcDbEntity
  8
0
100
AcDbLine
 62
7
  6
CONTINUOUS
 10
8.101140432
 20
-7.9399633408
 11
8.101140432
 21
-7.4535555256
  0
LINE
  5
46E
100
AcDbEntity
  8
0
100
AcDbLine
 62
7
  6
CONTINUOUS
 10
8.101140432
 20
-7.2450950056
 11
8.101140432
 21
-6.5849700823
  0
LINE
  5
46F
100
AcDbEntity
  8
0
100
AcDbLine
 62
7
  6
CONTINUOUS
 10
8.2248841187
 20
-6.378470841
 11
8.2248841187
 21
-7.3165430594
  0
LINE
  5
470
100
AcDbEntity
  8
0
100
AcDbLine
 62
7
  6
CONTINUOUS
 10
8.2248841187
 20
-7.5250035794
 11
8.2248841187
 21
-8.0114113946
  0
LINE
  5
471
100
AcDbEntity
  8
0
100
AcDbLine
 62
7
  6
CONTINUOUS
 10
8.3663054749
 20
-6.2968159223
 11
8.3663054749
 21
-7.2348881408
  0
LINE
  5
472
100
AcDbEntity
  8
0
100
AcDbLine
 62
7
  6
CONTINUOUS
 10
8.3663054749
 20
-7.6066584981
 11
8.3663054749
 21
-7.9297564759
  0
LINE
  5
473
100
AcDbEntity
  8
0
100
AcDbLine
 62
7
  6
CONTINUOUS
 10
8.4311237539
 20
-7.43562324
 11
8.4311237539
 21
-7.64408376
  0
LINE
  5
474
100
AcDbEntity
  8
0
100
AcDbLine
 62
7
  6
CONTINUOUS
 10
8.5725451101
 20
-7.3539683213
 11
8.5725451101
 21
-7.5624288413
  0
LINE
  5
475
100
AcDbEntity
  8
0
100
AcDbLine
 62
7
  6
CONTINUOUS
 10
8.5961151788
 20
-6.766532062
 11
8.5961151788
 21
-6.5928150025
  0
LINE
  5
476
100
AcDbEntity
  8
0
100
AcDbLine
 62
7
  6
CONTINUOUS
 10
7.3763560993
 20
-10.5267874687
 11
7.3969800864
 21
-10.3649783436
  0
LWPOLYLINE
  5
477
100
AcDbEntity
  8
0
100
AcDbPolyline
 62
7
  6
CONTINUOUS
 90
19
 70
0
 10
3.4416845162
 20
-9.5953756122
 10
3.4920936303
 20
-9.4894725726
 10
3.5316107504
 20
-9.3751049108
 10
3.5602358764
 20
-9.2522726267
 10
3.5779884232
 20
-9.1199045719
 10
3.584848976
 20
-8.9790718948
 10
3.5807592897
 20
-8.8329880408
 10
3.5654932391
 20
-8.6815413409
 10
3.5392769496
 20
-8.5248434641
 10
3.5027305524
 20
-8.3664428617
 10
3.4556372012
 20
-8.2063036968
 10
3.3982137425
 20
-8.0444618065
 10
3.3317308461
 20
-7.8845731527
 10
3.255989119
 20
-7.7266645629
 10
3.1711879543
 20
-7.5707092097
 10
3.079196202
 20
-7.4202825732
 10
2.9806368119
 20
-7.2765764801
 10
2.8748868341
 20
-7.1383991037
 10
2.7619462686
 20
-7.0057504439
  0
LINE
  5
478
100
AcDbEntity
  8
0
100
AcDbLine
 62
7
  6
CONTINUOUS
 10
2.7389141653
 20
-4.8438810989
 11
3.0895212383
 21
-4.2124752459
  0
LINE
  5
479
100
AcDbEntity
  8
0
100
AcDbLine
 62
7
  6
CONTINUOUS
 10
3.728863659
 20
-5.4154655295
 11
4.07947085
 21
-4.7840597447
  0
LINE
  5
47A
100
AcDbEntity
  8
0
100
AcDbLine
 62
7
  6
CONTINUOUS
 10
4.7188131527
 20
-5.9870499602
 11
5.0694203437
 21
-5.3556441754
  0
LINE
  5
47B
100
AcDbEntity
  8
0
100
AcDbLine
 62
7
  6
CONTINUOUS
 10
0.8351017292
 20
-14.2612193049
 11
3.4416845162
 21
-9.5953756122
  0
LINE
  5
47C
100
AcDbEntity
  8
0
100
AcDbLine
 62
7
  6
CONTINUOUS
 10
3.1513930817
 20
-4.1092256253
 11
3.4401284293
 21
-3.6158128731
  0
LINE
  5
47D
100
AcDbEntity
  8
0
100
AcDbLine
 62
7
  6
CONTINUOUS
 10
3.1513930817
 20
-4.4219163323
 11
2.862657852
 21
-4.9153291527
  0
LINE
  5
47E
100
AcDbEntity
  8
0
100
AcDbLine
 62
7
  6
CONTINUOUS
 10
3.0040792083
 20
-4.833674234
 11
3.1863883276
 21
-4.5221304822
  0
LINE
  5
47F
100
AcDbEntity
  8
0
100
AcDbLine
 62
7
  6
CONTINUOUS
 10
4.1413426934
 20
-4.6808101241
 11
4.430077805
 21
-4.1873972356
  0
LINE
  5
480
100
AcDbEntity
  8
0
100
AcDbLine
 62
7
  6
CONTINUOUS
 10
4.1413426934
 20
-4.9935008311
 11
3.8526073457
 21
-5.4869135834
  0
LINE
  5
481
100
AcDbEntity
  8
0
100
AcDbLine
 62
7
  6
CONTINUOUS
 10
3.9940287019
 20
-5.4052586647
 11
4.1763379032
 21
-5.0937149432
  0
LINE
  5
482
100
AcDbEntity
  8
0
100
AcDbLine
 62
7
  6
CONTINUOUS
 10
5.131292187
 20
-5.2523945548
 11
5.4200272987
 21
-4.7589816662
  0
LINE
  5
483
100
AcDbEntity
  8
0
100
AcDbLine
 62
7
  6
CONTINUOUS
 10
5.131292187
 20
-5.5650852618
 11
4.8425568394
 21
-6.058498014
  0
LINE
  5
484
100
AcDbEntity
  8
0
100
AcDbLine
 62
7
  6
CONTINUOUS
 10
4.9839781956
 20
-5.9768430954
 11
5.1662873968
 21
-5.6652993738
  0
LINE
  5
485
100
AcDbEntity
  8
0
100
AcDbLine
 62
7
  6
CONTINUOUS
 10
3.5638721161
 20
-3.6872609269
 11
3.213264925
 21
-4.2839232998
  0
LINE
  5
486
100
AcDbEntity
  8
0
100
AcDbLine
 62
7
  6
CONTINUOUS
 10
3.3546862813
 20
-4.2022683811
 11
3.7052934723
 21
-3.6056060082
  0
LINE
  5
487
100
AcDbEntity
  8
0
100
AcDbLine
 62
7
  6
CONTINUOUS
 10
4.5538214917
 20
-4.2588452894
 11
4.2032145367
 21
-4.8555077986
  0
LINE
  5
488
100
AcDbEntity
  8
0
100
AcDbLine
 62
7
  6
CONTINUOUS
 10
4.3446358929
 20
-4.7738528799
 11
4.6952428479
 21
-4.1771903707
  0
LINE
  5
489
100
AcDbEntity
  8
0
100
AcDbLine
 62
7
  6
CONTINUOUS
 10
5.5437709854
 20
-4.8304297201
 11
5.1931640304
 21
-5.4270922292
  0
LINE
  5
48A
100
AcDbEntity
  8
0
100
AcDbLine
 62
7
  6
CONTINUOUS
 10
5.3345853866
 20
-5.3454373106
 11
5.6851923416
 21
-4.7487748014
  0
LWPOLYLINE
  5
48B
100
AcDbEntity
  8
0
100
AcDbPolyline
 62
253
  6
CONTINUOUS
 90
6
 70
0
 10
-4.1082051525
 20
-16.5922182441
 10
-4.1656887487
 20
-16.678880283
 10
-4.2347909714
 20
-16.7570267393
 10
-4.3150138472
 20
-16.8262340046
 10
-4.4052966533
 20
-16.8858525549
 10
-4.4752873871
 20
-16.9223863387
  0
LINE
  5
48C
100
AcDbEntity
  8
0
100
AcDbLine
 62
253
  6
CONTINUOUS
 10
-4.3947716555
 20
-16.5740115988
 11
-4.444639171
 21
-16.6485759147
  0
LINE
  5
48D
100
AcDbEntity
  8
0
100
AcDbLine
 62
7
  6
CONTINUOUS
 10
6.1624896549
 20
-6.1257423439
 11
6.6574644018
 21
-5.4734623408
  0
LWPOLYLINE
  5
48E
100
AcDbEntity
  8
0
100
AcDbPolyline
 62
253
  6
CONTINUOUS
 90
10
 70
0
 10
-2.0888448379
 20
-10.879036169
 10
-2.1135265385
 20
-10.9099959544
 10
-2.1409824207
 20
-10.9406307726
 10
-2.1706698381
 20
-10.9703351499
 10
-2.20200306
 20
-10.9985228657
 10
-2.2343618569
 20
-11.0246358101
 10
-2.2671035105
 20
-11.0481557446
 10
-2.2995799461
 20
-11.0686180823
 10
-2.331150748
 20
-11.0856202698
 10
-2.3611926527
 20
-11.0988274913
  0
LWPOLYLINE
  5
48F
100
AcDbEntity
  8
0
100
AcDbPolyline
 62
253
  6
CONTINUOUS
 90
5
 70
0
 10
-4.444639171
 20
-16.6485759147
 10
-4.5040277876
 20
-16.7154041289
 10
-4.5729375052
 20
-16.7744962415
 10
-4.6513358863
 20
-16.8259808438
 10
-4.7392553684
 20
-16.8697293444
  0
LINE
  5
490
100
AcDbEntity
  8
0
100
AcDbLine
 62
7
  6
CONTINUOUS
 10
1.8727083584
 20
-4.343744722
 11
2.0141297146
 21
-4.2620898034
  0
LINE
  5
491
100
AcDbEntity
  8
0
100
AcDbLine
 62
7
  6
CONTINUOUS
 10
3.4401284293
 20
-3.6158128731
 11
3.5815497856
 21
-3.5341579544
  0
LINE
  5
492
100
AcDbEntity
  8
0
100
AcDbLine
 62
7
  6
CONTINUOUS
 10
3.5638721161
 20
-3.6872609269
 11
3.7052934723
 21
-3.6056060082
  0
LINE
  5
493
100
AcDbEntity
  8
0
100
AcDbLine
 62
7
  6
CONTINUOUS
 10
3.728863659
 20
-3.7825249759
 11
3.8702850152
 21
-3.7008700573
  0
LINE
  5
494
100
AcDbEntity
  8
0
100
AcDbLine
 62
7
  6
CONTINUOUS
 10
3.8526073457
 20
-3.8539730298
 11
3.9940287019
 21
-3.7723181111
  0
LINE
  5
495
100
AcDbEntity
  8
0
100
AcDbLine
 62
7
  6
CONTINUOUS
 10
3.213264925
 20
-4.2839232998
 11
3.3546862813
 21
-4.2022683811
  0
LINE
  5
496
100
AcDbEntity
  8
0
100
AcDbLine
 62
7
  6
CONTINUOUS
 10
2.5739225634
 20
-4.7486170157
 11
2.7153439196
 21
-4.6669620971
  0
LINE
  5
497
100
AcDbEntity
  8
0
100
AcDbLine
 62
7
  6
CONTINUOUS
 10
2.862657852
 20
-4.9153291527
 11
3.0040792083
 21
-4.833674234
  0
LINE
  5
498
100
AcDbEntity
  8
0
100
AcDbLine
 62
7
  6
CONTINUOUS
 10
4.430077805
 20
-4.1873972356
 11
4.5714991612
 21
-4.1057423169
  0
LINE
  5
499
100
AcDbEntity
  8
0
100
AcDbLine
 62
7
  6
CONTINUOUS
 10
4.5538214917
 20
-4.2588452894
 11
4.6952428479
 21
-4.1771903707
  0
LINE
  5
49A
100
AcDbEntity
  8
0
100
AcDbLine
 62
7
  6
CONTINUOUS
 10
4.7188131527
 20
-4.3541094066
 11
4.8602345089
 21
-4.2724544879
  0
LINE
  5
49B
100
AcDbEntity
  8
0
100
AcDbLine
 62
7
  6
CONTINUOUS
 10
4.8425568394
 20
-4.4255574604
 11
4.9839781956
 21
-4.3439025418
  0
LINE
  5
49C
100
AcDbEntity
  8
0
100
AcDbLine
 62
7
  6
CONTINUOUS
 10
4.2032145367
 20
-4.8555077986
 11
4.3446358929
 21
-4.7738528799
  0
LINE
  5
49D
100
AcDbEntity
  8
0
100
AcDbLine
 62
7
  6
CONTINUOUS
 10
3.5638721161
 20
-5.3202014805
 11
3.7052934723
 21
-5.2385465618
  0
LINE
  5
49E
100
AcDbEntity
  8
0
100
AcDbLine
 62
7
  6
CONTINUOUS
 10
3.8526073457
 20
-5.4869135834
 11
3.9940287019
 21
-5.4052586647
  0
LINE
  5
49F
100
AcDbEntity
  8
0
100
AcDbLine
 62
7
  6
CONTINUOUS
 10
5.4200272987
 20
-4.7589816662
 11
5.5614486549
 21
-4.6773267476
  0
LINE
  5
4A0
100
AcDbEntity
  8
0
100
AcDbLine
 62
7
  6
CONTINUOUS
 10
5.5437709854
 20
-4.8304297201
 11
5.6851923416
 21
-4.7487748014
  0
LINE
  5
4A1
100
AcDbEntity
  8
0
100
AcDbLine
 62
7
  6
CONTINUOUS
 10
5.1931640304
 20
-5.4270922292
 11
5.3345853866
 21
-5.3454373106
  0
LINE
  5
4A2
100
AcDbEntity
  8
0
100
AcDbLine
 62
7
  6
CONTINUOUS
 10
4.5538214917
 20
-5.891785843
 11
4.6952428479
 21
-5.8101309243
  0
LINE
  5
4A3
100
AcDbEntity
  8
0
100
AcDbLine
 62
7
  6
CONTINUOUS
 10
4.8425568394
 20
-6.058498014
 11
4.9839781956
 21
-5.9768430954
  0
LINE
  5
4A4
100
AcDbEntity
  8
0
100
AcDbLine
 62
7
  6
CONTINUOUS
 10
5.7087626463
 20
-5.7942792319
 11
5.8501840026
 21
-5.7126243132
  0
LINE
  5
4A5
100
AcDbEntity
  8
0
100
AcDbLine
 62
7
  6
CONTINUOUS
 10
6.6574644018
 20
-5.4734623408
 11
6.798885758
 21
-5.3918074222
  0
LINE
  5
4A6
100
AcDbEntity
  8
0
100
AcDbLine
 62
7
  6
CONTINUOUS
 10
5.9974977579
 20
-5.9609912666
 11
6.1389191142
 21
-5.879336348
  0
LINE
  5
4A7
100
AcDbEntity
  8
0
100
AcDbLine
 62
7
  6
CONTINUOUS
 10
6.7812080885
 20
-5.5449103947
 11
6.9226294447
 21
-5.463255476
  0
LINE
  5
4A8
100
AcDbEntity
  8
0
100
AcDbLine
 62
7
  6
CONTINUOUS
 10
5.9974977579
 20
-6.1347083748
 11
6.1389191142
 21
-6.0530534561
  0
LINE
  5
4A9
100
AcDbEntity
  8
0
100
AcDbLine
 62
7
  6
CONTINUOUS
 10
5.5437709854
 20
-6.4633702736
 11
5.6851923416
 21
-6.381715355
  0
LINE
  5
4AA
100
AcDbEntity
  8
0
100
AcDbLine
 62
7
  6
CONTINUOUS
 10
6.3068569747
 20
-6.209098225
 11
6.448278331
 21
-6.1274433064
  0
LINE
  5
4AB
100
AcDbEntity
  8
0
100
AcDbLine
 62
253
  6
CONTINUOUS
 10
2.7619581914
 20
-7.0057273025
 11
-2.6801490869
 21
-9.9125917605
  0
LWPOLYLINE
  5
4AC
100
AcDbEntity
  8
0
100
AcDbPolyline
 62
7
  6
CONTINUOUS
 90
5
 70
0
 10
-11.9651077044
 20
7.1550935354
 10
-12.0706890262
 20
7.141043881
 10
-12.1688775554
 20
7.1141193957
 10
-12.2596732921
 20
7.0743200795
 10
-12.3257004925
 20
7.0340088077
  0
LINE
  5
4AD
100
AcDbEntity
  8
0
100
AcDbLine
 62
253
  6
CONTINUOUS
 10
-16.7069341941
 20
3.8786723019
 11
-11.9743633986
 21
4.1751814588
  0
LINE
  5
4AE
100
AcDbEntity
  8
0
100
AcDbLine
 62
7
  6
CONTINUOUS
 10
-6.7645631269
 20
7.4809225942
 11
-11.9651077044
 21
7.1550935354
  0
LWPOLYLINE
  5
4AF
100
AcDbEntity
  8
0
100
AcDbPolyline
 62
7
  6
CONTINUOUS
 90
3
 70
0
 10
-8.5115196773
 20
11.8450375328
 10
-8.569879183
 20
11.8703095762
 10
-8.7476310455
 20
11.9639808157
  0
LWPOLYLINE
  5
4B0
100
AcDbEntity
  8
0
100
AcDbPolyline
 62
7
  6
CONTINUOUS
 90
12
 70
0
 10
9.5271392647
 20
2.8910952455
 10
9.7533713923
 20
2.7715002053
 10
9.9752334408
 20
2.6745655667
 10
10.1927254102
 20
2.6002913297
 10
10.4072139647
 20
2.5485187425
 10
10.6173324401
 20
2.5194065569
 10
10.8189808438
 20
2.5134310281
 10
11.0120302827
 20
2.53113914
 10
11.1966096498
 20
2.5719839087
 10
11.3690056314
 20
2.6348006384
 10
11.5287014305
 20
2.7197499105
 10
11.5681723825
 20
2.7483595899
  0
LWPOLYLINE
  5
4B1
100
AcDbEntity
  8
0
100
AcDbPolyline
 62
7
  6
CONTINUOUS
 90
26
 70
0
 10
-8.7476310455
 20
11.9639808157
 10
-8.938497041
 20
12.0845854685
 10
-9.1248230717
 20
12.2210242818
 10
-9.3066091375
 20
12.3732972557
 10
-9.48517522
 20
12.542858773
 10
-9.6592013377
 20
12.7282544509
 10
-9.8247275459
 20
12.9251211404
 10
-9.981551987
 20
13.1337018744
 10
-10.1298765186
 20
13.3537536201
 10
-10.2663467684
 20
13.5801841298
 10
-10.3906899202
 20
13.8131203069
 10
-10.5031787901
 20
14.052435248
 10
-10.601277454
 20
14.2926559958
 10
-10.6846659784
 20
14.5338009196
 10
-10.7536642968
 20
14.7758516501
 10
-10.8066962846
 20
15.0132801216
 10
-10.8434080316
 20
15.2459855949
 10
-10.864153448
 20
15.4740688093
 10
-10.8684181404
 20
15.6923039164
 10
-10.8558345552
 20
15.9004857161
 10
-10.826770246
 20
16.0988194085
 10
-10.7818134805
 20
16.2826947458
 10
-10.7206041432
 20
16.4517999516
 10
-10.6435023497
 20
16.6064468024
 10
-10.552176714
 20
16.7429603798
 10
-10.4471834411
 20
16.8601157111
  0
LINE
  5
4B2
100
AcDbEntity
  8
0
100
AcDbLine
 62
253
  6
CONTINUOUS
 10
-14.0979060874
 20
23.7445611292
 11
-14.0867382333
 21
23.7345867848
  0
LINE
  5
4B3
100
AcDbEntity
  8
0
100
AcDbLine
 62
7
  6
CONTINUOUS
 10
-2.4299540574
 20
18.7179286574
 11
-2.7287100183
 21
19.1734899456
  0
LWPOLYLINE
  5
4B4
100
AcDbEntity
  8
0
100
AcDbPolyline
 62
7
  6
CONTINUOUS
 90
18
 70
0
 10
-2.5411239323
 20
19.2042748217
 10
-2.3057457669
 20
18.8449262627
 10
-2.0048141018
 20
18.4214161164
 10
-1.6902453246
 20
18.0134045681
 10
-1.3622074819
 20
17.6207480111
 10
-1.0247244227
 20
17.2483403035
 10
-0.6775955332
 20
16.8963541771
 10
-0.3210214272
 20
16.5646169001
 10
0.0403722048
 20
16.2575041354
 10
0.4067452743
 20
15.9753285312
 10
0.7779378698
 20
15.7177774393
 10
1.1488445669
 20
15.4882885777
 10
1.5188512178
 20
15.2874099158
 10
1.8885719703
 20
15.1145934842
 10
2.2547438433
 20
14.9716330926
 10
2.6181416886
 20
14.8585336054
 10
2.9779906545
 20
14.7752901581
 10
3.2354747791
 20
14.7374007528
  0
LINE
  5
4B5
100
AcDbEntity
  8
0
100
AcDbLine
 62
7
  6
CONTINUOUS
 10
-2.401200052
 20
19.0719004237
 11
-2.4513346246
 21
19.1511513697
  0
LINE
  5
4B6
100
AcDbEntity
  8
0
100
AcDbLine
 62
7
  6
CONTINUOUS
 10
10.2637085138
 20
-7.5313263045
 11
10.1605894042
 21
-7.3675563874
  0
LINE
  5
4B7
100
AcDbEntity
  8
0
100
AcDbLine
 62
7
  6
CONTINUOUS
 10
-2.7287100183
 20
19.1734899456
 11
-2.8575036356
 21
19.3869484972
  0
LINE
  5
4B8
100
AcDbEntity
  8
0
100
AcDbLine
 62
7
  6
CONTINUOUS
 10
10.0604153142
 20
-7.7162308438
 11
9.9985434708
 21
-7.6110199931
  0
LINE
  5
4B9
100
AcDbEntity
  8
0
100
AcDbLine
 62
7
  6
CONTINUOUS
 10
11.0091175417
 20
-8.9588679551
 11
10.9472456983
 21
-8.8536571044
  0
LINE
  5
4BA
100
AcDbEntity
  8
0
100
AcDbLine
 62
7
  6
CONTINUOUS
 10
10.9884929645
 20
-8.2520912475
 11
10.9266211211
 21
-8.1468803968
  0
LINE
  5
4BB
100
AcDbEntity
  8
0
100
AcDbLine
 62
7
  6
CONTINUOUS
 10
14.8465430838
 20
-11.2775753314
 11
14.727449637
 21
-11.0620688003
  0
LINE
  5
4BC
100
AcDbEntity
  8
0
100
AcDbLine
 62
7
  6
CONTINUOUS
 10
14.845450785
 20
-10.8084660814
 11
14.8051165536
 21
-10.7317565853
  0
LWPOLYLINE
  5
4BD
100
AcDbEntity
  8
0
100
AcDbPolyline
 62
7
  6
CONTINUOUS
 90
19
 70
0
 10
14.727449637
 20
-11.0620688003
 10
14.4823652532
 20
-10.5762743304
 10
14.2580556789
 20
-10.0863419785
 10
14.0547348865
 20
-9.5921945233
 10
13.8721889036
 20
-9.0939091861
 10
13.7127280073
 20
-8.5976286851
 10
13.5766093993
 20
-8.1032698029
 10
13.4635758778
 20
-7.6109157569
 10
13.3751661144
 20
-7.1269589181
 10
13.3117433188
 20
-6.651372859
 10
13.2729442812
 20
-6.1841840072
 10
13.2592180436
 20
-5.7318640161
 10
13.2707501542
 20
-5.2952856135
 10
13.3073550648
 20
-4.8735760717
 10
13.3689251723
 20
-4.4705888613
 10
13.4558560704
 20
-4.0856499455
 10
13.5677521654
 20
-3.7194333612
 10
13.7033190725
 20
-3.377814689
 10
13.7597073979
 20
-3.2660504895
  0
LINE
  5
4BE
100
AcDbEntity
  8
0
100
AcDbLine
 62
7
  6
CONTINUOUS
 10
14.6466800747
 20
-10.516086218
 11
14.8465430838
 21
-10.9127988839
  0
LINE
  5
4BF
100
AcDbEntity
  8
0
100
AcDbLine
 62
7
  6
CONTINUOUS
 10
10.5347664279
 20
-9.0324177346
 11
10.5760146382
 21
-9.1257207824
  0
LINE
  5
4C0
100
AcDbEntity
  8
0
100
AcDbLine
 62
7
  6
CONTINUOUS
 10
10.7174359944
 20
-9.0440658637
 11
10.6761877841
 21
-8.9507628159
  0
LINE
  5
4C1
100
AcDbEntity
  8
0
100
AcDbLine
 62
7
  6
CONTINUOUS
 10
11.0297411747
 20
-8.1021903877
 11
11.1122366512
 21
-8.2887958895
  0
LINE
  5
4C2
100
AcDbEntity
  8
0
100
AcDbLine
 62
7
  6
CONTINUOUS
 10
11.2536580074
 20
-8.2071409708
 11
11.171162531
 21
-8.0205354691
  0
LINE
  5
4C3
100
AcDbEntity
  8
0
100
AcDbLine
 62
7
  6
CONTINUOUS
 10
9.6273128827
 20
-8.6821825267
 11
9.5654410394
 21
-8.50748484
  0
LINE
  5
4C4
100
AcDbEntity
  8
0
100
AcDbLine
 62
7
  6
CONTINUOUS
 10
9.6066887776
 20
-8.0796363395
 11
9.5448169343
 21
-7.904938665
  0
LINE
  5
4C5
100
AcDbEntity
  8
0
100
AcDbLine
 62
7
  6
CONTINUOUS
 10
10.1222871575
 20
-7.6129812232
 11
10.1841590009
 21
-7.7876788976
  0
LINE
  5
4C6
100
AcDbEntity
  8
0
100
AcDbLine
 62
7
  6
CONTINUOUS
 10
10.3255803571
 20
-7.706023979
 11
10.2637085138
 21
-7.5313263045
  0
LINE
  5
4C7
100
AcDbEntity
  8
0
100
AcDbLine
 62
7
  6
CONTINUOUS
 10
8.7375367711
 20
-11.2084858933
 11
8.7787845093
 21
-11.3365320561
  0
LINE
  5
4C8
100
AcDbEntity
  8
0
100
AcDbLine
 62
7
  6
CONTINUOUS
 10
8.9202058655
 20
-11.2548771374
 11
8.8789581273
 21
-11.1268309747
  0
LINE
  5
4C9
100
AcDbEntity
  8
0
100
AcDbLine
 62
7
  6
CONTINUOUS
 10
9.6479365158
 20
-8.4508864342
 11
9.689184254
 21
-8.5789326213
  0
LINE
  5
4CA
100
AcDbEntity
  8
0
100
AcDbLine
 62
7
  6
CONTINUOUS
 10
9.8306056103
 20
-8.4972777026
 11
9.7893578721
 21
-8.3692315155
  0
LINE
  5
4CB
100
AcDbEntity
  8
0
100
AcDbLine
 62
7
  6
CONTINUOUS
 10
9.6273128827
 20
-7.8483405561
 11
9.668560621
 21
-7.9763867189
  0
LINE
  5
4CC
100
AcDbEntity
  8
0
100
AcDbLine
 62
7
  6
CONTINUOUS
 10
9.8099819772
 20
-7.8947318002
 11
9.768734239
 21
-7.7666856374
  0
LINE
  5
4CD
100
AcDbEntity
  8
0
100
AcDbLine
 62
7
  6
CONTINUOUS
 10
10.4728945846
 20
-9.1356673796
 11
10.4316463743
 21
-9.0076209443
  0
LINE
  5
4CE
100
AcDbEntity
  8
0
100
AcDbLine
 62
7
  6
CONTINUOUS
 10
10.1016635244
 20
-7.8442772791
 11
10.0604153142
 21
-7.7162308438
  0
LINE
  5
4CF
100
AcDbEntity
  8
0
100
AcDbLine
 62
7
  6
CONTINUOUS
 10
11.0916130181
 20
-8.9022695736
 11
11.1328612284
 21
-9.0303160089
  0
LINE
  5
4D0
100
AcDbEntity
  8
0
100
AcDbLine
 62
7
  6
CONTINUOUS
 10
11.0297411747
 20
-8.3801376829
 11
10.9884929645
 21
-8.2520912475
  0
LINE
  5
4D1
100
AcDbEntity
  8
0
100
AcDbLine
 62
7
  6
CONTINUOUS
 10
11.2742825846
 20
-8.9486610903
 11
11.2330343743
 21
-8.8206146549
  0
LINE
  5
4D2
100
AcDbEntity
  8
0
100
AcDbLine
 62
7
  6
CONTINUOUS
 10
10.5141427948
 20
-8.9510230836
 11
10.5347664279
 21
-9.0324177346
  0
LINE
  5
4D3
100
AcDbEntity
  8
0
100
AcDbLine
 62
7
  6
CONTINUOUS
 10
10.6761877841
 20
-8.9507628159
 11
10.6555641511
 21
-8.8693681649
  0
LINE
  5
4D4
100
AcDbEntity
  8
0
100
AcDbLine
 62
7
  6
CONTINUOUS
 10
11.0503648078
 20
-9.1216573059
 11
11.0091175417
 21
-8.9588679551
  0
LINE
  5
4D5
100
AcDbEntity
  8
0
100
AcDbLine
 62
7
  6
CONTINUOUS
 10
9.5448169343
 20
-7.904938665
 11
9.503569196
 21
-7.7074056785
  0
LINE
  5
4D6
100
AcDbEntity
  8
0
100
AcDbLine
 62
7
  6
CONTINUOUS
 10
10.1841590009
 20
-7.7876788976
 11
10.2254072111
 21
-7.9852122541
  0
LINE
  5
4D7
100
AcDbEntity
  8
0
100
AcDbLine
 62
7
  6
CONTINUOUS
 10
10.3668285674
 20
-7.9035573354
 11
10.3255803571
 21
-7.706023979
  0
LINE
  5
4D8
100
AcDbEntity
  8
0
100
AcDbLine
 62
7
  6
CONTINUOUS
 10
7.0876208696
 20
-10.186358209
 11
7.0669968825
 21
-10.0702199417
  0
LINE
  5
4D9
100
AcDbEntity
  8
0
100
AcDbLine
 62
7
  6
CONTINUOUS
 10
7.1907405692
 20
-10.1416679955
 11
7.2113645563
 21
-10.2578062629
  0
LINE
  5
4DA
100
AcDbEntity
  8
0
100
AcDbLine
 62
7
  6
CONTINUOUS
 10
7.3527859126
 20
-10.1761513442
 11
7.3321619255
 21
-10.0600130768
  0
LINE
  5
4DB
100
AcDbEntity
  8
0
100
AcDbLine
 62
7
  6
CONTINUOUS
 10
8.0569464942
 20
-10.7807781854
 11
8.036322389
 21
-10.6646397525
  0
LINE
  5
4DC
100
AcDbEntity
  8
0
100
AcDbLine
 62
7
  6
CONTINUOUS
 10
9.5654410394
 20
-8.50748484
 11
9.5448169343
 21
-8.3913464802
  0
LINE
  5
4DD
100
AcDbEntity
  8
0
100
AcDbLine
 62
7
  6
CONTINUOUS
 10
9.6066887776
 20
-7.7322022206
 11
9.6273128827
 21
-7.8483405561
  0
LINE
  5
4DE
100
AcDbEntity
  8
0
100
AcDbLine
 62
7
  6
CONTINUOUS
 10
9.768734239
 20
-7.7666856374
 11
9.7481101338
 21
-7.6505473019
  0
LINE
  5
4DF
100
AcDbEntity
  8
0
100
AcDbLine
 62
7
  6
CONTINUOUS
 10
10.1222871575
 20
-7.9604154394
 11
10.1016635244
 21
-7.8442772791
  0
LINE
  5
4E0
100
AcDbEntity
  8
0
100
AcDbLine
 62
7
  6
CONTINUOUS
 10
7.500099786
 20
-11.1193867496
 11
7.5207237731
 21
-11.2702684289
  0
LINE
  5
4E1
100
AcDbEntity
  8
0
100
AcDbLine
 62
7
  6
CONTINUOUS
 10
7.6621451293
 20
-11.1886135102
 11
7.6415211422
 21
-11.0377318309
  0
LINE
  5
4E2
100
AcDbEntity
  8
0
100
AcDbLine
 62
7
  6
CONTINUOUS
 10
7.3969800864
 20
-11.2335637869
 11
7.3763560993
 21
-11.0479386958
  0
LINE
  5
4E3
100
AcDbEntity
  8
0
100
AcDbLine
 62
7
  6
CONTINUOUS
 10
8.1600660758
 20
-10.6666009826
 11
8.1806901809
 21
-10.8522262392
  0
LINE
  5
4E4
100
AcDbEntity
  8
0
100
AcDbLine
 62
7
  6
CONTINUOUS
 10
8.3221115371
 20
-10.7705713205
 11
8.301487432
 21
-10.5849460639
  0
LINE
  5
4E5
100
AcDbEntity
  8
0
100
AcDbLine
 62
7
  6
CONTINUOUS
 10
10.2254072111
 20
-7.9852122541
 11
10.2460308442
 21
-8.2403239646
  0
LINE
  5
4E6
100
AcDbEntity
  8
0
100
AcDbLine
 62
7
  6
CONTINUOUS
 10
10.3874522005
 20
-8.1586690459
 11
10.3668285674
 21
-7.9035573354
  0
LINE
  5
4E7
100
AcDbEntity
  8
0
100
AcDbLine
 62
7
  6
CONTINUOUS
 10
9.3385772991
 20
-7.0215033255
 11
9.3385772991
 21
-7.195220385
  0
LINE
  5
4E8
100
AcDbEntity
  8
0
100
AcDbLine
 62
7
  6
CONTINUOUS
 10
9.4799986553
 20
-6.9398484068
 11
9.4799986553
 21
-7.1135654663
  0
LINE
  5
4E9
100
AcDbEntity
  8
0
100
AcDbLine
 62
7
  6
CONTINUOUS
 10
9.503569196
 20
-7.7074056785
 11
9.503569196
 21
-7.5684320309
  0
LINE
  5
4EA
100
AcDbEntity
  8
0
100
AcDbLine
 62
7
  6
CONTINUOUS
 10
9.6066887776
 20
-7.6627153968
 11
9.6066887776
 21
-7.7322022206
  0
LINE
  5
4EB
100
AcDbEntity
  8
0
100
AcDbLine
 62
7
  6
CONTINUOUS
 10
9.7481101338
 20
-7.5810604781
 11
9.7481101338
 21
-7.6505473019
  0
LINE
  5
4EC
100
AcDbEntity
  8
0
100
AcDbLine
 62
7
  6
CONTINUOUS
 10
10.1222871575
 20
-8.0299022632
 11
10.1222871575
 21
-7.9604154394
  0
LINE
  5
4ED
100
AcDbEntity
  8
0
100
AcDbLine
 62
7
  6
CONTINUOUS
 10
10.1429117347
 20
-8.4239881664
 11
10.1429117347
 21
-8.3545013426
  0
LINE
  5
4EE
100
AcDbEntity
  8
0
100
AcDbLine
 62
7
  6
CONTINUOUS
 10
10.2460308442
 20
-8.2403239646
 11
10.2460308442
 21
-8.4835278478
  0
LINE
  5
4EF
100
AcDbEntity
  8
0
100
AcDbLine
 62
7
  6
CONTINUOUS
 10
10.3874522005
 20
-8.1586690459
 11
10.3874522005
 21
-8.4018729292
  0
LINE
  5
4F0
100
AcDbEntity
  8
0
100
AcDbLine
 62
7
  6
CONTINUOUS
 10
10.7410055911
 20
-8.6998332394
 11
10.7410055911
 21
-8.5608595918
  0
LINE
  5
4F1
100
AcDbEntity
  8
0
100
AcDbLine
 62
7
  6
CONTINUOUS
 10
11.0297411747
 20
-8.449624604
 11
11.0297411747
 21
-8.3801376829
  0
LINE
  5
4F2
100
AcDbEntity
  8
0
100
AcDbLine
 62
7
  6
CONTINUOUS
 10
11.0503648078
 20
-9.2606309534
 11
11.0503648078
 21
-9.1216573059
  0
LINE
  5
4F3
100
AcDbEntity
  8
0
100
AcDbLine
 62
7
  6
CONTINUOUS
 10
11.1328612284
 20
-8.4396779094
 11
11.1328612284
 21
-8.5091648305
  0
LINE
  5
4F4
100
AcDbEntity
  8
0
100
AcDbLine
 62
7
  6
CONTINUOUS
 10
11.1534848614
 20
-9.1811975324
 11
11.1534848614
 21
-9.32017118
  0
LINE
  5
4F5
100
AcDbEntity
  8
0
100
AcDbLine
 62
7
  6
CONTINUOUS
 10
11.2742825846
 20
-8.3580229908
 11
11.2742825846
 21
-8.4275099119
  0
LINE
  5
4F6
100
AcDbEntity
  8
0
100
AcDbLine
 62
7
  6
CONTINUOUS
 10
11.2949062177
 20
-9.0995426138
 11
11.2949062177
 21
-9.2385162613
  0
LINE
  5
4F7
100
AcDbEntity
  8
0
100
AcDbLine
 62
7
  6
CONTINUOUS
 10
10.2460308442
 20
-8.4835278478
 11
10.2254072111
 21
-8.7148239525
  0
LINE
  5
4F8
100
AcDbEntity
  8
0
100
AcDbLine
 62
7
  6
CONTINUOUS
 10
10.3668285674
 20
-8.6331690338
 11
10.3874522005
 21
-8.4018729292
  0
LINE
  5
4F9
100
AcDbEntity
  8
0
100
AcDbLine
 62
7
  6
CONTINUOUS
 10
10.1222871575
 20
-8.620540314
 11
10.1429117347
 21
-8.4239881664
  0
LINE
  5
4FA
100
AcDbEntity
  8
0
100
AcDbLine
 62
7
  6
CONTINUOUS
 10
8.1806901809
 20
-11.6513247614
 11
8.1600660758
 21
-11.8131337453
  0
LINE
  5
4FB
100
AcDbEntity
  8
0
100
AcDbLine
 62
7
  6
CONTINUOUS
 10
8.301487432
 20
-11.7314788267
 11
8.3221115371
 21
-11.5696698427
  0
LINE
  5
4FC
100
AcDbEntity
  8
0
100
AcDbLine
 62
7
  6
CONTINUOUS
 10
7.5207237731
 20
-10.4711699067
 11
7.500099786
 21
-10.5982355226
  0
LINE
  5
4FD
100
AcDbEntity
  8
0
100
AcDbLine
 62
7
  6
CONTINUOUS
 10
7.6415211422
 20
-10.5165806039
 11
7.6621451293
 21
-10.389514988
  0
LINE
  5
4FE
100
AcDbEntity
  8
0
100
AcDbLine
 62
7
  6
CONTINUOUS
 10
10.4316463743
 20
-8.034805241
 11
10.4522709515
 21
-7.9077399658
  0
LINE
  5
4FF
100
AcDbEntity
  8
0
100
AcDbLine
 62
7
  6
CONTINUOUS
 10
11.1328612284
 20
-8.5091648305
 11
11.1122366512
 21
-8.6362301057
  0
LINE
  5
500
100
AcDbEntity
  8
0
100
AcDbLine
 62
7
  6
CONTINUOUS
 10
11.2536580074
 20
-8.5545751871
 11
11.2742825846
 21
-8.4275099119
  0
LINE
  5
501
100
AcDbEntity
  8
0
100
AcDbLine
 62
7
  6
CONTINUOUS
 10
7.0669968825
 20
-10.382910746
 11
7.0876208696
 21
-10.290588542
  0
LINE
  5
502
100
AcDbEntity
  8
0
100
AcDbLine
 62
7
  6
CONTINUOUS
 10
7.2113645563
 20
-10.3967800078
 11
7.1907405692
 21
-10.4891022118
  0
LINE
  5
503
100
AcDbEntity
  8
0
100
AcDbLine
 62
7
  6
CONTINUOUS
 10
7.3321619254
 20
-10.4074472931
 11
7.3527859126
 21
-10.3151250891
  0
LINE
  5
504
100
AcDbEntity
  8
0
100
AcDbLine
 62
7
  6
CONTINUOUS
 10
10.1016635244
 20
-8.1222246716
 11
10.1222871575
 21
-8.0299022632
  0
LINE
  5
505
100
AcDbEntity
  8
0
100
AcDbLine
 62
7
  6
CONTINUOUS
 10
10.1016635244
 20
-8.7128627224
 11
10.1222871575
 21
-8.620540314
  0
LINE
  5
506
100
AcDbEntity
  8
0
100
AcDbLine
 62
7
  6
CONTINUOUS
 10
8.036322389
 20
-11.6721988434
 11
8.0569464942
 21
-11.5798767075
  0
LINE
  5
507
100
AcDbEntity
  8
0
100
AcDbLine
 62
7
  6
CONTINUOUS
 10
9.6273128827
 20
-7.5703931636
 11
9.6066887776
 21
-7.6627153968
  0
LINE
  5
508
100
AcDbEntity
  8
0
100
AcDbLine
 62
7
  6
CONTINUOUS
 10
9.7481101338
 20
-7.5810604781
 11
9.768734239
 21
-7.4887382449
  0
LINE
  5
509
100
AcDbEntity
  8
0
100
AcDbLine
 62
7
  6
CONTINUOUS
 10
9.503569196
 20
-7.5684320309
 11
9.5448169342
 21
-7.4185308012
  0
LINE
  5
50A
100
AcDbEntity
  8
0
100
AcDbLine
 62
7
  6
CONTINUOUS
 10
10.2254072111
 20
-8.7148239525
 11
10.1841590009
 21
-8.8647248366
  0
LINE
  5
50B
100
AcDbEntity
  8
0
100
AcDbLine
 62
7
  6
CONTINUOUS
 10
10.3255803571
 20
-8.783069918
 11
10.3668285674
 21
-8.6331690338
  0
LINE
  5
50C
100
AcDbEntity
  8
0
100
AcDbLine
 62
7
  6
CONTINUOUS
 10
8.802354814
 20
-8.3448357367
 11
9.2148336123
 21
-7.1237723311
  0
LINE
  5
50D
100
AcDbEntity
  8
0
100
AcDbLine
 62
7
  6
CONTINUOUS
 10
9.3385772991
 20
-7.195220385
 11
8.9260985007
 21
-8.4162837905
  0
LINE
  5
50E
100
AcDbEntity
  8
0
100
AcDbLine
 62
7
  6
CONTINUOUS
 10
9.0675198569
 20
-8.3346288718
 11
9.4799986553
 21
-7.1135654663
  0
LINE
  5
50F
100
AcDbEntity
  8
0
100
AcDbLine
 62
7
  6
CONTINUOUS
 10
7.3969800864
 20
-10.3649783436
 11
7.4382279426
 21
-10.2498206913
  0
LINE
  5
510
100
AcDbEntity
  8
0
100
AcDbLine
 62
7
  6
CONTINUOUS
 10
5.8501840026
 20
-9.6455948275
 11
5.8914318994
 21
-9.5651806105
  0
LINE
  5
511
100
AcDbEntity
  8
0
100
AcDbLine
 62
7
  6
CONTINUOUS
 10
7.5619716293
 20
-10.3907555689
 11
7.5207237731
 21
-10.4711699067
  0
LINE
  5
512
100
AcDbEntity
  8
0
100
AcDbLine
 62
7
  6
CONTINUOUS
 10
7.6621451293
 20
-10.389514988
 11
7.6673738813
 21
-10.3793213279
  0
LINE
  5
513
100
AcDbEntity
  8
0
100
AcDbLine
 62
7
  6
CONTINUOUS
 10
9.668560621
 20
-7.489978855
 11
9.6273128827
 21
-7.5703931636
  0
LINE
  5
514
100
AcDbEntity
  8
0
100
AcDbLine
 62
7
  6
CONTINUOUS
 10
9.768734239
 20
-7.4887382449
 11
9.7864527673
 21
-7.4541951824
  0
LINE
  5
515
100
AcDbEntity
  8
0
100
AcDbLine
 62
7
  6
CONTINUOUS
 10
10.0604153142
 20
-8.2026387076
 11
10.1016635244
 21
-8.1222246716
  0
LINE
  5
516
100
AcDbEntity
  8
0
100
AcDbLine
 62
7
  6
CONTINUOUS
 10
7.1907405692
 20
-10.4891022118
 11
7.1288687259
 21
-10.5923518324
  0
LINE
  5
517
100
AcDbEntity
  8
0
100
AcDbLine
 62
7
  6
CONTINUOUS
 10
7.2702900821
 20
-10.5106969137
 11
7.3321619254
 21
-10.4074472931
  0
LINE
  5
518
100
AcDbEntity
  8
0
100
AcDbLine
 62
7
  6
CONTINUOUS
 10
9.5448169342
 20
-7.4185308012
 11
9.6066887776
 21
-7.3152811806
  0
LINE
  5
519
100
AcDbEntity
  8
0
100
AcDbLine
 62
7
  6
CONTINUOUS
 10
7.6061656851
 20
-6.9593027903
 11
8.101140432
 21
-6.3070227872
  0
LINE
  5
51A
100
AcDbEntity
  8
0
100
AcDbLine
 62
7
  6
CONTINUOUS
 10
6.6574644018
 20
-5.751409636
 11
6.3068569747
 21
-6.209098225
  0
LINE
  5
51B
100
AcDbEntity
  8
0
100
AcDbLine
 62
7
  6
CONTINUOUS
 10
6.448278331
 20
-6.1274433064
 11
6.6574644018
 21
-5.8543684363
  0
LINE
  5
51C
100
AcDbEntity
  8
0
100
AcDbLine
 62
7
  6
CONTINUOUS
 10
8.101140432
 20
-6.5849700823
 11
7.750533477
 21
-7.0426589439
  0
LINE
  5
51D
100
AcDbEntity
  8
0
100
AcDbLine
 62
7
  6
CONTINUOUS
 10
7.8919548332
 20
-6.9610040252
 11
8.101140432
 21
-6.6879292411
  0
LINE
  5
51E
100
AcDbEntity
  8
0
100
AcDbLine
 62
7
  6
CONTINUOUS
 10
7.0257490263
 20
-10.4285815746
 11
7.0669968825
 21
-10.382910746
  0
LINE
  5
51F
100
AcDbEntity
  8
0
100
AcDbLine
 62
7
  6
CONTINUOUS
 10
7.4382279426
 20
-10.2498206913
 11
7.5207237731
 21
-10.1584791023
  0
LWPOLYLINE
  5
520
100
AcDbEntity
  8
0
100
AcDbPolyline
 62
7
  6
CONTINUOUS
 90
28
 70
0
 10
13.1371822
 20
-1.2176685351
 10
12.9671209117
 20
-1.3587394682
 10
12.7014782485
 20
-1.6334056614
 10
12.4596062475
 20
-1.9434052274
 10
12.2425043008
 20
-2.2871649376
 10
12.0531705856
 20
-2.6599651069
 10
11.8920771278
 20
-3.0623287837
 10
11.7587519014
 20
-3.4937329195
 10
11.654777005
 20
-3.9478886833
 10
11.5805135174
 20
-4.4240682146
 10
11.5356003599
 20
-4.9229993739
 10
11.5205363943
 20
-5.440576911
 10
11.5356072849
 20
-5.9782482437
 10
11.5805273674
 20
-6.5345659543
 10
11.6549385109
 20
-7.1010825399
 10
11.7593488584
 20
-7.6775962918
 10
11.893250267
 20
-8.2643089188
 10
12.0547601765
 20
-8.8533780443
 10
12.2442375606
 20
-9.4447345252
 10
12.4613234457
 20
-10.0384475046
 10
12.7030583509
 20
-10.6268820353
 10
12.9697011008
 20
-11.209866677
 10
13.2609928708
 20
-11.78757287
 10
13.5731977062
 20
-12.3528799878
 10
13.9065405619
 20
-12.9056234441
 10
14.260796483
 20
-13.4459678251
 10
14.6315546503
 20
-13.9672862636
 10
14.8465430838
 20
-14.2458831696
  0
LINE
  5
521
100
AcDbEntity
  8
0
100
AcDbLine
 62
7
  6
CONTINUOUS
 10
6.7812080885
 20
-6.4829826131
 11
6.9226294447
 21
-6.4013276944
  0
LINE
  5
522
100
AcDbEntity
  8
0
100
AcDbLine
 62
7
  6
CONTINUOUS
 10
6.9874472516
 20
-6.6020625211
 11
7.1288686078
 21
-6.5204076024
  0
LINE
  5
523
100
AcDbEntity
  8
0
100
AcDbLine
 62
7
  6
CONTINUOUS
 10
7.1524391486
 20
-6.6278399508
 11
7.2938605048
 21
-6.5461850321
  0
LINE
  5
524
100
AcDbEntity
  8
0
100
AcDbLine
 62
7
  6
CONTINUOUS
 10
6.9874472516
 20
-6.8105230411
 11
7.1288686078
 21
-6.7288681224
  0
LINE
  5
525
100
AcDbEntity
  8
0
100
AcDbLine
 62
7
  6
CONTINUOUS
 10
8.101140432
 20
-6.3070227872
 11
8.2425617882
 21
-6.2253678685
  0
LINE
  5
526
100
AcDbEntity
  8
0
100
AcDbLine
 62
7
  6
CONTINUOUS
 10
7.4411742602
 20
-6.7945519855
 11
7.5825956165
 21
-6.7128970669
  0
LINE
  5
527
100
AcDbEntity
  8
0
100
AcDbLine
 62
7
  6
CONTINUOUS
 10
6.7812080885
 20
-7.1778509482
 11
6.9226294447
 21
-7.0961960296
  0
LINE
  5
528
100
AcDbEntity
  8
0
100
AcDbLine
 62
7
  6
CONTINUOUS
 10
8.2248841187
 20
-6.378470841
 11
8.3663054749
 21
-6.2968159223
  0
LINE
  5
529
100
AcDbEntity
  8
0
100
AcDbLine
 62
7
  6
CONTINUOUS
 10
7.4411742602
 20
-6.9682690937
 11
7.5825956165
 21
-6.886614175
  0
LINE
  5
52A
100
AcDbEntity
  8
0
100
AcDbLine
 62
7
  6
CONTINUOUS
 10
7.750533477
 20
-7.0426589439
 11
7.8919548332
 21
-6.9610040252
  0
LINE
  5
52B
100
AcDbEntity
  8
0
100
AcDbLine
 62
7
  6
CONTINUOUS
 10
8.5961151788
 20
-6.5928150025
 11
8.737536535
 21
-6.5111600838
  0
LINE
  5
52C
100
AcDbEntity
  8
0
100
AcDbLine
 62
7
  6
CONTINUOUS
 10
8.2248841187
 20
-7.3165430594
 11
8.3663054749
 21
-7.2348881408
  0
LINE
  5
52D
100
AcDbEntity
  8
0
100
AcDbLine
 62
7
  6
CONTINUOUS
 10
8.4311237539
 20
-7.43562324
 11
8.5725451101
 21
-7.3539683213
  0
LINE
  5
52E
100
AcDbEntity
  8
0
100
AcDbLine
 62
7
  6
CONTINUOUS
 10
9.3385772991
 20
-7.0215033255
 11
9.4799986553
 21
-6.9398484068
  0
LINE
  5
52F
100
AcDbEntity
  8
0
100
AcDbLine
 62
7
  6
CONTINUOUS
 10
8.4311237539
 20
-7.64408376
 11
8.5725451101
 21
-7.5624288413
  0
LINE
  5
530
100
AcDbEntity
  8
0
100
AcDbLine
 62
7
  6
CONTINUOUS
 10
9.3385772991
 20
-7.195220385
 11
9.4799986553
 21
-7.1135654663
  0
LINE
  5
531
100
AcDbEntity
  8
0
100
AcDbLine
 62
7
  6
CONTINUOUS
 10
8.2248841187
 20
-8.0114113946
 11
8.3663054749
 21
-7.9297564759
  0
LINE
  5
532
100
AcDbEntity
  8
0
100
AcDbLine
 62
7
  6
CONTINUOUS
 10
9.7033782913
 20
-7.2594538671
 11
9.7481101338
 21
-7.2336262619
  0
LINE
  5
533
100
AcDbEntity
  8
0
100
AcDbLine
 62
7
  6
CONTINUOUS
 10
9.7098088312
 20
-7.2705911714
 11
9.8512301875
 21
-7.1889362528
  0
LINE
  5
534
100
AcDbEntity
  8
0
100
AcDbLine
 62
7
  6
CONTINUOUS
 10
9.8129279408
 20
-7.295387441
 11
9.954349297
 21
-7.2137325223
  0
LINE
  5
535
100
AcDbEntity
  8
0
100
AcDbLine
 62
7
  6
CONTINUOUS
 10
5.8914318994
 20
-9.5651806105
 11
6.0328532556
 21
-9.4835256918
  0
LINE
  5
536
100
AcDbEntity
  8
0
100
AcDbLine
 62
7
  6
CONTINUOUS
 10
9.9160479944
 20
-7.3549276676
 11
10.0574693506
 21
-7.2732727489
  0
LINE
  5
537
100
AcDbEntity
  8
0
100
AcDbLine
 62
7
  6
CONTINUOUS
 10
9.6273128827
 20
-7.5703931636
 11
9.768734239
 21
-7.488738245
  0
LINE
  5
538
100
AcDbEntity
  8
0
100
AcDbLine
 62
7
  6
CONTINUOUS
 10
6.448278508
 20
-9.4350324114
 11
6.5896998642
 21
-9.3533774928
  0
LINE
  5
539
100
AcDbEntity
  8
0
100
AcDbLine
 62
7
  6
CONTINUOUS
 10
9.6066887776
 20
-7.6627153968
 11
9.7481101338
 21
-7.5810604781
  0
LINE
  5
53A
100
AcDbEntity
  8
0
100
AcDbLine
 62
7
  6
CONTINUOUS
 10
10.019168048
 20
-7.449211306
 11
10.1605894042
 21
-7.3675563874
  0
LINE
  5
53B
100
AcDbEntity
  8
0
100
AcDbLine
 62
7
  6
CONTINUOUS
 10
9.6066887776
 20
-7.7322022206
 11
9.7481101338
 21
-7.6505473019
  0
LINE
  5
53C
100
AcDbEntity
  8
0
100
AcDbLine
 62
7
  6
CONTINUOUS
 10
9.6273128827
 20
-7.8483405561
 11
9.768734239
 21
-7.7666856374
  0
LINE
  5
53D
100
AcDbEntity
  8
0
100
AcDbLine
 62
7
  6
CONTINUOUS
 10
10.1222871575
 20
-7.6129812232
 11
10.2637085138
 21
-7.5313263045
  0
LINE
  5
53E
100
AcDbEntity
  8
0
100
AcDbLine
 62
7
  6
CONTINUOUS
 10
5.8501840026
 20
-10.1320026426
 11
5.9916053588
 21
-10.050347724
  0
LINE
  5
53F
100
AcDbEntity
  8
0
100
AcDbLine
 62
7
  6
CONTINUOUS
 10
9.668560621
 20
-7.9763867189
 11
9.8099819772
 21
-7.8947318002
  0
LINE
  5
540
100
AcDbEntity
  8
0
100
AcDbLine
 62
7
  6
CONTINUOUS
 10
8.9260985007
 20
-8.4162837905
 11
9.0675198569
 21
-8.3346288718
  0
LINE
  5
541
100
AcDbEntity
  8
0
100
AcDbLine
 62
7
  6
CONTINUOUS
 10
10.1841590009
 20
-7.7876788976
 11
10.3255803571
 21
-7.706023979
  0
LINE
  5
542
100
AcDbEntity
  8
0
100
AcDbLine
 62
7
  6
CONTINUOUS
 10
9.7304324643
 20
-8.0815975696
 11
9.8718538206
 21
-7.9999426509
  0
LINE
  5
543
100
AcDbEntity
  8
0
100
AcDbLine
 62
7
  6
CONTINUOUS
 10
6.9432531958
 20
-9.7208245927
 11
7.084674552
 21
-9.639169674
  0
LINE
  5
544
100
AcDbEntity
  8
0
100
AcDbLine
 62
7
  6
CONTINUOUS
 10
6.283286906
 20
-10.1388668992
 11
6.4247082623
 21
-10.0572119805
  0
LINE
  5
545
100
AcDbEntity
  8
0
100
AcDbLine
 62
7
  6
CONTINUOUS
 10
9.7923043077
 20
-8.1520650084
 11
9.9337256639
 21
-8.0704100897
  0
LINE
  5
546
100
AcDbEntity
  8
0
100
AcDbLine
 62
7
  6
CONTINUOUS
 10
7.0463730134
 20
-9.8151080949
 11
7.1877943696
 21
-9.7334531762
  0
LINE
  5
547
100
AcDbEntity
  8
0
100
AcDbLine
 62
7
  6
CONTINUOUS
 10
10.2254072111
 20
-7.9852122541
 11
10.3668285674
 21
-7.9035573354
  0
LINE
  5
548
100
AcDbEntity
  8
0
100
AcDbLine
 62
7
  6
CONTINUOUS
 10
10.5347664279
 20
-7.8163981724
 11
10.6761877841
 21
-7.7347432537
  0
LINE
  5
549
100
AcDbEntity
  8
0
100
AcDbLine
 62
7
  6
CONTINUOUS
 10
9.5448169343
 20
-8.3913464802
 11
9.6862382905
 21
-8.3096915615
  0
LINE
  5
54A
100
AcDbEntity
  8
0
100
AcDbLine
 62
7
  6
CONTINUOUS
 10
10.6172619044
 20
-7.7945432028
 11
10.7586832606
 21
-7.7128882841
  0
LINE
  5
54B
100
AcDbEntity
  8
0
100
AcDbLine
 62
7
  6
CONTINUOUS
 10
9.9366716275
 20
-8.2354208895
 11
10.0780929837
 21
-8.1537659708
  0
LINE
  5
54C
100
AcDbEntity
  8
0
100
AcDbLine
 62
7
  6
CONTINUOUS
 10
6.5720221947
 20
-10.2013488004
 11
6.7134435509
 21
-10.1196938818
  0
LINE
  5
54D
100
AcDbEntity
  8
0
100
AcDbLine
 62
7
  6
CONTINUOUS
 10
9.6479365158
 20
-8.4508864342
 11
9.7893578721
 21
-8.3692315155
  0
LINE
  5
54E
100
AcDbEntity
  8
0
100
AcDbLine
 62
7
  6
CONTINUOUS
 10
10.7616301682
 20
-7.8431562171
 11
10.9030515245
 21
-7.7615012985
  0
LINE
  5
54F
100
AcDbEntity
  8
0
100
AcDbLine
 62
7
  6
CONTINUOUS
 10
7.1288687259
 20
-9.966970321
 11
7.2702900821
 21
-9.8853154024
  0
LINE
  5
550
100
AcDbEntity
  8
0
100
AcDbLine
 62
7
  6
CONTINUOUS
 10
10.8028774344
 20
-7.8669718717
 11
10.9442987907
 21
-7.785316953
  0
LINE
  5
551
100
AcDbEntity
  8
0
100
AcDbLine
 62
7
  6
CONTINUOUS
 10
10.2460308442
 20
-8.2403239646
 11
10.3874522005
 21
-8.1586690459
  0
LINE
  5
552
100
AcDbEntity
  8
0
100
AcDbLine
 62
7
  6
CONTINUOUS
 10
9.689184254
 20
-8.5789326213
 11
9.8306056103
 21
-8.4972777026
  0
LINE
  5
553
100
AcDbEntity
  8
0
100
AcDbLine
 62
7
  6
CONTINUOUS
 10
10.5347664279
 20
-8.0943454675
 11
10.6761877841
 21
-8.0126905489
  0
LINE
  5
554
100
AcDbEntity
  8
0
100
AcDbLine
 62
7
  6
CONTINUOUS
 10
7.1907405692
 20
-10.1416679955
 11
7.3321619255
 21
-10.0600130768
  0
LINE
  5
555
100
AcDbEntity
  8
0
100
AcDbLine
 62
7
  6
CONTINUOUS
 10
10.9472456983
 20
-7.9850717098
 11
11.0886670545
 21
-7.9034167911
  0
LINE
  5
556
100
AcDbEntity
  8
0
100
AcDbLine
 62
7
  6
CONTINUOUS
 10
9.7510560974
 20
-8.684143472
 11
9.8924774536
 21
-8.6024885533
  0
LINE
  5
557
100
AcDbEntity
  8
0
100
AcDbLine
 62
7
  6
CONTINUOUS
 10
10.2460308442
 20
-8.4835278478
 11
10.3874522005
 21
-8.4018729292
  0
LINE
  5
558
100
AcDbEntity
  8
0
100
AcDbLine
 62
7
  6
CONTINUOUS
 10
9.8129279408
 20
-8.7546109108
 11
9.954349297
 21
-8.6729559921
  0
LINE
  5
559
100
AcDbEntity
  8
0
100
AcDbLine
 62
7
  6
CONTINUOUS
 10
7.2113645563
 20
-10.2578062629
 11
7.3527859126
 21
-10.1761513442
  0
LINE
  5
55A
100
AcDbEntity
  8
0
100
AcDbLine
 62
7
  6
CONTINUOUS
 10
6.9638771829
 20
-10.4276009596
 11
7.0605665196
 21
-10.3717737483
  0
LINE
  5
55B
100
AcDbEntity
  8
0
100
AcDbLine
 62
7
  6
CONTINUOUS
 10
11.0297411747
 20
-8.1021903877
 11
11.171162531
 21
-8.0205354691
  0
LINE
  5
55C
100
AcDbEntity
  8
0
100
AcDbLine
 62
7
  6
CONTINUOUS
 10
7.5207237731
 20
-10.1584791023
 11
7.6621451293
 21
-10.0768241836
  0
LINE
  5
55D
100
AcDbEntity
  8
0
100
AcDbLine
 62
7
  6
CONTINUOUS
 10
7.6032196036
 20
-10.1366243371
 11
7.7446409598
 21
-10.0549694185
  0
LINE
  5
55E
100
AcDbEntity
  8
0
100
AcDbLine
 62
7
  6
CONTINUOUS
 10
7.2113645563
 20
-10.3967800078
 11
7.3527859126
 21
-10.3151250891
  0
LINE
  5
55F
100
AcDbEntity
  8
0
100
AcDbLine
 62
7
  6
CONTINUOUS
 10
9.9366716275
 20
-8.8260589646
 11
10.0780929837
 21
-8.744404046
  0
LINE
  5
560
100
AcDbEntity
  8
0
100
AcDbLine
 62
7
  6
CONTINUOUS
 10
7.7063393032
 20
-10.1614209474
 11
7.8477606594
 21
-10.0797660287
  0
LINE
  5
561
100
AcDbEntity
  8
0
100
AcDbLine
 62
7
  6
CONTINUOUS
 10
10.2254072111
 20
-8.7148239525
 11
10.3668285674
 21
-8.6331690338
  0
LINE
  5
562
100
AcDbEntity
  8
0
100
AcDbLine
 62
7
  6
CONTINUOUS
 10
7.1907405692
 20
-10.4891022118
 11
7.3321619255
 21
-10.4074472931
  0
LINE
  5
563
100
AcDbEntity
  8
0
100
AcDbLine
 62
7
  6
CONTINUOUS
 10
11.1122366512
 20
-8.2887958895
 11
11.2536580074
 21
-8.2071409708
  0
LINE
  5
564
100
AcDbEntity
  8
0
100
AcDbLine
 62
7
  6
CONTINUOUS
 10
7.1288687259
 20
-10.5923518324
 11
7.2702900821
 21
-10.5106969137
  0
LINE
  5
565
100
AcDbEntity
  8
0
100
AcDbLine
 62
7
  6
CONTINUOUS
 10
7.1327513531
 20
-10.5990763068
 11
7.1877943696
 21
-10.5672951589
  0
LWPOLYLINE
  5
566
100
AcDbEntity
  8
0
100
AcDbPolyline
 62
7
  6
CONTINUOUS
 90
13
 70
0
 10
-10.0877536681
 20
-16.6925674775
 10
-10.1385353424
 20
-16.7212405456
 10
-10.1888221271
 20
-16.7524855326
 10
-10.2386140222
 20
-16.7863024385
 10
-10.288583732
 20
-16.8232514899
 10
-10.3380585522
 20
-16.8627724601
 10
-10.3850203698
 20
-16.9031846691
 10
-10.4294095817
 20
-16.9445217819
 10
-10.4712857909
 20
-16.9867501334
 10
-10.5088096935
 20
-17.0280880477
 10
-10.5413681883
 20
-17.0679416331
 10
-10.5695743765
 20
-17.1069047812
 10
-10.5934282581
 20
-17.1449774923
  0
LINE
  5
567
100
AcDbEntity
  8
0
100
AcDbLine
 62
7
  6
CONTINUOUS
 10
9.7304324643
 20
-7.4562160582
 11
9.668560621
 21
-7.489978855
  0
LINE
  5
568
100
AcDbEntity
  8
0
100
AcDbLine
 62
7
  6
CONTINUOUS
 10
9.9985434708
 20
-8.2364015045
 11
10.0604153142
 21
-8.2026387076
  0
LINE
  5
569
100
AcDbEntity
  8
0
100
AcDbLine
 62
7
  6
CONTINUOUS
 10
10.6378864815
 20
-7.9801686346
 11
10.5760146382
 21
-8.0139314315
  0
LINE
  5
56A
100
AcDbEntity
  8
0
100
AcDbLine
 62
7
  6
CONTINUOUS
 10
10.1429117347
 20
-8.3545013426
 11
10.019168048
 21
-8.4220269363
  0
LINE
  5
56B
100
AcDbEntity
  8
0
100
AcDbLine
 62
7
  6
CONTINUOUS
 10
9.9985434708
 20
-8.8270395797
 11
10.0604153142
 21
-8.7932767828
  0
LINE
  5
56C
100
AcDbEntity
  8
0
100
AcDbLine
 62
7
  6
CONTINUOUS
 10
7.6238434727
 20
-10.356992772
 11
7.5619716293
 21
-10.3907555689
  0
LINE
  5
56D
100
AcDbEntity
  8
0
100
AcDbLine
 62
253
  6
CONTINUOUS
 10
3.4418724114
 20
-9.5950392752
 11
-1.723376288
 21
-12.3235117029
  0
LINE
  5
56E
100
AcDbEntity
  8
0
100
AcDbLine
 62
7
  6
CONTINUOUS
 10
-8.8760747153
 20
-15.5034841784
 11
-9.7106910532
 21
-15.9438924983
  0
LINE
  5
56F
100
AcDbEntity
  8
0
100
AcDbLine
 62
7
  6
CONTINUOUS
 10
-10.0877536681
 20
-16.6925674775
 11
-8.1760795407
 21
-15.6837404031
  0
LINE
  5
570
100
AcDbEntity
  8
0
100
AcDbLine
 62
7
  6
CONTINUOUS
 10
-5.8679733363
 20
-15.3718139867
 11
-10.5939120686
 21
-17.5985843027
  0
LINE
  5
571
100
AcDbEntity
  8
0
100
AcDbLine
 62
7
  6
CONTINUOUS
 10
-11.2699730049
 20
-18.7347488777
 11
-6.3877453787
 21
-16.4343333323
  0
LWPOLYLINE
  5
572
100
AcDbEntity
  8
0
100
AcDbPolyline
 62
7
  6
CONTINUOUS
 90
12
 70
0
 10
-11.2699730049
 20
-18.7347488777
 10
-11.391334384
 20
-18.7887943458
 10
-11.5051484618
 20
-18.8336825315
 10
-11.6114152382
 20
-18.8694134347
 10
-11.7107157742
 20
-18.8960740202
 10
-11.8024690089
 20
-18.9135773232
 10
-11.8849317598
 20
-18.9216624494
 10
-11.9579502283
 20
-18.9201604658
 10
-12.0216782129
 20
-18.9092403053
 10
-12.0748339263
 20
-18.8891478727
 10
-12.1172163186
 20
-18.8597087077
 10
-12.1315734215
 20
-18.8449463736
  0
LINE
  5
573
100
AcDbEntity
  8
0
100
AcDbLine
 62
7
  6
CONTINUOUS
 10
9.8512301875
 20
-7.1889362528
 11
9.7481101338
 21
-7.2336262619
  0
LINE
  5
574
100
AcDbEntity
  8
0
100
AcDbLine
 62
7
  6
CONTINUOUS
 10
9.6066887776
 20
-7.3152811806
 11
9.7098088312
 21
-7.2705911714
  0
LINE
  5
575
100
AcDbEntity
  8
0
100
AcDbLine
 62
7
  6
CONTINUOUS
 10
10.1222871575
 20
-8.9679744694
 11
10.019168048
 21
-9.0126650328
  0
LWPOLYLINE
  5
576
100
AcDbEntity
  8
0
100
AcDbPolyline
 62
253
  6
CONTINUOUS
 90
10
 70
0
 10
-1.7233762879
 20
-12.3235117028
 10
-1.7504802399
 20
-12.3349273836
 10
-1.7797381769
 20
-12.3431499065
 10
-1.8107625814
 20
-12.348041899
 10
-1.8431092635
 20
-12.3495108526
 10
-1.876363442
 20
-12.3475162987
 10
-1.9101505196
 20
-12.3420425843
 10
-1.9440253597
 20
-12.3331071029
 10
-1.9774737608
 20
-12.3207903135
 10
-2.0100035589
 20
-12.3052213505
  0
LINE
  5
577
100
AcDbEntity
  8
0
100
AcDbLine
 62
7
  6
CONTINUOUS
 10
-8.8852948435
 20
-13.3944996809
 11
-9.9531984121
 21
-13.753223265
  0
LINE
  5
578
100
AcDbEntity
  8
0
100
AcDbLine
 62
7
  6
CONTINUOUS
 10
-8.8670849598
 20
-15.4873923073
 11
-7.8825952053
 21
-15.1583966304
  0
LINE
  5
579
100
AcDbEntity
  8
0
100
AcDbLine
 62
7
  6
CONTINUOUS
 10
6.283286906
 20
-10.1388668992
 11
5.8914318993
 21
-10.260048897
  0
LWPOLYLINE
  5
57A
100
AcDbEntity
  8
0
100
AcDbPolyline
 62
253
  6
CONTINUOUS
 90
6
 70
0
 10
-12.6219911791
 20
22.5214847177
 10
-12.6188464977
 20
22.5194381564
 10
-12.6081854922
 20
22.5165821536
 10
-12.5946434707
 20
22.517761634
 10
-12.5784475567
 20
22.5229568157
 10
-12.5598693844
 20
22.5320805664
  0
LINE
  5
57B
100
AcDbEntity
  8
0
100
AcDbLine
 62
7
  6
CONTINUOUS
 10
-12.5896260991
 20
22.499272073
 11
-12.6219911791
 21
22.5214847177
  0
LINE
  5
57C
100
AcDbEntity
  8
0
100
AcDbLine
 62
253
  6
CONTINUOUS
 10
-12.5598693844
 20
22.5320805664
 11
-12.5312595363
 21
22.5121221852
  0
LINE
  5
57D
100
AcDbEntity
  8
0
100
AcDbLine
 62
253
  6
CONTINUOUS
 10
-11.9700985872
 20
22.8725410174
 11
-13.5009398167
 21
24.0566928404
  0
LINE
  5
57E
100
AcDbEntity
  8
0
100
AcDbLine
 62
253
  6
CONTINUOUS
 10
-11.7003620229
 20
23.1820948802
 11
-13.2312032524
 21
24.3662467032
  0
LINE
  5
57F
100
AcDbEntity
  8
0
100
AcDbLine
 62
7
  6
CONTINUOUS
 10
-12.6219911791
 20
22.5214847177
 11
-14.1373394454
 21
23.7145802545
  0
LINE
  5
580
100
AcDbEntity
  8
0
100
AcDbLine
 62
253
  6
CONTINUOUS
 10
-14.0752176508
 20
23.7251761032
 11
-12.5598693844
 21
22.5320805664
  0
LINE
  5
581
100
AcDbEntity
  8
0
100
AcDbLine
 62
253
  6
CONTINUOUS
 10
-14.0867382333
 20
23.7345867848
 11
-14.0752176508
 21
23.7251761032
  0
LWPOLYLINE
  5
582
100
AcDbEntity
  8
0
100
AcDbPolyline
 62
253
  6
CONTINUOUS
 90
10
 70
0
 10
-13.5009398167
 20
24.0566928404
 10
-13.5124603992
 20
24.066103522
 10
-13.5236282533
 20
24.0760778664
 10
-13.5344141956
 20
24.0865898092
 10
-13.544790041
 20
24.097611881
 10
-13.5547286758
 20
24.1091152797
 10
-13.5642041288
 20
24.1210699451
 10
-13.5731916393
 20
24.1334446379
 10
-13.5816677217
 20
24.1462070212
 10
-13.5896102266
 20
24.159323745
  0
LINE
  5
583
100
AcDbEntity
  8
0
100
AcDbLine
 62
253
  6
CONTINUOUS
 10
-2.4936760155
 20
19.1768789892
 11
-2.847229406
 21
19.6798256936
  0
LWPOLYLINE
  5
584
100
AcDbEntity
  8
0
100
AcDbPolyline
 62
7
  6
CONTINUOUS
 90
17
 70
0
 10
14.8051165536
 20
-10.7317565853
 10
14.5799180992
 20
-10.2573576182
 10
14.3748807924
 20
-9.7757471336
 10
14.1928834869
 20
-9.2935954342
 10
14.0342026828
 20
-8.8108349849
 10
13.89856188
 20
-8.3275333208
 10
13.7880104317
 20
-7.850563349
 10
13.7029218811
 20
-7.3797241456
 10
13.6429226849
 20
-6.9152166347
 10
13.6089415667
 20
-6.4645164956
 10
13.6012867914
 20
-6.0285598795
 10
13.619650094
 20
-5.6064106354
 10
13.664035403
 20
-5.2027359884
 10
13.7348314595
 20
-4.8169673623
 10
13.8316495224
 20
-4.4496733334
 10
13.9533272975
 20
-4.1072268567
 10
13.9696858607
 20
-4.0719596194
  0
LINE
  5
585
100
AcDbEntity
  8
0
100
AcDbLine
 62
253
  6
CONTINUOUS
 10
15.1053621289
 20
-11.4149749401
 11
14.8465430838
 21
-10.8572614739
  0
LINE
  5
586
100
AcDbEntity
  8
0
100
AcDbLine
 62
7
  6
CONTINUOUS
 10
10.4316463743
 20
-9.0076209443
 11
10.4110227412
 21
-8.891482857
  0
LINE
  5
587
100
AcDbEntity
  8
0
100
AcDbLine
 62
7
  6
CONTINUOUS
 10
11.1328612284
 20
-9.0303160089
 11
11.1534848614
 21
-9.1811975324
  0
LINE
  5
588
100
AcDbEntity
  8
0
100
AcDbLine
 62
7
  6
CONTINUOUS
 10
11.1122366512
 20
-8.2887958895
 11
11.1328612284
 21
-8.4396779094
  0
LINE
  5
589
100
AcDbEntity
  8
0
100
AcDbLine
 62
7
  6
CONTINUOUS
 10
11.2949062177
 20
-9.0995426138
 11
11.2742825846
 21
-8.9486610903
  0
LINE
  5
58A
100
AcDbEntity
  8
0
100
AcDbLine
 62
7
  6
CONTINUOUS
 10
11.2742825846
 20
-8.3580229908
 11
11.2536580074
 21
-8.2071409708
  0
LWPOLYLINE
  5
58B
100
AcDbEntity
  8
0
100
AcDbPolyline
 62
7
  6
CONTINUOUS
 90
31
 70
0
 10
14.8465430838
 20
-10.8572614739
 10
14.8227789162
 20
-9.7956637922
 10
14.7515515492
 20
-8.7095336109
 10
14.6330562122
 20
-7.6018479372
 10
14.4676176927
 20
-6.4756428607
 10
14.255689446
 20
-5.3340052311
 10
13.9978523529
 20
-4.1800641979
 10
13.6948131268
 20
-3.0169826331
 10
13.3474023772
 20
-1.8479484626
 10
12.9565723328
 20
-0.6761659278
 10
12.5233942317
 20
0.495153197
 10
12.0490553848
 20
1.6627984073
 10
11.534855922
 20
2.8235692689
 10
10.9822052283
 20
3.9742841894
 10
10.3926180808
 20
5.1117891394
 10
9.7677104969
 20
6.2329662966
 10
9.1091953048
 20
7.3347425926
 10
8.418877449
 20
8.4140981351
 10
7.6986490426
 20
9.4680744855
 10
6.9504841817
 20
10.4937827679
 10
6.1764335342
 20
11.4884115873
 10
5.378618719
 20
12.4492347351
 10
4.5592264912
 20
13.373618662
 10
3.7205027478
 20
14.2590296957
 10
2.8647463724
 20
15.1030409863
 10
1.9943029337
 20
15.9033391574
 10
1.1115582566
 20
16.6577306474
 10
0.218931883
 20
17.3641477217
 10
-0.6811295603
 20
18.02065414
 10
-1.5861590674
 20
18.6254504641
 10
-2.4936760155
 20
19.1768789892
  0
LWPOLYLINE
  5
58C
100
AcDbEntity
  8
0
100
AcDbPolyline
 62
7
  6
CONTINUOUS
 90
33
 70
0
 10
15.1053621289
 20
-11.4149749401
 10
15.0845359996
 20
-10.4114896133
 10
15.0234784318
 20
-9.3917006627
 10
14.9221894254
 20
-8.3556080882
 10
14.7802351714
 20
-7.3008025311
 10
14.5980494789
 20
-6.2296933502
 10
14.3769337748
 20
-5.149508622
 10
14.116633964
 20
-4.0601965746
 10
13.8174041415
 20
-2.9618089799
 10
13.4813080194
 20
-1.8617292298
 10
13.1081053598
 20
-0.7599512082
 10
12.6980364005
 20
0.3435189688
 10
12.2538855673
 20
1.4412795615
 10
11.775429052
 20
2.5332927859
 10
11.2628906628
 20
3.6195964261
 10
10.7197262493
 20
4.6929020933
 10
10.1457359212
 20
5.7531216711
 10
9.5411195688
 20
6.8003432761
 10
8.9099327136
 20
7.8275428698
 10
8.2519991155
 20
8.8345913783
 10
7.5674950145
 20
9.8216178754
 10
6.8610046512
 20
10.7819855445
 10
6.1323834219
 20
11.7155194367
 10
5.3817759303
 20
12.6223945007
 10
4.6142002287
 20
13.4964987658
 10
3.8295415197
 20
14.337621112
 10
3.0279146006
 20
15.1459726592
 10
2.2146819157
 20
15.9160747965
 10
1.3897612806
 20
16.6476815831
 10
0.5532348796
 20
17.3410389598
 10
-0.2892882894
 20
17.991406138
 10
-1.1359385603
 20
18.597202855
 10
-1.9885855992
 20
19.1600093735
  0
LWPOLYLINE
  5
58D
100
AcDbEntity
  8
0
100
AcDbPolyline
 62
7
  6
CONTINUOUS
 90
34
 70
0
 10
16.244653686
 20
-11.2562384199
 10
16.2233261953
 20
-10.2285955178
 10
16.1607987477
 20
-9.1842565039
 10
16.0570713432
 20
-8.123221378
 10
15.9116997293
 20
-7.0430227793
 10
15.7251281584
 20
-5.9461280687
 10
15.4986893876
 20
-4.8399393291
 10
15.2321232049
 20
-3.7244035423
 10
14.9256898222
 20
-2.5995737264
 10
14.5815026328
 20
-1.4730110187
 10
14.1993156153
 20
-0.3447091559
 10
13.7793747909
 20
0.7853255988
 10
13.3245316168
 20
1.9095133184
 10
12.834556897
 20
3.0278153096
 10
12.3096798273
 20
4.1402702657
 10
11.7534394527
 20
5.2394143402
 10
11.1656310704
 20
6.3251572949
 10
10.5464593831
 20
7.3975893679
 10
9.9000775434
 20
8.4495174263
 10
9.2263050686
 20
9.4808092889
 10
8.5253224413
 20
10.4915971369
 10
7.8018242617
 20
11.4750843809
 10
7.0556624449
 20
12.4310918605
 10
6.2869850758
 20
13.3597987362
 10
5.5009310095
 20
14.2549458994
 10
4.6973826851
 20
15.116317148
 10
3.8764576636
 20
15.9441286841
 10
3.043647483
 20
16.7327700066
 10
2.1988679801
 20
17.4819892541
 10
1.342203318
 20
18.1920382879
 10
0.4793975238
 20
18.8580621914
 10
-0.3876347269
 20
19.478442659
 10
-1.2608081098
 20
20.0547979963
 10
-2.1401226249
 20
20.5871282033
  0
LINE
  5
58E
100
AcDbEntity
  8
0
100
AcDbLine
 62
7
  6
CONTINUOUS
 10
14.8465430838
 20
-32.0854886705
 11
14.8465430838
 21
-10.8572614739
  0
LINE
  5
58F
100
AcDbEntity
  8
0
100
AcDbLine
 62
7
  6
CONTINUOUS
 10
15.1053621289
 20
-32.6432021367
 11
15.1053621289
 21
-11.4149749401
  0
LINE
  5
590
100
AcDbEntity
  8
0
100
AcDbLine
 62
7
  6
CONTINUOUS
 10
15.5004890087
 20
-32.871343445
 11
15.5004890087
 21
-11.6431162484
  0
LINE
  5
591
100
AcDbEntity
  8
0
100
AcDbLine
 62
7
  6
CONTINUOUS
 10
16.244653686
 20
-32.4844656165
 11
16.244653686
 21
-11.2562384199
  0
LWPOLYLINE
  5
592
100
AcDbEntity
  8
0
100
AcDbPolyline
 62
7
  6
CONTINUOUS
 90
19
 70
0
 10
15.5004890087
 20
-32.871343445
 10
15.4792045075
 20
-33.8723361355
 10
15.4168030955
 20
-34.8425105057
 10
15.3132847725
 20
-35.7818665557
 10
15.1682061819
 20
-36.6923546955
 10
14.9820106803
 20
-37.5720245151
 10
14.7560283385
 20
-38.4150247841
 10
14.4899994689
 20
-39.2211085332
 10
14.1841837591
 20
-39.9905227316
 10
13.8406903422
 20
-40.7181570573
 10
13.4592736928
 20
-41.4037342341
 10
13.0401793364
 20
-42.0475315382
 10
12.5862529823
 20
-42.6452704752
 10
12.0972658966
 20
-43.1966482934
 10
11.5734468131
 20
-43.7019677446
 10
11.0183276432
 20
-44.1578585892
 10
10.4317040968
 20
-44.5639948623
 10
9.8137804639
 20
-44.9207025288
 10
9.6374788821
 20
-45.0105251202
  0
LINE
  5
593
100
AcDbEntity
  8
0
100
AcDbLine
 62
7
  6
CONTINUOUS
 10
11.1534848614
 20
-9.32017118
 11
11.1328612284
 21
-9.4124936127
  0
LINE
  5
594
100
AcDbEntity
  8
0
100
AcDbLine
 62
7
  6
CONTINUOUS
 10
11.2742825846
 20
-9.3308386941
 11
11.2949062177
 21
-9.2385162613
  0
LINE
  5
595
100
AcDbEntity
  8
0
100
AcDbLine
 62
7
  6
CONTINUOUS
 10
10.9884929645
 20
-8.5647820519
 11
11.0297411747
 21
-8.449624604
  0
LINE
  5
596
100
AcDbEntity
  8
0
100
AcDbLine
 62
7
  6
CONTINUOUS
 10
11.0297411747
 20
-9.31820995
 11
11.0503648078
 21
-9.2606309534
  0
LINE
  5
597
100
AcDbEntity
  8
0
100
AcDbLine
 62
253
  6
CONTINUOUS
 10
-2.847229406
 20
-43.0068000636
 11
-2.4936760155
 21
-42.0955787658
  0
LWPOLYLINE
  5
598
100
AcDbEntity
  8
0
100
AcDbPolyline
 62
7
  6
CONTINUOUS
 90
17
 70
0
 10
13.8652402673
 20
-3.6710915677
 10
13.7727254576
 20
-3.902465338
 10
13.6644170355
 20
-4.2534010133
 10
13.5799898559
 20
-4.6225900958
 10
13.5197969703
 20
-5.0093601243
 10
13.4834853272
 20
-5.4143835599
 10
13.4713326472
 20
-5.8342501847
 10
13.4835053145
 20
-6.2698988937
 10
13.519836945
 20
-6.7203907919
 10
13.5801061062
 20
-7.1794989767
 10
13.6647433457
 20
-7.6473682659
 10
13.7733181161
 20
-8.1238538418
 10
13.9043173424
 20
-8.6022943487
 10
14.0580471227
 20
-9.0825597265
 10
14.2342013589
 20
-9.5647800352
 10
14.4303486824
 20
-10.0426840998
 10
14.6466800747
 20
-10.516086218
  0
LINE
  5
599
100
AcDbEntity
  8
0
100
AcDbLine
 62
7
  6
CONTINUOUS
 10
10.0604153142
 20
-8.7932767828
 11
10.1016635244
 21
-8.7128627224
  0
LINE
  5
59A
100
AcDbEntity
  8
0
100
AcDbLine
 62
7
  6
CONTINUOUS
 10
10.5760146382
 20
-8.0139314315
 11
10.5347664279
 21
-8.0943454675
  0
LINE
  5
59B
100
AcDbEntity
  8
0
100
AcDbLine
 62
7
  6
CONTINUOUS
 10
10.6761877841
 20
-8.0126905489
 11
10.6814164265
 21
-8.0024972282
  0
LINE
  5
59C
100
AcDbEntity
  8
0
100
AcDbLine
 62
7
  6
CONTINUOUS
 10
8.7787845093
 20
-11.8229398713
 11
8.7375367711
 21
-11.9033541798
  0
LINE
  5
59D
100
AcDbEntity
  8
0
100
AcDbLine
 62
7
  6
CONTINUOUS
 10
8.8789581273
 20
-11.8216992612
 11
8.9202058655
 21
-11.7412849526
  0
LINE
  5
59E
100
AcDbEntity
  8
0
100
AcDbLine
 62
7
  6
CONTINUOUS
 10
11.1122366512
 20
-8.6362301057
 11
11.070989385
 21
-8.7166446869
  0
LINE
  5
59F
100
AcDbEntity
  8
0
100
AcDbLine
 62
7
  6
CONTINUOUS
 10
11.2124107412
 20
-8.6349897682
 11
11.2536580074
 21
-8.5545751871
  0
LINE
  5
5A0
100
AcDbEntity
  8
0
100
AcDbLine
 62
7
  6
CONTINUOUS
 10
11.1328612284
 20
-9.4124936127
 11
11.0916130181
 21
-9.4929076488
  0
LINE
  5
5A1
100
AcDbEntity
  8
0
100
AcDbLine
 62
7
  6
CONTINUOUS
 10
11.2330343743
 20
-9.4112527301
 11
11.2742825846
 21
-9.3308386941
  0
LINE
  5
5A2
100
AcDbEntity
  8
0
100
AcDbLine
 62
7
  6
CONTINUOUS
 10
10.1841590009
 20
-8.8647248366
 11
10.1222871575
 21
-8.9679744694
  0
LINE
  5
5A3
100
AcDbEntity
  8
0
100
AcDbLine
 62
7
  6
CONTINUOUS
 10
10.2637085138
 20
-8.8863195508
 11
10.3255803571
 21
-8.783069918
  0
LINE
  5
5A4
100
AcDbEntity
  8
0
100
AcDbLine
 62
253
  6
CONTINUOUS
 10
5.4327605535
 20
-16.2005897625
 11
4.7474960489
 21
-17.1081196282
  0
LINE
  5
5A5
100
AcDbEntity
  8
0
100
AcDbLine
 62
7
  6
CONTINUOUS
 10
10.4522709515
 20
-7.9077399658
 11
10.5347664279
 21
-7.8163981724
  0
LINE
  5
5A6
100
AcDbEntity
  8
0
100
AcDbLine
 62
7
  6
CONTINUOUS
 10
10.9472456983
 20
-8.6104532212
 11
10.9884929645
 21
-8.5647820519
  0
LINE
  5
5A7
100
AcDbEntity
  8
0
100
AcDbLine
 62
7
  6
CONTINUOUS
 10
8.1600660758
 20
-11.8131337453
 11
8.0775703633
 21
-11.9044754146
  0
LINE
  5
5A8
100
AcDbEntity
  8
0
100
AcDbLine
 62
7
  6
CONTINUOUS
 10
8.2189917195
 20
-11.822820496
 11
8.301487432
 21
-11.7314788267
  0
LINE
  5
5A9
100
AcDbEntity
  8
0
100
AcDbLine
 62
7
  6
CONTINUOUS
 10
10.9884929645
 20
-9.3638805984
 11
11.0297411747
 21
-9.31820995
  0
LINE
  5
5AA
100
AcDbEntity
  8
0
100
AcDbLine
 62
7
  6
CONTINUOUS
 10
7.1288687259
 20
-10.5923518324
 11
7.0463730134
 21
-10.6489500776
  0
LINE
  5
5AB
100
AcDbEntity
  8
0
100
AcDbLine
 62
7
  6
CONTINUOUS
 10
7.1877943696
 20
-10.5672951589
 11
7.2702900821
 21
-10.5106969137
  0
LINE
  5
5AC
100
AcDbEntity
  8
0
100
AcDbLine
 62
7
  6
CONTINUOUS
 10
11.070989385
 20
-8.7166446869
 11
10.9884929645
 21
-8.7732425233
  0
LINE
  5
5AD
100
AcDbEntity
  8
0
100
AcDbLine
 62
7
  6
CONTINUOUS
 10
11.1299143207
 20
-8.6915876046
 11
11.2124107412
 21
-8.6349897682
  0
LINE
  5
5AE
100
AcDbEntity
  8
0
100
AcDbLine
 62
253
  6
CONTINUOUS
 10
0.88358475
 20
-17.5984182946
 11
-20.8784523263
 21
-31.4804393393
  0
LINE
  5
5AF
100
AcDbEntity
  8
0
100
AcDbLine
 62
253
  6
CONTINUOUS
 10
5.4327605535
 20
-16.2005897625
 11
7.3489639903
 21
-15.0645593167
  0
LINE
  5
5B0
100
AcDbEntity
  8
0
100
AcDbLine
 62
7
  6
CONTINUOUS
 10
10.1841590009
 20
-8.8647248366
 11
10.3255803571
 21
-8.7830699179
  0
LINE
  5
5B1
100
AcDbEntity
  8
0
100
AcDbLine
 62
7
  6
CONTINUOUS
 10
10.7410055911
 20
-8.5608595918
 11
10.8824269473
 21
-8.4792046731
  0
LINE
  5
5B2
100
AcDbEntity
  8
0
100
AcDbLine
 62
7
  6
CONTINUOUS
 10
10.1222871575
 20
-8.9679744694
 11
10.2637085138
 21
-8.8863195508
  0
LINE
  5
5B3
100
AcDbEntity
  8
0
100
AcDbLine
 62
7
  6
CONTINUOUS
 10
7.5207237731
 20
-10.4711699067
 11
7.6621451293
 21
-10.389514988
  0
LINE
  5
5B4
100
AcDbEntity
  8
0
100
AcDbLine
 62
7
  6
CONTINUOUS
 10
7.8919548332
 20
-10.2685930281
 11
8.0333761895
 21
-10.1869381095
  0
LINE
  5
5B5
100
AcDbEntity
  8
0
100
AcDbLine
 62
7
  6
CONTINUOUS
 10
10.8235020116
 20
-8.6084919911
 11
10.9649233678
 21
-8.5268370724
  0
LINE
  5
5B6
100
AcDbEntity
  8
0
100
AcDbLine
 62
7
  6
CONTINUOUS
 10
11.1328612284
 20
-8.4396779094
 11
11.2742825846
 21
-8.3580229908
  0
LINE
  5
5B7
100
AcDbEntity
  8
0
100
AcDbLine
 62
7
  6
CONTINUOUS
 10
10.4110227412
 20
-8.891482857
 11
10.5524440974
 21
-8.8098279383
  0
LINE
  5
5B8
100
AcDbEntity
  8
0
100
AcDbLine
 62
7
  6
CONTINUOUS
 10
7.500099786
 20
-10.5982355226
 11
7.6415211422
 21
-10.5165806039
  0
LINE
  5
5B9
100
AcDbEntity
  8
0
100
AcDbLine
 62
7
  6
CONTINUOUS
 10
6.5720221947
 20
-11.1394210189
 11
6.7134435509
 21
-11.0577661002
  0
LINE
  5
5BA
100
AcDbEntity
  8
0
100
AcDbLine
 62
7
  6
CONTINUOUS
 10
11.1328612284
 20
-8.5091648305
 11
11.2742825846
 21
-8.4275099119
  0
LINE
  5
5BB
100
AcDbEntity
  8
0
100
AcDbLine
 62
7
  6
CONTINUOUS
 10
7.9950746508
 20
-10.3628765303
 11
8.1364960071
 21
-10.2812216116
  0
LINE
  5
5BC
100
AcDbEntity
  8
0
100
AcDbLine
 62
7
  6
CONTINUOUS
 10
10.5141427948
 20
-8.9510230836
 11
10.6555641511
 21
-8.8693681649
  0
LINE
  5
5BD
100
AcDbEntity
  8
0
100
AcDbLine
 62
7
  6
CONTINUOUS
 10
11.1122366512
 20
-8.6362301057
 11
11.2536580074
 21
-8.5545751871
  0
LINE
  5
5BE
100
AcDbEntity
  8
0
100
AcDbLine
 62
7
  6
CONTINUOUS
 10
11.070989385
 20
-8.7166446869
 11
11.2124107412
 21
-8.6349897682
  0
LINE
  5
5BF
100
AcDbEntity
  8
0
100
AcDbLine
 62
7
  6
CONTINUOUS
 10
10.5347664279
 20
-9.0324177346
 11
10.6761877842
 21
-8.950762816
  0
LINE
  5
5C0
100
AcDbEntity
  8
0
100
AcDbLine
 62
7
  6
CONTINUOUS
 10
11.0280506176
 20
-8.7504024301
 11
11.1299143207
 21
-8.6915876046
  0
LINE
  5
5C1
100
AcDbEntity
  8
0
100
AcDbLine
 62
7
  6
CONTINUOUS
 10
8.0775703633
 20
-10.4799953446
 11
8.2189917195
 21
-10.3983404259
  0
LINE
  5
5C2
100
AcDbEntity
  8
0
100
AcDbLine
 62
7
  6
CONTINUOUS
 10
10.5760146382
 20
-9.1257207824
 11
10.7174359944
 21
-9.0440658637
  0
LINE
  5
5C3
100
AcDbEntity
  8
0
100
AcDbLine
 62
7
  6
CONTINUOUS
 10
11.0916130181
 20
-8.9022695736
 11
11.2330343743
 21
-8.8206146549
  0
LINE
  5
5C4
100
AcDbEntity
  8
0
100
AcDbLine
 62
7
  6
CONTINUOUS
 10
10.6172619044
 20
-9.1842798488
 11
10.7586832606
 21
-9.1026249301
  0
LINE
  5
5C5
100
AcDbEntity
  8
0
100
AcDbLine
 62
7
  6
CONTINUOUS
 10
8.1600660758
 20
-10.6666009826
 11
8.301487432
 21
-10.5849460639
  0
LINE
  5
5C6
100
AcDbEntity
  8
0
100
AcDbLine
 62
7
  6
CONTINUOUS
 10
7.500099786
 20
-11.1193867496
 11
7.6415211422
 21
-11.0377318309
  0
LINE
  5
5C7
100
AcDbEntity
  8
0
100
AcDbLine
 62
7
  6
CONTINUOUS
 10
11.1328612284
 20
-9.0303160089
 11
11.2742825846
 21
-8.9486610903
  0
LINE
  5
5C8
100
AcDbEntity
  8
0
100
AcDbLine
 62
7
  6
CONTINUOUS
 10
10.720381958
 20
-9.2785634873
 11
10.8618033142
 21
-9.1969085686
  0
LINE
  5
5C9
100
AcDbEntity
  8
0
100
AcDbLine
 62
7
  6
CONTINUOUS
 10
8.1806901809
 20
-10.8522262392
 11
8.3221115371
 21
-10.7705713205
  0
LINE
  5
5CA
100
AcDbEntity
  8
0
100
AcDbLine
 62
7
  6
CONTINUOUS
 10
10.8441256447
 20
-9.3500115411
 11
10.9855470009
 21
-9.2683566224
  0
LINE
  5
5CB
100
AcDbEntity
  8
0
100
AcDbLine
 62
7
  6
CONTINUOUS
 10
7.5207237731
 20
-11.2702684288
 11
7.6621451293
 21
-11.1886135102
  0
LINE
  5
5CC
100
AcDbEntity
  8
0
100
AcDbLine
 62
7
  6
CONTINUOUS
 10
11.1534848614
 20
-9.1811975324
 11
11.2949062177
 21
-9.0995426138
  0
LINE
  5
5CD
100
AcDbEntity
  8
0
100
AcDbLine
 62
7
  6
CONTINUOUS
 10
10.9472456983
 20
-9.3748083558
 11
10.9829121615
 21
-9.3542149869
  0
LINE
  5
5CE
100
AcDbEntity
  8
0
100
AcDbLine
 62
7
  6
CONTINUOUS
 10
11.1534848614
 20
-9.32017118
 11
11.2949062177
 21
-9.2385162613
  0
LINE
  5
5CF
100
AcDbEntity
  8
0
100
AcDbLine
 62
7
  6
CONTINUOUS
 10
7.5619716293
 20
-11.3983146598
 11
7.7033929856
 21
-11.3166597411
  0
LINE
  5
5D0
100
AcDbEntity
  8
0
100
AcDbLine
 62
7
  6
CONTINUOUS
 10
11.1328612284
 20
-9.4124936127
 11
11.2742825846
 21
-9.3308386941
  0
LINE
  5
5D1
100
AcDbEntity
  8
0
100
AcDbLine
 62
7
  6
CONTINUOUS
 10
11.0916130181
 20
-9.4929076488
 11
11.2330343743
 21
-9.4112527301
  0
LINE
  5
5D2
100
AcDbEntity
  8
0
100
AcDbLine
 62
7
  6
CONTINUOUS
 10
7.6238434727
 20
-11.5035255348
 11
7.7652648289
 21
-11.4218706161
  0
LINE
  5
5D3
100
AcDbEntity
  8
0
100
AcDbLine
 62
7
  6
CONTINUOUS
 10
7.7063393032
 20
-11.5859010053
 11
7.8477606594
 21
-11.5042460866
  0
LINE
  5
5D4
100
AcDbEntity
  8
0
100
AcDbLine
 62
7
  6
CONTINUOUS
 10
8.4178585257
 20
-11.287993702
 11
8.4871029621
 21
-11.2480128323
  0
LINE
  5
5D5
100
AcDbEntity
  8
0
100
AcDbLine
 62
7
  6
CONTINUOUS
 10
8.0569464942
 20
-11.5798767075
 11
8.1983678504
 21
-11.4982217889
  0
LINE
  5
5D6
100
AcDbEntity
  8
0
100
AcDbLine
 62
7
  6
CONTINUOUS
 10
7.8919548332
 20
-11.693073086
 11
8.0333761895
 21
-11.6114181674
  0
LINE
  5
5D7
100
AcDbEntity
  8
0
100
AcDbLine
 62
7
  6
CONTINUOUS
 10
8.7375367711
 20
-11.2084858933
 11
8.8789581273
 21
-11.1268309747
  0
LINE
  5
5D8
100
AcDbEntity
  8
0
100
AcDbLine
 62
7
  6
CONTINUOUS
 10
8.1806901809
 20
-11.6513247614
 11
8.3221115371
 21
-11.5696698427
  0
LINE
  5
5D9
100
AcDbEntity
  8
0
100
AcDbLine
 62
7
  6
CONTINUOUS
 10
8.7787845093
 20
-11.3365320561
 11
8.9202058655
 21
-11.2548771374
  0
LINE
  5
5DA
100
AcDbEntity
  8
0
100
AcDbLine
 62
7
  6
CONTINUOUS
 10
8.1600660758
 20
-11.8131337453
 11
8.301487432
 21
-11.7314788267
  0
LINE
  5
5DB
100
AcDbEntity
  8
0
100
AcDbLine
 62
7
  6
CONTINUOUS
 10
8.0775703633
 20
-11.9044754146
 11
8.2189917195
 21
-11.822820496
  0
LINE
  5
5DC
100
AcDbEntity
  8
0
100
AcDbLine
 62
7
  6
CONTINUOUS
 10
8.7787845093
 20
-11.8229398713
 11
8.9202058655
 21
-11.7412849526
  0
LINE
  5
5DD
100
AcDbEntity
  8
0
100
AcDbLine
 62
7
  6
CONTINUOUS
 10
8.7375367711
 20
-11.9033541798
 11
8.8789581273
 21
-11.8216992612
  0
LWPOLYLINE
  5
5DE
100
AcDbEntity
  8
0
100
AcDbPolyline
 62
7
  6
CONTINUOUS
 90
11
 70
0
 10
4.8441962562
 20
-13.5136044312
 10
4.833700138
 20
-13.5195154986
 10
4.7629718378
 20
-13.5678021654
 10
4.6992399177
 20
-13.6269070904
 10
4.6429894161
 20
-13.6963804492
 10
4.5946484334
 20
-13.7756935077
 10
4.5545848735
 20
-13.8642426457
 10
4.5231036445
 20
-13.9613539508
 10
4.5004443374
 20
-14.0662883472
 10
4.4867794032
 20
-14.1782472209
 10
4.4822128404
 20
-14.2963784972
  0
LINE
  5
5DF
100
AcDbEntity
  8
0
100
AcDbLine
 62
7
  6
CONTINUOUS
 10
11.0916130181
 20
-9.4929076488
 11
11.0297411747
 21
-9.5266704578
  0
LINE
  5
5E0
100
AcDbEntity
  8
0
100
AcDbLine
 62
7
  6
CONTINUOUS
 10
7.9744505457
 20
-11.7059616646
 11
8.036322389
 21
-11.6721988434
  0
LWPOLYLINE
  5
5E1
100
AcDbEntity
  8
0
100
AcDbPolyline
 62
7
  6
CONTINUOUS
 90
6
 70
0
 10
0.5146591202
 20
-14.5694364096
 10
0.5500344224
 20
-14.5515280591
 10
0.6335470853
 20
-14.497654201
 10
0.708562242
 20
-14.4314398438
 10
0.7757471233
 20
-14.3526282118
 10
0.8351017292
 20
-14.2612193049
  0
LINE
  5
5E2
100
AcDbEntity
  8
0
100
AcDbLine
 62
253
  6
CONTINUOUS
 10
0.8349338477
 20
-14.2615198167
 11
-4.108141794
 21
-16.592297314
  0
LINE
  5
5E3
100
AcDbEntity
  8
0
100
AcDbLine
 62
7
  6
CONTINUOUS
 10
0.5147216031
 20
-14.5695520075
 11
-4.4769119444
 21
-16.9231505596
  0
LWPOLYLINE
  5
5E4
100
AcDbEntity
  8
0
100
AcDbPolyline
 62
253
  6
CONTINUOUS
 90
6
 70
0
 10
-4.7392553684
 20
-16.8697293444
 10
-4.8367932645
 20
-16.9053559692
 10
-4.9441111674
 20
-16.9332647764
 10
-5.0610474842
 20
-16.9530517079
 10
-5.1872147494
 20
-16.9631188153
 10
-5.3224838077
 20
-16.9629334491
  0
LINE
  5
5E5
100
AcDbEntity
  8
0
100
AcDbLine
 62
7
  6
CONTINUOUS
 10
8.8789581273
 20
-11.1268309747
 11
8.4871029621
 21
-11.2480128323
  0
LINE
  5
5E6
100
AcDbEntity
  8
0
100
AcDbLine
 62
7
  6
CONTINUOUS
 10
8.3456816058
 20
-11.3296677509
 11
8.7375367711
 21
-11.2084858933
  0
LWPOLYLINE
  5
5E7
100
AcDbEntity
  8
0
100
AcDbPolyline
 62
7
  6
CONTINUOUS
 90
18
 70
0
 10
3.5336687822
 20
14.4432994026
 10
3.4210610034
 20
14.4493835725
 10
3.0592541471
 20
14.5015208855
 10
2.6878605598
 20
14.5861886381
 10
2.3123975119
 20
14.7018064881
 10
1.9336272252
 20
14.8483473574
 10
1.550787478
 20
15.0258383241
 10
1.167108875
 20
15.2327802799
 10
0.7818084274
 20
15.469842425
 10
0.3956691242
 20
15.7363555593
 10
0.0142705368
 20
16.028812974
 10
-0.3622485121
 20
16.3476496811
 10
-0.7340268452
 20
16.6924306686
 10
-1.0959013581
 20
17.0583441931
 10
-1.4476028176
 20
17.4455968939
 10
-1.7894004571
 20
17.8539821316
 10
-2.1169388719
 20
18.2780682442
 10
-2.4299540574
 20
18.7179286574
  0
LWPOLYLINE
  5
5E8
100
AcDbEntity
  8
0
100
AcDbPolyline
 62
7
  6
CONTINUOUS
 90
17
 70
0
 10
2.9409417463
 20
15.0278913786
 10
2.914368805
 20
15.0302043172
 10
2.5588843997
 20
15.0946415225
 10
2.19419894
 20
15.1927392225
 10
1.8261504994
 20
15.3225904949
 10
1.4553886548
 20
15.4842148625
 10
1.0812638292
 20
15.6775928025
 10
0.7076653662
 20
15.9007588241
 10
0.3337882608
 20
16.1545595819
 10
-0.0395624821
 20
16.4381484214
 10
-0.4060825042
 20
16.7470198876
 10
-0.7654462316
 20
17.0815341073
 10
-1.1179792382
 20
17.4413309538
 10
-1.4583538872
 20
17.8208245922
 10
-1.7862660609
 20
18.220193428
 10
-2.102019877
 20
18.6392590556
 10
-2.401200052
 20
19.0719004237
  0
LINE
  5
5E9
100
AcDbEntity
  8
0
100
AcDbLine
 62
253
  6
CONTINUOUS
 10
-38.2186714255
 20
19.7819283204
 11
-39.1845972518
 21
19.9313671933
  0
LINE
  5
5EA
100
AcDbEntity
  8
0
100
AcDbLine
 62
7
  6
CONTINUOUS
 10
-13.3085334195
 20
16.2226925425
 11
-13.0307335232
 21
16.167068211
  0
LINE
  5
5EB
100
AcDbEntity
  8
0
100
AcDbLine
 62
7
  6
CONTINUOUS
 10
-13.0307335232
 20
16.167068211
 11
-12.7639281878
 21
16.1116101059
  0
LWPOLYLINE
  5
5EC
100
AcDbEntity
  8
0
100
AcDbPolyline
 62
7
  6
CONTINUOUS
 90
5
 70
0
 10
-12.7639281878
 20
16.1116101059
 10
-12.5076172529
 20
16.0562392933
 10
-12.3825436323
 20
16.0284255151
 10
-12.2596729053
 20
16.000532226
 10
-12.1390217668
 20
15.9725527667
  0
LWPOLYLINE
  5
5ED
100
AcDbEntity
  8
0
100
AcDbPolyline
 62
253
  6
CONTINUOUS
 90
7
 70
0
 10
-12.5312595363
 20
22.5121221852
 10
-12.5012518082
 20
22.4957755027
 10
-12.4702884329
 20
22.4832814319
 10
-12.4388254457
 20
22.4748240517
 10
-12.4073268106
 20
22.4705281401
 10
-12.3762575698
 20
22.4704569607
 10
-12.3460758007
 20
22.4746111733
  0
LWPOLYLINE
  5
5EE
100
AcDbEntity
  8
0
100
AcDbPolyline
 62
7
  6
CONTINUOUS
 90
16
 70
0
 10
-20.8784523263
 20
29.7920184157
 10
-21.7859692743
 20
30.2885677145
 10
-22.6909987815
 20
30.7288767799
 10
-23.5910602248
 20
31.1117387554
 10
-24.4836865984
 20
31.4361042429
 10
-25.3664312754
 20
31.7010841792
 10
-26.2368747141
 20
31.9059522727
 10
-27.0926310896
 20
32.0501469942
 10
-27.9313548329
 20
32.1332731159
 10
-28.7507470608
 20
32.155102795
 10
-29.5485618759
 20
32.1155761977
 10
-30.3226125235
 20
32.0148016639
 10
-31.0707773843
 20
31.8530554094
 10
-31.7910057907
 20
31.6307807695
 10
-32.4813236466
 20
31.3485869835
 10
-32.6776723467
 20
31.2546482634
  0
LWPOLYLINE
  5
5EF
100
AcDbEntity
  8
0
100
AcDbPolyline
 62
7
  6
CONTINUOUS
 90
34
 70
0
 10
-21.2320057169
 20
30.2949651202
 10
-22.0906634291
 20
30.7666961537
 10
-22.9433232851
 20
31.1885103331
 10
-23.7899852851
 20
31.5604076584
 10
-24.6325191366
 20
31.8829667721
 10
-25.469055132
 20
32.1556090316
 10
-26.2939841481
 20
32.3765985095
 10
-27.1072239622
 20
32.5455943372
 10
-27.9088567969
 20
32.6629373834
 10
-28.6935201972
 20
32.7279143261
 10
-29.4610993292
 20
32.7401814679
 10
-30.2117090266
 20
32.7000825062
 10
-30.9403313357
 20
32.6079352117
 10
-31.6468216188
 20
32.4633976494
 10
-32.3313245135
 20
32.2668117542
 10
-32.9892559788
 20
32.0195211013
 10
-33.6204397461
 20
31.7211931093
 10
-34.2250520841
 20
31.3721603596
 10
-34.7990377575
 20
30.9747641721
 10
-35.3421968531
 20
30.5286856215
 10
-35.8547292842
 20
30.0342436331
 10
-36.3331795556
 20
29.4947363017
 10
-36.7773238433
 20
28.9098674257
 10
-37.1873859712
 20
28.2799332068
 10
-37.5605819154
 20
27.6091203454
 10
-37.8966714306
 20
26.8971575746
 10
-38.195894762
 20
26.1443161612
 10
-38.4561886219
 20
25.3555966066
 10
-38.6772989161
 20
24.5307573045
 10
-38.8594797387
 20
23.6700398611
 10
-39.0014300842
 20
22.7791695963
 10
-39.1027162839
 20
21.8600549501
 10
-39.1637720064
 20
20.9107874824
 10
-39.1845972518
 20
19.9313671933
  0
LINE
  5
5F0
100
AcDbEntity
  8
0
100
AcDbLine
 62
7
  6
CONTINUOUS
 10
-2.4936760155
 20
19.1768789892
 11
-20.8784523263
 21
29.7920184157
  0
LINE
  5
5F1
100
AcDbEntity
  8
0
100
AcDbLine
 62
7
  6
CONTINUOUS
 10
-2.847229406
 20
19.6798256936
 11
-21.2320057169
 21
30.2949651202
  0
LINE
  5
5F2
100
AcDbEntity
  8
0
100
AcDbLine
 62
7
  6
CONTINUOUS
 10
-2.847229406
 20
20.1360642159
 11
-21.2320057169
 21
30.7512036424
  0
LINE
  5
5F3
100
AcDbEntity
  8
0
100
AcDbLine
 62
7
  6
CONTINUOUS
 10
-2.1401226249
 20
20.5871282033
 11
-20.5248989357
 21
31.2022676298
  0
LINE
  5
5F4
100
AcDbEntity
  8
0
100
AcDbLine
 62
7
  6
CONTINUOUS
 10
-1.9885855992
 20
19.1600093735
 11
-2.847229406
 21
19.6798256936
  0
LWPOLYLINE
  5
5F5
100
AcDbEntity
  8
0
100
AcDbPolyline
 62
7
  6
CONTINUOUS
 90
34
 70
0
 10
-2.847229406
 20
20.1360642159
 10
-1.9696730996
 20
19.6047977698
 10
-1.0982466589
 20
19.0295944417
 10
-0.232950084
 20
18.4104542316
 10
0.6281274843
 20
17.7457619056
 10
1.4830751868
 20
17.0371326977
 10
2.3261604467
 20
16.2894123097
 10
3.1572992315
 20
15.5023494092
 10
3.9765755736
 20
14.6761953287
 10
4.7785089931
 20
13.8165497673
 10
5.5629821288
 20
12.9231969887
 10
6.3301123417
 20
11.9963527293
 10
7.0747712358
 20
11.0422638971
 10
7.7968109899
 20
10.0607517314
 10
8.496379425
 20
9.0519949929
 10
9.1687916078
 20
8.0227768717
 10
9.8138673902
 20
6.9729654969
 10
10.4317869204
 20
5.9026927395
 10
11.0184057097
 20
4.819137402
 10
11.5735194447
 20
3.7222094757
 10
12.0973324389
 20
2.6119989694
 10
12.5863131432
 20
1.4959547113
 10
13.0402328077
 20
0.3740381354
 10
13.4593201825
 20
-0.7537121923
 10
13.8407299686
 20
-1.8797317445
 10
14.1842166332
 20
-3.0040142232
 10
14.4900257091
 20
-4.1265659266
 10
14.7560484968
 20
-5.2398412213
 10
14.9820253096
 20
-6.3437871517
 10
15.1682158341
 20
-7.4384566735
 10
15.3132904302
 20
-8.5164630207
 10
15.4168058847
 20
-9.5753439379
 10
15.4792054109
 20
-10.6175616805
 10
15.5004890087
 20
-11.6431162484
  0
LINE
  5
5F6
100
AcDbEntity
  8
0
100
AcDbLine
 62
7
  6
CONTINUOUS
 10
16.9517604672
 20
-32.8927402098
 11
16.9517604672
 21
-11.6645130132
  0
LWPOLYLINE
  5
5F7
100
AcDbEntity
  8
0
100
AcDbPolyline
 62
7
  6
CONTINUOUS
 90
17
 70
0
 10
16.9517604672
 20
-32.8927402098
 10
16.9296126884
 20
-33.9343321391
 10
16.864680339
 20
-34.9438557887
 10
16.7569634188
 20
-35.9213111585
 10
16.606000589
 20
-36.8687277652
 10
16.4122531885
 20
-37.7840760923
 10
16.1771052342
 20
-38.6612675892
 10
15.900286506
 20
-39.50004527
 10
15.582067224
 20
-40.3006661207
 10
15.2246420658
 20
-41.0578125498
 10
14.8277555476
 20
-41.7711960352
 10
14.3916631531
 20
-42.4411050989
 10
13.9193260107
 20
-43.0630877152
 10
13.4105061093
 20
-43.6368288534
 10
12.8654414601
 20
-44.1626435442
 10
12.2878072249
 20
-44.6370248548
 10
11.851414015
 20
-44.9466215522
  0
LINE
  5
5F8
100
AcDbEntity
  8
0
100
AcDbLine
 62
253
  6
CONTINUOUS
 10
39.0633736744
 20
2.5146418042
 11
16.9517604672
 21
-11.6645130132
  0
LINE
  5
5F9
100
AcDbEntity
  8
0
100
AcDbLine
 62
253
  6
CONTINUOUS
 10
16.244653686
 20
-11.2562384199
 11
15.5004890087
 21
-11.6431162484
  0
LWPOLYLINE
  5
5FA
100
AcDbEntity
  8
0
100
AcDbPolyline
 62
7
  6
CONTINUOUS
 90
19
 70
0
 10
-20.5248989357
 20
31.2022676298
 10
-21.4042276909
 20
31.6853549609
 10
-22.2774141995
 20
32.1173237559
 10
-23.1444584615
 20
32.498174015
 10
-24.0072751955
 20
32.8284983105
 10
-24.863949683
 20
33.1077040699
 10
-25.7087377685
 20
33.3340135757
 10
-26.54155525
 20
33.5070777534
 10
-27.3624863296
 20
33.6272456774
 10
-28.1660394582
 20
33.6937868536
 10
-28.9520970374
 20
33.7063493105
 10
-29.7207766654
 20
33.6652850197
 10
-30.466939588
 20
33.5709194015
 10
-31.1904376855
 20
33.4229022895
 10
-31.8914190774
 20
33.2215838502
 10
-32.5651893682
 20
32.9683400037
 10
-33.2115680456
 20
32.6628301618
 10
-33.8307356219
 20
32.3053949127
 10
-33.9982304579
 20
32.1966210584
  0
LINE
  5
5FB
100
AcDbEntity
  8
0
100
AcDbLine
 62
7
  6
CONTINUOUS
 10
-2.1401226249
 20
21.4035984801
 11
-20.5248989357
 21
32.0187379066
  0
LWPOLYLINE
  5
5FC
100
AcDbEntity
  8
0
100
AcDbPolyline
 62
7
  6
CONTINUOUS
 90
34
 70
0
 10
-2.1401226249
 20
21.4035984801
 10
-1.226973533
 20
20.8507844107
 10
-0.3202029279
 20
20.2522514244
 10
0.5801891904
 20
19.6079995212
 10
1.4761911834
 20
18.9163479549
 10
2.3658146896
 20
18.1789774717
 10
3.2430946246
 20
17.4009303102
 10
4.1079435477
 20
16.5819449441
 10
4.9604488996
 20
15.7222828998
 10
5.7949079177
 20
14.8277709944
 10
6.6111984807
 20
13.8981847416
 10
7.4094427099
 20
12.9337486278
 10
8.1843042064
 20
11.9409629292
 10
8.9356291537
 20
10.9196416348
 10
9.6635713685
 20
9.8699707556
 10
10.3632559012
 20
8.7990086009
 10
11.034495297
 20
7.7066179515
 10
11.6774770108
 20
6.5929360266
 10
12.2878884576
 20
5.4654327937
 10
12.8655170375
 20
4.3240145937
 10
13.4105753505
 20
3.1687750856
 10
13.9193886117
 20
2.0074652149
 10
14.3917187932
 20
0.8400448511
 10
14.8278039228
 20
-0.3334458754
 10
15.2246832994
 20
-1.505135628
 10
15.5821014315
 20
-2.6750178533
 10
15.9003138105
 20
-3.8430991046
 10
16.1771262101
 20
-5.0015277057
 10
16.4122684111
 20
-6.150248553
 10
16.6060106327
 20
-7.28931675
 10
16.756969306
 20
-8.4110459312
 10
16.8646832414
 20
-9.5128739744
 10
16.9296136284
 20
-10.5973630018
 10
16.9517604672
 20
-11.6645130132
  0
LINE
  5
5FD
100
AcDbEntity
  8
0
100
AcDbLine
 62
7
  6
CONTINUOUS
 10
12.1762199009
 20
-21.8006023972
 11
12.3548369916
 21
-21.5829532822
  0
LINE
  5
5FE
100
AcDbEntity
  8
0
100
AcDbLine
 62
7
  6
CONTINUOUS
 10
12.3548369916
 20
-21.5829532822
 11
12.527789686
 21
-21.374729247
  0
LINE
  5
5FF
100
AcDbEntity
  8
0
100
AcDbLine
 62
7
  6
CONTINUOUS
 10
12.527789686
 20
-21.374729247
 11
12.6954051588
 21
-21.1755416528
  0
LWPOLYLINE
  5
600
100
AcDbEntity
  8
0
100
AcDbPolyline
 62
7
  6
CONTINUOUS
 90
3
 70
0
 10
12.6954051588
 20
-21.1755416528
 10
12.8590218884
 20
-20.9837062987
 10
12.9392951392
 20
-20.8907371284
  0
LWPOLYLINE
  5
601
100
AcDbEntity
  8
0
100
AcDbPolyline
 62
7
  6
CONTINUOUS
 90
6
 70
0
 10
12.9984914884
 20
-17.4328717795
 10
12.8974475712
 20
-17.4963575792
 10
12.7924149184
 20
-17.5821620319
 10
12.6973755866
 20
-17.682571059
 10
12.6128847315
 20
-17.7969981385
 10
12.5394358918
 20
-17.9247748645
  0
LINE
  5
602
100
AcDbEntity
  8
0
100
AcDbLine
 62
7
  6
CONTINUOUS
 10
12.9392951392
 20
-20.8907371284
 11
14.8465430838
 21
-19.7636275386
  0
LINE
  5
603
100
AcDbEntity
  8
0
100
AcDbLine
 62
7
  6
CONTINUOUS
 10
13.6699164718
 20
-17.3081878499
 11
12.5394358918
 21
-17.9247748645
  0
LWPOLYLINE
  5
604
100
AcDbEntity
  8
0
100
AcDbPolyline
 62
7
  6
CONTINUOUS
 90
8
 70
0
 10
-22.3931941187
 20
22.9119990703
 10
-22.4180157632
 20
22.9140108428
 10
-22.4440228906
 20
22.9205745146
 10
-22.4711820486
 20
22.9315616973
 10
-22.4983190539
 20
22.9465901541
 10
-22.525042512
 20
22.9655324729
 10
-22.5517438173
 20
22.9885160658
 10
-22.5784229699
 20
23.0155409328
  0
LINE
  5
605
100
AcDbEntity
  8
0
100
AcDbLine
 62
7
  6
CONTINUOUS
 10
11.2574116267
 20
-29.5290408661
 11
12.586270383
 21
-27.973674878
  0
LINE
  5
606
100
AcDbEntity
  8
0
100
AcDbLine
 62
253
  6
CONTINUOUS
 10
11.2721363048
 20
-29.5416211962
 11
12.6372470581
 21
-27.9438239693
  0
LINE
  5
607
100
AcDbEntity
  8
0
100
AcDbLine
 62
253
  6
CONTINUOUS
 10
12.7108211279
 20
-27.9268197873
 11
11.2978151479
 21
-29.5356863916
  0
LINE
  5
608
100
AcDbEntity
  8
0
100
AcDbLine
 62
253
  6
CONTINUOUS
 10
12.1577327835
 20
-29.1385516733
 11
13.057973344
 21
-28.1135263025
  0
LINE
  5
609
100
AcDbEntity
  8
0
100
AcDbLine
 62
7
  6
CONTINUOUS
 10
12.6052788558
 20
-27.9521821486
 11
12.5862703674
 21
-27.973674999
  0
LINE
  5
60A
100
AcDbEntity
  8
0
100
AcDbLine
 62
253
  6
CONTINUOUS
 10
12.6542804682
 20
-27.9246248226
 11
12.637247052
 21
-27.9438239708
  0
LINE
  5
60B
100
AcDbEntity
  8
0
100
AcDbLine
 62
253
  6
CONTINUOUS
 10
12.7282615732
 20
-27.9075307922
 11
12.7108211217
 21
-27.9268197888
  0
LWPOLYLINE
  5
60C
100
AcDbEntity
  8
0
100
AcDbPolyline
 62
253
  6
CONTINUOUS
 90
10
 70
0
 10
13.057973344
 20
-28.1135263025
 10
13.0702638386
 20
-28.0999897794
 10
13.0828981258
 20
-28.0869659253
 10
13.0958762056
 20
-28.0744547402
 10
13.1092105934
 20
-28.0624457051
 10
13.1228887738
 20
-28.0509493389
 10
13.1368732009
 20
-28.0399971986
 10
13.1511513594
 20
-28.0295998032
 10
13.1657357647
 20
-28.0197466337
 10
13.1806264166
 20
-28.0104376901
  0
LINE
  5
60D
100
AcDbEntity
  8
0
100
AcDbLine
 62
253
  6
CONTINUOUS
 10
12.6718343147
 20
-27.906127296
 11
12.6542804682
 21
-27.9246248226
  0
LWPOLYLINE
  5
60E
100
AcDbEntity
  8
0
100
AcDbPolyline
 62
7
  6
CONTINUOUS
 90
6
 70
0
 10
12.7087907324
 20
-27.8570763672
 10
12.687041646
 20
-27.8744036753
 10
12.6657922632
 20
-27.8925894183
 10
12.6450653547
 20
-27.9116233946
 10
12.6248854108
 20
-27.9314929672
 10
12.6052788558
 20
-27.9521821486
  0
LWPOLYLINE
  5
60F
100
AcDbEntity
  8
0
100
AcDbPolyline
 62
7
  6
CONTINUOUS
 90
4
 70
0
 10
12.776766208
 20
-27.810363607
 10
12.7536814713
 20
-27.8250449446
 10
12.7310136103
 20
-27.8406193013
 10
12.7087907324
 20
-27.8570763672
  0
LWPOLYLINE
  5
610
100
AcDbEntity
  8
0
100
AcDbPolyline
 62
253
  6
CONTINUOUS
 90
8
 70
0
 10
12.8078658285
 20
-27.7976165071
 10
12.7871469523
 20
-27.810770215
 10
12.7668260808
 20
-27.8247287925
 10
12.7469219851
 20
-27.8394795997
 10
12.7274532198
 20
-27.8550092538
 10
12.7084376303
 20
-27.8713036974
 10
12.6898923286
 20
-27.8883481989
 10
12.6718343147
 20
-27.906127296
  0
LWPOLYLINE
  5
611
100
AcDbEntity
  8
0
100
AcDbPolyline
 62
253
  6
CONTINUOUS
 90
9
 70
0
 10
12.8852291202
 20
-27.7797365733
 10
12.8640774135
 20
-27.7929924847
 10
12.843326453
 20
-27.8070525205
 10
12.8229949506
 20
-27.8219038979
 10
12.8031008862
 20
-27.837533286
 10
12.7836625482
 20
-27.8539263111
 10
12.7646984807
 20
-27.8710675092
 10
12.7462260713
 20
-27.888941046
 10
12.7282615732
 20
-27.9075307922
  0
LINE
  5
612
100
AcDbEntity
  8
0
100
AcDbLine
 62
7
  6
CONTINUOUS
 10
8.2167759889
 20
-29.8861485247
 11
14.8465430838
 21
-25.8120791607
  0
LINE
  5
613
100
AcDbEntity
  8
0
100
AcDbLine
 62
253
  6
CONTINUOUS
 10
8.2261526634
 20
-29.9016808436
 11
14.8465430838
 21
-25.8336202074
  0
LINE
  5
614
100
AcDbEntity
  8
0
100
AcDbLine
 62
7
  6
CONTINUOUS
 10
12.7767658524
 20
-27.8103639017
 11
14.8465430838
 21
-26.5452487386
  0
LINE
  5
615
100
AcDbEntity
  8
0
100
AcDbLine
 62
253
  6
CONTINUOUS
 10
12.8078690455
 20
-27.7976145567
 11
14.8465430838
 21
-26.5515106762
  0
LINE
  5
616
100
AcDbEntity
  8
0
100
AcDbLine
 62
7
  6
CONTINUOUS
 10
14.8465430838
 20
-27.7625583613
 11
12.2842282225
 21
-29.3097730862
  0
LINE
  5
617
100
AcDbEntity
  8
0
100
AcDbLine
 62
7
  6
CONTINUOUS
 10
12.4679899342
 20
-29.3741725006
 11
14.8465430838
 21
-27.9385588158
  0
LINE
  5
618
100
AcDbEntity
  8
0
100
AcDbLine
 62
253
  6
CONTINUOUS
 10
14.8465430838
 20
-26.602146287
 11
12.8852323493
 21
-27.7797346202
  0
LINE
  5
619
100
AcDbEntity
  8
0
100
AcDbLine
 62
253
  6
CONTINUOUS
 10
13.1806264166
 20
-28.0104376901
 11
14.8465430838
 21
-27.0102065704
  0
LWPOLYLINE
  5
61A
100
AcDbEntity
  8
0
100
AcDbPolyline
 62
7
  6
CONTINUOUS
 90
3
 70
0
 10
12.044996321
 20
-29.2057929762
 10
12.1009451253
 20
-29.1726603574
 10
14.8465430838
 20
-27.5232877092
  0
LWPOLYLINE
  5
61B
100
AcDbEntity
  8
0
100
AcDbPolyline
 62
7
  6
CONTINUOUS
 90
3
 70
0
 10
11.8833884706
 20
-29.2999065798
 10
11.9361170067
 20
-29.269376154
 10
12.044996321
 20
-29.2057929762
  0
LWPOLYLINE
  5
61C
100
AcDbEntity
  8
0
100
AcDbPolyline
 62
7
  6
CONTINUOUS
 90
3
 70
0
 10
11.7314410823
 20
-29.3862752142
 10
11.7809804928
 20
-29.3583187991
 10
11.8833884706
 20
-29.2999065798
  0
LWPOLYLINE
  5
61D
100
AcDbEntity
  8
0
100
AcDbPolyline
 62
253
  6
CONTINUOUS
 90
3
 70
0
 10
12.7767660102
 20
-27.8103638053
 10
12.7850018468
 20
-27.8058274189
 10
12.8078658669
 20
-27.7976164982
  0
LWPOLYLINE
  5
61E
100
AcDbEntity
  8
0
100
AcDbPolyline
 62
7
  6
CONTINUOUS
 90
4
 70
0
 10
11.5430470289
 20
-29.4897371326
 10
11.5887297663
 20
-29.4651554531
 10
11.6352551621
 20
-29.4396429284
 10
11.7314410823
 20
-29.3862752142
  0
LWPOLYLINE
  5
61F
100
AcDbEntity
  8
0
100
AcDbPolyline
 62
7
  6
CONTINUOUS
 90
3
 70
0
 10
11.4115226759
 20
-29.5587212605
 10
11.4543099549
 20
-29.5363831848
 10
11.5430470289
 20
-29.4897371326
  0
LWPOLYLINE
  5
620
100
AcDbEntity
  8
0
100
AcDbPolyline
 62
7
  6
CONTINUOUS
 90
4
 70
0
 10
8.1661702887
 20
-29.9167958478
 10
8.1794190654
 20
-29.9100192716
 10
8.2013100901
 20
-29.9034521418
 10
8.2259165192
 20
-29.9010229859
  0
LWPOLYLINE
  5
621
100
AcDbEntity
  8
0
100
AcDbPolyline
 62
253
  6
CONTINUOUS
 90
4
 70
0
 10
12.6372482613
 20
-27.9438225611
 10
12.6160182658
 20
-27.9512685701
 10
12.5981323673
 20
-27.9622796538
 10
12.586270383
 20
-27.973674878
  0
LINE
  5
622
100
AcDbEntity
  8
0
100
AcDbLine
 62
253
  6
CONTINUOUS
 10
16.9517604672
 20
-32.8927402098
 11
39.0633736744
 21
-18.7135853924
  0
LINE
  5
623
100
AcDbEntity
  8
0
100
AcDbLine
 62
253
  6
CONTINUOUS
 10
-2.4936760155
 20
-42.0955787658
 11
14.1280120429
 21
-31.4925905154
  0
LINE
  5
624
100
AcDbEntity
  8
0
100
AcDbLine
 62
253
  6
CONTINUOUS
 10
15.5004890087
 20
-32.871343445
 11
16.244653686
 21
-32.4844656165
  0
LWPOLYLINE
  5
625
100
AcDbEntity
  8
0
100
AcDbPolyline
 62
7
  6
CONTINUOUS
 90
34
 70
0
 10
39.0633736744
 20
2.5146418042
 10
39.0426445485
 20
3.5134531287
 10
38.9818713726
 20
4.5284921385
 10
38.881054147
 20
5.5597588336
 10
38.7397610831
 20
6.6096513506
 10
38.5584239694
 20
7.675771553
 10
38.338338171
 20
8.7509250309
 10
38.0792507764
 20
9.8351633149
 10
37.7814146972
 20
10.9284348745
 10
37.446884033
 20
12.0233907079
 10
37.075419665
 20
13.1200369025
 10
36.667260712
 20
14.2183673709
 10
36.2251786305
 20
15.3110148489
 10
35.7489506549
 20
16.3979417286
 10
35.2387995508
 20
17.4791856179
 10
34.6981650714
 20
18.5474920759
 10
34.1268482573
 20
19.6027733964
 10
33.5250480679
 20
20.6451172856
 10
32.8968011349
 20
21.6675324213
 10
32.2419320392
 20
22.669890331
 10
31.5606161998
 20
23.6523194873
 10
30.8574165051
 20
24.6082139861
 10
30.1321890248
 20
25.5373996936
 10
29.3850776891
 20
26.4400507435
 10
28.6210771774
 20
27.3100836333
 10
27.8400732269
 20
28.1472882264
 10
27.0421801005
 20
28.9518746592
 10
26.2327352651
 20
29.7183898391
 10
25.4116569193
 20
30.4465889707
 10
24.5790268646
 20
31.1367168493
 10
23.7404279735
 20
31.7840547678
 10
22.8977212035
 20
32.3870298239
 10
22.0490455971
 20
32.94721492
 10
21.1944011543
 20
33.464610056
  0
LINE
  5
626
100
AcDbEntity
  8
0
100
AcDbLine
 62
7
  6
CONTINUOUS
 10
39.0633736744
 20
-18.7135853924
 11
39.0633736744
 21
2.5146418042
  0
LWPOLYLINE
  5
627
100
AcDbEntity
  8
0
100
AcDbPolyline
 62
7
  6
CONTINUOUS
 90
16
 70
0
 10
10.2142185548
 20
-43.0335513167
 10
10.3926180808
 20
-42.9112583319
 10
10.9822052283
 20
-42.4545938414
 10
11.534855922
 20
-41.9420660893
 10
12.0490553848
 20
-41.3750798785
 10
12.5233942317
 20
-40.7551892788
 10
12.9565723328
 20
-40.0840933672
 10
13.3474023772
 20
-39.3636315711
 10
13.6948131268
 20
-38.5957786261
 10
13.9978523529
 20
-37.7826391637
 10
14.255689446
 20
-36.9264419427
 10
14.4676176927
 20
-36.0295337402
 10
14.6330562122
 20
-35.0943729192
 10
14.7515515492
 20
-34.1235226905
 10
14.8227789162
 20
-33.1196440871
 10
14.8465430838
 20
-32.0854886705
  0
LWPOLYLINE
  5
628
100
AcDbEntity
  8
0
100
AcDbPolyline
 62
7
  6
CONTINUOUS
 90
17
 70
0
 10
2.8096248434
 20
44.0797494825
 10
1.9549665601
 20
44.5492833021
 10
1.1062781962
 20
44.9691327688
 10
0.2635597518
 20
45.3392978824
 10
-0.5750497721
 20
45.6603545904
 10
-1.4076893765
 20
45.9317269454
 10
-2.2287760642
 20
46.1516871055
 10
-3.0382279955
 20
46.3198957898
 10
-3.8361270102
 20
46.4366922792
 10
-4.61713563
 20
46.5013665743
 10
-5.3811395561
 20
46.5135765786
 10
-6.1282530873
 20
46.4736643887
 10
-6.8534816424
 20
46.3819462949
 10
-7.5566812573
 20
46.2380819551
 10
-8.237995896
 20
46.0424117114
 10
-8.8928628689
 20
45.7962728812
 10
-9.3493207661
 20
45.5868576388
  0
LINE
  5
629
100
AcDbEntity
  8
0
100
AcDbLine
 62
7
  6
CONTINUOUS
 10
21.1944011543
 20
33.464610056
 11
2.8096248434
 21
44.0797494825
  0
LWPOLYLINE
  5
62A
100
AcDbEntity
  8
0
100
AcDbPolyline
 62
7
  6
CONTINUOUS
 90
17
 70
0
 10
34.2897245161
 20
-29.9953679011
 10
34.6982411008
 20
-29.705544785
 10
35.2388702872
 20
-29.261543965
 10
35.7490154609
 20
-28.7694049729
 10
36.2252372216
 20
-28.2324105418
 10
36.6673127881
 20
-27.6502658496
 10
37.0754649416
 20
-27.0232657184
 10
37.4469226255
 20
-26.355577348
 10
37.7814467135
 20
-25.6469307349
 10
38.0792763319
 20
-24.8975958826
 10
38.3383578033
 20
-24.112550001
 10
38.5584382169
 20
-23.2915526094
 10
38.7397704834
 20
-22.4348441886
 10
38.881059657
 20
-21.5481233913
 10
38.9818740891
 20
-20.6332897682
 10
39.0426454282
 20
-19.6884437686
 10
39.0633736744
 20
-18.7135853924
  0
LINE
  5
62B
100
AcDbEntity
  8
0
100
AcDbLine
 62
7
  6
CONTINUOUS
 10
34.2897961759
 20
-29.9954861259
 11
11.8514905199
 21
-44.9467477705
  0
LWPOLYLINE
  5
62C
100
AcDbEntity
  8
0
100
AcDbPolyline
 62
7
  6
CONTINUOUS
 90
19
 70
0
 10
11.851414015
 20
-44.9466215522
 10
11.6773908279
 20
-45.0596335994
 10
11.034404845
 20
-45.4308089637
 10
10.3631621652
 20
-45.7480615723
 10
9.6634753645
 20
-46.0110377273
 10
8.9355318669
 20
-46.2200911265
 10
8.1842068343
 20
-46.3737934879
 10
7.409346486
 20
-46.4717811784
 10
6.6111046027
 20
-46.5144178311
 10
5.7948176878
 20
-46.501366063
 10
4.9603636586
 20
-46.4322603784
 10
4.1078645978
 20
-46.307466273
 10
3.2430232563
 20
-46.127742851
 10
2.3657522341
 20
-45.8927276364
 10
1.4761389312
 20
-45.6027831052
 10
0.5801482988
 20
-45.2597557891
 10
-0.3202313462
 20
-44.8642611988
 10
-1.2269883208
 20
-44.4156838235
 10
-2.1401226249
 20
-43.9140236634
  0
LWPOLYLINE
  5
62D
100
AcDbEntity
  8
0
100
AcDbPolyline
 62
7
  6
CONTINUOUS
 90
19
 70
0
 10
10.3698017681
 20
-44.6481655608
 10
10.5465464851
 20
-44.5581159186
 10
11.1657140613
 20
-44.2006806695
 10
11.7535176768
 20
-43.793717697
 10
12.3097526056
 20
-43.3369003983
 10
12.8346235737
 20
-42.8305553763
 10
13.3245918992
 20
-42.2780601231
 10
13.7794283703
 20
-41.6791113064
 10
14.1993621988
 20
-41.0340122586
 10
14.5815423393
 20
-40.3470504693
 10
14.9257227627
 20
-39.6179481412
 10
15.2321494981
 20
-38.8469830716
 10
15.4987095866
 20
-38.0392761422
 10
15.7251428172
 20
-37.1945799304
 10
15.911709401
 20
-36.3131418588
 10
16.0570770123
 20
-35.4008250766
 10
16.1608015426
 20
-34.4595839671
 10
16.2233271005
 20
-33.487464147
 10
16.244653686
 20
-32.4844656165
  0
LINE
  5
62E
100
AcDbEntity
  8
0
100
AcDbLine
 62
7
  6
CONTINUOUS
 10
9.6375474707
 20
-45.0106499762
 11
10.3698704425
 21
-44.6482905728
  0
LWPOLYLINE
  5
62F
100
AcDbEntity
  8
0
100
AcDbPolyline
 62
7
  6
CONTINUOUS
 90
16
 70
0
 10
9.6374788821
 20
-45.0105251202
 10
9.1687015255
 20
-45.2255892443
 10
8.496287163
 20
-45.4783150974
 10
7.7967174951
 20
-45.6792199995
 10
7.0746776591
 20
-45.8269313401
 10
6.3300198685
 20
-45.92109966
 10
5.56289191
 20
-45.9620744184
 10
4.7784222802
 20
-45.9495313829
 10
3.9764936551
 20
-45.8831193042
 10
3.1572233589
 20
-45.7631894317
 10
2.3260918602
 20
-45.5904712811
 10
1.4830151657
 20
-45.364616505
 10
0.6280772688
 20
-45.0859734509
 10
-0.2329893818
 20
-44.7563166761
 10
-1.0982739696
 20
-44.3762377
 10
-1.969687311
 20
-43.9451450032
  0
ELLIPSE
  5
630
100
AcDbEntity
  8
0
100
AcDbEllipse
 62
7
  6
CONTINUOUS
 10
11.4238944254
 20
-29.8185170115
 30
0.0
 11
-0.1520186387
 21
0.2728962327
 31
0.0
 40
0.5556151127
 41
-0.7290406681
 42
-0.1590854426
  0
ELLIPSE
  5
631
100
AcDbEntity
  8
0
100
AcDbEllipse
 62
7
  6
CONTINUOUS
 10
11.3999453616
 20
-29.8240520355
 30
0.0
 11
-0.1543218667
 21
0.2721667561
 31
0.0
 40
0.5538671507
 41
-0.1630265187
 42
0.406928707
  0
ENDSEC
  0
SECTION
  2
OBJECTS
  0
DICTIONARY
  5
C
100
AcDbDictionary
280
0
281
1
  3
ACAD_GROUP
350
D
  3
ACAD_MLINESTYLE
350
17
  3
ACAD_LAYOUT
350
1A
  3
ACAD_PLOTSETTINGS
350
19
  3
ACAD_PLOTSTYLENAME
350
E
  0
DICTIONARY
  5
D
102
{ACAD_REACTORS
330
C
102
}
100
AcDbDictionary
280
0
281
1
  0
ACDBDICTIONARYWDFLT
  5
E
102
{ACAD_REACTORS
330
C
102
}
100
AcDbDictionary
281
1
  3
Normal
350
F
100
AcDbDictionaryWithDefault
340
F
  0
DICTIONARY
  5
17
102
{ACAD_REACTORS
330
C
102
}
100
AcDbDictionary
280
0
281
1
  3
Standard
350
18
  0
DICTIONARY
  5
19
102
{ACAD_REACTORS
330
C
102
}
100
AcDbDictionary
281
1
  0
DICTIONARY
  5
1A
102
{ACAD_REACTORS
330
C
102
}
100
AcDbDictionary
281
1
  3
Model
350
632
  3
Layout1
350
633
  0
ACDBPLACEHOLDER
  5
F
102
{ACAD_REACTORS
330
E
102
}
  0
MLINESTYLE
  5
18
102
{ACAD_REACTORS
330
17
102
}
100
AcDbMlineStyle
  2
STANDARD
 70
0
  3

 62
256
 51
90.0
 52
90.0
 71
2
 49
0.5
 62
256
  6
BYLAYER
 49
-0.5
 62
256
  6
BYLAYER
  0
LAYOUT
  5
632
102
{ACAD_REACTORS
330
1A
102
}
100
AcDbPlotSettings
  1

  2
none_device
  4
ISO_A4_(297.00_x_210.00_MM)
  6

 40
0.0
 41
0.0
 42
0.0
 43
0.0
 44
297.0
 45
210.0
 46
0.0
 47
0.0
 48
0.0
 49
0.0
140
0.0
141
0.0
142
1.0
143
1.0
 70
1024
 72
1
 73
0
 74
0
  7

 75
0
147
1.0
148
0.0
149
0.0
100
AcDbLayout
  1
Model
 70
0
 71
0
 10
0.0
 20
0.0
 11
297.0
 21
210.0
 12
0.0
 22
0.0
 32
0.0
 14
0.0
 24
0.0
 34
0.0
 15
0.0
 25
0.0
 35
0.0
146
0.0
 13
0.0
 23
0.0
 33
0.0
 16
1.0
 26
0.0
 36
0.0
 17
0.0
 27
1.0
 37
0.0
 76
0
330
20B
345
0
346
0
  0
LAYOUT
  5
633
102
{ACAD_REACTORS
330
1A
102
}
100
AcDbPlotSettings
  1

  2
none_device
  4
ISO_A4_(297.00_x_210.00_MM)
  6

 40
0.0
 41
0.0
 42
0.0
 43
0.0
 44
297.0
 45
210.0
 46
0.0
 47
0.0
 48
0.0
 49
0.0
140
0.0
141
0.0
142
1.0
143
1.0
 70
0
 72
1
 73
0
 74
0
  7

 75
0
147
1.0
148
0.0
149
0.0
100
AcDbLayout
  1
Layout1
 70
0
 71
1
 10
0.0
 20
0.0
 11
297.0
 21
210.0
 12
0.0
 22
0.0
 32
0.0
 14
0.0
 24
0.0
 34
0.0
 15
0.0
 25
0.0
 35
0.0
146
0.0
 13
0.0
 23
0.0
 33
0.0
 16
1.0
 26
0.0
 36
0.0
 17
0.0
 27
1.0
 37
0.0
 76
0
330
20C
345
0
346
0
  0
ENDSEC
  0
EOF
