  0
SECTION
  2
HEADER
  9
$ACADVER
  1
AC1021
  9
$DWGCODEPAGE
  3
ANSI_1252
  9
$EXTMAX
 10
297.0
 20
210.0
 30
0.0
  9
$EXTMIN
 10
0.0
 20
0.0
 30
0.0
  9
$LIMMIN
 10
0.0
 20
0.0
  9
$LIMMAX
 10
297.0
 20
210.0
  9
$VIEWCTR
 10
148.5
 20
105.0
  9
$VIEWSIZE
 40
210.0
  9
$CLAYER
  8
0
  9
$LTSCALE
 40
16.335
  9
$CELTYPE
  6
BYLAYER
  9
$DIMSCALE
 40
1.0
  9
$DIMASZ
 40
3.0
  9
$DIMEXO
 40
0.5
  9
$DIMDLI
 40
11.286
  9
$DIMEXE
 40
1.5
  9
$DIMCEN
 40
2.673
  9
$DIMLFAC
 40
1.0
  9
$DIMBLK
  1
_FILLED
  9
$DIMALT
 70
0
  9
$DIMALTF
 40
0.0393700787
  9
$DIMTXT
 40
3.0
  9
$DIMTOL
 70
1
  9
$DIMLIM
 70
0
  9
$DIMTFAC
 40
1.0
  9
$DIMTP
 40
0.01
  9
$DIMTM
 40
0.01
  9
$DIMGAP
 40
0.625
  9
$DIMDSEP
 70
44
  9
$AUNITS
 70
0
  9
$PDMODE
 70
3
  9
$PDSIZE
 40
3.0
  9
$HANDSEED
  5
40C
  9
$TILEMODE
 70
1
  9
$MEASUREMENT
 70
1
  9
$INSUNITS
 70
4
  0
ENDSEC
  0
SECTION
  2
CLASSES
  0
CLASS
  1
ACDBDICTIONARYWDFLT
  2
AcDbDictionaryWithDefault
  3
AutoCAD 2000
 90
0
 91
1
280
0
281
0
  0
CLASS
  1
ACDBPLACEHOLDER
  2
AcDbPlaceHolder
  3
AutoCAD 2000
 90
0
 91
1
280
0
281
0
  0
CLASS
  1
LAYOUT
  2
AcDbLayout
  3
AutoCAD 2000
 90
0
 91
0
280
0
281
0
  0
ENDSEC
  0
SECTION
  2
TABLES
  0
TABLE
  2
VPORT
  5
8
100
AcDbSymbolTable
 70
2
  0
VPORT
  5
1F4
100
AcDbSymbolTableRecord
100
AcDbViewportTableRecord
  2
*ACTIVE
 70
0
 10
0.0
 20
0.0
 11
1.0
 21
1.0
 12
148.5
 22
105.0
 13
0.0
 23
0.0
 14
1.0
 24
1.0
 15
0.0
 25
0.0
 16
0.0
 26
0.0
 36
1.0
 17
0.0
 27
0.0
 37
0.0
 40
210.0
 41
1.4142857143
 42
50.0
 43
0.0
 44
0.0
 50
0.0
 51
0.0
 71
0
 72
100
 73
1
 74
1
 75
0
 76
0
 77
0
 78
0
  0
ENDTAB
  0
TABLE
  2
LTYPE
  5
5
100
AcDbSymbolTable
 70
6
  0
LTYPE
  5
14
100
AcDbSymbolTableRecord
100
AcDbLinetypeTableRecord
  2
BYBLOCK
 70
0
  3

 72
65
 73
0
 40
0.0
  0
LTYPE
  5
15
100
AcDbSymbolTableRecord
100
AcDbLinetypeTableRecord
  2
BYLAYER
 70
0
  3

 72
65
 73
0
 40
0.0
  0
LTYPE
  5
16
100
AcDbSymbolTableRecord
100
AcDbLinetypeTableRecord
  2
CONTINUOUS
 70
64
  3
Solid line
 72
65
 73
0
 40
0.0
  0
LTYPE
  5
1F5
100
AcDbSymbolTableRecord
100
AcDbLinetypeTableRecord
  2
CENTER
 70
64
  3
____ _ ____ _ ____ _ ____ _ ____ _ ____ _ ____
 72
65
 73
4
 40
0.6
 49
0.375
 74
0
 49
-0.075
 74
0
 49
0.075
 74
0
 49
-0.075
 74
0
  0
LTYPE
  5
1F6
100
AcDbSymbolTableRecord
100
AcDbLinetypeTableRecord
  2
HIDDEN
 70
64
  3
- - - - - - - - - - - - - - - - - - - -
 72
65
 73
2
 40
0.2
 49
0.1
 74
0
 49
-0.1
 74
0
  0
LTYPE
  5
1F7
100
AcDbSymbolTableRecord
100
AcDbLinetypeTableRecord
  2
PHANTOM
 70
64
  3
_____ _ _ _____ _ _ _____ _ _ _____
 72
65
 73
6
 40
0.8
 49
0.45
 74
0
 49
-0.05
 74
0
 49
0.1
 74
0
 49
-0.05
 74
0
 49
0.1
 74
0
 49
-0.05
 74
0
  0
LTYPE
  5
1F8
100
AcDbSymbolTableRecord
100
AcDbLinetypeTableRecord
  2
DOT
 70
64
  3
. . . . . . . . . . . . . . . . . . . .
 72
65
 73
2
 40
0.2
 49
0.1
 74
0
 49
-0.1
 74
0
  0
LTYPE
  5
1F9
100
AcDbSymbolTableRecord
100
AcDbLinetypeTableRecord
  2
DASHED
 70
64
  3
- - - - - - - - - - - - - - - - - - - -
 72
65
 73
2
 40
0.2
 49
0.1
 74
0
 49
-0.1
 74
0
  0
ENDTAB
  0
TABLE
  2
LAYER
  5
2
100
AcDbSymbolTable
 70
36
  0
LAYER
  5
10
100
AcDbSymbolTableRecord
100
AcDbLayerTableRecord
  2
0
 70
0
 62
7
  6
CONTINUOUS
370
-3
390
F
  0
LAYER
  5
1FA
100
AcDbSymbolTableRecord
100
AcDbLayerTableRecord
  2
DEFAULT_1
 70
0
 62
7
  6
CENTER
370
-3
390
F
  0
LAYER
  5
1FB
100
AcDbSymbolTableRecord
100
AcDbLayerTableRecord
  2
DEFAULT_2
 70
0
 62
7
  6
HIDDEN
370
-3
390
F
  0
LAYER
  5
1FC
100
AcDbSymbolTableRecord
100
AcDbLayerTableRecord
  2
DEFAULT_3
 70
0
 62
7
  6
PHANTOM
370
-3
390
F
  0
LAYER
  5
1FD
100
AcDbSymbolTableRecord
100
AcDbLayerTableRecord
  2
ASSI
 70
0
 62
7
  6
CONTINUOUS
370
-3
390
F
  0
LAYER
  5
1FE
100
AcDbSymbolTableRecord
100
AcDbLayerTableRecord
  2
COORDINATE
 70
0
 62
7
  6
CONTINUOUS
370
-3
390
F
  0
LAYER
  5
1FF
100
AcDbSymbolTableRecord
100
AcDbLayerTableRecord
  2
COSMETICI
 70
0
 62
7
  6
CONTINUOUS
370
-3
390
F
  0
LAYER
  5
200
100
AcDbSymbolTableRecord
100
AcDbLayerTableRecord
  2
CURVE
 70
0
 62
7
  6
CONTINUOUS
370
-3
390
F
  0
LAYER
  5
201
100
AcDbSymbolTableRecord
100
AcDbLayerTableRecord
  2
INTFCLR_14
 70
0
 62
7
  6
CONTINUOUS
370
-3
390
F
  0
LAYER
  5
202
100
AcDbSymbolTableRecord
100
AcDbLayerTableRecord
  2
INTFCLR_146083
 70
0
 62
7
  6
CONTINUOUS
370
-3
390
F
  0
LAYER
  5
203
100
AcDbSymbolTableRecord
100
AcDbLayerTableRecord
  2
INTFCLR_154352
 70
0
 62
7
  6
CONTINUOUS
370
-3
390
F
  0
LAYER
  5
204
100
AcDbSymbolTableRecord
100
AcDbLayerTableRecord
  2
INTFCLR_17
 70
0
 62
7
  6
CONTINUOUS
370
-3
390
F
  0
LAYER
  5
205
100
AcDbSymbolTableRecord
100
AcDbLayerTableRecord
  2
INTFCLR_24
 70
0
 62
7
  6
CONTINUOUS
370
-3
390
F
  0
LAYER
  5
206
100
AcDbSymbolTableRecord
100
AcDbLayerTableRecord
  2
INTFCLR_243973
 70
0
 62
7
  6
CONTINUOUS
370
-3
390
F
  0
LAYER
  5
207
100
AcDbSymbolTableRecord
100
AcDbLayerTableRecord
  2
INTFCLR_248350
 70
0
 62
7
  6
CONTINUOUS
370
-3
390
F
  0
LAYER
  5
208
100
AcDbSymbolTableRecord
100
AcDbLayerTableRecord
  2
INTFCLR_32
 70
0
 62
7
  6
CONTINUOUS
370
-3
390
F
  0
LAYER
  5
209
100
AcDbSymbolTableRecord
100
AcDbLayerTableRecord
  2
INTFCLR_37
 70
0
 62
7
  6
CONTINUOUS
370
-3
390
F
  0
LAYER
  5
20A
100
AcDbSymbolTableRecord
100
AcDbLayerTableRecord
  2
INTFCLR_42
 70
0
 62
7
  6
CONTINUOUS
370
-3
390
F
  0
LAYER
  5
20B
100
AcDbSymbolTableRecord
100
AcDbLayerTableRecord
  2
INTFCLR_5
 70
0
 62
7
  6
CONTINUOUS
370
-3
390
F
  0
LAYER
  5
20C
100
AcDbSymbolTableRecord
100
AcDbLayerTableRecord
  2
NOTE
 70
0
 62
7
  6
CONTINUOUS
370
-3
390
F
  0
LAYER
  5
20D
100
AcDbSymbolTableRecord
100
AcDbLayerTableRecord
  2
PIANI
 70
0
 62
7
  6
CONTINUOUS
370
-3
390
F
  0
LAYER
  5
20E
100
AcDbSymbolTableRecord
100
AcDbLayerTableRecord
  2
PUNTI
 70
0
 62
7
  6
CONTINUOUS
370
-3
390
F
  0
LAYER
  5
20F
100
AcDbSymbolTableRecord
100
AcDbLayerTableRecord
  2
SIMBOLI
 70
0
 62
7
  6
CONTINUOUS
370
-3
390
F
  0
LAYER
  5
210
100
AcDbSymbolTableRecord
100
AcDbLayerTableRecord
  2
SNAPLINE
 70
0
 62
7
  6
CONTINUOUS
370
-3
390
F
  0
LAYER
  5
211
100
AcDbSymbolTableRecord
100
AcDbLayerTableRecord
  2
SUPERFICI
 70
0
 62
7
  6
CONTINUOUS
370
-3
390
F
  0
LAYER
  5
212
100
AcDbSymbolTableRecord
100
AcDbLayerTableRecord
  2
WHITE
 70
0
 62
7
  6
CONTINUOUS
370
-3
390
F
  0
ENDTAB
  0
TABLE
  2
STYLE
  5
3
100
AcDbSymbolTable
 70
1
  0
STYLE
  5
11
100
AcDbSymbolTableRecord
100
AcDbTextStyleTableRecord
  2
STANDARD
 70
0
 40
0.0
 41
0.8
 50
0.0
 71
0
 42
0.2
  3
txt
  4

  0
STYLE
  5
213
100
AcDbSymbolTableRecord
100
AcDbTextStyleTableRecord
  2
TEXTSTYLE_1
 70
0
 40
0.0
 41
0.8
 50
0.0
 71
0
 42
0.2
  3
gdt
  4

  0
ENDTAB
  0
TABLE
  2
VIEW
  5
6
100
AcDbSymbolTable
 70
0
  0
ENDTAB
  0
TABLE
  2
UCS
  5
7
100
AcDbSymbolTable
 70
0
  0
ENDTAB
  0
TABLE
  2
APPID
  5
9
100
AcDbSymbolTable
 70
1
  0
APPID
  5
214
100
AcDbSymbolTableRecord
100
AcDbRegAppTableRecord
  2
ACAD
 70
0
  0
ENDTAB
  0
TABLE
  2
BLOCK_RECORD
  5
1
100
AcDbSymbolTable
 70
0
  0
BLOCK_RECORD
  5
215
100
AcDbSymbolTableRecord
100
AcDbBlockTableRecord
  2
*Model_Space
  0
BLOCK_RECORD
  5
216
100
AcDbSymbolTableRecord
100
AcDbBlockTableRecord
  2
*Paper_Space
  0
ENDTAB
  0
TABLE
  2
DIMSTYLE
  5
A
100
AcDbSymbolTable
 70
1
100
AcDbDimStyleTable
 71
0
  0
DIMSTYLE
105
217
100
AcDbSymbolTableRecord
100
AcDbDimStyleTableRecord
  2
STANDARD
 70
0
  3

  4

 40
1.0
 41
3.0
 42
0.5
 43
0.38
 44
1.5
 45
0.0
 46
0.0
 47
0.01
 48
0.01
140
3.0
141
0.09
142
0.0
143
25.4
144
1.0
145
0.0
146
1.0
147
0.625
 71
1.0
 72
0.0
 73
0
 74
0
 75
0
 76
0
 77
1
 78
8
170
0
171
2
172
0
173
0
174
0
175
0
176
0
177
0
178
0
270
2
271
2
272
2
273
2
274
2
275
0
280
0
281
0
282
0
283
1
284
8
285
0
286
0
287
3
288
0
340
11
278
44
  0
ENDTAB
  0
ENDSEC
  0
SECTION
  2
BLOCKS
  0
BLOCK
  5
20
100
AcDbEntity
  8
0
100
AcDbBlockBegin
  2
*Model_Space
 70
0
 10
0.0
 20
0.0
 30
0.0
  3
*Model_Space
  1

  0
ENDBLK
  5
21
100
AcDbEntity
  8
0
100
AcDbBlockEnd
  0
BLOCK
  5
1C
100
AcDbEntity
  8
0
100
AcDbBlockBegin
  2
*Paper_Space
 70
0
 10
0.0
 20
0.0
 30
0.0
  3
*Paper_Space
  1

  0
ENDBLK
  5
1D
100
AcDbEntity
  8
0
100
AcDbBlockEnd
  0
ENDSEC
  0
SECTION
  2
ENTITIES
  0
LWPOLYLINE
  5
218
100
AcDbEntity
  8
0
100
AcDbPolyline
 62
7
  6
CONTINUOUS
 90
16
 70
0
 10
-18.1219796628
 20
21.0290487658
 10
-18.4657407143
 20
20.7560779725
 10
-18.790227356
 20
20.4530104157
 10
-19.0945368109
 20
20.1204213288
 10
-19.3778694359
 20
19.7588876887
 10
-19.639376545
 20
19.3691756153
 10
-19.8782091992
 20
18.9522698029
 10
-20.0937777718
 20
18.5089159423
 10
-20.2854407902
 20
18.040109274
 10
-20.4524824342
 20
17.5474012998
 10
-20.5944980486
 20
17.0319248517
 10
-20.7111635176
 20
16.4947619493
 10
-20.8021163088
 20
15.9376085281
 10
-20.8671713426
 20
15.3619236563
 10
-20.9062452439
 20
14.7688503698
 10
-20.9192751885
 20
14.1597329552
  0
LINE
  5
219
100
AcDbEntity
  8
0
100
AcDbLine
 62
7
  6
CONTINUOUS
 10
-18.1219796628
 20
21.0290487658
 11
-15.9601837656
 21
22.6071415177
  0
LWPOLYLINE
  5
21A
100
AcDbEntity
  8
0
100
AcDbPolyline
 62
253
  6
CONTINUOUS
 90
19
 70
0
 10
-18.1219796628
 20
21.0290487658
 10
-17.8399488405
 20
21.2210519981
 10
-17.4719470628
 20
21.4334905451
 10
-17.0868518766
 20
21.6153598639
 10
-16.6855356465
 20
21.7662479622
 10
-16.2689074828
 20
21.8858130297
 10
-15.8379111823
 20
21.9737842133
 10
-15.3935230902
 20
22.0299622297
 10
-14.9367498884
 20
22.0542198178
 10
-14.4686263153
 20
22.0465020264
 10
-13.9902128212
 20
22.0068263387
 10
-13.5025931665
 20
21.9352826328
 10
-13.0068719667
 20
21.8320329784
 10
-12.5041721897
 20
21.697311269
 10
-11.9956326122
 20
21.5314226927
 10
-11.4824052399
 20
21.3347430405
 10
-10.9656526978
 20
21.107717855
 10
-10.4465455967
 20
20.8508614214
 10
-9.9262598811
 20
20.5647556019
  0
LWPOLYLINE
  5
21B
100
AcDbEntity
  8
0
100
AcDbPolyline
 62
7
  6
CONTINUOUS
 90
3
 70
0
 10
-16.7000627516
 20
17.3006551181
 10
-16.4542697146
 20
17.5715281197
 10
-16.1900605654
 20
17.8162015648
  0
LWPOLYLINE
  5
21C
100
AcDbEntity
  8
0
100
AcDbPolyline
 62
7
  6
CONTINUOUS
 90
10
 70
0
 10
-16.4381225828
 20
17.3783729289
 10
-16.6784359463
 20
17.141977502
 10
-16.9035040477
 20
16.8835717829
 10
-17.1126834619
 20
16.6036232506
 10
-17.3054478517
 20
16.3025167557
 10
-17.4811470184
 20
15.9809186066
 10
-17.6390826694
 20
15.6398443762
 10
-17.7787921307
 20
15.2801315426
 10
-17.8999693785
 20
14.9023712919
 10
-18.0022779678
 20
14.5073216391
  0
LWPOLYLINE
  5
21D
100
AcDbEntity
  8
0
100
AcDbPolyline
 62
253
  6
CONTINUOUS
 90
10
 70
0
 10
-16.3834277285
 20
17.3888722228
 10
-16.6460409991
 20
17.1453249139
 10
-16.8903826857
 20
16.87589957
 10
-17.1157830649
 20
16.5813346674
 10
-17.3216243299
 20
16.262437588
 10
-17.507342284
 20
15.9200824064
 10
-17.6724278872
 20
15.5552074945
 10
-17.8164286515
 20
15.168812949
 10
-17.9389498807
 20
14.7619578505
 10
-18.0022779678
 20
14.5073216391
  0
LINE
  5
21E
100
AcDbEntity
  8
0
100
AcDbLine
 62
7
  6
CONTINUOUS
 10
-16.4381225828
 20
17.378372929
 11
-15.8802633486
 21
17.8856395536
  0
LWPOLYLINE
  5
21F
100
AcDbEntity
  8
0
100
AcDbPolyline
 62
253
  6
CONTINUOUS
 90
3
 70
0
 10
-16.4381225828
 20
17.378372929
 10
-16.3336236691
 20
17.4701769487
 10
-16.0523584851
 20
17.6880307851
  0
LINE
  5
220
100
AcDbEntity
  8
0
100
AcDbLine
 62
7
  6
CONTINUOUS
 10
-16.1900605654
 20
17.8162015648
 11
-15.9075710933
 21
18.0348728972
  0
LWPOLYLINE
  5
221
100
AcDbEntity
  8
0
100
AcDbPolyline
 62
7
  6
CONTINUOUS
 90
3
 70
0
 10
-15.488233996
 20
18.2000737722
 10
-15.7733756261
 20
17.9793494398
 10
-15.8802258979
 20
17.8855843269
  0
LINE
  5
222
100
AcDbEntity
  8
0
100
AcDbLine
 62
7
  6
CONTINUOUS
 10
-15.9075710933
 20
18.0348728972
 11
-15.6090717732
 21
18.2258143593
  0
LINE
  5
223
100
AcDbEntity
  8
0
100
AcDbLine
 62
7
  6
CONTINUOUS
 10
-15.1869322091
 20
18.3928078921
 11
-15.488233996
 21
18.2000737722
  0
LWPOLYLINE
  5
224
100
AcDbEntity
  8
0
100
AcDbPolyline
 62
253
  6
CONTINUOUS
 90
10
 70
0
 10
-15.8714915937
 20
18.0959621634
 10
-16.1713917604
 20
17.904213851
 10
-16.454341253
 20
17.685055434
 10
-16.7195645268
 20
17.4390876106
 10
-16.966334623
 20
17.1669845612
 10
-17.193975162
 20
16.8694921016
 10
-17.401862197
 20
16.5474256378
 10
-17.5894259239
 20
16.2016679316
 10
-17.7561522438
 20
15.833166681
 10
-17.9015841713
 20
15.4429319221
  0
LWPOLYLINE
  5
225
100
AcDbEntity
  8
0
100
AcDbPolyline
 62
253
  6
CONTINUOUS
 90
16
 70
0
 10
-16.0523584851
 20
17.6880307851
 10
-15.754243529
 20
17.8786376806
 10
-15.4400959132
 20
18.041475195
 10
-15.1107766945
 20
18.1760970019
 10
-14.7671885139
 20
18.2821341124
 10
-14.4102731229
 20
18.3592958861
 10
-14.0410088017
 20
18.4073708279
 10
-13.660407678
 20
18.4262271678
 10
-13.2695129532
 20
18.4158132218
 10
-12.8693960426
 20
18.3761575339
 10
-12.4611536386
 20
18.3073687975
 10
-12.0459047055
 20
18.2096355578
 10
-11.6247874116
 20
18.0832256948
 10
-11.1989560102
 20
17.9284856891
 10
-10.7695776756
 20
17.7458396724
 10
-10.337829304
 20
17.5357882646
  0
LWPOLYLINE
  5
226
100
AcDbEntity
  8
0
100
AcDbPolyline
 62
253
  6
CONTINUOUS
 90
3
 70
0
 10
-15.8063137629
 20
17.7957353105
 10
-16.1032626788
 20
17.6058739505
 10
-16.3834277285
 20
17.3888722228
  0
LINE
  5
227
100
AcDbEntity
  8
0
100
AcDbLine
 62
253
  6
CONTINUOUS
 10
-15.6496927045
 20
18.2146925558
 11
-15.8714915937
 21
18.0959621634
  0
LINE
  5
228
100
AcDbEntity
  8
0
100
AcDbLine
 62
7
  6
CONTINUOUS
 10
-15.6090717732
 20
18.2258143593
 11
-15.5360551298
 21
18.264870309
  0
LINE
  5
229
100
AcDbEntity
  8
0
100
AcDbLine
 62
253
  6
CONTINUOUS
 10
-15.493394897
 20
17.9579359059
 11
-15.8063137629
 21
17.7957353105
  0
LWPOLYLINE
  5
22A
100
AcDbEntity
  8
0
100
AcDbPolyline
 62
253
  6
CONTINUOUS
 90
10
 70
0
 10
-15.7277565978
 20
18.3329855616
 10
-16.0468993893
 20
18.1676443029
 10
-16.3496805507
 20
17.9739638696
 10
-16.6362222099
 20
17.7521557933
 10
-16.9042213229
 20
17.5039726154
 10
-17.1535401528
 20
17.2292140598
 10
-17.3843164365
 20
16.9280804027
 10
-17.5946603417
 20
16.6029250134
 10
-17.7844206261
 20
16.2535621499
 10
-17.953748532
 20
15.8801775542
  0
LINE
  5
22B
100
AcDbEntity
  8
0
100
AcDbLine
 62
7
  6
CONTINUOUS
 10
-15.1254359639
 20
18.4246678208
 11
-15.1869322091
 21
18.3928078921
  0
LINE
  5
22C
100
AcDbEntity
  8
0
100
AcDbLine
 62
253
  6
CONTINUOUS
 10
-15.392374304
 20
18.4701991773
 11
-15.7277565978
 21
18.3329855616
  0
LWPOLYLINE
  5
22D
100
AcDbEntity
  8
0
100
AcDbPolyline
 62
253
  6
CONTINUOUS
 90
8
 70
0
 10
-20.9192751885
 20
2.5250315109
 10
-20.9190372439
 20
2.5187351891
 10
-20.9157863151
 20
2.5010003667
 10
-20.9087725666
 20
2.4836323629
 10
-20.8981030583
 20
2.4668962882
 10
-20.8839406528
 20
2.4510476069
 10
-20.8665015293
 20
2.4363282381
 10
-20.8460518838
 20
2.4229628626
  0
LWPOLYLINE
  5
22E
100
AcDbEntity
  8
0
100
AcDbPolyline
 62
7
  6
CONTINUOUS
 90
33
 70
0
 10
-20.9192751885
 20
2.5250315109
 10
-20.9068752245
 20
1.9165627809
 10
-20.8697327523
 20
1.295749823
 10
-20.8079719124
 20
0.6639689482
 10
-20.721762117
 20
0.0225842442
 10
-20.611329506
 20
-0.6269600537
 10
-20.4769705491
 20
-1.2831273419
 10
-20.3190319782
 20
-1.9444172819
 10
-20.1378891344
 20
-2.6094111433
 10
-19.9339661254
 20
-3.276662548
 10
-19.7077427423
 20
-3.9446886778
 10
-19.4597421492
 20
-4.6120164821
 10
-19.190520381
 20
-5.2772040029
 10
-18.9006906449
 20
-5.9387768432
 10
-18.5909084939
 20
-6.5952718154
 10
-18.2618542234
 20
-7.2452700703
 10
-17.9142644181
 20
-7.8873306427
 10
-17.5489149516
 20
-8.5200300491
 10
-17.1665989331
 20
-9.1419974326
 10
-16.7681631882
 20
-9.751851307
 10
-16.3544895732
 20
-10.3482350594
 10
-15.926469269
 20
-10.9298515304
 10
-15.4850429696
 20
-11.4954046384
 10
-15.0311824127
 20
-12.0436291002
 10
-14.5658609524
 20
-12.5733241584
 10
-14.0900932443
 20
-13.0833045215
 10
-13.6049241507
 20
-13.5724174247
 10
-13.1113966766
 20
-14.039574835
 10
-12.6105752249
 20
-14.4837273078
 10
-12.1035620788
 20
-14.9038524277
 10
-11.5914688943
 20
-15.298982781
 10
-11.0754071398
 20
-15.6682116786
 10
-10.5564943544
 20
-16.0106864731
  0
LINE
  5
22F
100
AcDbEntity
  8
0
100
AcDbLine
 62
7
  6
CONTINUOUS
 10
-20.9192751885
 20
14.1597329552
 11
-20.9192751885
 21
2.5250315109
  0
LINE
  5
230
100
AcDbEntity
  8
0
100
AcDbLine
 62
253
  6
CONTINUOUS
 10
-20.8460518838
 20
14.0576643069
 11
-20.8460518838
 21
2.4229628626
  0
LWPOLYLINE
  5
231
100
AcDbEntity
  8
0
100
AcDbPolyline
 62
253
  6
CONTINUOUS
 90
23
 70
0
 10
-20.8460518838
 20
14.0576643069
 10
-20.8335714407
 20
14.6446093402
 10
-20.7969815643
 20
15.213483652
 10
-20.7362822544
 20
15.7642872425
 10
-20.6512135431
 20
16.2981637599
 10
-20.5420353983
 20
16.8139695559
 10
-20.4095277243
 20
17.3082736859
 10
-20.2535382499
 20
17.780931336
 10
-20.0742192462
 20
18.23208732
 10
-19.8728074308
 20
18.6587451344
 10
-19.6491588366
 20
19.0607421946
 10
-19.4034174308
 20
19.4382410851
 10
-19.1372518319
 20
19.7887330553
 10
-18.8505279187
 20
20.1120405828
 10
-18.5433798124
 20
20.4083411901
 10
-18.2178784948
 20
20.6756586935
 10
-17.8739041778
 20
20.9138019593
 10
-17.5115766497
 20
21.1229621211
 10
-17.1333262563
 20
21.301736397
 10
-16.7390473828
 20
21.4499254754
 10
-16.3288456442
 20
21.5677286677
 10
-15.9054682313
 20
21.654341126
 10
-15.4688284878
 20
21.7095579405
  0
LINE
  5
232
100
AcDbEntity
  8
0
100
AcDbLine
 62
7
  6
CONTINUOUS
 10
-18.7395571966
 20
11.3011167751
 11
-18.0022779678
 21
14.5073216391
  0
LINE
  5
233
100
AcDbEntity
  8
0
100
AcDbLine
 62
253
  6
CONTINUOUS
 10
-18.2266364141
 20
15.0699069373
 11
-18.3301963903
 21
14.6330209161
  0
LWPOLYLINE
  5
234
100
AcDbEntity
  8
0
100
AcDbPolyline
 62
253
  6
CONTINUOUS
 90
6
 70
0
 10
-18.7395571966
 20
11.3011167751
 10
-18.6916273116
 20
11.4938382814
 10
-18.5988970761
 20
11.8017667059
 10
-18.489910047
 20
12.0942095537
 10
-18.36496495
 20
12.3703652593
 10
-18.2244042511
 20
12.629476899
  0
LWPOLYLINE
  5
235
100
AcDbEntity
  8
0
100
AcDbPolyline
 62
253
  6
CONTINUOUS
 90
3
 70
0
 10
-17.9015841713
 20
15.4429319221
 10
-18.0253230876
 20
15.0320332614
 10
-18.1270298329
 20
14.6015969435
  0
LINE
  5
236
100
AcDbEntity
  8
0
100
AcDbLine
 62
253
  6
CONTINUOUS
 10
-18.1012079533
 20
15.4856818226
 11
-18.2266364141
 21
15.0699069373
  0
LINE
  5
237
100
AcDbEntity
  8
0
100
AcDbLine
 62
253
  6
CONTINUOUS
 10
-17.5007905539
 20
15.9384968752
 11
-17.4880329732
 21
15.972729052
  0
LINE
  5
238
100
AcDbEntity
  8
0
100
AcDbLine
 62
253
  6
CONTINUOUS
 10
-17.953748532
 20
15.8801775542
 11
-18.1012079533
 21
15.4856818226
  0
LWPOLYLINE
  5
239
100
AcDbEntity
  8
0
100
AcDbPolyline
 62
7
  6
CONTINUOUS
 90
6
 70
0
 10
-17.5018288844
 20
15.9362545204
 10
-17.4889548215
 20
15.9706962861
 10
-17.3220215006
 20
16.3388005877
 10
-17.1349447498
 20
16.6832228654
 10
-16.9275754657
 20
17.0037800037
 10
-16.7000627516
 20
17.3006551181
  0
LWPOLYLINE
  5
23A
100
AcDbEntity
  8
0
100
AcDbPolyline
 62
7
  6
CONTINUOUS
 90
3
 70
0
 10
-17.2467171078
 20
16.4774416021
 10
-17.3801315525
 20
16.1706886634
 10
-17.3852197073
 20
16.1565030803
  0
LINE
  5
23B
100
AcDbEntity
  8
0
100
AcDbLine
 62
253
  6
CONTINUOUS
 10
-18.2244042511
 20
12.629476899
 11
-18.0686132172
 21
12.8708342658
  0
LINE
  5
23C
100
AcDbEntity
  8
0
100
AcDbLine
 62
253
  6
CONTINUOUS
 10
-18.0686132172
 20
12.8708342658
 11
-17.8980188609
 21
13.0937758161
  0
LWPOLYLINE
  5
23D
100
AcDbEntity
  8
0
100
AcDbPolyline
 62
253
  6
CONTINUOUS
 90
20
 70
0
 10
-17.8980188609
 20
13.0937758161
 10
-17.7130887693
 20
13.2976904824
 10
-17.5143298231
 20
13.4820193489
 10
-17.3022868065
 20
13.646257183
 10
-17.077540915
 20
13.7899538201
 10
-16.8407081612
 20
13.9127153978
 10
-16.5924376873
 20
14.0142054351
 10
-16.3334099854
 20
14.094145755
 10
-16.0643350325
 20
14.1523172464
 10
-15.7859503443
 20
14.1885604655
 10
-15.4990189539
 20
14.202776072
 10
-15.2043273202
 20
14.194925102
 10
-14.9026831726
 20
14.1650290745
 10
-14.5949132966
 20
14.1131699323
 10
-14.2818612682
 20
14.0394898178
 10
-13.9643851412
 20
13.9441906831
 10
-13.6433550956
 20
13.8275337364
 10
-13.3196510523
 20
13.6898387264
 10
-12.9941602618
 20
13.5314830654
 10
-12.6677748716
 20
13.3529007955
  0
LWPOLYLINE
  5
23E
100
AcDbEntity
  8
0
100
AcDbPolyline
 62
253
  6
CONTINUOUS
 90
13
 70
0
 10
-9.9262598811
 20
20.5647556019
 10
-9.9478581724
 20
20.5485393542
 10
-9.9688916022
 20
20.5296025699
 10
-9.9890391099
 20
20.5082343056
 10
-10.0079931581
 20
20.4847607331
 10
-10.0254644264
 20
20.4595401598
 10
-10.041186228
 20
20.4329575603
 10
-10.0549185809
 20
20.4054186992
 10
-10.0664518701
 20
20.3773439381
 10
-10.075610048
 20
20.3491618185
 10
-10.0822533217
 20
20.3213025206
 10
-10.086280286
 20
20.2941912973
 10
-10.0876294722
 20
20.2682419822
  0
LINE
  5
23F
100
AcDbEntity
  8
0
100
AcDbLine
 62
253
  6
CONTINUOUS
 10
-7.6127557381
 20
22.1342539773
 11
-9.9262598811
 21
20.5647556019
  0
LWPOLYLINE
  5
240
100
AcDbEntity
  8
0
100
AcDbPolyline
 62
253
  6
CONTINUOUS
 90
3
 70
0
 10
-19.0336516671
 20
-2.2060204081
 10
-19.0541268124
 20
-1.8832310914
 10
-19.0546974763
 20
-1.8195947664
  0
LWPOLYLINE
  5
241
100
AcDbEntity
  8
0
100
AcDbPolyline
 62
253
  6
CONTINUOUS
 90
16
 70
0
 10
-19.0187720422
 20
-2.6592837186
 10
-18.9983007065
 20
-2.9872747387
 10
-18.9485117569
 20
-3.3142172405
 10
-18.8695381469
 20
-3.6392381745
 10
-18.7615907635
 20
-3.9614696226
 10
-18.6249578635
 20
-4.2800511152
 10
-18.4600043038
 20
-4.5941319298
 10
-18.2671705677
 20
-4.9028733621
 10
-18.0469715876
 20
-5.2054509656
 10
-17.7999953712
 20
-5.5010567536
 10
-17.5269014301
 20
-5.7889013565
 10
-17.2284190197
 20
-6.0682161297
 10
-16.9053451911
 20
-6.3382552063
 10
-16.5585426631
 20
-6.5982974885
 10
-16.1889375184
 20
-6.8476485736
 10
-15.7975167303
 20
-7.085642608
  0
LWPOLYLINE
  5
242
100
AcDbEntity
  8
0
100
AcDbPolyline
 62
7
  6
CONTINUOUS
 90
16
 70
0
 10
-19.054696269
 20
-1.8166848854
 10
-19.0439037288
 20
-2.1002188125
 10
-19.0057355522
 20
-2.416963767
 10
-18.9400016603
 20
-2.7328164644
 10
-18.8468296117
 20
-3.0467467995
 10
-18.7264323655
 20
-3.3578660878
 10
-18.5790782829
 20
-3.6653749846
 10
-18.4051451609
 20
-3.9684208269
 10
-18.2050658648
 20
-4.2662198823
 10
-17.9793116086
 20
-4.5580473731
 10
-17.728425258
 20
-4.843178232
 10
-17.4530036569
 20
-5.120912394
 10
-17.1536894957
 20
-5.3905778168
 10
-16.8311897721
 20
-5.6515109566
 10
-16.4862690819
 20
-5.9030655427
 10
-16.1197333218
 20
-6.1446234183
  0
LWPOLYLINE
  5
243
100
AcDbEntity
  8
0
100
AcDbPolyline
 62
7
  6
CONTINUOUS
 90
25
 70
0
 10
-19.0193421372
 20
-2.5946220814
 10
-19.0059044632
 20
-3.1381731592
 10
-18.9667111041
 20
-3.6693836444
 10
-18.9032944348
 20
-4.1882288034
 10
-18.8163952084
 20
-4.6978681837
 10
-18.7073257195
 20
-5.1959690034
 10
-18.5791283847
 20
-5.6753548527
 10
-18.4336639655
 20
-6.1360766838
 10
-18.2711031314
 20
-6.5822775975
 10
-18.0926121589
 20
-7.0138110422
 10
-17.8974712696
 20
-7.4343085211
 10
-17.6856490617
 20
-7.8446230577
 10
-17.4598600474
 20
-8.2405605851
 10
-17.2197361546
 20
-8.6239462496
 10
-16.9639374962
 20
-8.9972944713
 10
-16.6948302497
 20
-9.3574547727
 10
-16.4127426249
 20
-9.7045326389
 10
-16.1155414203
 20
-10.0412023137
 10
-15.8025898606
 20
-10.3677202332
 10
-15.4734107551
 20
-10.6839274273
 10
-15.1263221952
 20
-10.9905040695
 10
-14.7587759265
 20
-11.2882997956
 10
-14.3689884771
 20
-11.5769375513
 10
-13.9562603603
 20
-11.8549137499
 10
-13.5196078988
 20
-12.1207480806
  0
LINE
  5
244
100
AcDbEntity
  8
0
100
AcDbLine
 62
253
  6
CONTINUOUS
 10
-19.0193421372
 20
-2.5946220814
 11
-19.0187720422
 21
-2.6592837186
  0
LWPOLYLINE
  5
245
100
AcDbEntity
  8
0
100
AcDbPolyline
 62
253
  6
CONTINUOUS
 90
17
 70
0
 10
-19.0546974359
 20
8.0195535465
 10
-19.0541268158
 20
7.9543554242
 10
-19.0336516886
 20
7.6211455867
 10
-18.983857668
 20
7.2892678061
 10
-18.9048780455
 20
6.9596344416
 10
-18.7969240286
 20
6.6331159596
 10
-18.660284227
 20
6.3105703071
 10
-18.4953238852
 20
5.99287988
 10
-18.3024836948
 20
5.6808859574
 10
-18.0822790421
 20
5.3754103178
 10
-17.8352988948
 20
5.0772846758
 10
-17.5622032612
 20
4.7873012563
 10
-17.2637218788
 20
4.5062255053
 10
-16.9406530761
 20
4.2348177794
 10
-16.5938604483
 20
3.9738037515
 10
-16.2242703405
 20
3.7238725612
 10
-15.8328701858
 20
3.4856896772
  0
LWPOLYLINE
  5
246
100
AcDbEntity
  8
0
100
AcDbPolyline
 62
253
  6
CONTINUOUS
 90
17
 70
0
 10
-19.0193421372
 20
8.6700715586
 10
-19.0187720422
 20
8.6054099213
 10
-18.9983007065
 20
8.2774189012
 10
-18.9485117569
 20
7.9504763994
 10
-18.8695381469
 20
7.6254554654
 10
-18.7615907635
 20
7.3032240174
 10
-18.6249578635
 20
6.9846425247
 10
-18.4600043038
 20
6.6705617101
 10
-18.2671705677
 20
6.3618202779
 10
-18.0469715876
 20
6.0592426743
 10
-17.7999953712
 20
5.7636368863
 10
-17.5269014301
 20
5.4757922834
 10
-17.2284190197
 20
5.1964775102
 10
-16.9053451911
 20
4.9264384336
 10
-16.5585426631
 20
4.6663961514
 10
-16.1889375184
 20
4.4170450664
 10
-15.7975167303
 20
4.179051032
  0
LINE
  5
247
100
AcDbEntity
  8
0
100
AcDbLine
 62
253
  6
CONTINUOUS
 10
-19.0187720422
 20
8.7713001565
 11
-19.0193421372
 21
8.8359617937
  0
LINE
  5
248
100
AcDbEntity
  8
0
100
AcDbLine
 62
7
  6
CONTINUOUS
 10
-19.0546974763
 20
-1.8195982033
 11
-19.0546974763
 21
8.0201104564
  0
LINE
  5
249
100
AcDbEntity
  8
0
100
AcDbLine
 62
7
  6
CONTINUOUS
 10
-19.0546974763
 20
8.0201067359
 11
-19.0546974359
 21
8.0195535465
  0
LINE
  5
24A
100
AcDbEntity
  8
0
100
AcDbLine
 62
7
  6
CONTINUOUS
 10
-19.0193421372
 20
8.8359617937
 11
-19.0193421372
 21
8.6700715586
  0
LINE
  5
24B
100
AcDbEntity
  8
0
100
AcDbLine
 62
7
  6
CONTINUOUS
 10
-19.0193421372
 20
-2.4287318462
 11
-19.0193421372
 21
-2.5946220814
  0
LWPOLYLINE
  5
24C
100
AcDbEntity
  8
0
100
AcDbPolyline
 62
7
  6
CONTINUOUS
 90
3
 70
0
 10
-19.0193421372
 20
-2.4287318462
 10
-19.0178598289
 20
-2.3221255497
 10
-19.0176807732
 20
-2.3178343659
  0
LWPOLYLINE
  5
24D
100
AcDbEntity
  8
0
100
AcDbPolyline
 62
7
  6
CONTINUOUS
 90
4
 70
0
 10
-19.0147160377
 20
8.5653512914
 10
-19.0252113106
 20
8.4989549041
 10
-19.0490615597
 20
8.2295058387
 10
-19.0546974312
 20
8.0195542814
  0
LWPOLYLINE
  5
24E
100
AcDbEntity
  8
0
100
AcDbPolyline
 62
253
  6
CONTINUOUS
 90
4
 70
0
 10
-18.1270298329
 20
14.6015969435
 10
-18.2064256362
 20
14.1528027644
 10
-18.263292879
 20
13.6868808379
 10
-18.2955786143
 20
13.2318456417
  0
LWPOLYLINE
  5
24F
100
AcDbEntity
  8
0
100
AcDbPolyline
 62
253
  6
CONTINUOUS
 90
5
 70
0
 10
-18.3301963903
 20
14.6330209161
 10
-18.4109392039
 20
14.1784384082
 10
-18.468548629
 20
13.70729763
 10
-18.5033408914
 20
13.2184603651
 10
-18.5153159913
 20
12.7119266136
  0
LWPOLYLINE
  5
250
100
AcDbEntity
  8
0
100
AcDbPolyline
 62
7
  6
CONTINUOUS
 90
10
 70
0
 10
-18.7395571966
 20
11.3011167751
 10
-18.7984796369
 20
11.0291773418
 10
-18.8505712744
 20
10.7554604712
 10
-18.8957616735
 20
10.4801935513
 10
-18.9341192895
 20
10.2025779286
 10
-18.9654094257
 20
9.923900629
 10
-18.9893684774
 20
9.6474555374
 10
-19.0061558976
 20
9.3744071268
 10
-19.0160791764
 20
9.1038693585
 10
-19.0193421372
 20
8.8359617937
  0
LWPOLYLINE
  5
251
100
AcDbEntity
  8
0
100
AcDbPolyline
 62
253
  6
CONTINUOUS
 90
10
 70
0
 10
-9.9048942875
 20
17.2989072022
 10
-9.9138632252
 20
17.2916248139
 10
-9.9227258435
 20
17.2838706528
 10
-9.9314583872
 20
17.2756655029
 10
-9.9400374501
 20
17.2670313572
 10
-9.9484400369
 20
17.2579913583
 10
-9.9566436255
 20
17.2485697367
 10
-9.9646262274
 20
17.2387917461
 10
-9.9723664461
 20
17.2286835949
 10
-9.979843535
 20
17.2182723769
  0
LINE
  5
252
100
AcDbEntity
  8
0
100
AcDbLine
 62
253
  6
CONTINUOUS
 10
-9.8151656389
 20
17.3689839997
 11
-9.9048942875
 21
17.2989072022
  0
LWPOLYLINE
  5
253
100
AcDbEntity
  8
0
100
AcDbPolyline
 62
7
  6
CONTINUOUS
 90
7
 70
0
 10
5.2279046681
 20
-19.9830994908
 10
4.8704058138
 20
-20.0604923415
 10
4.4995287887
 20
-20.1090531854
 10
4.1182145569
 20
-20.1283288369
 10
3.7263790895
 20
-20.1180986146
 10
3.3241064154
 20
-20.0785831999
 10
3.2882598007
 20
-20.0725790951
  0
LINE
  5
254
100
AcDbEntity
  8
0
100
AcDbLine
 62
253
  6
CONTINUOUS
 10
0.662000465
 20
-18.9887208669
 11
0.3854249258
 21
-19.0276067839
  0
LWPOLYLINE
  5
255
100
AcDbEntity
  8
0
100
AcDbPolyline
 62
253
  6
CONTINUOUS
 90
7
 70
0
 10
0.3854249258
 20
-19.0276067839
 10
0.0995949668
 20
-19.044597221
 10
-0.1947620996
 20
-19.0394967429
 10
-0.4968866618
 20
-19.0121700524
 10
-0.8062019232
 20
-18.9625017981
 10
-1.1218993141
 20
-18.8904354657
 10
-1.3444811065
 20
-18.8272023917
  0
LWPOLYLINE
  5
256
100
AcDbEntity
  8
0
100
AcDbPolyline
 62
253
  6
CONTINUOUS
 90
6
 70
0
 10
2.8725578709
 20
-20.0297516424
 10
3.2711097733
 20
-20.069252222
 10
3.6604755612
 20
-20.0796254351
 10
4.0395880101
 20
-20.0608428495
 10
4.4074079992
 20
-20.0129559469
 10
4.7629273593
 20
-19.936095982
  0
LWPOLYLINE
  5
257
100
AcDbEntity
  8
0
100
AcDbPolyline
 62
253
  6
CONTINUOUS
 90
11
 70
0
 10
2.5979360544
 20
-20.3662872347
 10
3.0133272228
 20
-20.4358629015
 10
3.4213703212
 20
-20.4759451474
 10
3.8188264958
 20
-20.4863221178
 10
4.2056105123
 20
-20.4667699655
 10
4.581807605
 20
-20.4175125377
 10
4.9444346229
 20
-20.3390095206
 10
5.2933869915
 20
-20.2310414942
 10
5.6287692853
 20
-20.0938278784
 10
5.9479120768
 20
-19.9284866197
 10
6.2506932382
 20
-19.7348061864
  0
LINE
  5
258
100
AcDbEntity
  8
0
100
AcDbLine
 62
253
  6
CONTINUOUS
 10
2.4659122571
 20
-19.9612319648
 11
2.8725578709
 21
-20.0297516424
  0
LINE
  5
259
100
AcDbEntity
  8
0
100
AcDbLine
 62
253
  6
CONTINUOUS
 10
3.3267146588
 20
-20.0788394088
 11
3.2910585032
 21
-20.0728313561
  0
LWPOLYLINE
  5
25A
100
AcDbEntity
  8
0
100
AcDbPolyline
 62
7
  6
CONTINUOUS
 90
3
 70
0
 10
3.53756483
 20
-20.0817312474
 10
3.5522376499
 20
-20.0843891038
 10
3.8847519832
 20
-20.1222334877
  0
LINE
  5
25B
100
AcDbEntity
  8
0
100
AcDbLine
 62
253
  6
CONTINUOUS
 10
2.1751325495
 20
-20.2669934353
 11
2.5979360544
 21
-20.3662872347
  0
LWPOLYLINE
  5
25C
100
AcDbEntity
  8
0
100
AcDbPolyline
 62
253
  6
CONTINUOUS
 90
10
 70
0
 10
2.2429886043
 20
-20.0737123362
 10
2.6607241849
 20
-20.1720308347
 10
3.0714112789
 20
-20.2412315007
 10
3.4739242215
 20
-20.28112466
 10
3.8671597527
 20
-20.2916009681
 10
4.2500400413
 20
-20.2726317102
 10
4.6215156389
 20
-20.2242688798
 10
4.9805683569
 20
-20.146645036
 10
5.3262140567
 20
-20.0399729404
 10
5.6575053474
 20
-19.9045449737
  0
LINE
  5
25D
100
AcDbEntity
  8
0
100
AcDbLine
 62
253
  6
CONTINUOUS
 10
2.0522875194
 20
-19.8638809967
 11
2.4659122571
 21
-19.9612319648
  0
LWPOLYLINE
  5
25E
100
AcDbEntity
  8
0
100
AcDbPolyline
 62
7
  6
CONTINUOUS
 90
16
 70
0
 10
0.040412815
 20
-22.1435185143
 10
0.5745941258
 20
-22.4368951156
 10
1.107874739
 20
-22.6996672669
 10
1.6390584826
 20
-22.9312216715
 10
2.1671061235
 20
-23.131061086
 10
2.6906693742
 20
-23.2986246745
 10
3.2081208281
 20
-23.4333885276
 10
3.7183633873
 20
-23.5350935858
 10
4.2202117947
 20
-23.6035242416
 10
4.7119799003
 20
-23.6385261822
 10
5.19248094
 20
-23.6401552606
 10
5.660777
 20
-23.6085474749
 10
6.1156135713
 20
-23.5439392464
 10
6.5559071396
 20
-23.4466731923
 10
6.9807461988
 20
-23.3171470652
 10
7.389176883
 20
-23.1558481898
  0
LINE
  5
25F
100
AcDbEntity
  8
0
100
AcDbLine
 62
253
  6
CONTINUOUS
 10
0.5032003368
 20
-22.3117736432
 11
-0.0113578403
 21
-22.0290842991
  0
LINE
  5
260
100
AcDbEntity
  8
0
100
AcDbLine
 62
7
  6
CONTINUOUS
 10
-10.035858817
 20
-16.3256055594
 11
0.040412815
 21
-22.1435185143
  0
LINE
  5
261
100
AcDbEntity
  8
0
100
AcDbLine
 62
253
  6
CONTINUOUS
 10
-10.0876294722
 20
-16.2111713441
 11
-0.0113578403
 21
-22.0290842991
  0
LINE
  5
262
100
AcDbEntity
  8
0
100
AcDbLine
 62
7
  6
CONTINUOUS
 10
-10.5564943544
 20
-16.0106864731
 11
-10.035858817
 21
-16.3256055594
  0
LWPOLYLINE
  5
263
100
AcDbEntity
  8
0
100
AcDbPolyline
 62
253
  6
CONTINUOUS
 90
34
 70
0
 10
-10.0876294722
 20
-16.2111713441
 10
-10.6021959824
 20
-15.8996563802
 10
-11.1131681664
 20
-15.5623784562
 10
-11.6205460242
 20
-15.1993375723
 10
-12.1254500127
 20
-14.809586615
 10
-12.6267596751
 20
-14.3940726977
 10
-13.1211136405
 20
-13.9556371605
 10
-13.6084626355
 20
-13.4941326313
 10
-14.0888559335
 20
-13.0097064823
 10
-14.5590799841
 20
-12.5056421695
 10
-15.0190659711
 20
-11.9818131932
 10
-15.4688827107
 20
-11.4383460532
 10
-15.9055231013
 20
-10.878903705
 10
-16.328900466
 20
-10.3033813298
 10
-16.7391014818
 20
-9.7118837464
 10
-17.1333790772
 20
-9.1083883661
 10
-17.5116276201
 20
-8.4928178648
 10
-17.8739527425
 20
-7.8652495667
 10
-18.21792427
 20
-7.2298928557
 10
-18.5434224008
 20
-6.586694954
 10
-18.8505669366
 20
-5.9357086393
 10
-19.137287108
 20
-5.2813016288
 10
-19.4034487845
 20
-4.6234513085
 10
-19.6491860965
 20
-3.9621802924
 10
-19.8728306662
 20
-3.3019241389
 10
-20.0742385223
 20
-2.6426865409
 10
-20.2535536362
 20
-1.9844638055
 10
-20.4095395444
 20
-1.3316804125
 10
-20.5420439764
 20
-0.6843674131
 10
-20.6512192028
 20
-0.0424937561
 10
-20.7362855719
 20
0.5896092326
 10
-20.7969831998
 20
1.2104977776
 10
-20.8335719704
 20
1.8216156543
 10
-20.8460518838
 20
2.4229628626
  0
LWPOLYLINE
  5
264
100
AcDbEntity
  8
0
100
AcDbPolyline
 62
253
  6
CONTINUOUS
 90
8
 70
0
 10
0.040412815
 20
-22.1435185143
 10
0.0350854039
 20
-22.1401683829
 10
0.0213530511
 20
-22.1284872987
 10
0.0098197619
 20
-22.1137308908
 10
0.0006615839
 20
-22.0961244055
 10
-0.0059816898
 20
-22.0759365936
 10
-0.0100086541
 20
-22.0534756077
 10
-0.0113578403
 20
-22.0290842991
  0
LINE
  5
265
100
AcDbEntity
  8
0
100
AcDbLine
 62
253
  6
CONTINUOUS
 10
-18.9048780013
 20
-2.8484617863
 11
-18.9838576318
 21
-2.5280418568
  0
LINE
  5
266
100
AcDbEntity
  8
0
100
AcDbLine
 62
253
  6
CONTINUOUS
 10
-18.9838576318
 20
-2.5280418568
 11
-19.0336516671
 21
-2.2060204081
  0
LINE
  5
267
100
AcDbEntity
  8
0
100
AcDbLine
 62
253
  6
CONTINUOUS
 10
-18.9983007065
 20
8.4433091364
 11
-19.0187720422
 21
8.7713001565
  0
LINE
  5
268
100
AcDbEntity
  8
0
100
AcDbLine
 62
253
  6
CONTINUOUS
 10
-18.5153159913
 20
12.2762741036
 11
-18.5153159913
 21
12.7119266136
  0
LWPOLYLINE
  5
269
100
AcDbEntity
  8
0
100
AcDbPolyline
 62
253
  6
CONTINUOUS
 90
19
 70
0
 10
-12.6677748716
 20
13.3529007955
 10
-12.9837266714
 20
12.8835911825
 10
-13.2864218486
 20
12.4034730001
 10
-13.5750521025
 20
11.9138283298
 10
-13.8488466907
 20
11.415964692
 10
-14.1070744868
 20
10.9112115547
 10
-14.3490459335
 20
10.4009167834
 10
-14.5741148834
 20
9.8864430413
 10
-14.7816803245
 20
9.3691641512
 10
-14.9711879854
 20
8.8504614266
 10
-15.1421318151
 20
8.3317199829
 10
-15.2940553346
 20
7.8143250391
 10
-15.4265528555
 20
7.2996582186
 10
-15.5392705637
 20
6.7890938596
 10
-15.6319074639
 20
6.2839953454
 10
-15.7042161835
 20
5.7857114637
 10
-15.7560036334
 20
5.2955728046
 10
-15.787131523
 20
4.8148882077
 10
-15.7975167303
 20
4.3449412671
  0
LINE
  5
26A
100
AcDbEntity
  8
0
100
AcDbLine
 62
253
  6
CONTINUOUS
 10
-9.979843535
 20
17.2182723769
 11
-12.6677748716
 21
13.3529007955
  0
LWPOLYLINE
  5
26B
100
AcDbEntity
  8
0
100
AcDbPolyline
 62
7
  6
CONTINUOUS
 90
10
 70
0
 10
1.8008671857
 20
-19.7916267859
 10
2.1941501113
 20
-19.9005277128
 10
2.5818873003
 20
-19.9844425279
 10
2.9632543302
 20
-20.0432847367
 10
3.3375791449
 20
-20.0770244927
 10
3.7039132653
 20
-20.0856463341
 10
4.0610498138
 20
-20.0692466355
 10
4.4080924616
 20
-20.0280508797
 10
4.7444361479
 20
-19.9623191902
 10
5.0693527411
 20
-19.872371764
  0
LINE
  5
26C
100
AcDbEntity
  8
0
100
AcDbLine
 62
253
  6
CONTINUOUS
 10
1.8008671857
 20
-19.7916267859
 11
2.0522875194
 21
-19.8638809967
  0
LINE
  5
26D
100
AcDbEntity
  8
0
100
AcDbLine
 62
7
  6
CONTINUOUS
 10
-1.3444811065
 20
-18.8272023917
 11
1.8008671857
 21
-19.7916267859
  0
LWPOLYLINE
  5
26E
100
AcDbEntity
  8
0
100
AcDbPolyline
 62
7
  6
CONTINUOUS
 90
6
 70
0
 10
-1.3463762322
 20
-18.8266209494
 10
-1.607661085
 20
-18.7428751225
 10
-2.1591960448
 20
-18.5419697435
 10
-2.7016570436
 20
-18.3108172938
 10
-3.232411084
 20
-18.0501630225
 10
-3.6199882647
 20
-17.8366643826
  0
LWPOLYLINE
  5
26F
100
AcDbEntity
  8
0
100
AcDbPolyline
 62
253
  6
CONTINUOUS
 90
3
 70
0
 10
1.3909681012
 20
-19.7908788494
 10
1.8193495213
 20
-19.9465454892
 10
2.2429886043
 20
-20.0737123362
  0
LWPOLYLINE
  5
270
100
AcDbEntity
  8
0
100
AcDbPolyline
 62
253
  6
CONTINUOUS
 90
3
 70
0
 10
0.5496705721
 20
-19.4079857948
 10
0.9590185076
 20
-19.6071390882
 10
1.3909681012
 20
-19.7908788494
  0
LWPOLYLINE
  5
271
100
AcDbEntity
  8
0
100
AcDbPolyline
 62
253
  6
CONTINUOUS
 90
6
 70
0
 10
-0.0113578403
 20
-19.3378690117
 10
0.4333155176
 20
-19.5807906268
 10
0.8740724587
 20
-19.7951048107
 10
1.3109129829
 20
-19.9808115634
 10
1.7449809747
 20
-20.1382062149
 10
2.1751325495
 20
-20.2669934353
  0
LINE
  5
272
100
AcDbEntity
  8
0
100
AcDbLine
 62
7
  6
CONTINUOUS
 10
-3.6199882647
 20
-17.8366643826
 11
-3.6201129622
 21
-17.8365923871
  0
LINE
  5
273
100
AcDbEntity
  8
0
100
AcDbLine
 62
7
  6
CONTINUOUS
 10
-13.5196078988
 20
-12.1207480806
 11
-3.6201129622
 21
-17.8365923871
  0
LINE
  5
274
100
AcDbEntity
  8
0
100
AcDbLine
 62
253
  6
CONTINUOUS
 10
-0.0113578403
 20
-19.3378690117
 11
-0.3877142196
 21
-19.1205655552
  0
LWPOLYLINE
  5
275
100
AcDbEntity
  8
0
100
AcDbPolyline
 62
253
  6
CONTINUOUS
 90
17
 70
0
 10
-3.6201129622
 20
-17.8365923871
 10
-3.6751072902
 20
-17.8041978781
 10
-3.9488220605
 20
-17.6226215022
 10
-4.2070013053
 20
-17.4161824512
 10
-4.44895234
 20
-17.1854267706
 10
-4.6740257113
 20
-16.9309656665
 10
-4.8816173284
 20
-16.6534732934
 10
-5.0711696429
 20
-16.3536851669
 10
-5.2421726027
 20
-16.0323971177
 10
-5.3941655521
 20
-15.6904626212
 10
-5.5267387114
 20
-15.3287897918
 10
-5.6395336373
 20
-14.9483404596
 10
-5.7322445659
 20
-14.550127091
 10
-5.8046194286
 20
-14.135209172
 10
-5.8564602179
 20
-13.7046916473
 10
-5.8876236681
 20
-13.2597220945
 10
-5.8980217937
 20
-12.8014869146
  0
LWPOLYLINE
  5
276
100
AcDbEntity
  8
0
100
AcDbPolyline
 62
253
  6
CONTINUOUS
 90
3
 70
0
 10
-13.8488466907
 20
-11.9063907162
 10
-13.5750521025
 20
-12.0880832265
 10
-13.5196078988
 20
-12.1207480806
  0
LWPOLYLINE
  5
277
100
AcDbEntity
  8
0
100
AcDbPolyline
 62
253
  6
CONTINUOUS
 90
12
 70
0
 10
-18.545169898
 20
-3.7244539854
 10
-18.4703009779
 20
-3.8990228653
 10
-18.3077528612
 20
-4.2085235818
 10
-18.117731132
 20
-4.5127627777
 10
-17.9007432139
 20
-4.8109280292
 10
-17.6573685396
 20
-5.1022231321
 10
-17.3882570037
 20
-5.3858702277
 10
-17.0941272269
 20
-5.6611118802
 10
-16.7757646375
 20
-5.9272130993
 10
-16.4340193735
 20
-6.1834633028
 10
-16.069804013
 20
-6.4291782141
 10
-15.6840911368
 20
-6.6637016894
  0
LWPOLYLINE
  5
278
100
AcDbEntity
  8
0
100
AcDbPolyline
 62
253
  6
CONTINUOUS
 90
15
 70
0
 10
-18.879170519
 20
7.6395880965
 10
-18.8461272617
 20
7.4196458172
 10
-18.7680867465
 20
7.0941580286
 10
-18.6614446568
 20
6.771744945
 10
-18.5264849866
 20
6.4532675726
 10
-18.3635702394
 20
6.1395814349
 10
-18.1731361876
 20
5.8315241087
 10
-17.9556917593
 20
5.5299176073
 10
-17.7118217549
 20
5.2355710691
 10
-17.4421794613
 20
4.9492702641
 10
-17.1474859937
 20
4.6717783826
 10
-16.8285328422
 20
4.4038379959
 10
-16.4861742314
 20
4.1461638318
 10
-16.1213266126
 20
3.8994425513
 10
-15.7349632583
 20
3.6643300859
  0
LWPOLYLINE
  5
279
100
AcDbEntity
  8
0
100
AcDbPolyline
 62
253
  6
CONTINUOUS
 90
7
 70
0
 10
-15.7975167303
 20
4.179051032
 10
-15.7959365202
 20
4.1527321756
 10
-15.7912241411
 20
4.1287086357
 10
-15.783463841
 20
4.107409906
 10
-15.7727943588
 20
4.0892167658
 10
-15.759406444
 20
4.0744544728
 10
-15.745746075
 20
4.0646168167
  0
LWPOLYLINE
  5
27A
100
AcDbEntity
  8
0
100
AcDbPolyline
 62
253
  6
CONTINUOUS
 90
8
 70
0
 10
-15.8328720849
 20
-6.267219827
 10
-15.8320673851
 20
-6.2818126101
 10
-15.8296759177
 20
-6.2952128754
 10
-15.825749132
 20
-6.3072308275
 10
-15.8203889836
 20
-6.3176557114
 10
-15.81367393
 20
-6.3264081949
 10
-15.8055950244
 20
-6.3334620639
 10
-15.8018096918
 20
-6.3358803562
  0
LWPOLYLINE
  5
27B
100
AcDbEntity
  8
0
100
AcDbPolyline
 62
253
  6
CONTINUOUS
 90
15
 70
0
 10
-15.7975167303
 20
-7.085642608
 10
-15.787131523
 20
-7.5435969715
 10
-15.7560036334
 20
-7.9883358616
 10
-15.7042161835
 20
-8.4186716717
 10
-15.6319074639
 20
-8.8334552565
 10
-15.5392705637
 20
-9.2315790003
 10
-15.4265528555
 20
-9.6119797753
 10
-15.2940553346
 20
-9.9736417799
 10
-15.1421318151
 20
-10.3155992515
 10
-14.9711879854
 20
-10.6369390454
 10
-14.7816803245
 20
-10.9368030734
 10
-14.5741148834
 20
-11.2143905949
 10
-14.3490459335
 20
-11.4689603553
 10
-14.1070744868
 20
-11.6998325652
 10
-13.8488466907
 20
-11.9063907162
  0
LINE
  5
27C
100
AcDbEntity
  8
0
100
AcDbLine
 62
253
  6
CONTINUOUS
 10
-15.8328701858
 20
3.4856899524
 11
-15.8328701858
 21
-6.2672209277
  0
LINE
  5
27D
100
AcDbEntity
  8
0
100
AcDbLine
 62
253
  6
CONTINUOUS
 10
-15.7975167303
 20
4.3449412671
 11
-15.7975167303
 21
4.179051032
  0
LINE
  5
27E
100
AcDbEntity
  8
0
100
AcDbLine
 62
253
  6
CONTINUOUS
 10
-15.7975167303
 20
-6.9197523728
 11
-15.7975167303
 21
-7.085642608
  0
LINE
  5
27F
100
AcDbEntity
  8
0
100
AcDbLine
 62
7
  6
CONTINUOUS
 10
0.6166953468
 20
17.3826720602
 11
0.945202965
 21
17.5493615511
  0
LINE
  5
280
100
AcDbEntity
  8
0
100
AcDbLine
 62
253
  6
CONTINUOUS
 10
0.6869598785
 20
17.3421022002
 11
0.8372227677
 21
17.4183515146
  0
LINE
  5
281
100
AcDbEntity
  8
0
100
AcDbLine
 62
253
  6
CONTINUOUS
 10
0.8372227677
 20
17.4183515146
 11
1.0171708846
 21
17.5094964461
  0
LINE
  5
282
100
AcDbEntity
  8
0
100
AcDbLine
 62
253
  6
CONTINUOUS
 10
1.0171708846
 20
17.5094964461
 11
1.1072072949
 21
17.5550514327
  0
LWPOLYLINE
  5
283
100
AcDbEntity
  8
0
100
AcDbPolyline
 62
7
  6
CONTINUOUS
 90
3
 70
0
 10
0.9831138434
 20
17.5650747422
 10
0.9502841171
 20
17.5518722995
 10
0.9450889811
 20
17.5493036305
  0
LWPOLYLINE
  5
284
100
AcDbEntity
  8
0
100
AcDbPolyline
 62
7
  6
CONTINUOUS
 90
22
 70
0
 10
20.1717926159
 20
-12.3681777235
 10
20.2288531354
 20
-12.3611141081
 10
20.285401983
 20
-12.3504317127
 10
20.3411749371
 20
-12.3361978894
 10
20.395959347
 20
-12.3184690221
 10
20.4494455914
 20
-12.2973367131
 10
20.5012403146
 20
-12.2729574461
 10
20.5511041445
 20
-12.245449767
 10
20.5987996318
 20
-12.214939387
 10
20.6439756551
 20
-12.1816518036
 10
20.6864372454
 20
-12.1457367942
 10
20.7259720393
 20
-12.1073686363
 10
20.7622633276
 20
-12.0668672693
 10
20.7951519732
 20
-12.0244447006
 10
20.8245033587
 20
-11.9803015356
 10
20.8501125069
 20
-11.9347958496
 10
20.871874142
 20
-11.8882103235
 10
20.88974225
 20
-11.8407488481
 10
20.9036562167
 20
-11.792689874
 10
20.9135853275
 20
-11.7443071388
 10
20.9195270513
 20
-11.6958563132
 10
20.9214995758
 20
-11.6476025034
  0
LWPOLYLINE
  5
285
100
AcDbEntity
  8
0
100
AcDbPolyline
 62
253
  6
CONTINUOUS
 90
10
 70
0
 10
8.1595246186
 20
-14.2000348498
 10
8.1722794715
 20
-14.1987649872
 10
8.1849034046
 20
-14.1971156773
 10
8.1973625809
 20
-14.195091341
 10
8.2096236052
 20
-14.1926974043
 10
8.2216536135
 20
-14.1899402837
 10
8.2334203608
 20
-14.1868273694
 10
8.2448923079
 20
-14.1833670052
 10
8.2560387056
 20
-14.1795684661
 10
8.2668296775
 20
-14.1754419336
  0
LINE
  5
286
100
AcDbEntity
  8
0
100
AcDbLine
 62
253
  6
CONTINUOUS
 10
3.4680710104
 20
-14.5952040663
 11
8.1595246186
 21
-14.2000348498
  0
LINE
  5
287
100
AcDbEntity
  8
0
100
AcDbLine
 62
253
  6
CONTINUOUS
 10
8.1595246186
 20
-14.0341446146
 11
3.4680710104
 21
-14.4293138311
  0
LWPOLYLINE
  5
288
100
AcDbEntity
  8
0
100
AcDbPolyline
 62
253
  6
CONTINUOUS
 90
19
 70
0
 10
3.4680710104
 20
-14.4293138311
 10
2.9036632374
 20
-14.4682850754
 10
2.3365223378
 20
-14.4903698312
 10
1.7681627738
 20
-14.4955091247
 10
1.2001022618
 20
-14.483689232
 10
0.6338577199
 20
-14.4549417165
 10
0.0709412165
 20
-14.4093433439
 10
-0.4871440666
 20
-14.3470158776
 10
-1.0389078489
 20
-14.2681257535
 10
-1.5828767303
 20
-14.1728836355
 10
-2.117598126
 20
-14.061543853
 10
-2.6416441449
 20
-13.9344037217
 10
-3.1536154032
 20
-13.7918027497
 10
-3.6521447606
 20
-13.6341217308
 10
-4.1359009714
 20
-13.4617817279
 10
-4.6035922393
 20
-13.2752429483
 10
-5.053969667
 20
-13.0750035151
 10
-5.4858305911
 20
-12.8615981368
 10
-5.8980217937
 20
-12.6355966794
  0
LWPOLYLINE
  5
289
100
AcDbEntity
  8
0
100
AcDbPolyline
 62
7
  6
CONTINUOUS
 90
23
 70
0
 10
-14.3271913016
 20
-2.3293602707
 10
-14.3187780359
 20
-2.4015401514
 10
-14.3050303622
 20
-2.4748875531
 10
-14.2856942877
 20
-2.5501048746
 10
-14.2610238053
 20
-2.6264897171
 10
-14.2317808937
 20
-2.7019348839
 10
-14.1978984852
 20
-2.7763213269
 10
-14.1594436475
 20
-2.8497680942
 10
-14.1173795624
 20
-2.9205251337
 10
-14.0716314355
 20
-2.9885590731
 10
-14.0222740611
 20
-3.0539032849
 10
-13.9704950036
 20
-3.114907834
 10
-13.9161388209
 20
-3.1715437943
 10
-13.8593609551
 20
-3.223840092
 10
-13.8018152974
 20
-3.2702335711
 10
-13.7435514382
 20
-3.3104927676
 10
-13.6845197871
 20
-3.3448491456
 10
-13.6262254635
 20
-3.3724339415
 10
-13.5686514369
 20
-3.3930865446
 10
-13.5118147378
 20
-3.4069675656
 10
-13.4572715773
 20
-3.4136900739
 10
-13.4051181187
 20
-3.4130724377
 10
-13.3552581987
 20
-3.4052962888
  0
LINE
  5
28A
100
AcDbEntity
  8
0
100
AcDbLine
 62
7
  6
CONTINUOUS
 10
-14.3302701593
 20
-2.2583479109
 11
-14.3271913016
 21
-2.3293602707
  0
LWPOLYLINE
  5
28B
100
AcDbEntity
  8
0
100
AcDbPolyline
 62
7
  6
CONTINUOUS
 90
24
 70
0
 10
-13.0928332923
 20
-2.9728284492
 10
-13.09591215
 20
-2.9018160895
 10
-13.1043254157
 20
-2.8296362087
 10
-13.1180730894
 20
-2.7562888071
 10
-13.1374091639
 20
-2.6810714855
 10
-13.1620796463
 20
-2.604686643
 10
-13.1913225579
 20
-2.5292414762
 10
-13.2252049664
 20
-2.4548550332
 10
-13.2636598041
 20
-2.381408266
 10
-13.3057238892
 20
-2.3106512264
 10
-13.3514720161
 20
-2.242617287
 10
-13.4008293905
 20
-2.1772730753
 10
-13.452608448
 20
-2.1162685261
 10
-13.5069646307
 20
-2.0596325659
 10
-13.5637424965
 20
-2.0073362682
 10
-13.6212881542
 20
-1.960942789
 10
-13.6795520134
 20
-1.9206835925
 10
-13.7385836645
 20
-1.8863272146
 10
-13.7968779881
 20
-1.8587424186
 10
-13.8544520147
 20
-1.8380898155
 10
-13.9112887138
 20
-1.8242087945
 10
-13.9658318743
 20
-1.8174862862
 10
-14.0179853329
 20
-1.8181039224
 10
-14.0678452529
 20
-1.8258800713
  0
LWPOLYLINE
  5
28C
100
AcDbEntity
  8
0
100
AcDbPolyline
 62
7
  6
CONTINUOUS
 90
13
 70
0
 10
-14.3133445609
 20
-2.2689890121
 10
-14.3118804558
 20
-2.2214233938
 10
-14.3074952735
 20
-2.1757802222
 10
-14.3002103781
 20
-2.1322818663
 10
-14.290061261
 20
-2.0911402457
 10
-14.2770973676
 20
-2.0525557983
 10
-14.2613818567
 20
-2.0167165037
 10
-14.2429912927
 20
-1.9837969672
 10
-14.2220152725
 20
-1.9539575695
 10
-14.1985559893
 20
-1.9273436853
 10
-14.1727277342
 20
-1.9040849746
 10
-14.14465634
 20
-1.8842947515
 10
-14.1399385897
 20
-1.8814408051
  0
LWPOLYLINE
  5
28D
100
AcDbEntity
  8
0
100
AcDbPolyline
 62
7
  6
CONTINUOUS
 90
13
 70
0
 10
-13.1112630329
 20
-2.9630558208
 10
-13.112727138
 20
-3.0106214392
 10
-13.1171123203
 20
-3.0562646108
 10
-13.1243972156
 20
-3.0997629667
 10
-13.1345463327
 20
-3.1409045872
 10
-13.1475102261
 20
-3.1794890346
 10
-13.163225737
 20
-3.2153283293
 10
-13.1816163011
 20
-3.2482478658
 10
-13.2025923212
 20
-3.2780872634
 10
-13.2260516045
 20
-3.3047011477
 10
-13.2518798595
 20
-3.3279598584
 10
-13.2799512537
 20
-3.3477500815
 10
-13.2899137004
 20
-3.3536322498
  0
LINE
  5
28E
100
AcDbEntity
  8
0
100
AcDbLine
 62
7
  6
CONTINUOUS
 10
-14.3272247634
 20
-2.1906778359
 11
-14.3302701593
 21
-2.2583479109
  0
LWPOLYLINE
  5
28F
100
AcDbEntity
  8
0
100
AcDbPolyline
 62
253
  6
CONTINUOUS
 90
11
 70
0
 10
13.8863531255
 20
-10.3124567984
 10
13.9046376563
 20
-10.3074993561
 10
13.9227218579
 20
-10.3043853125
 10
13.9404075961
 20
-10.3031487856
 10
13.9575011022
 20
-10.303803323
 10
13.9738150962
 20
-10.3063417536
 10
13.9891708385
 20
-10.3107362658
 10
14.0034000885
 20
-10.3169387123
 10
14.0163469474
 20
-10.3248811379
 10
14.0278695668
 20
-10.3344765236
 10
14.0306284571
 20
-10.3372422667
  0
LWPOLYLINE
  5
290
100
AcDbEntity
  8
0
100
AcDbPolyline
 62
7
  6
CONTINUOUS
 90
16
 70
0
 10
20.1353649439
 20
-11.9698398961
 10
20.1687784227
 20
-11.9656444789
 10
20.2021305111
 20
-11.9591682493
 10
20.2350993736
 20
-11.9504564048
 10
20.2673482169
 20
-11.9395956886
 10
20.2985928589
 20
-11.9266927835
 10
20.3285952749
 20
-11.9118620443
 10
20.3570539048
 20
-11.8952797656
 10
20.3837362764
 20
-11.8771250844
 10
20.4085018039
 20
-11.8575372584
 10
20.431067634
 20
-11.836799964
 10
20.4513144397
 20
-11.8151076933
 10
20.4692749324
 20
-11.7924708322
 10
20.4847039385
 20
-11.7692338654
 10
20.4975179482
 20
-11.7455969847
 10
20.5077911534
 20
-11.721369363
  0
LINE
  5
291
100
AcDbEntity
  8
0
100
AcDbLine
 62
7
  6
CONTINUOUS
 10
17.9442420105
 20
-12.5718854239
 11
20.1717926159
 21
-12.3681777235
  0
LINE
  5
292
100
AcDbEntity
  8
0
100
AcDbLine
 62
7
  6
CONTINUOUS
 10
17.9078143385
 20
-12.1735475965
 11
20.1353649439
 21
-11.9698398961
  0
LINE
  5
293
100
AcDbEntity
  8
0
100
AcDbLine
 62
253
  6
CONTINUOUS
 10
3.4449151191
 20
-14.1471061837
 11
8.1363687273
 21
-13.7519369673
  0
LINE
  5
294
100
AcDbEntity
  8
0
100
AcDbLine
 62
253
  6
CONTINUOUS
 10
8.0278708135
 20
-13.5024068228
 11
3.4327183032
 21
-13.8364019665
  0
LWPOLYLINE
  5
295
100
AcDbEntity
  8
0
100
AcDbPolyline
 62
7
  6
CONTINUOUS
 90
4
 70
0
 10
3.423824811
 20
-13.900169244
 10
8.0199597499
 20
-13.5661094814
 10
8.0488871336
 20
-13.5648224897
 10
8.0780036305
 20
-13.5648786239
  0
LWPOLYLINE
  5
296
100
AcDbEntity
  8
0
100
AcDbPolyline
 62
253
  6
CONTINUOUS
 90
18
 70
0
 10
3.4327183032
 20
-13.8364027172
 10
2.8682890211
 20
-13.8693317326
 10
2.3011286625
 20
-13.8856550272
 10
1.732751868
 20
-13.8853138205
 10
1.1646765428
 20
-13.8682814746
 10
0.5984196663
 20
-13.8346028746
 10
0.0354932424
 20
-13.7843943288
 10
-0.5225996038
 20
-13.7177803669
 10
-1.0743684905
 20
-13.6349250473
 10
-1.6183399003
 20
-13.5360708617
 10
-2.1530616967
 20
-13.4214750925
 10
-2.677105701
 20
-13.2914324844
 10
-3.1890714483
 20
-13.1463062049
 10
-3.687592084
 20
-12.9864803557
 10
-4.1713366713
 20
-12.812373257
 10
-4.6390126413
 20
-12.6244598963
 10
-5.08937128
 20
-12.4232435833
 10
-5.5212109318
 20
-12.2092544972
  0
LINE
  5
297
100
AcDbEntity
  8
0
100
AcDbLine
 62
253
  6
CONTINUOUS
 10
8.0535394755
 20
-13.5013542327
 11
8.0278708135
 21
-13.5024082874
  0
LWPOLYLINE
  5
298
100
AcDbEntity
  8
0
100
AcDbPolyline
 62
7
  6
CONTINUOUS
 90
3
 70
0
 10
8.0780036305
 20
-13.5648786239
 10
8.106977013
 20
-13.5662800667
 10
8.1354240324
 20
-13.5689999796
  0
LWPOLYLINE
  5
299
100
AcDbEntity
  8
0
100
AcDbPolyline
 62
253
  6
CONTINUOUS
 90
19
 70
0
 10
-5.8980217937
 20
-12.8014869146
 10
-5.485568011
 20
-13.0276250646
 10
-5.0534539781
 20
-13.2411355204
 10
-4.6028391642
 20
-13.4414504224
 10
-4.1349323377
 20
-13.6280372824
 10
-3.6509874609
 20
-13.8004007325
 10
-3.1523002201
 20
-13.9580837422
 10
-2.6402061256
 20
-14.100668293
 10
-2.116075856
 20
-14.2277768936
 10
-1.5813105762
 20
-14.3390737324
 10
-1.037340447
 20
-14.434265006
 10
-0.4856198031
 20
-14.5130999951
 10
0.0723780103
 20
-14.5753718517
 10
0.635162974
 20
-14.6209178462
 10
1.2012315397
 20
-14.6496198211
 10
1.7690717424
 20
-14.6614046816
 10
2.3371679482
 20
-14.6562445767
 10
2.9040049106
 20
-14.6341568715
 10
3.4680710104
 20
-14.5952040663
  0
LWPOLYLINE
  5
29A
100
AcDbEntity
  8
0
100
AcDbPolyline
 62
253
  6
CONTINUOUS
 90
19
 70
0
 10
-5.7845962002
 20
-12.379545996
 10
-5.3784157951
 20
-12.6022517765
 10
-4.952852503
 20
-12.812545161
 10
-4.5090427251
 20
-13.0098645934
 10
-4.0481715869
 20
-13.1936831625
 10
-3.5714697736
 20
-13.3635100093
 10
-3.0802102438
 20
-13.5188916374
 10
-2.5757048303
 20
-13.6594131241
 10
-2.0593007368
 20
-13.7846992285
 10
-1.5323769408
 20
-13.8944153934
 10
-0.9963405109
 20
-13.9882686388
 10
-0.4526228497
 20
-14.066008344
 10
0.0973241287
 20
-14.1274269171
 10
0.6520318759
 20
-14.1723603493
 10
1.2100191305
 20
-14.2006886528
 10
1.7697958735
 20
-14.2123361813
 10
2.3298673077
 20
-14.2072718319
 10
2.8887378487
 20
-14.185509128
 10
3.4449151191
 20
-14.1471061837
  0
LINE
  5
29B
100
AcDbEntity
  8
0
100
AcDbLine
 62
253
  6
CONTINUOUS
 10
-5.5212109318
 20
-12.2092544972
 11
-5.9333790455
 21
-11.9830627695
  0
LWPOLYLINE
  5
29C
100
AcDbEntity
  8
0
100
AcDbPolyline
 62
7
  6
CONTINUOUS
 90
19
 70
0
 10
-5.9023202625
 20
-12.051721485
 10
-5.560276433
 20
-12.2410287322
 10
-5.1230561971
 20
-12.4612011442
 10
-4.6668050053
 20
-12.6679920916
 10
-4.192791513
 20
-12.8608652275
 10
-3.7023095878
 20
-13.0393278944
 10
-3.1966808
 20
-13.2029265895
 10
-2.6772851231
 20
-13.3512368199
 10
-2.145553567
 20
-13.4838690829
 10
-1.6029473397
 20
-13.6004760487
 10
-1.0509528464
 20
-13.7007533366
 10
-0.4910819648
 20
-13.7844392636
 10
0.0751214959
 20
-13.8513146865
 10
0.6461004731
 20
-13.9012064098
 10
1.2203004658
 20
-13.9339876499
 10
1.7961598763
 20
-13.9495760266
 10
2.3721078538
 20
-13.9479337417
 10
2.9465697118
 20
-13.9290684559
 10
3.4220081035
 20
-13.900302194
  0
LINE
  5
29D
100
AcDbEntity
  8
0
100
AcDbLine
 62
253
  6
CONTINUOUS
 10
-15.7975167303
 20
-7.085642608
 11
-5.8980217937
 21
-12.8014869146
  0
LINE
  5
29E
100
AcDbEntity
  8
0
100
AcDbLine
 62
253
  6
CONTINUOUS
 10
-5.8980217937
 20
-12.6355966794
 11
-15.7975167303
 21
-6.9197523728
  0
LINE
  5
29F
100
AcDbEntity
  8
0
100
AcDbLine
 62
253
  6
CONTINUOUS
 10
-15.6840911368
 20
-6.6637016894
 11
-5.7845962002
 21
-12.379545996
  0
LINE
  5
2A0
100
AcDbEntity
  8
0
100
AcDbLine
 62
7
  6
CONTINUOUS
 10
-15.8018096918
 20
-6.3358803562
 11
-5.9023147712
 21
-12.0517246535
  0
LINE
  5
2A1
100
AcDbEntity
  8
0
100
AcDbLine
 62
253
  6
CONTINUOUS
 10
-15.8328701858
 20
-6.2672209277
 11
-5.9333790455
 21
-11.9830630423
  0
LINE
  5
2A2
100
AcDbEntity
  8
0
100
AcDbLine
 62
7
  6
CONTINUOUS
 10
-16.1197333218
 20
-6.1446234183
 11
-15.8018030755
 21
-6.3358841779
  0
LWPOLYLINE
  5
2A3
100
AcDbEntity
  8
0
100
AcDbPolyline
 62
253
  6
CONTINUOUS
 90
8
 70
0
 10
-5.902321897
 20
-12.0517205384
 10
-5.9041693615
 20
-12.0505995152
 10
-5.9126452276
 20
-12.0438292577
 10
-5.9198692655
 20
-12.0350736601
 10
-5.9256642215
 20
-12.0244593763
 10
-5.9299044443
 20
-12.0121410332
 10
-5.9325000271
 20
-11.9982755047
 10
-5.9333771643
 20
-11.9830641244
  0
LWPOLYLINE
  5
2A4
100
AcDbEntity
  8
0
100
AcDbPolyline
 62
253
  6
CONTINUOUS
 90
13
 70
0
 10
-15.8328701858
 20
-6.2672210069
 10
-16.2242704465
 20
-6.0294424102
 10
-16.5938606194
 20
-5.7806959355
 10
-16.9406532758
 20
-5.5216470545
 10
-17.263722072
 20
-5.2529942753
 10
-17.5622034234
 20
-4.9754539076
 10
-17.835299018
 20
-4.6897582127
 10
-18.0822791214
 20
-4.3966786788
 10
-18.302483729
 20
-4.0970014899
 10
-18.4953238841
 20
-3.7915121385
 10
-18.6602842004
 20
-3.4810380687
 10
-18.7969239866
 20
-3.1664148932
 10
-18.9048780013
 20
-2.8484617863
  0
LWPOLYLINE
  5
2A5
100
AcDbEntity
  8
0
100
AcDbPolyline
 62
253
  6
CONTINUOUS
 90
17
 70
0
 10
-15.7975167303
 20
-6.9197523728
 10
-16.1889375184
 20
-6.6817583384
 10
-16.5585426631
 20
-6.4324072533
 10
-16.9053451911
 20
-6.1723649711
 10
-17.2284190197
 20
-5.9023258946
 10
-17.5269014301
 20
-5.6230111213
 10
-17.7999953712
 20
-5.3351665184
 10
-18.0469715876
 20
-5.0395607304
 10
-18.2671705677
 20
-4.7369831269
 10
-18.4600043038
 20
-4.4282416947
 10
-18.6249578635
 20
-4.11416088
 10
-18.7615907635
 20
-3.7955793874
 10
-18.8695381469
 20
-3.4733479394
 10
-18.9485117569
 20
-3.1483270053
 10
-18.9983007065
 20
-2.8213845035
 10
-19.0187720422
 20
-2.4933934834
 10
-19.0193421372
 20
-2.4287318462
  0
LWPOLYLINE
  5
2A6
100
AcDbEntity
  8
0
100
AcDbPolyline
 62
253
  6
CONTINUOUS
 90
8
 70
0
 10
-10.0876294722
 20
-16.2111713441
 10
-10.086280286
 20
-16.2355626527
 10
-10.0822533217
 20
-16.2580236386
 10
-10.075610048
 20
-16.2782114506
 10
-10.0664518701
 20
-16.2958179359
 10
-10.0549185809
 20
-16.3105743437
 10
-10.041186228
 20
-16.322255428
 10
-10.035858817
 20
-16.3256055594
  0
LWPOLYLINE
  5
2A7
100
AcDbEntity
  8
0
100
AcDbPolyline
 62
7
  6
CONTINUOUS
 90
26
 70
0
 10
-11.7670080775
 20
-3.7383433117
 10
-11.7626097093
 20
-3.8397895399
 10
-11.7505907583
 20
-3.9429036553
 10
-11.7309512245
 20
-4.0476856577
 10
-11.703328261
 20
-4.1551389742
 10
-11.6680847146
 20
-4.2642601777
 10
-11.6263091266
 20
-4.3720389875
 10
-11.5779056859
 20
-4.4783053346
 10
-11.5229702035
 20
-4.5832292878
 10
-11.4628786533
 20
-4.6843107729
 10
-11.3975241863
 20
-4.7815021149
 10
-11.3270136514
 20
-4.8748509888
 10
-11.2530435693
 20
-4.9620003447
 10
-11.1753918797
 20
-5.0429088594
 10
-11.0942806429
 20
-5.1176178561
 10
-11.0120725604
 20
-5.1838942549
 10
-10.9288384759
 20
-5.2414073927
 10
-10.8445075458
 20
-5.2904879327
 10
-10.7612299406
 20
-5.3298947841
 10
-10.6789813312
 20
-5.3593985027
 10
-10.5977860468
 20
-5.3792285328
 10
-10.5198672461
 20
-5.3888321161
 10
-10.4453623053
 20
-5.3879497786
 10
-10.3741338481
 20
-5.3768409944
 10
-10.3079929043
 20
-5.3557314272
 10
-10.2659119973
 20
-5.3354725344
  0
LWPOLYLINE
  5
2A8
100
AcDbEntity
  8
0
100
AcDbPolyline
 62
253
  6
CONTINUOUS
 90
37
 70
0
 10
-11.6707219816
 20
-3.8068384709
 10
-11.6686249317
 20
-3.8670068436
 10
-11.6632017651
 20
-3.9288121734
 10
-11.6544755804
 20
-3.9919912151
 10
-11.6424835448
 20
-4.0562748722
 10
-11.6272767356
 20
-4.1213893434
 10
-11.6089199226
 20
-4.1870572889
 10
-11.5874912924
 20
-4.2529990113
 10
-11.5630821152
 20
-4.3189336473
 10
-11.5357963564
 20
-4.3845803635
 10
-11.505750233
 20
-4.4496595532
 10
-11.4730717198
 20
-4.5138940268
 10
-11.4379000031
 20
-4.5770101923
 10
-11.4003848886
 20
-4.6387392213
 10
-11.3606861634
 20
-4.6988181934
 10
-11.3189729147
 20
-4.756991216
 10
-11.2754228106
 20
-4.813010515
 10
-11.2302213424
 20
-4.866637489
 10
-11.1835610354
 20
-4.9176437264
 10
-11.1356406282
 20
-4.9658119782
 10
-11.0866642266
 20
-5.0109370829
 10
-11.0368404343
 20
-5.0528268405
 10
-10.9863814639
 20
-5.0913028315
 10
-10.9355022338
 20
-5.1262011764
 10
-10.8844194522
 20
-5.1573732337
 10
-10.8333506942
 20
-5.1846862333
 10
-10.7825134754
 20
-5.208023842
 10
-10.732124325
 20
-5.2272866585
 10
-10.6823978638
 20
-5.2423926374
 10
-10.6335458902
 20
-5.2532774384
 10
-10.5857764777
 20
-5.2598947002
 10
-10.539293089
 20
-5.2622162379
 10
-10.4942937093
 20
-5.2602321637
 10
-10.4509700029
 20
-5.2539509283
 10
-10.409506497
 20
-5.243399285
 10
-10.3700797959
 20
-5.2286221761
 10
-10.3328578283
 20
-5.2096825413
  0
LWPOLYLINE
  5
2A9
100
AcDbEntity
  8
0
100
AcDbPolyline
 62
253
  6
CONTINUOUS
 90
36
 70
0
 10
-10.1047019373
 20
-4.6958320023
 10
-10.1067989872
 20
-4.6356636297
 10
-10.1122221538
 20
-4.5738582998
 10
-10.1209483385
 20
-4.5106792581
 10
-10.1329403741
 20
-4.446395601
 10
-10.1481471833
 20
-4.3812811298
 10
-10.1665039963
 20
-4.3156131843
 10
-10.1879326265
 20
-4.2496714619
 10
-10.2123418037
 20
-4.183736826
 10
-10.2396275626
 20
-4.1180901097
 10
-10.2696736859
 20
-4.05301092
 10
-10.3023521991
 20
-3.9887764465
 10
-10.3375239158
 20
-3.9256602809
 10
-10.3750390303
 20
-3.8639312519
 10
-10.4147377555
 20
-3.8038522799
 10
-10.4564510042
 20
-3.7456792572
 10
-10.5000011083
 20
-3.6896599583
 10
-10.5452025765
 20
-3.6360329843
 10
-10.5918628835
 20
-3.5850267468
 10
-10.6397832907
 20
-3.536858495
 10
-10.6887596923
 20
-3.4917333904
 10
-10.7385834846
 20
-3.4498436327
 10
-10.789042455
 20
-3.4113676417
 10
-10.8399216851
 20
-3.3764692969
 10
-10.8910044667
 20
-3.3452972396
 10
-10.9420732247
 20
-3.3179842399
 10
-10.9929104435
 20
-3.2946466313
 10
-11.0432995939
 20
-3.2753838148
 10
-11.0930260551
 20
-3.2602778358
 10
-11.1418780287
 20
-3.2493930348
 10
-11.1896474412
 20
-3.2427757731
 10
-11.2361308299
 20
-3.2404542353
 10
-11.2811302096
 20
-3.2424383095
 10
-11.324453916
 20
-3.248719545
 10
-11.3659174219
 20
-3.2592711883
 10
-11.405344123
 20
-3.2740482971
  0
LINE
  5
2AA
100
AcDbEntity
  8
0
100
AcDbLine
 62
7
  6
CONTINUOUS
 10
-11.6787841678
 20
-3.8451527247
 11
-11.680561591
 21
-3.7820431985
  0
LINE
  5
2AB
100
AcDbEntity
  8
0
100
AcDbLine
 62
253
  6
CONTINUOUS
 10
-11.6707496702
 20
-3.7992190762
 11
-11.6707219816
 21
-3.8068384709
  0
LINE
  5
2AC
100
AcDbEntity
  8
0
100
AcDbLine
 62
253
  6
CONTINUOUS
 10
-11.6690820869
 20
-3.7412060777
 11
-11.6707496702
 21
-3.7992190762
  0
LWPOLYLINE
  5
2AD
100
AcDbEntity
  8
0
100
AcDbPolyline
 62
7
  6
CONTINUOUS
 90
6
 70
0
 10
-11.680561591
 20
-3.7820431985
 10
-11.6786786443
 20
-3.7191340149
 10
-11.6730422406
 20
-3.6586054157
 10
-11.6636782344
 20
-3.6006888255
 10
-11.6505989957
 20
-3.5455234092
 10
-11.6338639015
 20
-3.493422338
  0
LINE
  5
2AE
100
AcDbEntity
  8
0
100
AcDbLine
 62
253
  6
CONTINUOUS
 10
-11.6640864396
 20
-3.6853658554
 11
-11.6690820869
 21
-3.7412060777
  0
LWPOLYLINE
  5
2AF
100
AcDbEntity
  8
0
100
AcDbPolyline
 62
7
  6
CONTINUOUS
 90
6
 70
0
 10
-14.2304046181
 20
-1.926832184
 10
-14.2601213719
 20
-1.9687393367
 10
-14.2851881273
 20
-2.0170054928
 10
-14.3048153384
 20
-2.0702386305
 10
-14.3187398231
 20
-2.1279747424
 10
-14.3272247634
 20
-2.1906778359
  0
LWPOLYLINE
  5
2B0
100
AcDbEntity
  8
0
100
AcDbPolyline
 62
253
  6
CONTINUOUS
 90
13
 70
0
 10
-15.7349631992
 20
3.6643301742
 10
-15.7479031889
 20
3.6547743709
 10
-15.7604825367
 20
3.6436212973
 10
-15.7725156627
 20
3.6310542143
 10
-15.7837775925
 20
3.6173411278
 10
-15.7941667391
 20
3.6026406002
 10
-15.8036642349
 20
3.5869548467
 10
-15.812140101
 20
3.5703968714
 10
-15.8193641389
 20
3.5532991359
 10
-15.8251590949
 20
3.5359929822
 10
-15.8293993176
 20
3.5187781362
 10
-15.8319949004
 20
3.5019152938
 10
-15.8328720376
 20
3.4856910175
  0
LINE
  5
2B1
100
AcDbEntity
  8
0
100
AcDbLine
 62
253
  6
CONTINUOUS
 10
0.1500117508
 20
14.746842647
 11
2.4635158938
 21
16.3163410224
  0
LINE
  5
2B2
100
AcDbEntity
  8
0
100
AcDbLine
 62
253
  6
CONTINUOUS
 10
-15.4181533821
 20
3.8754689015
 11
-15.7349632232
 21
3.6643301881
  0
LWPOLYLINE
  5
2B3
100
AcDbEntity
  8
0
100
AcDbPolyline
 62
253
  6
CONTINUOUS
 90
8
 70
0
 10
5.9131910758
 20
14.7801367134
 10
5.926245434
 20
14.7865326492
 10
5.9386152508
 20
14.7910919636
 10
5.9501109807
 20
14.7937596687
 10
5.960512404
 20
14.7945125933
 10
5.9697253399
 20
14.7933742979
 10
5.977724137
 20
14.79032313
 10
5.9824238602
 20
14.7871108137
  0
LINE
  5
2B4
100
AcDbEntity
  8
0
100
AcDbLine
 62
7
  6
CONTINUOUS
 10
8.1354240324
 20
-13.5689999796
 11
8.1608639412
 21
-13.5726255117
  0
LWPOLYLINE
  5
2B5
100
AcDbEntity
  8
0
100
AcDbPolyline
 62
253
  6
CONTINUOUS
 90
5
 70
0
 10
8.1547368969
 20
-13.5097116388
 10
8.1302045432
 20
-13.5057679565
 10
8.1049788947
 20
-13.503044628
 10
8.0793337242
 20
-13.5015659925
 10
8.0535394755
 20
-13.5013542327
  0
LINE
  5
2B6
100
AcDbEntity
  8
0
100
AcDbLine
 62
253
  6
CONTINUOUS
 10
8.1783029114
 20
-13.5148474453
 11
8.1547368969
 21
-13.5097116388
  0
LWPOLYLINE
  5
2B7
100
AcDbEntity
  8
0
100
AcDbPolyline
 62
253
  6
CONTINUOUS
 90
8
 70
0
 10
-10.0876294722
 20
17.5770266949
 10
-10.0867814691
 20
17.5620606652
 10
-10.0842510193
 20
17.5483131966
 10
-10.080078585
 20
17.5360041125
 10
-10.0743308839
 20
17.5253302364
 10
-10.0670998223
 20
17.5164622446
 10
-10.0585010255
 20
17.5095419373
 10
-10.0565670791
 20
17.5083661657
  0
LWPOLYLINE
  5
2B8
100
AcDbEntity
  8
0
100
AcDbPolyline
 62
7
  6
CONTINUOUS
 90
23
 70
0
 10
-9.9992411246
 20
-4.759029795
 10
-10.0036394928
 20
-4.6575835668
 10
-10.0156584438
 20
-4.5544694515
 10
-10.0352979776
 20
-4.4496874491
 10
-10.0629209411
 20
-4.3422341326
 10
-10.0981644875
 20
-4.233112929
 10
-10.1399400755
 20
-4.1253341193
 10
-10.1883435162
 20
-4.0190677722
 10
-10.2432789986
 20
-3.914143819
 10
-10.3033705488
 20
-3.8130623339
 10
-10.3687250158
 20
-3.7158709918
 10
-10.4392355507
 20
-3.622522118
 10
-10.5132056328
 20
-3.535372762
 10
-10.5908573224
 20
-3.4544642474
 10
-10.6719685592
 20
-3.3797552507
 10
-10.7541766417
 20
-3.3134788519
 10
-10.8374107262
 20
-3.255965714
 10
-10.9217416563
 20
-3.2068851741
 10
-11.0050192615
 20
-3.1674783227
 10
-11.0872678709
 20
-3.1379746041
 10
-11.1684631553
 20
-3.118144574
 10
-11.246381956
 20
-3.1085409907
 10
-11.3208868968
 20
-3.1094233281
  0
LINE
  5
2B9
100
AcDbEntity
  8
0
100
AcDbLine
 62
7
  6
CONTINUOUS
 10
-8.6734159098
 20
-5.5245446575
 11
-8.6703370521
 21
-5.5955570173
  0
LINE
  5
2BA
100
AcDbEntity
  8
0
100
AcDbLine
 62
253
  6
CONTINUOUS
 10
-10.1046742487
 20
-4.703451397
 11
-10.1047019373
 21
-4.6958320023
  0
LINE
  5
2BB
100
AcDbEntity
  8
0
100
AcDbLine
 62
253
  6
CONTINUOUS
 10
-10.0396000876
 20
-4.6927484075
 11
-10.0395713334
 21
-4.7006610335
  0
LWPOLYLINE
  5
2BC
100
AcDbEntity
  8
0
100
AcDbPolyline
 62
253
  6
CONTINUOUS
 90
12
 70
0
 10
-10.0395713334
 20
-4.7006610335
 10
-10.0413030934
 20
-4.7609066535
 10
-10.0464909973
 20
-4.8188958783
 10
-10.0551129485
 20
-4.8743817163
 10
-10.0671322239
 20
-4.9271278385
 10
-10.08249763
 20
-4.9769095852
 10
-10.1011437215
 20
-5.0235149225
 10
-10.1229910798
 20
-5.0667453458
 10
-10.1479466511
 20
-5.1064167254
 10
-10.175904143
 20
-5.1423600902
 10
-10.206744477
 20
-5.1744223477
 10
-10.240336296
 20
-5.2024669363
  0
LWPOLYLINE
  5
2BD
100
AcDbEntity
  8
0
100
AcDbPolyline
 62
7
  6
CONTINUOUS
 90
13
 70
0
 10
-8.6564903114
 20
-5.5351857588
 10
-8.6550262063
 20
-5.4876201404
 10
-8.650641024
 20
-5.4419769688
 10
-8.6433561286
 20
-5.3984786129
 10
-8.6332070115
 20
-5.3573369923
 10
-8.6202431181
 20
-5.318752545
 10
-8.6045276072
 20
-5.2829132503
 10
-8.5861370432
 20
-5.2499937138
 10
-8.565161023
 20
-5.2201543162
 10
-8.5417017398
 20
-5.1935404319
 10
-8.5158734847
 20
-5.1702817212
 10
-8.4878020906
 20
-5.1504914981
 10
-8.4830843402
 20
-5.1476375518
  0
LINE
  5
2BE
100
AcDbEntity
  8
0
100
AcDbLine
 62
7
  6
CONTINUOUS
 10
-8.6703705139
 20
-5.4568745825
 11
-8.6734159098
 21
-5.5245446575
  0
LWPOLYLINE
  5
2BF
100
AcDbEntity
  8
0
100
AcDbPolyline
 62
7
  6
CONTINUOUS
 90
6
 70
0
 10
-11.6158530848
 20
-3.4501452061
 10
-11.6078120128
 20
-3.4241926457
 10
-11.5882657638
 20
-3.3754701825
 10
-11.565303469
 20
-3.3303479213
 10
-11.5389916846
 20
-3.2887782394
 10
-11.5097442132
 20
-3.2513256517
  0
LWPOLYLINE
  5
2C0
100
AcDbEntity
  8
0
100
AcDbPolyline
 62
7
  6
CONTINUOUS
 90
8
 70
0
 10
-11.6338639015
 20
-3.493422338
 10
-11.6136375117
 20
-3.4448215359
 10
-11.5900720939
 20
-3.3999268273
 10
-11.5632796122
 20
-3.3588215476
 10
-11.5334539645
 20
-3.3216908939
 10
-11.5007967043
 20
-3.2886640881
 10
-11.4654965824
 20
-3.2598189839
 10
-11.4277719159
 20
-3.2352320785
  0
LINE
  5
2C1
100
AcDbEntity
  8
0
100
AcDbLine
 62
253
  6
CONTINUOUS
 10
-0.0053993509
 20
11.5830628956
 11
0.082922304
 21
11.652040851
  0
LWPOLYLINE
  5
2C2
100
AcDbEntity
  8
0
100
AcDbPolyline
 62
253
  6
CONTINUOUS
 90
9
 70
0
 10
5.9131911567
 20
14.7801370317
 10
5.8295395067
 20
14.7308954694
 10
5.7458494327
 20
14.6816884464
 10
5.6621209457
 20
14.6325160061
 10
5.5783266632
 20
14.5834002296
 10
5.4944939783
 20
14.5343190771
 10
5.4107050619
 20
14.485206399
 10
5.3269873017
 20
14.4360401353
 10
5.2665747686
 20
14.4005193583
  0
LINE
  5
2C3
100
AcDbEntity
  8
0
100
AcDbLine
 62
253
  6
CONTINUOUS
 10
5.7517412565
 20
13.9686513685
 11
6.1875922361
 21
14.2240251354
  0
LWPOLYLINE
  5
2C4
100
AcDbEntity
  8
0
100
AcDbPolyline
 62
253
  6
CONTINUOUS
 90
11
 70
0
 10
13.8863531255
 20
-5.0053999992
 10
13.9046376563
 20
-5.000442557
 10
13.9227218579
 20
-4.9973285133
 10
13.9404075961
 20
-4.9960919864
 10
13.9575011022
 20
-4.9967465239
 10
13.9738150962
 20
-4.9992849545
 10
13.9891708385
 20
-5.0036794666
 10
14.0034000885
 20
-5.0098819131
 10
14.0163469474
 20
-5.0178243387
 10
14.0278695668
 20
-5.0274197244
 10
14.0306284571
 20
-5.0301854675
  0
LINE
  5
2C5
100
AcDbEntity
  8
0
100
AcDbLine
 62
7
  6
CONTINUOUS
 10
20.1717926159
 20
-7.0611209243
 11
17.9442420105
 21
-7.2648286247
  0
LINE
  5
2C6
100
AcDbEntity
  8
0
100
AcDbLine
 62
7
  6
CONTINUOUS
 10
20.1353649439
 20
-6.662783097
 11
17.9078143385
 21
-6.8664907973
  0
LWPOLYLINE
  5
2C7
100
AcDbEntity
  8
0
100
AcDbPolyline
 62
7
  6
CONTINUOUS
 90
17
 70
0
 10
20.1717926159
 20
-7.0611209243
 10
20.2023140498
 20
-7.0592850483
 10
20.2325176481
 20
-7.0593766014
 10
20.2621478005
 20
-7.0613804592
 10
20.2909046318
 20
-7.0652458322
 10
20.3186109241
 20
-7.0709077363
 10
20.3451814832
 20
-7.0783175413
 10
20.3703041572
 20
-7.0873503153
 10
20.3938592565
 20
-7.097910935
 10
20.4159615005
 20
-7.1100412114
 10
20.4363504416
 20
-7.1236198291
 10
20.4548286576
 20
-7.1385205958
 10
20.4714561112
 20
-7.1548500015
 10
20.486046373
 20
-7.1725701441
 10
20.4983236151
 20
-7.1915007073
 10
20.5081668367
 20
-7.2116388736
 10
20.5154302303
 20
-7.2329938572
  0
LWPOLYLINE
  5
2C8
100
AcDbEntity
  8
0
100
AcDbPolyline
 62
253
  6
CONTINUOUS
 90
4
 70
0
 10
8.2407377794
 20
-13.5367040452
 10
8.2215335072
 20
-13.5284334942
 10
8.2006471832
 20
-13.521116806
 10
8.1783029114
 20
-13.5148474453
  0
LWPOLYLINE
  5
2C9
100
AcDbEntity
  8
0
100
AcDbPolyline
 62
253
  6
CONTINUOUS
 90
13
 70
0
 10
10.7470645712
 20
-15.8185066238
 10
10.7702125892
 20
-15.8303139928
 10
10.7957056413
 20
-15.8403831241
 10
10.8231545941
 20
-15.8485603196
 10
10.8521404584
 20
-15.8547207599
 10
10.8822207853
 20
-15.8587704104
 10
10.9129364197
 20
-15.860647456
 10
10.943818509
 20
-15.8603232448
 10
10.9743956596
 20
-15.8578027257
 10
11.0042011329
 20
-15.8531243727
 10
11.032779969
 20
-15.8463595975
 10
11.0596959322
 20
-15.8376116598
 10
11.084538169
 20
-15.8270140906
  0
LWPOLYLINE
  5
2CA
100
AcDbEntity
  8
0
100
AcDbPolyline
 62
7
  6
CONTINUOUS
 90
23
 70
0
 10
-8.6703370521
 20
-5.5955570173
 10
-8.6619237864
 20
-5.667736898
 10
-8.6481761128
 20
-5.7410842997
 10
-8.6288400383
 20
-5.8163016212
 10
-8.6041695558
 20
-5.8926864637
 10
-8.5749266442
 20
-5.9681316306
 10
-8.5410442357
 20
-6.0425180735
 10
-8.502589398
 20
-6.1159648408
 10
-8.4605253129
 20
-6.1867218803
 10
-8.414777186
 20
-6.2547558198
 10
-8.3654198116
 20
-6.3201000315
 10
-8.3136407541
 20
-6.3811045806
 10
-8.2592845714
 20
-6.4377405409
 10
-8.2025067056
 20
-6.4900368386
 10
-8.1449610479
 20
-6.5364303178
 10
-8.0866971887
 20
-6.5766895142
 10
-8.0276655376
 20
-6.6110458922
 10
-7.969371214
 20
-6.6386306882
 10
-7.9117971874
 20
-6.6592832912
 10
-7.8549604883
 20
-6.6731643123
 10
-7.8004173278
 20
-6.6798868206
 10
-7.7482638693
 20
-6.6792691844
 10
-7.6984039492
 20
-6.6714930354
  0
LWPOLYLINE
  5
2CB
100
AcDbEntity
  8
0
100
AcDbPolyline
 62
7
  6
CONTINUOUS
 90
24
 70
0
 10
-7.4359790428
 20
-6.2390251958
 10
-7.4390579005
 20
-6.1680128361
 10
-7.4474711662
 20
-6.0958329554
 10
-7.4612188399
 20
-6.0224855537
 10
-7.4805549144
 20
-5.9472682321
 10
-7.5052253968
 20
-5.8708833896
 10
-7.5344683084
 20
-5.7954382228
 10
-7.5683507169
 20
-5.7210517799
 10
-7.6068055546
 20
-5.6476050126
 10
-7.6488696397
 20
-5.5768479731
 10
-7.6946177666
 20
-5.5088140336
 10
-7.7439751411
 20
-5.4434698219
 10
-7.7957541985
 20
-5.3824652728
 10
-7.8501103812
 20
-5.3258293125
 10
-7.906888247
 20
-5.2735330148
 10
-7.9644339048
 20
-5.2271395356
 10
-8.0226977639
 20
-5.1868803391
 10
-8.081729415
 20
-5.1525239612
 10
-8.1400237386
 20
-5.1249391652
 10
-8.1975977652
 20
-5.1042865622
 10
-8.2544344643
 20
-5.0904055411
 10
-8.3089776248
 20
-5.0836830328
 10
-8.3611310834
 20
-5.084300669
 10
-8.4109910034
 20
-5.0920768179
  0
LWPOLYLINE
  5
2CC
100
AcDbEntity
  8
0
100
AcDbPolyline
 62
7
  6
CONTINUOUS
 90
13
 70
0
 10
-7.4544087834
 20
-6.2292525674
 10
-7.4558728885
 20
-6.2768181858
 10
-7.4602580708
 20
-6.3224613574
 10
-7.4675429661
 20
-6.3659597133
 10
-7.4776920832
 20
-6.4071013339
 10
-7.4906559766
 20
-6.4456857812
 10
-7.5063714876
 20
-6.4815250759
 10
-7.5247620516
 20
-6.5144446124
 10
-7.5457380717
 20
-6.54428401
 10
-7.569197355
 20
-6.5708978943
 10
-7.59502561
 20
-6.594156605
 10
-7.6230970042
 20
-6.6139468281
 10
-7.6330594509
 20
-6.6198289964
  0
LINE
  5
2CD
100
AcDbEntity
  8
0
100
AcDbLine
 62
253
  6
CONTINUOUS
 10
-2.768279935
 20
7.6370564889
 11
-0.0803485984
 21
11.5024280703
  0
LWPOLYLINE
  5
2CE
100
AcDbEntity
  8
0
100
AcDbPolyline
 62
253
  6
CONTINUOUS
 90
10
 70
0
 10
-0.0803485984
 20
11.5024280703
 10
-0.0728715095
 20
11.5128392883
 10
-0.0651312908
 20
11.5229474395
 10
-0.0571486889
 20
11.5327254301
 10
-0.0489451002
 20
11.5421470517
 10
-0.0405425135
 20
11.5511870506
 10
-0.0319634506
 20
11.5598211963
 10
-0.0232309068
 20
11.5680263462
 10
-0.0143682886
 20
11.5757805073
 10
-0.0053993509
 20
11.5830628956
  0
LWPOLYLINE
  5
2CF
100
AcDbEntity
  8
0
100
AcDbPolyline
 62
253
  6
CONTINUOUS
 90
10
 70
0
 10
-15.6840911368
 20
-6.6637016894
 10
-15.7055421339
 20
-6.6875494541
 10
-15.7254770359
 20
-6.7137237641
 10
-15.7435394461
 20
-6.7417566739
 10
-15.759406444
 20
-6.7711470103
 10
-15.7727943588
 20
-6.8013693317
 10
-15.783463841
 20
-6.8318833225
 10
-15.7912241411
 20
-6.8621434523
 10
-15.7959365202
 20
-6.8916087295
 10
-15.7975167303
 20
-6.9197523728
  0
LWPOLYLINE
  5
2D0
100
AcDbEntity
  8
0
100
AcDbPolyline
 62
7
  6
CONTINUOUS
 90
8
 70
0
 10
-13.2271653164
 20
-3.3396421663
 10
-13.1926988335
 20
-3.3043441761
 10
-13.1629820797
 20
-3.2624370234
 10
-13.1379153243
 20
-3.2141708673
 10
-13.1182881132
 20
-3.1609377297
 10
-13.1043636285
 20
-3.1032016177
 10
-13.0958786882
 20
-3.0404985243
 10
-13.0928332923
 20
-2.9728284492
  0
LINE
  5
2D1
100
AcDbEntity
  8
0
100
AcDbLine
 62
253
  6
CONTINUOUS
 10
-15.5214811829
 20
-6.4977385239
 11
-15.6840911368
 21
-6.6637016894
  0
LWPOLYLINE
  5
2D2
100
AcDbEntity
  8
0
100
AcDbPolyline
 62
7
  6
CONTINUOUS
 90
3
 70
0
 10
-14.1543845973
 20
-1.8610958017
 10
-14.1959381352
 20
-1.8915341938
 10
-14.2304046181
 20
-1.926832184
  0
LWPOLYLINE
  5
2D3
100
AcDbEntity
  8
0
100
AcDbPolyline
 62
7
  6
CONTINUOUS
 90
19
 70
0
 10
20.1353649439
 20
-6.662783097
 10
20.1950228338
 20
-6.6593396014
 10
20.254241083
 20
-6.6599272178
 10
20.3127211751
 20
-6.6645169541
 10
20.3702266226
 20
-6.6730814512
 10
20.426407657
 20
-6.6855705567
 10
20.4808134216
 20
-6.7018708406
 10
20.5331777739
 20
-6.7218790447
 10
20.5832367675
 20
-6.7454786121
 10
20.6305810436
 20
-6.7724444006
 10
20.6749423679
 20
-6.8025640999
 10
20.7161572194
 20
-6.8356675485
 10
20.7540056191
 20
-6.8715205768
 10
20.7882670324
 20
-6.909835648
 10
20.818831401
 20
-6.9504002928
 10
20.8456348935
 20
-6.9930687682
 10
20.8685174612
 20
-7.0375339435
 10
20.88738388
 20
-7.0835362419
 10
20.9009538705
 20
-7.126348111
  0
LWPOLYLINE
  5
2D4
100
AcDbEntity
  8
0
100
AcDbPolyline
 62
7
  6
CONTINUOUS
 90
30
 70
0
 10
-10.546006986
 20
-5.28373597
 10
-10.5969195539
 20
-5.2777065257
 10
-10.6490707562
 20
-5.2671125135
 10
-10.702069346
 20
-5.2520108589
 10
-10.7557070699
 20
-5.2324610404
 10
-10.8097969748
 20
-5.208527254
 10
-10.8639563037
 20
-5.1803901501
 10
-10.9179310881
 20
-5.1482149001
 10
-10.9715601022
 20
-5.1121270435
 10
-11.0245850461
 20
-5.0723268576
 10
-11.0767804643
 20
-5.0290151293
 10
-11.1279617457
 20
-4.9823739777
 10
-11.1779268911
 20
-4.9326118567
 10
-11.2264728174
 20
-4.8799542202
 10
-11.2734138002
 20
-4.8246238392
 10
-11.3185748819
 20
-4.766843942
 10
-11.3617741314
 20
-4.706860954
 10
-11.4028388709
 20
-4.6449265693
 10
-11.4416137157
 20
-4.5812830207
 10
-11.4779396471
 20
-4.5161949824
 10
-11.5116669038
 20
-4.4499321193
 10
-11.5426635669
 20
-4.3827496317
 10
-11.5707983753
 20
-4.3149213906
 10
-11.5959484877
 20
-4.2467282974
 10
-11.6180074779
 20
-4.1784354885
 10
-11.6368754613
 20
-4.1103159856
 10
-11.6524599663
 20
-4.04265497
 10
-11.6646825201
 20
-3.9757274917
 10
-11.6734761106
 20
-3.9098033007
 10
-11.6787841678
 20
-3.8451527247
  0
LWPOLYLINE
  5
2D5
100
AcDbEntity
  8
0
100
AcDbPolyline
 62
253
  6
CONTINUOUS
 90
20
 70
0
 10
17.9078143385
 20
-12.1735475965
 10
17.910384728
 20
-12.174271823
 10
17.9136360692
 20
-12.1776020942
 10
17.9170549924
 20
-12.1835709531
 10
17.9205952625
 20
-12.1920976812
 10
17.9242090034
 20
-12.2030669691
 10
17.9278473455
 20
-12.216330476
 10
17.9314610864
 20
-12.2317088357
 10
17.9350013565
 20
-12.2489940824
 10
17.9384202797
 20
-12.2679524626
 10
17.941671621
 20
-12.2883275969
 10
17.9447114114
 20
-12.3098439464
 10
17.9474985432
 20
-12.3322105395
 10
17.949995325
 20
-12.3551249064
 10
17.9521679922
 20
-12.3782771696
 10
17.9539871633
 20
-12.4013542343
 10
17.955428237
 20
-12.424044023
 10
17.9564717252
 20
-12.4460396951
 10
17.9571035167
 20
-12.4670437969
 10
17.9573150675
 20
-12.486772284
  0
LWPOLYLINE
  5
2D6
100
AcDbEntity
  8
0
100
AcDbPolyline
 62
7
  6
CONTINUOUS
 90
11
 70
0
 10
-10.9232759265
 20
-3.2061591595
 10
-10.9621311181
 20
-3.1910698704
 10
-11.0137078875
 20
-3.1751170531
 10
-11.0646221621
 20
-3.1634539988
 10
-11.1142433052
 20
-3.1562362459
 10
-11.162565867
 20
-3.1535185256
 10
-11.2095952972
 20
-3.1552461066
 10
-11.2547173077
 20
-3.1614103331
 10
-11.297916126
 20
-3.1720838065
 10
-11.3392075246
 20
-3.1871939253
 10
-11.3794447987
 20
-3.2073292765
  0
LINE
  5
2D7
100
AcDbEntity
  8
0
100
AcDbLine
 62
7
  6
CONTINUOUS
 10
8.1644178362
 20
-13.5769790446
 11
8.1555714679
 21
-13.5718712625
  0
LWPOLYLINE
  5
2D8
100
AcDbEntity
  8
0
100
AcDbPolyline
 62
253
  6
CONTINUOUS
 90
3
 70
0
 10
8.164383461
 20
-13.5769591775
 10
8.1636304493
 20
-13.5765147429
 10
8.1566870677
 20
-13.5714822082
  0
LWPOLYLINE
  5
2D9
100
AcDbEntity
  8
0
100
AcDbPolyline
 62
7
  6
CONTINUOUS
 90
3
 70
0
 10
8.1643824415
 20
-13.5769586165
 10
8.1783051855
 20
-13.5856334888
 10
8.1987512072
 20
-13.600607244
  0
LWPOLYLINE
  5
2DA
100
AcDbEntity
  8
0
100
AcDbPolyline
 62
253
  6
CONTINUOUS
 90
8
 70
0
 10
8.4163286787
 20
-13.9980432279
 10
8.4039129453
 20
-13.9899156442
 10
8.3933836547
 20
-13.9809869001
 10
8.3848857203
 20
-13.9714033125
 10
8.3785552557
 20
-13.961367928
 10
8.3744222331
 20
-13.9509939156
 10
8.3725162429
 20
-13.9402879155
 10
8.3723947574
 20
-13.9368804709
  0
LINE
  5
2DB
100
AcDbEntity
  8
0
100
AcDbLine
 62
253
  6
CONTINUOUS
 10
-5.9333790455
 20
-11.9830630423
 11
-5.9333790455
 21
-2.2301521622
  0
LINE
  5
2DC
100
AcDbEntity
  8
0
100
AcDbLine
 62
253
  6
CONTINUOUS
 10
-5.8980217937
 20
-12.8014869146
 11
-5.8980217937
 21
-12.6355966794
  0
LINE
  5
2DD
100
AcDbEntity
  8
0
100
AcDbLine
 62
253
  6
CONTINUOUS
 10
-5.8980217937
 20
-1.5367932746
 11
-5.8980217937
 21
-1.3709030395
  0
LINE
  5
2DE
100
AcDbEntity
  8
0
100
AcDbLine
 62
253
  6
CONTINUOUS
 10
-5.1909150125
 20
-2.0083228078
 11
-5.1909150125
 21
-1.9973877054
  0
LWPOLYLINE
  5
2DF
100
AcDbEntity
  8
0
100
AcDbPolyline
 62
253
  6
CONTINUOUS
 90
19
 70
0
 10
-5.8980217937
 20
-1.3709030395
 10
-5.8876365864
 20
-0.9009560989
 10
-5.8565086968
 20
-0.420271502
 10
-5.8047212469
 20
0.0698671571
 10
-5.7324125273
 20
0.5681510388
 10
-5.6397756271
 20
1.073249553
 10
-5.5270579189
 20
1.583813912
 10
-5.394560398
 20
2.0984807325
 10
-5.2426368785
 20
2.6158756763
 10
-5.0716930488
 20
3.13461712
 10
-4.8821853878
 20
3.6533198446
 10
-4.6746199467
 20
4.1705987347
 10
-4.4495509969
 20
4.6850724768
 10
-4.2075795502
 20
5.1953672482
 10
-3.9493517541
 20
5.7001203854
 10
-3.6755571659
 20
6.1979840232
 10
-3.386926912
 20
6.6876286935
 10
-3.0842317348
 20
7.1677468759
 10
-2.768279935
 20
7.6370564889
  0
LWPOLYLINE
  5
2E0
100
AcDbEntity
  8
0
100
AcDbPolyline
 62
253
  6
CONTINUOUS
 90
13
 70
0
 10
-5.9333771173
 20
-2.2301532797
 10
-5.9325724174
 20
-2.2146312492
 10
-5.9301809499
 20
-2.1984693773
 10
-5.9262541642
 20
-2.1819168714
 10
-5.9208940158
 20
-2.1653022225
 10
-5.9141789622
 20
-2.1487953634
 10
-5.9061000565
 20
-2.1324121767
 10
-5.8966800751
 20
-2.1163183673
 10
-5.886073623
 20
-2.1008835658
 10
-5.8744648084
 20
-2.0864357494
 10
-5.8620401338
 20
-2.0732447279
 10
-5.8489729673
 20
-2.0615301608
 10
-5.8354682789
 20
-2.051514123
  0
LWPOLYLINE
  5
2E1
100
AcDbEntity
  8
0
100
AcDbPolyline
 62
253
  6
CONTINUOUS
 90
10
 70
0
 10
-5.8980217937
 20
-12.6355966794
 10
-5.8964415836
 20
-12.6074530361
 10
-5.8917292045
 20
-12.5779877589
 10
-5.8839689044
 20
-12.5477276291
 10
-5.8732994222
 20
-12.5172136383
 10
-5.8599115074
 20
-12.4869913169
 10
-5.8440445095
 20
-12.4576009805
 10
-5.8259820993
 20
-12.4295680707
 10
-5.8060471972
 20
-12.4033937607
 10
-5.7845962002
 20
-12.379545996
  0
LWPOLYLINE
  5
2E2
100
AcDbEntity
  8
0
100
AcDbPolyline
 62
7
  6
CONTINUOUS
 90
7
 70
0
 10
-10.1419061835
 20
-5.2326236906
 10
-10.0994536781
 20
-5.1727563296
 10
-10.0636440274
 20
-5.103804678
 10
-10.0356051544
 20
-5.0277573385
 10
-10.0157130335
 20
-4.9452771786
 10
-10.0035916902
 20
-4.8557013308
 10
-9.9992411246
 20
-4.759029795
  0
LWPOLYLINE
  5
2E3
100
AcDbEntity
  8
0
100
AcDbPolyline
 62
7
  6
CONTINUOUS
 90
6
 70
0
 10
-8.5735503686
 20
-5.1930289307
 10
-8.6032671224
 20
-5.2349360833
 10
-8.6283338778
 20
-5.2832022394
 10
-8.6479610889
 20
-5.3364353771
 10
-8.6618855736
 20
-5.394171489
 10
-8.6703705139
 20
-5.4568745825
  0
LWPOLYLINE
  5
2E4
100
AcDbEntity
  8
0
100
AcDbPolyline
 62
7
  6
CONTINUOUS
 90
5
 70
0
 10
-10.0728895623
 20
-5.1216069991
 10
-10.0990903958
 20
-5.1551582419
 10
-10.1312338373
 20
-5.1883892877
 10
-10.1663129658
 20
-5.2175032391
 10
-10.2043891792
 20
-5.2424541895
  0
LWPOLYLINE
  5
2E5
100
AcDbEntity
  8
0
100
AcDbPolyline
 62
7
  6
CONTINUOUS
 90
3
 70
0
 10
-11.5097442132
 20
-3.2513256517
 10
-11.4776007717
 20
-3.2180946059
 10
-11.4425216432
 20
-3.1889806544
  0
LWPOLYLINE
  5
2E6
100
AcDbEntity
  8
0
100
AcDbPolyline
 62
7
  6
CONTINUOUS
 90
9
 70
0
 10
-11.515742989
 20
-3.1708402986
 10
-11.5751051859
 20
-3.2143237159
 10
-11.6243430187
 20
-3.2647494162
 10
-11.666795524
 20
-3.3246167772
 10
-11.7026051747
 20
-3.3935684287
 10
-11.7306440477
 20
-3.4696157683
 10
-11.7505361686
 20
-3.5520959281
 10
-11.7626575119
 20
-3.641671776
 10
-11.7670080775
 20
-3.7383433117
  0
LINE
  5
2E7
100
AcDbEntity
  8
0
100
AcDbLine
 62
7
  6
CONTINUOUS
 10
-14.1399385897
 20
-1.8814408051
 11
-14.0382397092
 21
-1.8212627932
  0
LWPOLYLINE
  5
2E8
100
AcDbEntity
  8
0
100
AcDbPolyline
 62
7
  6
CONTINUOUS
 90
35
 70
0
 10
-14.1399385897
 20
-1.8814408051
 10
-14.1144785677
 20
-1.8680694321
 10
-14.0823414404
 20
-1.8554880644
 10
-14.0484015268
 20
-1.8466119436
 10
-14.0128241789
 20
-1.8414843133
 10
-13.9757827259
 20
-1.8401301548
 10
-13.93745763
 20
-1.8425560655
 10
-13.8980356073
 20
-1.8487502264
 10
-13.8577087178
 20
-1.8586824603
 10
-13.8166734302
 20
-1.8723043783
 10
-13.7751296643
 20
-1.8895496159
 10
-13.733279817
 20
-1.9103341559
 10
-13.6913277767
 20
-1.9345567382
 10
-13.6494779294
 20
-1.9620993528
 10
-13.6079341635
 20
-1.9928278148
 10
-13.5668988759
 20
-2.0265924183
 10
-13.5265719865
 20
-2.0632286655
 10
-13.4871499638
 20
-2.1025580683
 10
-13.4488248679
 20
-2.1443890177
 10
-13.4117834149
 20
-2.1885177177
 10
-13.3762060669
 20
-2.2347291776
 10
-13.3422661534
 20
-2.2827982598
 10
-13.310129026
 20
-2.3324907766
 10
-13.2799512537
 20
-2.3835646311
 10
-13.2518798595
 20
-2.4357709965
 10
-13.2260516045
 20
-2.4888555287
 10
-13.2025923212
 20
-2.5425596052
 10
-13.1816163011
 20
-2.5966215852
 10
-13.163225737
 20
-2.650778084
 10
-13.1475102261
 20
-2.7047652568
 10
-13.1345463327
 20
-2.7583200833
 10
-13.1243972156
 20
-2.8111816499
 10
-13.1171123203
 20
-2.8630924203
 10
-13.112727138
 20
-2.9137994906
 10
-13.1112630329
 20
-2.9630558208
  0
LWPOLYLINE
  5
2E9
100
AcDbEntity
  8
0
100
AcDbPolyline
 62
7
  6
CONTINUOUS
 90
33
 70
0
 10
-7.6854119039
 20
-6.6427535152
 10
-7.7193518174
 20
-6.6516296359
 10
-7.7549291654
 20
-6.6567572662
 10
-7.7919706184
 20
-6.6581114247
 10
-7.8302957143
 20
-6.6556855141
 10
-7.869717737
 20
-6.6494913532
 10
-7.9100446264
 20
-6.6395591193
 10
-7.951079914
 20
-6.6259372012
 10
-7.99262368
 20
-6.6086919637
 10
-8.0344735272
 20
-6.5879074236
 10
-8.0764255675
 20
-6.5636848413
 10
-8.1182754148
 20
-6.5361422267
 10
-8.1598191807
 20
-6.5054137647
 10
-8.2008544683
 20
-6.4716491613
 10
-8.2411813578
 20
-6.4350129141
 10
-8.2806033805
 20
-6.3956835113
 10
-8.3189284764
 20
-6.3538525619
 10
-8.3559699294
 20
-6.3097238619
 10
-8.3915472773
 20
-6.263512402
 10
-8.4254871909
 20
-6.2154433198
 10
-8.4576243182
 20
-6.165750803
 10
-8.4878020906
 20
-6.1146769485
 10
-8.5158734847
 20
-6.0624705831
 10
-8.5417017398
 20
-6.0093860509
 10
-8.565161023
 20
-5.9556819743
 10
-8.5861370432
 20
-5.9016199944
 10
-8.6045276072
 20
-5.8474634955
 10
-8.6202431181
 20
-5.7934763228
 10
-8.6332070115
 20
-5.7399214963
 10
-8.6433561286
 20
-5.6870599297
 10
-8.650641024
 20
-5.6351491592
 10
-8.6550262063
 20
-5.584442089
 10
-8.6564903114
 20
-5.5351857588
  0
LINE
  5
2EA
100
AcDbEntity
  8
0
100
AcDbLine
 62
7
  6
CONTINUOUS
 10
8.1800223987
 20
-3.0360179269
 11
8.3723946959
 21
-2.9913147766
  0
LINE
  5
2EB
100
AcDbEntity
  8
0
100
AcDbLine
 62
253
  6
CONTINUOUS
 10
8.3723946959
 20
-2.8862172725
 11
8.2668296774
 21
-2.9107482936
  0
LWPOLYLINE
  5
2EC
100
AcDbEntity
  8
0
100
AcDbPolyline
 62
253
  6
CONTINUOUS
 90
3
 70
0
 10
8.3431351558
 20
-3.3148135088
 10
8.3242185668
 20
-3.3183999284
 10
8.3038068528
 20
-3.317980467
  0
LINE
  5
2ED
100
AcDbEntity
  8
0
100
AcDbLine
 62
253
  6
CONTINUOUS
 10
3.4327183032
 20
-3.9642493069
 11
8.0278708135
 21
-3.5241292327
  0
LINE
  5
2EE
100
AcDbEntity
  8
0
100
AcDbLine
 62
253
  6
CONTINUOUS
 10
3.4125844785
 20
-3.763030198
 11
8.0058131554
 21
-3.323094375
  0
LWPOLYLINE
  5
2EF
100
AcDbEntity
  8
0
100
AcDbPolyline
 62
253
  6
CONTINUOUS
 90
10
 70
0
 10
8.0058131554
 20
-3.323094375
 10
8.017440622
 20
-3.3220925867
 10
8.0290870255
 20
-3.3213101348
 10
8.0407523662
 20
-3.3207470195
 10
8.052446763
 20
-3.3204031807
 10
8.0641600969
 20
-3.3202786784
 10
8.0758620104
 20
-3.3203736926
 10
8.0875423844
 20
-3.3206882833
 10
8.0992113379
 20
-3.3212223906
 10
8.1108688711
 20
-3.3219760143
  0
LINE
  5
2F0
100
AcDbEntity
  8
0
100
AcDbLine
 62
253
  6
CONTINUOUS
 10
2.8535603142
 20
-3.807637961
 11
3.4107424335
 21
-3.7632057797
  0
LWPOLYLINE
  5
2F1
100
AcDbEntity
  8
0
100
AcDbPolyline
 62
253
  6
CONTINUOUS
 90
10
 70
0
 10
8.0278708135
 20
-3.5241277924
 10
8.0535394883
 20
-3.5224085828
 10
8.0793337095
 20
-3.5224920527
 10
8.1049788132
 20
-3.5243792563
 10
8.1302043115
 20
-3.528062808
 10
8.1547364886
 20
-3.5335035523
 10
8.1783024419
 20
-3.5406288574
 10
8.2006467979
 20
-3.5493653754
 10
8.2215332866
 20
-3.5596416977
 10
8.2407377794
 20
-3.5713643734
  0
LWPOLYLINE
  5
2F2
100
AcDbEntity
  8
0
100
AcDbPolyline
 62
253
  6
CONTINUOUS
 90
21
 70
0
 10
14.1017420103
 20
-10.3866087567
 10
14.0903797726
 20
-10.3823315479
 10
14.0776314183
 20
-10.3803642594
 10
14.0639958568
 20
-10.380898681
 10
14.0496574855
 20
-10.3839275856
 10
14.0348102064
 20
-10.3894100123
 10
14.0196548034
 20
-10.3972718208
 10
14.0043962274
 20
-10.4074066937
 10
13.9892408244
 20
-10.4196775741
 10
13.9743935453
 20
-10.4339185194
 10
13.9600551741
 20
-10.4499369452
 10
13.9464196125
 20
-10.46751623
 10
13.9336712582
 20
-10.4864186439
 10
13.9219825109
 20
-10.5063885643
 10
13.9115114407
 20
-10.5271559322
 10
13.902399651
 20
-10.5484399046
 10
13.894770363
 20
-10.5699526523
 10
13.8887267497
 20
-10.5914032523
 10
13.8843505408
 20
-10.6125016221
 10
13.8817009169
 20
-10.6329624423
 10
13.8808137096
 20
-10.6525090155
  0
LWPOLYLINE
  5
2F3
100
AcDbEntity
  8
0
100
AcDbPolyline
 62
7
  6
CONTINUOUS
 90
13
 70
0
 10
17.3691279205
 20
-12.474116364
 10
17.4120823948
 20
-12.4941428905
 10
17.4565596549
 20
-12.5119512225
 10
17.5023604699
 20
-12.5275625652
 10
17.5493123763
 20
-12.5410018586
 10
17.5972366024
 20
-12.5522859205
 10
17.6459141871
 20
-12.5614212168
 10
17.6951187098
 20
-12.5684180691
 10
17.7447154179
 20
-12.5733002624
 10
17.7945955299
 20
-12.5760838866
 10
17.8446026503
 20
-12.5767735716
 10
17.8945423262
 20
-12.5753725653
 10
17.9442420105
 20
-12.5718854239
  0
LWPOLYLINE
  5
2F4
100
AcDbEntity
  8
0
100
AcDbPolyline
 62
7
  6
CONTINUOUS
 90
17
 70
0
 10
-5.433453287
 20
-1.8775536007
 10
-5.0016308828
 20
-2.0909098279
 10
-4.5519377677
 20
-2.2907945052
 10
-4.0855551653
 20
-2.4767427549
 10
-3.6037171835
 20
-2.6483153896
 10
-3.1077256493
 20
-2.8050979083
 10
-2.5989152502
 20
-2.946715711
 10
-2.0785929395
 20
-3.0728474634
 10
-1.54808178
 20
-3.1832069213
 10
-1.0087734271
 20
-3.2775335983
 10
-0.4620686611
 20
-3.3556081363
 10
0.0906581482
 20
-3.4172541957
 10
0.6479680568
 20
-3.4623261755
 10
1.2084141955
 20
-3.4907193325
 10
1.770591323
 20
-3.5023699195
 10
2.3330564517
 20
-3.4972500852
 10
2.8943334374
 20
-3.4753729442
  0
LWPOLYLINE
  5
2F5
100
AcDbEntity
  8
0
100
AcDbPolyline
 62
253
  6
CONTINUOUS
 90
17
 70
0
 10
-5.4858305911
 20
-1.762794732
 10
-5.053969667
 20
-1.9762001103
 10
-4.6035922393
 20
-2.1764395436
 10
-4.1359009714
 20
-2.3629783231
 10
-3.6521447606
 20
-2.535318326
 10
-3.1536154032
 20
-2.6929993449
 10
-2.6416441449
 20
-2.835600317
 10
-2.117598126
 20
-2.9627404483
 10
-1.5828767303
 20
-3.0740802308
 10
-1.0389078489
 20
-3.1693223488
 10
-0.4871440666
 20
-3.2482124728
 10
0.0709412165
 20
-3.3105399391
 10
0.6338577199
 20
-3.3561383117
 10
1.2001022618
 20
-3.3848858273
 10
1.7681627738
 20
-3.3967057199
 10
2.3365223378
 20
-3.3915664265
 10
2.9036632374
 20
-3.3694816706
  0
LWPOLYLINE
  5
2F6
100
AcDbEntity
  8
0
100
AcDbPolyline
 62
253
  6
CONTINUOUS
 90
19
 70
0
 10
-5.9333790455
 20
-2.2301520957
 10
-5.5212108195
 20
-2.4559395253
 10
-5.0893710774
 20
-2.6687438774
 10
-4.639012375
 20
-2.8679950228
 10
-4.1713363782
 20
-3.0531534211
 10
-3.6875917992
 20
-3.2237251301
 10
-3.1890711922
 20
-3.3792632566
 10
-2.6771054922
 20
-3.5193434414
 10
-2.1530615574
 20
-3.6435876253
 10
-1.6183398425
 20
-3.7516788543
 10
-1.0743685328
 20
-3.8433167175
 10
-0.5225997577
 20
-3.9182496009
 10
0.0354929989
 20
-3.9762982259
 10
0.5984193603
 20
-4.01729337
 10
1.1646761988
 20
-4.0411156629
 10
1.7327515335
 20
-4.0477274894
 10
2.3011283928
 20
-4.0371101919
 10
2.8682888634
 20
-4.0092641719
 10
3.4327183032
 20
-3.9642482058
  0
LWPOLYLINE
  5
2F7
100
AcDbEntity
  8
0
100
AcDbPolyline
 62
253
  6
CONTINUOUS
 90
18
 70
0
 10
-5.8354686266
 20
-2.0515142883
 10
-5.4286061073
 20
-2.2744002428
 10
-5.0023224326
 20
-2.4844675779
 10
-4.5577508911
 20
-2.681156058
 10
-4.0960766342
 20
-2.8639390754
 10
-3.6185312612
 20
-3.0323271725
 10
-3.1263924515
 20
-3.1858682464
 10
-2.6209720568
 20
-3.3241517263
 10
-2.1036195319
 20
-3.4468071453
 10
-1.5757229557
 20
-3.5535046454
 10
-1.0386911472
 20
-3.6439591078
 10
-0.4939579432
 20
-3.7179286623
 10
0.0570138654
 20
-3.7752147449
 10
0.6127525497
 20
-3.8156648474
 10
1.1717752455
 20
-3.8391715251
 10
1.7325829059
 20
-3.8456725305
 10
2.293677028
 20
-3.835151547
 10
2.8535603142
 20
-3.807637961
  0
LINE
  5
2F8
100
AcDbEntity
  8
0
100
AcDbLine
 62
7
  6
CONTINUOUS
 10
-5.1194582667
 20
-2.0474648292
 11
-5.3945900722
 21
-1.8967552651
  0
LINE
  5
2F9
100
AcDbEntity
  8
0
100
AcDbLine
 62
7
  6
CONTINUOUS
 10
-5.8462511384
 20
-1.6512274899
 11
-5.433453287
 21
-1.8775536007
  0
LINE
  5
2FA
100
AcDbEntity
  8
0
100
AcDbLine
 62
253
  6
CONTINUOUS
 10
-5.8980217937
 20
-1.5367932746
 11
-5.4858305911
 21
-1.762794732
  0
LINE
  5
2FB
100
AcDbEntity
  8
0
100
AcDbLine
 62
253
  6
CONTINUOUS
 10
-5.9333790455
 20
-2.2301521622
 11
-15.8328701858
 21
3.4856899524
  0
LINE
  5
2FC
100
AcDbEntity
  8
0
100
AcDbLine
 62
253
  6
CONTINUOUS
 10
-15.7349632232
 20
3.6643301881
 11
-5.8354682866
 21
-2.0515141185
  0
LINE
  5
2FD
100
AcDbEntity
  8
0
100
AcDbLine
 62
7
  6
CONTINUOUS
 10
-15.745746075
 20
4.0646168167
 11
-5.8462511384
 21
-1.6512274899
  0
LINE
  5
2FE
100
AcDbEntity
  8
0
100
AcDbLine
 62
253
  6
CONTINUOUS
 10
-15.7975167303
 20
4.179051032
 11
-5.8980217937
 21
-1.5367932746
  0
LINE
  5
2FF
100
AcDbEntity
  8
0
100
AcDbLine
 62
253
  6
CONTINUOUS
 10
-5.8980217937
 20
-1.3709030395
 11
-15.7975167303
 21
4.3449412671
  0
LWPOLYLINE
  5
300
100
AcDbEntity
  8
0
100
AcDbPolyline
 62
253
  6
CONTINUOUS
 90
15
 70
0
 10
-15.7975167303
 20
4.3449412671
 10
-16.1889375184
 20
4.5829353015
 10
-16.5585426631
 20
4.8322863866
 10
-16.9053451911
 20
5.0923286688
 10
-17.2284190197
 20
5.3623677454
 10
-17.5269014301
 20
5.6416825186
 10
-17.7999953712
 20
5.9295271215
 10
-18.0469715876
 20
6.2251329095
 10
-18.2671705677
 20
6.527710513
 10
-18.4600043038
 20
6.8364519453
 10
-18.6249578635
 20
7.1505327599
 10
-18.7615907635
 20
7.4691142525
 10
-18.8695381469
 20
7.7913457006
 10
-18.9485117569
 20
8.1163666346
 10
-18.9983007065
 20
8.4433091364
  0
LWPOLYLINE
  5
301
100
AcDbEntity
  8
0
100
AcDbPolyline
 62
7
  6
CONTINUOUS
 90
16
 70
0
 10
-15.745746075
 20
4.0646168167
 10
-16.1502678412
 20
4.3109878061
 10
-16.5318415468
 20
4.5696946462
 10
-16.889452627
 20
4.8400726478
 10
-17.2223041653
 20
5.1215785887
 10
-17.5292925961
 20
5.4133535151
 10
-17.809157361
 20
5.7141832423
 10
-18.0612523908
 20
6.023283202
 10
-18.2849617761
 20
6.339811651
 10
-18.479436803
 20
6.6623562496
 10
-18.6442597297
 20
6.9898018837
 10
-18.7793060662
 20
7.3214136533
 10
-18.8844006155
 20
7.6562515137
 10
-18.9594350833
 20
7.99332132
 10
-19.0043900281
 20
8.3316030855
 10
-19.0193421372
 20
8.6700715586
  0
LWPOLYLINE
  5
302
100
AcDbEntity
  8
0
100
AcDbPolyline
 62
253
  6
CONTINUOUS
 90
7
 70
0
 10
-5.8462511384
 20
-1.6512274899
 10
-5.8599115074
 20
-1.6413898338
 10
-5.8732994222
 20
-1.6266275408
 10
-5.8839689044
 20
-1.6084344006
 10
-5.8917292045
 20
-1.5871356709
 10
-5.8964415836
 20
-1.563112131
 10
-5.8980217937
 20
-1.5367932746
  0
LINE
  5
303
100
AcDbEntity
  8
0
100
AcDbLine
 62
7
  6
CONTINUOUS
 10
8.1987512072
 20
-13.600607244
 11
8.2201880041
 21
-13.6191090524
  0
LINE
  5
304
100
AcDbEntity
  8
0
100
AcDbLine
 62
253
  6
CONTINUOUS
 10
8.1970341527
 20
-13.5534649438
 11
8.2280447894
 21
-13.5819341095
  0
LWPOLYLINE
  5
305
100
AcDbEntity
  8
0
100
AcDbPolyline
 62
253
  6
CONTINUOUS
 90
11
 70
0
 10
-10.2656521811
 20
-5.1596557556
 10
-10.2359547482
 20
-5.1287816821
 10
-10.2090333233
 20
-5.09417033
 10
-10.1850025718
 20
-5.0559691183
 10
-10.1639648472
 20
-5.0143407561
 10
-10.1460097547
 20
-4.9694625498
 10
-10.1312137698
 20
-4.9215256476
 10
-10.1196399126
 20
-4.8707342255
 10
-10.1113374793
 20
-4.8173046179
 10
-10.106341832
 20
-4.7614643956
 10
-10.1046742487
 20
-4.703451397
  0
LINE
  5
306
100
AcDbEntity
  8
0
100
AcDbLine
 62
7
  6
CONTINUOUS
 10
-10.1911440162
 20
-5.2830493909
 11
-10.1419061835
 21
-5.2326236906
  0
LINE
  5
307
100
AcDbEntity
  8
0
100
AcDbLine
 62
7
  6
CONTINUOUS
 10
-11.4425216432
 20
-3.1889806544
 11
-11.4044454298
 21
-3.1640297041
  0
LWPOLYLINE
  5
308
100
AcDbEntity
  8
0
100
AcDbPolyline
 62
7
  6
CONTINUOUS
 90
3
 70
0
 10
-13.2795029032
 20
-3.3763383668
 10
-13.2662817975
 20
-3.3685811531
 10
-13.2271653164
 20
-3.3396421663
  0
LINE
  5
309
100
AcDbEntity
  8
0
100
AcDbLine
 62
7
  6
CONTINUOUS
 10
-11.4044462967
 20
-3.1640282014
 11
-11.3096433612
 21
-3.1092901746
  0
LINE
  5
30A
100
AcDbEntity
  8
0
100
AcDbLine
 62
7
  6
CONTINUOUS
 10
-11.4277719159
 20
-3.2352320785
 11
-11.3794450887
 21
-3.2073287741
  0
LINE
  5
30B
100
AcDbEntity
  8
0
100
AcDbLine
 62
7
  6
CONTINUOUS
 10
-13.2899137004
 20
-3.3536322498
 11
-13.1862458888
 21
-3.2952441062
  0
LWPOLYLINE
  5
30C
100
AcDbEntity
  8
0
100
AcDbPolyline
 62
7
  6
CONTINUOUS
 90
3
 70
0
 10
-13.2899137004
 20
-3.3536322498
 10
-13.310129026
 20
-3.3639754009
 10
-13.3422661534
 20
-3.3765567686
  0
LWPOLYLINE
  5
30D
100
AcDbEntity
  8
0
100
AcDbPolyline
 62
253
  6
CONTINUOUS
 90
12
 70
0
 10
-11.405344123
 20
-3.2740482971
 10
-11.4425660906
 20
-3.2929879319
 10
-11.4774247864
 20
-3.3160094236
 10
-11.5097717379
 20
-3.3430147176
 10
-11.5394691707
 20
-3.3738887911
 10
-11.5663905956
 20
-3.4085001432
 10
-11.5904213471
 20
-3.446701355
 10
-11.6114590717
 20
-3.4883297171
 10
-11.6294141642
 20
-3.5332079235
 10
-11.6442101491
 20
-3.5811448257
 10
-11.6557840063
 20
-3.6319362477
 10
-11.6640864396
 20
-3.6853658554
  0
LINE
  5
30E
100
AcDbEntity
  8
0
100
AcDbLine
 62
7
  6
CONTINUOUS
 10
-11.4582562978
 20
-3.1416416796
 11
-11.515742989
 21
-3.1708402986
  0
LINE
  5
30F
100
AcDbEntity
  8
0
100
AcDbLine
 62
253
  6
CONTINUOUS
 10
-11.4277719159
 20
-3.2352320785
 11
-11.3902972907
 21
-3.2162475719
  0
LWPOLYLINE
  5
310
100
AcDbEntity
  8
0
100
AcDbPolyline
 62
7
  6
CONTINUOUS
 90
5
 70
0
 10
-11.4044454298
 20
-3.1640297041
 10
-11.3643370126
 20
-3.1438455933
 10
-11.3212315106
 20
-3.1278244836
 10
-11.2760894323
 20
-3.1164586877
 10
-11.2321486529
 20
-3.1102952619
  0
LWPOLYLINE
  5
311
100
AcDbEntity
  8
0
100
AcDbPolyline
 62
7
  6
CONTINUOUS
 90
3
 70
0
 10
-14.0678452529
 20
-1.8258800713
 10
-14.1141439135
 20
-1.8406567684
 10
-14.1543845973
 20
-1.8610958017
  0
LWPOLYLINE
  5
312
100
AcDbEntity
  8
0
100
AcDbPolyline
 62
7
  6
CONTINUOUS
 90
4
 70
0
 10
8.1444172173
 20
-3.041624247
 10
8.1541208851
 20
-3.040615932
 10
8.1671422961
 20
-3.0386560481
 10
8.1800223987
 20
-3.0360179269
  0
LWPOLYLINE
  5
313
100
AcDbEntity
  8
0
100
AcDbPolyline
 62
253
  6
CONTINUOUS
 90
10
 70
0
 10
8.1595246186
 20
-2.9353412099
 10
8.1722794715
 20
-2.9340713472
 10
8.1849034046
 20
-2.9324220374
 10
8.1973625809
 20
-2.9303977011
 10
8.2096236052
 20
-2.9280037644
 10
8.2216536135
 20
-2.9252466438
 10
8.2334203608
 20
-2.9221337295
 10
8.2448923079
 20
-2.9186733652
 10
8.2560387056
 20
-2.9148748261
 10
8.2668296775
 20
-2.9107482936
  0
LINE
  5
314
100
AcDbEntity
  8
0
100
AcDbLine
 62
7
  6
CONTINUOUS
 10
5.4656955154
 20
-3.2672575895
 11
3.3461019486
 21
-3.4702701521
  0
LINE
  5
315
100
AcDbEntity
  8
0
100
AcDbLine
 62
7
  6
CONTINUOUS
 10
3.452965583
 20
-3.4367932978
 11
8.1444191912
 21
-3.0416240813
  0
LINE
  5
316
100
AcDbEntity
  8
0
100
AcDbLine
 62
253
  6
CONTINUOUS
 10
3.4680710104
 20
-3.3305104263
 11
8.1595246186
 21
-2.9353412099
  0
LINE
  5
317
100
AcDbEntity
  8
0
100
AcDbLine
 62
253
  6
CONTINUOUS
 10
8.1595246186
 20
-2.7694509747
 11
3.4680710104
 21
-3.1646201912
  0
LWPOLYLINE
  5
318
100
AcDbEntity
  8
0
100
AcDbPolyline
 62
7
  6
CONTINUOUS
 90
18
 70
0
 10
3.3461019486
 20
-3.4702717312
 10
2.8122097087
 20
-3.5131764629
 10
2.2758050128
 20
-3.5398151891
 10
1.7383220685
 20
-3.5501386851
 10
1.2012208313
 20
-3.5441542915
 10
0.6659114072
 20
-3.5218861964
 10
0.1337513073
 20
-3.4833681954
 10
-0.393862108
 20
-3.4287102877
 10
-0.9154963189
 20
-3.3580739015
 10
-1.4297584174
 20
-3.2716268257
 10
-1.9352760192
 20
-3.1696067169
 10
-2.4306988353
 20
-3.0522977602
 10
-2.9147022415
 20
-2.9199985658
 10
-3.3859941548
 20
-2.7730664624
 10
-3.8433166783
 20
-2.6119028008
 10
-4.2854476447
 20
-2.4369295108
 10
-4.7112066972
 20
-2.248613419
 10
-5.1194582667
 20
-2.0474648292
  0
LINE
  5
319
100
AcDbEntity
  8
0
100
AcDbLine
 62
7
  6
CONTINUOUS
 10
2.8943334374
 20
-3.4753729442
 11
3.452965583
 21
-3.4367932978
  0
LINE
  5
31A
100
AcDbEntity
  8
0
100
AcDbLine
 62
253
  6
CONTINUOUS
 10
2.9036632374
 20
-3.3694816706
 11
3.4680710104
 21
-3.3305104263
  0
LWPOLYLINE
  5
31B
100
AcDbEntity
  8
0
100
AcDbPolyline
 62
253
  6
CONTINUOUS
 90
19
 70
0
 10
3.4680710104
 20
-3.1646201912
 10
2.9036632374
 20
-3.2035914355
 10
2.3365223378
 20
-3.2256761913
 10
1.7681627738
 20
-3.2308154847
 10
1.2001022618
 20
-3.2189955921
 10
0.6338577199
 20
-3.1902480766
 10
0.0709412165
 20
-3.1446497039
 10
-0.4871440666
 20
-3.0823222377
 10
-1.0389078489
 20
-3.0034321136
 10
-1.5828767303
 20
-2.9081899956
 10
-2.117598126
 20
-2.7968502131
 10
-2.6416441449
 20
-2.6697100818
 10
-3.1536154032
 20
-2.5271091098
 10
-3.6521447606
 20
-2.3694280909
 10
-4.1359009714
 20
-2.1970880879
 10
-4.6035922393
 20
-2.0105493084
 10
-5.053969667
 20
-1.8103098752
 10
-5.4858305911
 20
-1.5969044968
 10
-5.8980217937
 20
-1.3709030395
  0
LWPOLYLINE
  5
31C
100
AcDbEntity
  8
0
100
AcDbPolyline
 62
7
  6
CONTINUOUS
 90
13
 70
0
 10
17.5485609103
 20
-12.1166197876
 10
17.5698704646
 20
-12.126576771
 10
17.5934003814
 20
-12.1360763086
 10
17.6190438451
 20
-12.1449408678
 10
17.6467008975
 20
-12.1530125918
 10
17.6761531228
 20
-12.1601183914
 10
17.7070692479
 20
-12.1660941867
 10
17.7392291698
 20
-12.1708324713
 10
17.7723773551
 20
-12.1742401626
 10
17.8061017794
 20
-12.1762387109
 10
17.8400789312
 20
-12.1767938989
 10
17.8740770913
 20
-12.1758950069
 10
17.9078143385
 20
-12.1735475965
  0
LINE
  5
31D
100
AcDbEntity
  8
0
100
AcDbLine
 62
7
  6
CONTINUOUS
 10
13.9223090205
 20
-10.7441053331
 11
17.3691279205
 21
-12.474116364
  0
LINE
  5
31E
100
AcDbEntity
  8
0
100
AcDbLine
 62
7
  6
CONTINUOUS
 10
14.1017420103
 20
-10.3866087567
 11
17.5485609103
 21
-12.1166197876
  0
LWPOLYLINE
  5
31F
100
AcDbEntity
  8
0
100
AcDbPolyline
 62
7
  6
CONTINUOUS
 90
4
 70
0
 10
13.8548176248
 20
-10.7058328163
 10
13.8765705018
 20
-10.7191956191
 10
13.8990734847
 20
-10.7319551717
 10
13.9223090205
 20
-10.7441053331
  0
LWPOLYLINE
  5
320
100
AcDbEntity
  8
0
100
AcDbPolyline
 62
7
  6
CONTINUOUS
 90
4
 70
0
 10
8.2201880041
 20
-13.6191090524
 10
8.2420160644
 20
-13.6409980319
 10
8.2637000955
 20
-13.6660768445
 10
8.2844578663
 20
-13.6936930654
  0
LWPOLYLINE
  5
321
100
AcDbEntity
  8
0
100
AcDbPolyline
 62
253
  6
CONTINUOUS
 90
4
 70
0
 10
8.2280447894
 20
-13.5819341095
 10
8.2571684451
 20
-13.6127378023
 10
8.2844051197
 20
-13.6458760223
 10
8.3100409314
 20
-13.6818137239
  0
LWPOLYLINE
  5
322
100
AcDbEntity
  8
0
100
AcDbPolyline
 62
253
  6
CONTINUOUS
 90
10
 70
0
 10
8.1363687273
 20
-13.7519369673
 10
8.1565124947
 20
-13.7769716417
 10
8.176024406
 20
-13.8041904728
 10
8.1945317322
 20
-13.8330735095
 10
8.2116809349
 20
-13.8630690099
 10
8.2271444191
 20
-13.893603981
 10
8.2406267918
 20
-13.9240951247
 10
8.2518705042
 20
-13.95395998
 10
8.2606607718
 20
-13.9826280498
 10
8.2668296774
 20
-14.0095516984
  0
LWPOLYLINE
  5
323
100
AcDbEntity
  8
0
100
AcDbPolyline
 62
253
  6
CONTINUOUS
 90
13
 70
0
 10
-0.0113578403
 20
14.4503290273
 10
-0.0100086541
 20
14.4762783423
 10
-0.0059816898
 20
14.5033895657
 10
0.0006615839
 20
14.5312488635
 10
0.0098197619
 20
14.5594309832
 10
0.0213530511
 20
14.5875057443
 10
0.0350854039
 20
14.6150446054
 10
0.0508072055
 20
14.6416272049
 10
0.0682784738
 20
14.6668477781
 10
0.087232522
 20
14.6903213507
 10
0.1073800297
 20
14.711689615
 10
0.1284134596
 20
14.7306263993
 10
0.1500117508
 20
14.746842647
  0
LWPOLYLINE
  5
324
100
AcDbEntity
  8
0
100
AcDbPolyline
 62
7
  6
CONTINUOUS
 90
8
 70
0
 10
-7.5703110669
 20
-6.6058389129
 10
-7.535844584
 20
-6.5705409227
 10
-7.5061278303
 20
-6.52863377
 10
-7.4810610748
 20
-6.4803676139
 10
-7.4614338637
 20
-6.4271344763
 10
-7.447509379
 20
-6.3693983644
 10
-7.4390244387
 20
-6.3066952709
 10
-7.4359790428
 20
-6.2390251958
  0
LWPOLYLINE
  5
325
100
AcDbEntity
  8
0
100
AcDbPolyline
 62
7
  6
CONTINUOUS
 90
3
 70
0
 10
-8.4975303479
 20
-5.1272925484
 10
-8.5390838857
 20
-5.1577309404
 10
-8.5735503686
 20
-5.1930289307
  0
LINE
  5
326
100
AcDbEntity
  8
0
100
AcDbLine
 62
253
  6
CONTINUOUS
 10
-5.8354682866
 20
-2.0515141185
 11
-5.509240198
 21
-1.8340985903
  0
LWPOLYLINE
  5
327
100
AcDbEntity
  8
0
100
AcDbPolyline
 62
253
  6
CONTINUOUS
 90
3
 70
0
 10
-10.3328578283
 20
-5.2096825413
 10
-10.2979991325
 20
-5.1866610496
 10
-10.2656521811
 20
-5.1596557556
  0
LINE
  5
328
100
AcDbEntity
  8
0
100
AcDbLine
 62
253
  6
CONTINUOUS
 10
-10.240336296
 20
-5.2024669363
 11
-10.2777163476
 21
-5.2270584238
  0
LWPOLYLINE
  5
329
100
AcDbEntity
  8
0
100
AcDbPolyline
 62
7
  6
CONTINUOUS
 90
10
 70
0
 10
-10.2293898103
 20
-5.1991546171
 10
-10.1945497983
 20
-5.1764451799
 10
-10.1607639108
 20
-5.1487105104
 10
-10.1297723647
 20
-5.1169740922
 10
-10.1015374945
 20
-5.0811250114
 10
-10.0760969658
 20
-5.0412741818
 10
-10.0538837259
 20
-4.9979627817
 10
-10.0349679699
 20
-4.9511396121
 10
-10.0192795028
 20
-4.900855872
 10
-10.0070406866
 20
-4.8478063362
  0
LINE
  5
32A
100
AcDbEntity
  8
0
100
AcDbLine
 62
7
  6
CONTINUOUS
 10
-8.4830843402
 20
-5.1476375518
 11
-8.3813854597
 21
-5.0874595398
  0
LWPOLYLINE
  5
32B
100
AcDbEntity
  8
0
100
AcDbPolyline
 62
7
  6
CONTINUOUS
 90
3
 70
0
 10
-10.2659119973
 20
-5.3354725344
 10
-10.2470247035
 20
-5.3243908006
 10
-10.1911440162
 20
-5.2830493909
  0
LINE
  5
32C
100
AcDbEntity
  8
0
100
AcDbLine
 62
7
  6
CONTINUOUS
 10
-10.2777163476
 20
-5.2270584238
 11
-10.2293895203
 21
-5.1991551194
  0
LINE
  5
32D
100
AcDbEntity
  8
0
100
AcDbLine
 62
7
  6
CONTINUOUS
 10
-10.2043883123
 20
-5.2424556922
 11
-10.1103939601
 21
-5.1881845312
  0
LWPOLYLINE
  5
32E
100
AcDbEntity
  8
0
100
AcDbPolyline
 62
7
  6
CONTINUOUS
 90
7
 70
0
 10
-10.2777163476
 20
-5.2270584238
 10
-10.31706059
 20
-5.2470790816
 10
-10.3587814178
 20
-5.2630358011
 10
-10.4027128252
 20
-5.2747876848
 10
-10.4487059024
 20
-5.2822189003
 10
-10.4965559411
 20
-5.2852250933
 10
-10.546006986
 20
-5.28373597
  0
LINE
  5
32F
100
AcDbEntity
  8
0
100
AcDbLine
 62
7
  6
CONTINUOUS
 10
-10.2043891792
 20
-5.2424541895
 11
-10.2444975964
 21
-5.2626383003
  0
LWPOLYLINE
  5
330
100
AcDbEntity
  8
0
100
AcDbPolyline
 62
253
  6
CONTINUOUS
 90
36
 70
0
 10
-11.3902972907
 20
-3.2162475719
 10
-11.3493532589
 20
-3.2009017682
 10
-11.3062940363
 20
-3.1899440465
 10
-11.2613030236
 20
-3.1834210786
 10
-11.2145718496
 20
-3.1813606477
 10
-11.1662995547
 20
-3.1837715295
 10
-11.1166917436
 20
-3.1906434555
 10
-11.0659597092
 20
-3.2019471564
 10
-11.0143195327
 20
-3.2176344867
 10
-10.9619911635
 20
-3.2376386298
 10
-10.909197482
 20
-3.2618743828
 10
-10.8561633506
 20
-3.2902385191
 10
-10.8031146559
 20
-3.3226102283
 10
-10.7502773463
 20
-3.3588516306
 10
-10.6978764702
 20
-3.3988083643
 10
-10.6461352167
 20
-3.4423102429
 10
-10.5952739657
 20
-3.4891719804
 10
-10.5455093489
 20
-3.5391939801
 10
-10.4970533271
 20
-3.5921631849
 10
-10.4501122873
 20
-3.6478539848
 10
-10.4048861639
 20
-3.706029178
 10
-10.3615675873
 20
-3.7664409806
 10
-10.3203410626
 20
-3.8288320828
 10
-10.2813821846
 20
-3.8929367441
 10
-10.2448568897
 20
-3.9584819258
 10
-10.2109207488
 20
-4.0251884533
 10
-10.179718305
 20
-4.0927722057
 10
-10.1513824578
 20
-4.1609453259
 10
-10.1260338972
 20
-4.2294174463
 10
-10.1037805894
 20
-4.297896926
 10
-10.0847173173
 20
-4.3660920924
 10
-10.0689252763
 20
-4.4337124841
 10
-10.056471729
 20
-4.500470088
 10
-10.0474097184
 20
-4.5660805655
 10
-10.0417778421
 20
-4.6302644642
 10
-10.0396000876
 20
-4.6927484075
  0
LWPOLYLINE
  5
331
100
AcDbEntity
  8
0
100
AcDbPolyline
 62
7
  6
CONTINUOUS
 90
3
 70
0
 10
-13.3552581987
 20
-3.4052962888
 10
-13.3089595381
 20
-3.3905195917
 10
-13.2795029032
 20
-3.3763383668
  0
LWPOLYLINE
  5
332
100
AcDbEntity
  8
0
100
AcDbPolyline
 62
7
  6
CONTINUOUS
 90
33
 70
0
 10
-13.3422661534
 20
-3.3765567686
 10
-13.3762060669
 20
-3.3854328893
 10
-13.4117834149
 20
-3.3905605196
 10
-13.4488248679
 20
-3.3919146781
 10
-13.4871499638
 20
-3.3894887675
 10
-13.5265719865
 20
-3.3832946066
 10
-13.5668988759
 20
-3.3733623727
 10
-13.6079341635
 20
-3.3597404546
 10
-13.6494779294
 20
-3.342495217
 10
-13.6913277767
 20
-3.321710677
 10
-13.733279817
 20
-3.2974880947
 10
-13.7751296643
 20
-3.2699454801
 10
-13.8166734302
 20
-3.2392170181
 10
-13.8577087178
 20
-3.2054524146
 10
-13.8980356073
 20
-3.1688161675
 10
-13.93745763
 20
-3.1294867647
 10
-13.9757827259
 20
-3.0876558152
 10
-14.0128241789
 20
-3.0435271153
 10
-14.0484015268
 20
-2.9973156554
 10
-14.0823414404
 20
-2.9492465732
 10
-14.1144785677
 20
-2.8995540564
 10
-14.14465634
 20
-2.8484802019
 10
-14.1727277342
 20
-2.7962738365
 10
-14.1985559893
 20
-2.7431893042
 10
-14.2220152725
 20
-2.6894852277
 10
-14.2429912927
 20
-2.6354232478
 10
-14.2613818567
 20
-2.5812667489
 10
-14.2770973676
 20
-2.5272795762
 10
-14.290061261
 20
-2.4737247497
 10
-14.3002103781
 20
-2.420863183
 10
-14.3074952735
 20
-2.3689524126
 10
-14.3118804558
 20
-2.3182453424
 10
-14.3133445609
 20
-2.2689890121
  0
LWPOLYLINE
  5
333
100
AcDbEntity
  8
0
100
AcDbPolyline
 62
7
  6
CONTINUOUS
 90
3
 70
0
 10
-11.3208868968
 20
-3.1094233281
 10
-11.392115354
 20
-3.1205321123
 10
-11.4582562978
 20
-3.1416416796
  0
LWPOLYLINE
  5
334
100
AcDbEntity
  8
0
100
AcDbPolyline
 62
253
  6
CONTINUOUS
 90
4
 70
0
 10
8.3038068528
 20
-3.317980467
 10
8.2822965344
 20
-3.3135770556
 10
8.2600795318
 20
-3.3052470119
 10
8.237571276
 20
-3.2931237619
  0
LWPOLYLINE
  5
335
100
AcDbEntity
  8
0
100
AcDbPolyline
 62
253
  6
CONTINUOUS
 90
20
 70
0
 10
17.9078143385
 20
-6.8664907973
 10
17.910384728
 20
-6.8672150239
 10
17.9136360692
 20
-6.870545295
 10
17.9170549924
 20
-6.8765141539
 10
17.9205952625
 20
-6.885040882
 10
17.9242090034
 20
-6.8960101699
 10
17.9278473455
 20
-6.9092736768
 10
17.9314610864
 20
-6.9246520366
 10
17.9350013565
 20
-6.9419372832
 10
17.9384202797
 20
-6.9608956635
 10
17.941671621
 20
-6.9812707977
 10
17.9447114114
 20
-7.0027871473
 10
17.9474985432
 20
-7.0251537404
 10
17.949995325
 20
-7.0480681073
 10
17.9521679922
 20
-7.0712203704
 10
17.9539871633
 20
-7.0942974352
 10
17.955428237
 20
-7.1169872239
 10
17.9564717252
 20
-7.138982896
 10
17.9571035167
 20
-7.1599869978
 10
17.9573150675
 20
-7.1797154849
  0
LWPOLYLINE
  5
336
100
AcDbEntity
  8
0
100
AcDbPolyline
 62
253
  6
CONTINUOUS
 90
21
 70
0
 10
14.1017420103
 20
-5.0795519576
 10
14.0903797726
 20
-5.0752747487
 10
14.0776314183
 20
-5.0733074602
 10
14.0639958568
 20
-5.0738418819
 10
14.0496574855
 20
-5.0768707864
 10
14.0348102064
 20
-5.0823532132
 10
14.0196548034
 20
-5.0902150217
 10
14.0043962274
 20
-5.1003498945
 10
13.9892408244
 20
-5.1126207749
 10
13.9743935453
 20
-5.1268617202
 10
13.9600551741
 20
-5.1428801461
 10
13.9464196125
 20
-5.1604594308
 10
13.9336712582
 20
-5.1793618447
 10
13.9219825109
 20
-5.1993317651
 10
13.9115114407
 20
-5.220099133
 10
13.902399651
 20
-5.2413831054
 10
13.894770363
 20
-5.2628958532
 10
13.8887267497
 20
-5.2843464532
 10
13.8843505408
 20
-5.3054448229
 10
13.8817009169
 20
-5.3259056431
 10
13.8808137096
 20
-5.3454522163
  0
LWPOLYLINE
  5
337
100
AcDbEntity
  8
0
100
AcDbPolyline
 62
253
  6
CONTINUOUS
 90
8
 70
0
 10
17.3691279205
 20
-12.474116364
 10
17.3583303407
 20
-12.4670937541
 10
17.3492185509
 20
-12.4579140344
 10
17.3415892629
 20
-12.4465361595
 10
17.3355456497
 20
-12.4331139956
 10
17.3311694408
 20
-12.4178290545
 10
17.3285198169
 20
-12.4008880387
 10
17.3276326096
 20
-12.3825200464
  0
LWPOLYLINE
  5
338
100
AcDbEntity
  8
0
100
AcDbPolyline
 62
7
  6
CONTINUOUS
 90
6
 70
0
 10
8.2844578663
 20
-13.6936930654
 10
8.3038032855
 20
-13.7233479669
 10
8.3213110674
 20
-13.7544896358
 10
8.3364855534
 20
-13.7862187464
 10
8.3490957643
 20
-13.8178852255
 10
8.3589875772
 20
-13.848810486
  0
LWPOLYLINE
  5
339
100
AcDbEntity
  8
0
100
AcDbPolyline
 62
253
  6
CONTINUOUS
 90
4
 70
0
 10
8.3100409314
 20
-13.6818137239
 10
8.3337897621
 20
-13.7200859527
 10
8.3547932573
 20
-13.7592978455
 10
8.3729548099
 20
-13.7994857984
  0
LWPOLYLINE
  5
33A
100
AcDbEntity
  8
0
100
AcDbPolyline
 62
253
  6
CONTINUOUS
 90
7
 70
0
 10
-0.0113578403
 20
-19.3378690117
 10
-0.0105098372
 20
-19.3219237293
 10
-0.0079793874
 20
-19.3052541607
 10
-0.0038069531
 20
-19.2881268541
 10
0.001940748
 20
-19.2708156768
 10
0.0091718096
 20
-19.2535974363
 10
0.0141753435
 20
-19.2437926393
  0
LWPOLYLINE
  5
33B
100
AcDbEntity
  8
0
100
AcDbPolyline
 62
7
  6
CONTINUOUS
 90
3
 70
0
 10
-7.6226486537
 20
-6.6425351134
 10
-7.6094275481
 20
-6.6347778997
 10
-7.5703110669
 20
-6.6058389129
  0
LINE
  5
33C
100
AcDbEntity
  8
0
100
AcDbLine
 62
7
  6
CONTINUOUS
 10
-7.6330594509
 20
-6.6198289964
 11
-7.5293916394
 21
-6.5614408528
  0
LWPOLYLINE
  5
33D
100
AcDbEntity
  8
0
100
AcDbPolyline
 62
7
  6
CONTINUOUS
 90
35
 70
0
 10
-8.4830843402
 20
-5.1476375518
 10
-8.4576243182
 20
-5.1342661787
 10
-8.4254871909
 20
-5.121684811
 10
-8.3915472773
 20
-5.1128086902
 10
-8.3559699294
 20
-5.10768106
 10
-8.3189284764
 20
-5.1063269015
 10
-8.2806033805
 20
-5.1087528121
 10
-8.2411813578
 20
-5.114946973
 10
-8.2008544683
 20
-5.1248792069
 10
-8.1598191807
 20
-5.138501125
 10
-8.1182754148
 20
-5.1557463625
 10
-8.0764255675
 20
-5.1765309026
 10
-8.0344735272
 20
-5.2007534849
 10
-7.99262368
 20
-5.2282960994
 10
-7.951079914
 20
-5.2590245615
 10
-7.9100446264
 20
-5.2927891649
 10
-7.869717737
 20
-5.3294254121
 10
-7.8302957143
 20
-5.3687548149
 10
-7.7919706184
 20
-5.4105857643
 10
-7.7549291654
 20
-5.4547144643
 10
-7.7193518174
 20
-5.5009259242
 10
-7.6854119039
 20
-5.5489950064
 10
-7.6532747765
 20
-5.5986875232
 10
-7.6230970042
 20
-5.6497613777
 10
-7.59502561
 20
-5.7019677431
 10
-7.569197355
 20
-5.7550522753
 10
-7.5457380717
 20
-5.8087563518
 10
-7.5247620516
 20
-5.8628183318
 10
-7.5063714876
 20
-5.9169748307
 10
-7.4906559766
 20
-5.9709620034
 10
-7.4776920832
 20
-6.0245168299
 10
-7.4675429661
 20
-6.0773783965
 10
-7.4602580708
 20
-6.129289167
 10
-7.4558728885
 20
-6.1799962372
 10
-7.4544087834
 20
-6.2292525674
  0
LWPOLYLINE
  5
33E
100
AcDbEntity
  8
0
100
AcDbPolyline
 62
7
  6
CONTINUOUS
 90
8
 70
0
 10
-10.2444975964
 20
-5.2626383003
 10
-10.2876030985
 20
-5.27865941
 10
-10.3327451767
 20
-5.2900252059
 10
-10.3799497616
 20
-5.2966464347
 10
-10.4291909227
 20
-5.2986123498
 10
-10.4797864094
 20
-5.2959036639
 10
-10.531741397
 20
-5.2884506498
 10
-10.5594786615
 20
-5.2821405542
  0
LWPOLYLINE
  5
33F
100
AcDbEntity
  8
0
100
AcDbPolyline
 62
7
  6
CONTINUOUS
 90
3
 70
0
 10
-8.4109910034
 20
-5.0920768179
 10
-8.457289664
 20
-5.106853515
 10
-8.4975303479
 20
-5.1272925484
  0
LWPOLYLINE
  5
340
100
AcDbEntity
  8
0
100
AcDbPolyline
 62
7
  6
CONTINUOUS
 90
13
 70
0
 10
17.3691279205
 20
-7.1670595649
 10
17.4120823948
 20
-7.1870860914
 10
17.4565596549
 20
-7.2048944233
 10
17.5023604699
 20
-7.220505766
 10
17.5493123763
 20
-7.2339450594
 10
17.5972366024
 20
-7.2452291214
 10
17.6459141871
 20
-7.2543644176
 10
17.6951187098
 20
-7.2613612699
 10
17.7447154179
 20
-7.2662434633
 10
17.7945955299
 20
-7.2690270875
 10
17.8446026503
 20
-7.2697167724
 10
17.8945423262
 20
-7.2683157662
 10
17.9442420105
 20
-7.2648286247
  0
LWPOLYLINE
  5
341
100
AcDbEntity
  8
0
100
AcDbPolyline
 62
7
  6
CONTINUOUS
 90
13
 70
0
 10
17.5485609103
 20
-6.8095629884
 10
17.5698704646
 20
-6.8195199719
 10
17.5934003814
 20
-6.8290195094
 10
17.6190438451
 20
-6.8378840687
 10
17.6467008975
 20
-6.8459557926
 10
17.6761531228
 20
-6.8530615922
 10
17.7070692479
 20
-6.8590373875
 10
17.7392291698
 20
-6.8637756722
 10
17.7723773551
 20
-6.8671833634
 10
17.8061017794
 20
-6.8691819117
 10
17.8400789312
 20
-6.8697370998
 10
17.8740770913
 20
-6.8688382077
 10
17.9078143385
 20
-6.8664907973
  0
LINE
  5
342
100
AcDbEntity
  8
0
100
AcDbLine
 62
7
  6
CONTINUOUS
 10
17.3691279205
 20
-7.1670595649
 11
13.9223090205
 21
-5.437048534
  0
LINE
  5
343
100
AcDbEntity
  8
0
100
AcDbLine
 62
7
  6
CONTINUOUS
 10
17.5485609103
 20
-6.8095629884
 11
14.1017420103
 21
-5.0795519576
  0
LINE
  5
344
100
AcDbEntity
  8
0
100
AcDbLine
 62
253
  6
CONTINUOUS
 10
7.8455859294
 20
-3.0667953216
 11
8.237571951
 21
-3.2931231377
  0
LINE
  5
345
100
AcDbEntity
  8
0
100
AcDbLine
 62
7
  6
CONTINUOUS
 10
8.2653277324
 20
-3.0161948172
 11
8.3723946959
 21
-3.0780139401
  0
LWPOLYLINE
  5
346
100
AcDbEntity
  8
0
100
AcDbPolyline
 62
253
  6
CONTINUOUS
 90
8
 70
0
 10
-20.8460518838
 20
14.0576643069
 10
-20.8665015293
 20
14.0710296824
 10
-20.8839406528
 20
14.0857490512
 10
-20.8981030583
 20
14.1015977325
 10
-20.9087725666
 20
14.1183338072
 10
-20.9157863151
 20
14.135701811
 10
-20.9190372439
 20
14.1534366334
 10
-20.9192751885
 20
14.1597329552
  0
LWPOLYLINE
  5
347
100
AcDbEntity
  8
0
100
AcDbPolyline
 62
253
  6
CONTINUOUS
 90
8
 70
0
 10
8.4163286787
 20
-2.8380674861
 10
8.4037912598
 20
-2.8298492848
 10
8.3931503218
 20
-2.8207832406
 10
8.3845760144
 20
-2.8110143204
 10
8.3782054415
 20
-2.8006987303
 10
8.3741404693
 20
-2.7900014176
 10
8.3724460972
 20
-2.7790934334
 10
8.3723946959
 20
-2.7768262971
  0
LINE
  5
348
100
AcDbEntity
  8
0
100
AcDbLine
 62
253
  6
CONTINUOUS
 10
8.4033805685
 20
-3.3042673099
 11
8.4163286787
 21
-3.3127931893
  0
LINE
  5
349
100
AcDbEntity
  8
0
100
AcDbLine
 62
7
  6
CONTINUOUS
 10
8.1108688711
 20
-3.3219760143
 11
8.0899498424
 21
-3.3064983068
  0
LINE
  5
34A
100
AcDbEntity
  8
0
100
AcDbLine
 62
7
  6
CONTINUOUS
 10
8.0899498424
 20
-3.3064983068
 11
8.0701291366
 21
-3.2917395206
  0
LINE
  5
34B
100
AcDbEntity
  8
0
100
AcDbLine
 62
7
  6
CONTINUOUS
 10
8.0701291366
 20
-3.2917395206
 11
8.051386448
 21
-3.2776869181
  0
LINE
  5
34C
100
AcDbEntity
  8
0
100
AcDbLine
 62
7
  6
CONTINUOUS
 10
8.051386448
 20
-3.2776869181
 11
8.0336529266
 21
-3.2642973467
  0
LINE
  5
34D
100
AcDbEntity
  8
0
100
AcDbLine
 62
7
  6
CONTINUOUS
 10
8.0336529266
 20
-3.2642973467
 11
8.0168736761
 21
-3.2515362066
  0
LINE
  5
34E
100
AcDbEntity
  8
0
100
AcDbLine
 62
7
  6
CONTINUOUS
 10
8.0168736761
 20
-3.2515362066
 11
8.0010127211
 21
-3.2393807083
  0
LINE
  5
34F
100
AcDbEntity
  8
0
100
AcDbLine
 62
7
  6
CONTINUOUS
 10
8.0010127211
 20
-3.2393807083
 11
7.9860173446
 21
-3.2277972981
  0
LWPOLYLINE
  5
350
100
AcDbEntity
  8
0
100
AcDbPolyline
 62
7
  6
CONTINUOUS
 90
3
 70
0
 10
7.9860173446
 20
-3.2277972981
 10
7.9718394864
 20
-3.2167550307
 10
7.9650510126
 20
-3.2114328977
  0
LWPOLYLINE
  5
351
100
AcDbEntity
  8
0
100
AcDbPolyline
 62
7
  6
CONTINUOUS
 90
7
 70
0
 10
13.7420777938
 20
-10.6142594408
 10
13.758525857
 20
-10.630681732
 10
13.7759192272
 20
-10.64666149
 10
13.794251196
 20
-10.6621825482
 10
13.8135562049
 20
-10.6772594441
 10
13.8337910179
 20
-10.691843193
 10
13.8548176248
 20
-10.7058328163
  0
LINE
  5
352
100
AcDbEntity
  8
0
100
AcDbLine
 62
253
  6
CONTINUOUS
 10
3.4050968215
 20
-13.9030614358
 11
3.4449151191
 21
-14.1471061837
  0
LWPOLYLINE
  5
353
100
AcDbEntity
  8
0
100
AcDbPolyline
 62
253
  6
CONTINUOUS
 90
10
 70
0
 10
3.4449151191
 20
-14.1471061837
 10
3.4492943508
 20
-14.1759007417
 10
3.4533640709
 20
-14.2066722197
 10
3.457051521
 20
-14.2388704841
 10
3.4602907765
 20
-14.2719198932
 10
3.4630239259
 20
-14.3052295884
 10
3.465202106
 20
-14.3382040579
 10
3.4667863752
 20
-14.3702537828
 10
3.4677484097
 20
-14.4008057771
 10
3.4680710104
 20
-14.4293138311
  0
LWPOLYLINE
  5
354
100
AcDbEntity
  8
0
100
AcDbPolyline
 62
253
  6
CONTINUOUS
 90
13
 70
0
 10
3.4345946168
 20
-3.9640696058
 10
3.4341798732
 20
-3.9482219035
 10
3.4334357014
 20
-3.9312931456
 10
3.4323737714
 20
-3.9135453258
 10
3.4310107683
 20
-3.8952531056
 10
3.4293678037
 20
-3.8766995933
 10
3.4274700867
 20
-3.8581719626
 10
3.4253470264
 20
-3.8399569629
 10
3.4230316127
 20
-3.8223364974
 10
3.420559574
 20
-3.8055832903
 10
3.4179691505
 20
-3.7899566344
 10
3.4153005013
 20
-3.7756983779
 10
3.4125949206
 20
-3.7630291978
  0
LINE
  5
355
100
AcDbEntity
  8
0
100
AcDbLine
 62
253
  6
CONTINUOUS
 10
3.3237148094
 20
-3.4457194743
 11
3.3237148094
 21
-3.4702701521
  0
LINE
  5
356
100
AcDbEntity
  8
0
100
AcDbLine
 62
253
  6
CONTINUOUS
 10
3.4327183032
 20
-3.9642493069
 11
3.4327183032
 21
-13.8364019665
  0
LINE
  5
357
100
AcDbEntity
  8
0
100
AcDbLine
 62
253
  6
CONTINUOUS
 10
3.4680710104
 20
-3.1646201912
 11
3.4680710104
 21
-3.3305104263
  0
LINE
  5
358
100
AcDbEntity
  8
0
100
AcDbLine
 62
253
  6
CONTINUOUS
 10
3.4680710104
 20
-14.4293138311
 11
3.4680710104
 21
-14.5952040663
  0
LWPOLYLINE
  5
359
100
AcDbEntity
  8
0
100
AcDbPolyline
 62
253
  6
CONTINUOUS
 90
9
 70
0
 10
3.4680710104
 20
-3.3305104263
 10
3.4677484097
 20
-3.356464872
 10
3.4667863752
 20
-3.3794016948
 10
3.465202106
 20
-3.3989108294
 10
3.4630239259
 20
-3.4146434909
 10
3.4602907765
 20
-3.42631841
 10
3.457051521
 20
-3.4337268623
 10
3.4533640709
 20
-3.436736399
 10
3.452965583
 20
-3.4367932978
  0
LWPOLYLINE
  5
35A
100
AcDbEntity
  8
0
100
AcDbPolyline
 62
253
  6
CONTINUOUS
 90
20
 70
0
 10
3.4680710104
 20
-14.5952040663
 10
3.4594820974
 20
-14.968039031
 10
3.4338033538
 20
-15.3292605362
 10
3.3912013953
 20
-15.6779416026
 10
3.3319037282
 20
-16.0131228633
 10
3.2561583771
 20
-16.3340482432
 10
3.1641945885
 20
-16.6401342469
 10
3.0563193458
 20
-16.9306062167
 10
2.9328809541
 20
-17.2047364198
 10
2.7941659632
 20
-17.4620187456
 10
2.6405705259
 20
-17.7017870902
 10
2.4725298087
 20
-17.9234240895
 10
2.2903850652
 20
-18.1264974278
 10
2.0946176024
 20
-18.3104510984
 10
1.8857458017
 20
-18.4747799474
 10
1.6641654887
 20
-18.619124382
 10
1.4304407759
 20
-18.7430419316
 10
1.185171207
 20
-18.8461435078
 10
0.9288091513
 20
-18.9281442071
 10
0.662000465
 20
-18.9887208669
  0
LWPOLYLINE
  5
35B
100
AcDbEntity
  8
0
100
AcDbPolyline
 62
253
  6
CONTINUOUS
 90
9
 70
0
 10
3.434604292
 20
-13.8362648741
 10
3.4341801212
 20
-13.8507982637
 10
3.433432384
 20
-13.8637395738
 10
3.4323762603
 20
-13.8749101094
 10
3.4310351257
 20
-13.8841405916
 10
3.4294301037
 20
-13.8913463459
 10
3.4275729875
 20
-13.8964757266
 10
3.4254900172
 20
-13.8994273619
 10
3.423824811
 20
-13.900169244
  0
LWPOLYLINE
  5
35C
100
AcDbEntity
  8
0
100
AcDbPolyline
 62
253
  6
CONTINUOUS
 90
8
 70
0
 10
12.1057589485
 20
4.3242280245
 10
12.1230360655
 20
4.3371783453
 10
12.1444486285
 20
4.3554075005
 10
12.1613817251
 20
4.3724360516
 10
12.1736407138
 20
4.3881316741
 10
12.1811062468
 20
4.4023047409
 10
12.1837091226
 20
4.4147836049
 10
12.1821466166
 20
4.4237836976
  0
LWPOLYLINE
  5
35D
100
AcDbEntity
  8
0
100
AcDbPolyline
 62
7
  6
CONTINUOUS
 90
3
 70
0
 10
-7.6330594509
 20
-6.6198289964
 10
-7.6532747765
 20
-6.6301721475
 10
-7.6854119039
 20
-6.6427535152
  0
LWPOLYLINE
  5
35E
100
AcDbEntity
  8
0
100
AcDbPolyline
 62
7
  6
CONTINUOUS
 90
3
 70
0
 10
-7.6984039492
 20
-6.6714930354
 10
-7.6521052886
 20
-6.6567163383
 10
-7.6226486537
 20
-6.6425351134
  0
LWPOLYLINE
  5
35F
100
AcDbEntity
  8
0
100
AcDbPolyline
 62
7
  6
CONTINUOUS
 90
4
 70
0
 10
13.8548176248
 20
-5.3987760172
 10
13.8765705018
 20
-5.41213882
 10
13.8990734847
 20
-5.4248983726
 10
13.9223090205
 20
-5.437048534
  0
LWPOLYLINE
  5
360
100
AcDbEntity
  8
0
100
AcDbPolyline
 62
253
  6
CONTINUOUS
 90
8
 70
0
 10
17.3691279205
 20
-7.1670595649
 10
17.3583303407
 20
-7.1600369549
 10
17.3492185509
 20
-7.1508572353
 10
17.3415892629
 20
-7.1394793604
 10
17.3355456497
 20
-7.1260571965
 10
17.3311694408
 20
-7.1107722553
 10
17.3285198169
 20
-7.0938312395
 10
17.3276326096
 20
-7.0754632472
  0
LINE
  5
361
100
AcDbEntity
  8
0
100
AcDbLine
 62
7
  6
CONTINUOUS
 10
7.9650510126
 20
-3.2114328977
 11
7.952031136
 21
-3.201158295
  0
LWPOLYLINE
  5
362
100
AcDbEntity
  8
0
100
AcDbPolyline
 62
7
  6
CONTINUOUS
 90
10
 70
0
 10
8.1108689921
 20
-3.321976104
 10
8.1177091918
 20
-3.3273895241
 10
8.1240750823
 20
-3.3332037356
 10
8.1299766919
 20
-3.3394264408
 10
8.1354266153
 20
-3.3460775561
 10
8.1404433877
 20
-3.3531577762
 10
8.1450507255
 20
-3.3606472384
 10
8.1492739254
 20
-3.3685463233
 10
8.1531413375
 20
-3.3768756067
 10
8.1566870666
 20
-3.3856434939
  0
LINE
  5
363
100
AcDbEntity
  8
0
100
AcDbLine
 62
7
  6
CONTINUOUS
 10
7.952031136
 20
-3.201158295
 11
7.9397406439
 21
-3.1913678299
  0
LINE
  5
364
100
AcDbEntity
  8
0
100
AcDbLine
 62
7
  6
CONTINUOUS
 10
7.9397406439
 20
-3.1913678299
 11
7.928138672
 21
-3.1820348416
  0
LINE
  5
365
100
AcDbEntity
  8
0
100
AcDbLine
 62
7
  6
CONTINUOUS
 10
7.928138672
 20
-3.1820348416
 11
7.9171884054
 21
-3.1731349849
  0
LINE
  5
366
100
AcDbEntity
  8
0
100
AcDbLine
 62
7
  6
CONTINUOUS
 10
7.9171884054
 20
-3.1731349849
 11
7.9068660622
 21
-3.1646524514
  0
LINE
  5
367
100
AcDbEntity
  8
0
100
AcDbLine
 62
7
  6
CONTINUOUS
 10
7.9068660622
 20
-3.1646524514
 11
7.8971372017
 21
-3.1565642277
  0
LINE
  5
368
100
AcDbEntity
  8
0
100
AcDbLine
 62
7
  6
CONTINUOUS
 10
7.8971372017
 20
-3.1565642277
 11
7.887970919
 21
-3.1488492426
  0
LINE
  5
369
100
AcDbEntity
  8
0
100
AcDbLine
 62
7
  6
CONTINUOUS
 10
7.887970919
 20
-3.1488492426
 11
7.8793473065
 21
-3.1414938115
  0
LINE
  5
36A
100
AcDbEntity
  8
0
100
AcDbLine
 62
7
  6
CONTINUOUS
 10
7.8793473065
 20
-3.1414938115
 11
7.8712375973
 21
-3.1344780044
  0
LINE
  5
36B
100
AcDbEntity
  8
0
100
AcDbLine
 62
7
  6
CONTINUOUS
 10
7.8712375973
 20
-3.1344780044
 11
7.8636162802
 21
-3.1277835525
  0
LWPOLYLINE
  5
36C
100
AcDbEntity
  8
0
100
AcDbPolyline
 62
7
  6
CONTINUOUS
 90
23
 70
0
 10
7.8636162802
 20
-3.1277835525
 10
7.8564670072
 20
-3.1213985729
 10
7.8530604981
 20
-3.1183156105
 10
7.8497662647
 20
-3.1153057468
 10
7.8465774227
 20
-3.1123636052
 10
7.8434936518
 20
-3.1094890564
 10
7.8405152723
 20
-3.1066822297
 10
7.837636361
 20
-3.103938136
 10
7.8348566032
 20
-3.1012566911
 10
7.8321763135
 20
-3.0986379791
 10
7.8295905133
 20
-3.0960772645
 10
7.8270988964
 20
-3.0935745523
 10
7.8247017689
 20
-3.0911298374
 10
7.8223950698
 20
-3.0887383688
 10
7.820178226
 20
-3.08640001
 10
7.8180518106
 20
-3.0841148975
 10
7.8160134821
 20
-3.0818786892
 10
7.8140625001
 20
-3.0796912984
 10
7.812199605
 20
-3.0775528118
 10
7.8104246766
 20
-3.0754591481
 10
7.8087365538
 20
-3.0734102227
 10
7.8071363978
 20
-3.0714061201
 10
7.8061459163
 20
-3.0701174218
  0
LWPOLYLINE
  5
36D
100
AcDbEntity
  8
0
100
AcDbPolyline
 62
7
  6
CONTINUOUS
 90
10
 70
0
 10
14.0306284571
 20
-10.3372422667
 10
14.0354775699
 20
-10.3420671803
 10
14.0410596462
 20
-10.3471579057
 10
14.0473945237
 20
-10.3524707728
 10
14.0544918323
 20
-10.3579582436
 10
14.06235988
 20
-10.3635765927
 10
14.0710154358
 20
-10.3692910822
 10
14.0804685734
 20
-10.3750639911
 10
14.090713069
 20
-10.3808503892
 10
14.1017420103
 20
-10.3866087567
  0
LINE
  5
36E
100
AcDbEntity
  8
0
100
AcDbLine
 62
7
  6
CONTINUOUS
 10
13.6004476975
 20
-10.4667326372
 11
13.7420777938
 21
-10.6142594408
  0
LINE
  5
36F
100
AcDbEntity
  8
0
100
AcDbLine
 62
7
  6
CONTINUOUS
 10
13.6004476975
 20
-9.8891511188
 11
14.0306284571
 21
-10.3372422667
  0
LWPOLYLINE
  5
370
100
AcDbEntity
  8
0
100
AcDbPolyline
 62
253
  6
CONTINUOUS
 90
7
 70
0
 10
13.7420777938
 20
-10.6142594408
 10
13.7348645485
 20
-10.605881967
 10
13.7265521534
 20
-10.5933130064
 10
13.7199905711
 20
-10.5794560103
 10
13.7152516919
 20
-10.5644627988
 10
13.7123874357
 20
-10.5484976406
 10
13.7114291841
 20
-10.5317354535
  0
LWPOLYLINE
  5
371
100
AcDbEntity
  8
0
100
AcDbPolyline
 62
253
  6
CONTINUOUS
 90
5
 70
0
 10
8.3729548099
 20
-13.7994857984
 10
8.3883710271
 20
-13.8406134154
 10
8.4004733758
 20
-13.8811766448
 10
8.4090723452
 20
-13.9206741361
 10
8.4143574462
 20
-13.95960724
  0
LINE
  5
372
100
AcDbEntity
  8
0
100
AcDbLine
 62
253
  6
CONTINUOUS
 10
3.3454684825
 20
-3.4703368974
 11
3.4125844785
 21
-3.763030198
  0
LINE
  5
373
100
AcDbEntity
  8
0
100
AcDbLine
 62
253
  6
CONTINUOUS
 10
6.1875922361
 20
13.556713405
 11
6.1875922361
 21
14.2240251354
  0
LINE
  5
374
100
AcDbEntity
  8
0
100
AcDbLine
 62
7
  6
CONTINUOUS
 10
6.2278891808
 20
14.2830917312
 11
6.2278891808
 21
13.517933711
  0
LWPOLYLINE
  5
375
100
AcDbEntity
  8
0
100
AcDbPolyline
 62
253
  6
CONTINUOUS
 90
7
 70
0
 10
6.2278891806
 20
14.2830871492
 10
6.2272020114
 20
14.2748111287
 10
6.2241051497
 20
14.263760971
 10
6.2185209748
 20
14.2529639513
 10
6.2105088429
 20
14.2426250445
 10
6.2001538095
 20
14.232917589
 10
6.1875922361
 20
14.2240251354
  0
LINE
  5
376
100
AcDbEntity
  8
0
100
AcDbLine
 62
253
  6
CONTINUOUS
 10
-5.7845962002
 20
-12.379545996
 11
-5.6177247406
 21
-12.2092334474
  0
LWPOLYLINE
  5
377
100
AcDbEntity
  8
0
100
AcDbPolyline
 62
253
  6
CONTINUOUS
 90
8
 70
0
 10
8.1444191912
 20
-3.0416240813
 10
8.1470471731
 20
-3.0403254033
 10
8.149765794
 20
-3.0363100844
 10
8.152085803
 20
-3.0300192322
 10
8.1540756858
 20
-3.0216247605
 10
8.1557391141
 20
-3.0113650414
 10
8.1570817596
 20
-2.9994938099
 10
8.1581386679
 20
-2.9858794756
  0
LINE
  5
378
100
AcDbEntity
  8
0
100
AcDbLine
 62
253
  6
CONTINUOUS
 10
8.3707392138
 20
-2.7028483622
 11
8.2668296774
 21
-2.7448580585
  0
LWPOLYLINE
  5
379
100
AcDbEntity
  8
0
100
AcDbPolyline
 62
253
  6
CONTINUOUS
 90
10
 70
0
 10
8.2668296775
 20
-2.7448580585
 10
8.2560387056
 20
-2.748984591
 10
8.2448923079
 20
-2.7527831301
 10
8.2334203608
 20
-2.7562434943
 10
8.2216536135
 20
-2.7593564086
 10
8.2096236052
 20
-2.7621135292
 10
8.1973625809
 20
-2.7645074659
 10
8.1849034046
 20
-2.7665318022
 10
8.1722794715
 20
-2.7681811121
 10
8.1595246186
 20
-2.7694509747
  0
LINE
  5
37A
100
AcDbEntity
  8
0
100
AcDbLine
 62
253
  6
CONTINUOUS
 10
-12.6677748716
 20
13.3529007955
 11
-2.768279935
 21
7.6370564889
  0
LWPOLYLINE
  5
37B
100
AcDbEntity
  8
0
100
AcDbPolyline
 62
253
  6
CONTINUOUS
 90
31
 70
0
 10
-2.768279935
 20
7.6370564889
 10
-2.4418945448
 20
7.4387370914
 10
-2.1164037543
 20
7.2212241462
 10
-1.7926997111
 20
6.985113841
 10
-1.4716696654
 20
6.7310533379
 10
-1.1541935384
 20
6.459738999
 10
-0.84114151
 20
6.171914478
 10
-0.5333716341
 20
5.8683686819
 10
-0.2317274864
 20
5.5499336088
 10
0.0629641472
 20
5.2174820669
 10
0.3498955377
 20
4.8719252829
 10
0.6282802259
 20
4.5142104038
 10
0.8973551788
 20
4.1453179013
 10
1.1563828807
 20
3.7662588842
 10
1.4046533545
 20
3.3780723267
 10
1.6414861083
 20
2.9818222213
 10
1.8662319999
 20
2.5785946621
 10
2.0782750164
 20
2.1694948676
 10
2.2770339627
 20
1.755644152
 10
2.4619640543
 20
1.3381768514
 10
2.6325584106
 20
0.9182372145
 10
2.7883494445
 20
0.4969762668
 10
2.9289101434
 20
0.0755486552
 10
3.0538552404
 20
-0.3448905164
 10
3.1628422695
 20
-0.7631888536
 10
3.2555725049
 20
-1.1781998297
 10
3.3317917796
 20
-1.5887859284
 10
3.3912911816
 20
-1.9938217617
 10
3.4339076274
 20
-2.3921971547
 10
3.4595243081
 20
-2.7828201881
 10
3.4680710104
 20
-3.1646201912
  0
LWPOLYLINE
  5
37C
100
AcDbEntity
  8
0
100
AcDbPolyline
 62
7
  6
CONTINUOUS
 90
10
 70
0
 10
14.0306284571
 20
-5.0301854675
 10
14.0354775699
 20
-5.0350103812
 10
14.0410596462
 20
-5.0401011066
 10
14.0473945237
 20
-5.0454139737
 10
14.0544918323
 20
-5.0509014445
 10
14.06235988
 20
-5.0565197936
 10
14.0710154358
 20
-5.062234283
 10
14.0804685734
 20
-5.0680071919
 10
14.090713069
 20
-5.0737935901
 10
14.1017420103
 20
-5.0795519576
  0
LWPOLYLINE
  5
37D
100
AcDbEntity
  8
0
100
AcDbPolyline
 62
7
  6
CONTINUOUS
 90
7
 70
0
 10
13.7420777938
 20
-5.3072026416
 10
13.758525857
 20
-5.3236249329
 10
13.7759192272
 20
-5.3396046909
 10
13.794251196
 20
-5.355125749
 10
13.8135562049
 20
-5.370202645
 10
13.8337910179
 20
-5.3847863938
 10
13.8548176248
 20
-5.3987760172
  0
LINE
  5
37E
100
AcDbEntity
  8
0
100
AcDbLine
 62
7
  6
CONTINUOUS
 10
13.7420777938
 20
-5.3072026416
 11
13.6004476975
 21
-5.159675838
  0
LWPOLYLINE
  5
37F
100
AcDbEntity
  8
0
100
AcDbPolyline
 62
7
  6
CONTINUOUS
 90
5
 70
0
 10
8.2163943085
 20
-3.5334289941
 10
8.2115543083
 20
-3.526014757
 10
8.2067125154
 20
-3.5186616948
 10
8.201872453
 20
-3.5113686524
 10
8.1970341213
 20
-3.5041356297
  0
LINE
  5
380
100
AcDbEntity
  8
0
100
AcDbLine
 62
7
  6
CONTINUOUS
 10
8.2260900708
 20
-3.5484340625
 11
8.2163943085
 21
-3.5334289941
  0
LWPOLYLINE
  5
381
100
AcDbEntity
  8
0
100
AcDbPolyline
 62
7
  6
CONTINUOUS
 90
3
 70
0
 10
8.2407365383
 20
-3.5713623583
 10
8.2358420819
 20
-3.5636630386
 10
8.2260900708
 20
-3.5484340625
  0
LWPOLYLINE
  5
382
100
AcDbEntity
  8
0
100
AcDbPolyline
 62
7
  6
CONTINUOUS
 90
5
 70
0
 10
8.3589875772
 20
-13.848810486
 10
8.3660352018
 20
-13.877982531
 10
8.3703895456
 20
-13.9049121766
 10
8.3722636258
 20
-13.9289720882
 10
8.3723946791
 20
-13.9368837432
  0
LINE
  5
383
100
AcDbEntity
  8
0
100
AcDbLine
 62
253
  6
CONTINUOUS
 10
8.4143574462
 20
-13.95960724
 11
8.4163286787
 21
-13.9979759563
  0
LWPOLYLINE
  5
384
100
AcDbEntity
  8
0
100
AcDbPolyline
 62
7
  6
CONTINUOUS
 90
3
 70
0
 10
6.2278897212
 20
14.283087151
 10
6.2257176773
 20
14.3295862551
 10
6.2194036211
 20
14.3763333361
  0
LWPOLYLINE
  5
385
100
AcDbEntity
  8
0
100
AcDbPolyline
 62
7
  6
CONTINUOUS
 90
3
 70
0
 10
6.187590921
 20
14.2240258756
 10
6.185658354
 20
14.271140386
 10
6.1792795464
 20
14.3202000752
  0
LWPOLYLINE
  5
386
100
AcDbEntity
  8
0
100
AcDbPolyline
 62
253
  6
CONTINUOUS
 90
13
 70
0
 10
8.0278720339
 20
-3.5241291145
 10
8.0274523735
 20
-3.5084441863
 10
8.0267134479
 20
-3.491753028
 10
8.0256694834
 20
-3.4743163907
 10
8.0243458683
 20
-3.4564858848
 10
8.0227607343
 20
-3.4384493584
 10
8.020912612
 20
-3.4202206051
 10
8.018808739
 20
-3.4019703651
 10
8.0164854356
 20
-3.3841035198
 10
8.0139840498
 20
-3.3669901874
 10
8.0113454089
 20
-3.3509429607
 10
8.008606937
 20
-3.3362213178
 10
8.0058122419
 20
-3.3230944625
  0
LWPOLYLINE
  5
387
100
AcDbEntity
  8
0
100
AcDbPolyline
 62
253
  6
CONTINUOUS
 90
30
 70
0
 10
8.4163286787
 20
-2.8380674861
 10
8.4043535789
 20
-2.3177051894
 10
8.3695613164
 20
-1.788690692
 10
8.3119518914
 20
-1.2510239938
 10
8.2312090778
 20
-0.7032017086
 10
8.1276491015
 20
-0.1467272227
 10
8.0022206408
 20
0.4138893052
 10
7.8547612195
 20
0.9786674803
 10
7.6854333136
 20
1.5475876973
 10
7.4956730291
 20
2.1160809809
 10
7.285329124
 20
2.6841362393
 10
7.0545528402
 20
3.2517645644
 10
6.8052340104
 20
3.8144302552
 10
6.5372348973
 20
4.3720920912
 10
6.2506932382
 20
4.9247912931
 10
5.9479120768
 20
5.4681158221
 10
5.6287692853
 20
6.0019951768
 10
5.2933869915
 20
6.5264998588
 10
4.9444346229
 20
7.0374293336
 10
4.581807605
 20
7.5346849415
 10
4.2056105123
 20
8.0183653422
 10
3.8188264958
 20
8.4845659816
 10
3.4213703212
 20
8.9331614391
 10
3.0133272228
 20
9.3642771353
 10
2.5979360544
 20
9.7743847776
 10
2.1751325495
 20
10.1633338676
 10
1.7449809747
 20
10.5312749038
 10
1.3109129829
 20
10.8751310889
 10
0.8740724587
 20
11.1938768237
 10
0.4333155176
 20
11.4885377074
  0
LWPOLYLINE
  5
388
100
AcDbEntity
  8
0
100
AcDbPolyline
 62
253
  6
CONTINUOUS
 90
8
 70
0
 10
8.3723946959
 20
-14.4115277414
 10
8.3724460972
 20
-14.4137948777
 10
8.3741404693
 20
-14.4247028619
 10
8.3782054415
 20
-14.4354001746
 10
8.3845760144
 20
-14.4457157647
 10
8.3931503218
 20
-14.4554846849
 10
8.4037912598
 20
-14.4645507291
 10
8.4163286787
 20
-14.4727689304
  0
LWPOLYLINE
  5
389
100
AcDbEntity
  8
0
100
AcDbPolyline
 62
253
  6
CONTINUOUS
 90
31
 70
0
 10
8.1595246186
 20
-2.7694509747
 10
8.1482321587
 20
-2.2649919333
 10
8.114385731
 20
-1.7488753295
 10
8.058078106
 20
-1.2225158029
 10
7.9794636192
 20
-0.6873560685
 10
7.8787577473
 20
-0.144862962
 10
7.7562365181
 20
0.4034765809
 10
7.6122357538
 20
0.9561595994
 10
7.4471501506
 20
1.511671228
 10
7.2614321964
 20
2.0684888478
 10
7.0555909315
 20
2.6250862604
 10
6.8301905523
 20
3.179937871
 10
6.5858488657
 20
3.7315228699
 10
6.3232355951
 20
4.278329401
 10
6.0430705454
 20
4.8188587056
 10
5.7461216295
 20
5.3516292304
 10
5.4332027636
 20
5.8751806885
 10
5.1051716367
 20
6.3880780616
 10
4.7629273593
 20
6.8889155338
 10
4.4074079992
 20
7.3763203444
 10
4.0395880101
 20
7.8489565506
 10
3.6604755612
 20
8.3055286894
 10
3.2711097733
 20
8.7447853284
 10
2.8725578709
 20
9.1655224957
 10
2.4659122571
 20
9.5665869798
 10
2.0522875194
 20
9.946879491
 10
1.6328173743
 20
10.3053576739
 10
1.2086515603
 20
10.6410389647
 10
0.7809526865
 20
10.9530032843
 10
0.3508930457
 20
11.2403955603
 10
-0.0803485984
 20
11.5024280703
  0
LWPOLYLINE
  5
38A
100
AcDbEntity
  8
0
100
AcDbPolyline
 62
7
  6
CONTINUOUS
 90
31
 70
0
 10
8.3723946959
 20
-2.7768262971
 10
8.361002577
 20
-2.2677507521
 10
8.3268325445
 20
-1.7464651903
 10
8.2699443226
 20
-1.214420509
 10
8.1904676783
 20
-0.6731192783
 10
8.0885950731
 20
-0.124058928
 10
7.9645719906
 20
0.4312843778
 10
7.8187063357
 20
0.9913947989
 10
7.6513849758
 20
1.5546787089
 10
7.4630610904
 20
2.119534756
 10
7.2542406809
 20
2.6843885685
 10
7.0254898398
 20
3.2476628535
 10
6.7774446708
 20
3.807757767
 10
6.510785921
 20
4.3631126211
 10
6.2262490481
 20
4.9121774314
 10
5.9246368068
 20
5.4533927235
 10
5.6067873228
 20
5.9852509308
 10
5.2735849523
 20
6.5062717406
 10
4.9259766433
 20
7.0149794068
 10
4.5649353302
 20
7.5099602528
 10
4.1914712152
 20
7.9898417636
 10
3.8066508128
 20
8.4532704852
 10
3.4115576861
 20
8.8989631827
 10
3.0073006772
 20
9.3256928077
 10
2.5950359047
 20
9.7322666348
 10
2.1759343081
 20
10.1175625576
 10
1.7511704942
 20
10.4805358267
 10
1.3219452503
 20
10.820197359
 10
0.8894761438
 20
11.1356240053
 10
0.4549866039
 20
11.4259672012
 10
0.0197045528
 20
11.6904532108
  0
LWPOLYLINE
  5
38B
100
AcDbEntity
  8
0
100
AcDbPolyline
 62
253
  6
CONTINUOUS
 90
13
 70
0
 10
8.1595246186
 20
-14.0341446146
 10
8.1593698371
 20
-14.0146477055
 10
8.1589064411
 20
-13.9940798974
 10
8.1581378458
 20
-13.9726160449
 10
8.1570806188
 20
-13.9506339433
 10
8.1557378062
 20
-13.9281358592
 10
8.1540743259
 20
-13.9047112366
 10
8.1520845385
 20
-13.8805688592
 10
8.1497648049
 20
-13.855917984
 10
8.1470464931
 20
-13.830386757
 10
8.143893716
 20
-13.8041277078
 10
8.1403295123
 20
-13.7778015971
 10
8.1363687273
 20
-13.7519369673
  0
LINE
  5
38C
100
AcDbEntity
  8
0
100
AcDbLine
 62
253
  6
CONTINUOUS
 10
8.0278708135
 20
-13.5024068228
 11
8.0278708135
 21
-3.5241292327
  0
LINE
  5
38D
100
AcDbEntity
  8
0
100
AcDbLine
 62
253
  6
CONTINUOUS
 10
8.1595246186
 20
-14.2000348498
 11
8.1595246186
 21
-14.0341446146
  0
LINE
  5
38E
100
AcDbEntity
  8
0
100
AcDbLine
 62
253
  6
CONTINUOUS
 10
8.1595246186
 20
-2.9353412099
 11
8.1595246186
 21
-2.7694509747
  0
LINE
  5
38F
100
AcDbEntity
  8
0
100
AcDbLine
 62
253
  6
CONTINUOUS
 10
8.2407365383
 20
-3.5713623583
 11
8.2407365383
 21
-13.5367047588
  0
LINE
  5
390
100
AcDbEntity
  8
0
100
AcDbLine
 62
253
  6
CONTINUOUS
 10
8.2668296774
 20
-2.7448580585
 11
8.2668296774
 21
-2.9107482936
  0
LINE
  5
391
100
AcDbEntity
  8
0
100
AcDbLine
 62
253
  6
CONTINUOUS
 10
8.2668296774
 20
-14.0095516984
 11
8.2668296774
 21
-14.1754419336
  0
LINE
  5
392
100
AcDbEntity
  8
0
100
AcDbLine
 62
7
  6
CONTINUOUS
 10
8.3723946959
 20
-14.4115277414
 11
8.3723946959
 21
-13.9368054602
  0
LINE
  5
393
100
AcDbEntity
  8
0
100
AcDbLine
 62
7
  6
CONTINUOUS
 10
8.3723951078
 20
-3.2517549723
 11
8.3723946959
 21
-2.7768262971
  0
LINE
  5
394
100
AcDbEntity
  8
0
100
AcDbLine
 62
253
  6
CONTINUOUS
 10
8.4163286787
 20
-2.8380674861
 11
8.4163286787
 21
-3.3128609583
  0
LINE
  5
395
100
AcDbEntity
  8
0
100
AcDbLine
 62
253
  6
CONTINUOUS
 10
8.4163286787
 20
-13.9979759563
 11
8.4163286787
 21
-14.4727689304
  0
LINE
  5
396
100
AcDbEntity
  8
0
100
AcDbLine
 62
253
  6
CONTINUOUS
 10
8.1593699645
 20
-2.9536056605
 11
8.1595246186
 21
-2.9353412099
  0
LWPOLYLINE
  5
397
100
AcDbEntity
  8
0
100
AcDbPolyline
 62
7
  6
CONTINUOUS
 90
5
 70
0
 10
8.3723950206
 20
-3.2517515038
 10
8.3722428089
 20
-3.259726908
 10
8.3711408256
 20
-3.2740861976
 10
8.3692085865
 20
-3.2860106114
 10
8.3667442152
 20
-3.295476607
  0
LINE
  5
398
100
AcDbEntity
  8
0
100
AcDbLine
 62
7
  6
CONTINUOUS
 10
8.3622472922
 20
-14.8797757216
 11
8.3723946959
 21
-14.4115277414
  0
LWPOLYLINE
  5
399
100
AcDbEntity
  8
0
100
AcDbPolyline
 62
253
  6
CONTINUOUS
 90
19
 70
0
 10
8.2668296774
 20
-14.1754419336
 10
8.2554928751
 20
-14.6687903975
 10
8.2215135413
 20
-15.1476951724
 10
8.1649848111
 20
-15.6108436135
 10
8.0860616259
 20
-16.0569662631
 10
7.9849603086
 20
-16.4848403301
 10
7.8619579708
 20
-16.8932930414
 10
7.7173917535
 20
-17.2812048565
 10
7.5516579025
 20
-17.647512536
 10
7.3652106829
 20
-17.9912120562
 10
7.1585611336
 20
-18.3113613604
 10
6.9322756665
 20
-18.6070829418
 10
6.6869745144
 20
-18.877566248
 10
6.4233300307
 20
-19.122069903
 10
6.1420648467
 20
-19.3399237394
 10
5.8439498906
 20
-19.5305306349
 10
5.5298022748
 20
-19.6933681493
 10
5.2004830561
 20
-19.8279899562
 10
5.0693527411
 20
-19.872371764
  0
LWPOLYLINE
  5
39A
100
AcDbEntity
  8
0
100
AcDbPolyline
 62
253
  6
CONTINUOUS
 90
3
 70
0
 10
8.1581386679
 20
-2.9858794756
 10
8.158906879
 20
-2.9705011468
 10
8.1593699645
 20
-2.9536056605
  0
LINE
  5
39B
100
AcDbEntity
  8
0
100
AcDbLine
 62
253
  6
CONTINUOUS
 10
8.4163286787
 20
-3.3128609583
 11
8.4143732831
 21
-3.3488989001
  0
LWPOLYLINE
  5
39C
100
AcDbEntity
  8
0
100
AcDbPolyline
 62
253
  6
CONTINUOUS
 90
8
 70
0
 10
8.2668296775
 20
-2.9107482936
 10
8.2606607718
 20
-2.9392938397
 10
8.2518705042
 20
-2.9650353574
 10
8.2406267918
 20
-2.9874811159
 10
8.2271444191
 20
-3.0062023424
 10
8.2116809349
 20
-3.0208414122
 10
8.1945317322
 20
-3.0311186807
 10
8.1800223987
 20
-3.0360179269
  0
LINE
  5
39D
100
AcDbEntity
  8
0
100
AcDbLine
 62
253
  6
CONTINUOUS
 10
8.3723946959
 20
-3.2038001496
 11
8.237571951
 21
-3.2931231377
  0
LINE
  5
39E
100
AcDbEntity
  8
0
100
AcDbLine
 62
7
  6
CONTINUOUS
 10
8.3637936014
 20
-3.3050388288
 11
8.3637662067
 21
-3.3050569705
  0
LWPOLYLINE
  5
39F
100
AcDbEntity
  8
0
100
AcDbPolyline
 62
253
  6
CONTINUOUS
 90
3
 70
0
 10
8.3637662067
 20
-3.3050569705
 10
8.3601895055
 20
-3.3072917879
 10
8.3431351558
 20
-3.3148135088
  0
LINE
  5
3A0
100
AcDbEntity
  8
0
100
AcDbLine
 62
253
  6
CONTINUOUS
 10
13.6004476975
 20
-2.973390682
 11
11.084538169
 21
-4.1923126463
  0
LWPOLYLINE
  5
3A1
100
AcDbEntity
  8
0
100
AcDbPolyline
 62
253
  6
CONTINUOUS
 90
13
 70
0
 10
11.084538169
 20
-4.1923126463
 10
11.0596959322
 20
-4.2029102155
 10
11.032779969
 20
-4.2116581532
 10
11.0042011329
 20
-4.2184229284
 10
10.9743956596
 20
-4.2231012814
 10
10.943818509
 20
-4.2256218005
 10
10.9129364197
 20
-4.2259460117
 10
10.8822207853
 20
-4.2240689661
 10
10.8521404584
 20
-4.2200193156
 10
10.8231545941
 20
-4.2138588753
 10
10.7957056413
 20
-4.2056816798
 10
10.7702125892
 20
-4.1956125485
 10
10.7470645712
 20
-4.1838051795
  0
LINE
  5
3A2
100
AcDbEntity
  8
0
100
AcDbLine
 62
7
  6
CONTINUOUS
 10
14.0306284571
 20
-5.0301854675
 11
13.6004476975
 21
-4.5820943196
  0
LWPOLYLINE
  5
3A3
100
AcDbEntity
  8
0
100
AcDbPolyline
 62
253
  6
CONTINUOUS
 90
7
 70
0
 10
13.7420777938
 20
-5.3072026416
 10
13.7348645485
 20
-5.2988251678
 10
13.7265521534
 20
-5.2862562073
 10
13.7199905711
 20
-5.2723992111
 10
13.7152516919
 20
-5.2574059996
 10
13.7123874357
 20
-5.2414408415
 10
13.7114291841
 20
-5.2246786543
  0
LWPOLYLINE
  5
3A4
100
AcDbEntity
  8
0
100
AcDbPolyline
 62
253
  6
CONTINUOUS
 90
25
 70
0
 10
20.5365018151
 20
-11.6914832997
 10
20.5465756343
 20
-11.7035871031
 10
20.5590149998
 20
-11.7149338109
 10
20.5736516903
 20
-11.7253699783
 10
20.59028777
 20
-11.734754474
 10
20.6086982641
 20
-11.7429603888
 10
20.6286342026
 20
-11.7498767518
 10
20.6498259858
 20
-11.755410031
 10
20.6719870315
 20
-11.7594853983
 10
20.6948176493
 20
-11.7620477414
 10
20.7180090945
 20
-11.763062409
 10
20.7412477424
 20
-11.7625156795
 10
20.7642193302
 20
-11.7604149464
 10
20.7866132066
 20
-11.7567886185
 10
20.8081265329
 20
-11.7516857357
 10
20.8284683782
 20
-11.7451753058
 10
20.847363654
 20
-11.7373453711
 10
20.864556834
 20
-11.728301818
 10
20.87981541
 20
-11.7181669452
 10
20.8929330359
 20
-11.7070778093
 10
20.9037323184
 20
-11.695184372
 10
20.9120672156
 20
-11.6826474715
 10
20.9178250124
 20
-11.6696366479
 10
20.9209278445
 20
-11.6563278504
 10
20.9214995757
 20
-11.6476025034
  0
LWPOLYLINE
  5
3A5
100
AcDbEntity
  8
0
100
AcDbPolyline
 62
7
  6
CONTINUOUS
 90
16
 70
0
 10
8.1566870564
 20
-3.3856434668
 10
8.1590959544
 20
-3.3927991013
 10
8.1614052106
 20
-3.4003291314
 10
8.1636191245
 20
-3.4082243121
 10
8.1656906847
 20
-3.4165418551
 10
8.167687549
 20
-3.4251925015
 10
8.1697828002
 20
-3.4339341938
 10
8.1719978536
 20
-3.4427401803
 10
8.1743274764
 20
-3.4515778219
 10
8.1768890668
 20
-3.4601953917
 10
8.1797197987
 20
-3.4685895687
 10
8.1827784768
 20
-3.476737296
 10
8.1860515885
 20
-3.4843780085
 10
8.1895266593
 20
-3.4914388055
 10
8.1931957914
 20
-3.4980238412
 10
8.1970465018
 20
-3.5041542283
  0
LWPOLYLINE
  5
3A6
100
AcDbEntity
  8
0
100
AcDbPolyline
 62
253
  6
CONTINUOUS
 90
6
 70
0
 10
8.3723951078
 20
-3.2517549723
 10
8.3738281002
 20
-3.2634966197
 10
8.3776775222
 20
-3.274334598
 10
8.3839369389
 20
-3.2848680553
 10
8.3925357087
 20
-3.2949008556
 10
8.4033805685
 20
-3.3042673099
  0
LINE
  5
3A7
100
AcDbEntity
  8
0
100
AcDbLine
 62
253
  6
CONTINUOUS
 10
10.7470645712
 20
-15.8185066238
 11
10.7470645712
 21
-4.1838051795
  0
LWPOLYLINE
  5
3A8
100
AcDbEntity
  8
0
100
AcDbPolyline
 62
253
  6
CONTINUOUS
 90
12
 70
0
 10
8.4143732831
 20
-3.3488989001
 10
8.4091012859
 20
-3.3816930574
 10
8.4005126871
 20
-3.4112434304
 10
8.3884192631
 20
-3.4378392504
 10
8.3730092375
 20
-3.461191286
 10
8.3548472811
 20
-3.4804318429
 10
8.3338319957
 20
-3.4954073606
 10
8.3100647794
 20
-3.5062713996
 10
8.2844144973
 20
-3.5126169472
 10
8.2571707711
 20
-3.5143083327
 10
8.2280439791
 20
-3.5114812269
 10
8.1970341213
 20
-3.5041356297
  0
LINE
  5
3A9
100
AcDbEntity
  8
0
100
AcDbLine
 62
7
  6
CONTINUOUS
 10
8.3667442152
 20
-3.295476607
 11
8.3654355417
 21
-3.2992208676
  0
LWPOLYLINE
  5
3AA
100
AcDbEntity
  8
0
100
AcDbPolyline
 62
7
  6
CONTINUOUS
 90
6
 70
0
 10
8.3654355417
 20
-3.2992208676
 10
8.3641837066
 20
-3.3022216804
 10
8.3622553364
 20
-3.305882039
 10
8.3615895269
 20
-3.3068478468
 10
8.3623579353
 20
-3.3061154692
 10
8.3637636153
 20
-3.3050586627
  0
LWPOLYLINE
  5
3AB
100
AcDbEntity
  8
0
100
AcDbPolyline
 62
253
  6
CONTINUOUS
 90
10
 70
0
 10
8.1566870666
 20
-3.3856434939
 10
8.1634470018
 20
-3.3729157371
 10
8.1709353603
 20
-3.3605334595
 10
8.179088928
 20
-3.3486163163
 10
8.1878374825
 20
-3.3372810168
 10
8.1971032434
 20
-3.3266415407
 10
8.2068012956
 20
-3.3168076194
 10
8.2168418562
 20
-3.3078817428
 10
8.2271312242
 20
-3.2999583351
 10
8.2375714173
 20
-3.2931238445
  0
LWPOLYLINE
  5
3AC
100
AcDbEntity
  8
0
100
AcDbPolyline
 62
253
  6
CONTINUOUS
 90
14
 70
0
 10
-10.0876294722
 20
17.5770266949
 10
-10.5323028302
 20
17.8199483099
 10
-10.9730597712
 20
18.0342624938
 10
-11.4099002955
 20
18.2199692466
 10
-11.8439682872
 20
18.3773638981
 10
-12.2741198621
 20
18.5061511184
 10
-12.6969233669
 20
18.6054449179
 10
-13.1123145353
 20
18.6750205847
 10
-13.5203576337
 20
18.7151028306
 10
-13.9178138083
 20
18.7254798009
 10
-14.3045978248
 20
18.7059276487
 10
-14.6807949175
 20
18.6566702209
 10
-15.0434219354
 20
18.5781672038
 10
-15.392374304
 20
18.4701991773
  0
LWPOLYLINE
  5
3AD
100
AcDbEntity
  8
0
100
AcDbPolyline
 62
253
  6
CONTINUOUS
 90
15
 70
0
 10
-9.979843535
 20
17.2182723769
 10
-10.4110851792
 20
17.4542269081
 10
-10.8411448199
 20
17.6634567254
 10
-11.2688436937
 20
17.8453883446
 10
-11.6930095077
 20
17.9995231037
 10
-12.1124796528
 20
18.12543853
 10
-12.5261043906
 20
18.2227894981
 10
-12.9327500043
 20
18.2913091758
 10
-13.3313019067
 20
18.3308097553
 10
-13.7206676946
 20
18.3411829684
 10
-14.0997801435
 20
18.3224003828
 10
-14.4676001326
 20
18.2745134802
 10
-14.8231194927
 20
18.1976535154
 10
-15.1653637702
 20
18.0920311561
 10
-15.493394897
 20
17.9579359059
  0
LINE
  5
3AE
100
AcDbEntity
  8
0
100
AcDbLine
 62
253
  6
CONTINUOUS
 10
-10.337829304
 20
17.5357882646
 11
-9.9048942875
 21
17.2989072022
  0
LWPOLYLINE
  5
3AF
100
AcDbEntity
  8
0
100
AcDbPolyline
 62
7
  6
CONTINUOUS
 90
16
 70
0
 10
-10.0565670791
 20
17.5083661657
 10
-10.4671895518
 20
17.7337364492
 10
-10.8765594735
 20
17.9349874667
 10
-11.2836299262
 20
18.1116232082
 10
-11.687263072
 20
18.2631819323
 10
-12.0865320921
 20
18.389351851
 10
-12.4807026318
 20
18.489906544
 10
-12.8687083099
 20
18.5645621878
 10
-13.2495972057
 20
18.6131281786
 10
-13.6227885483
 20
18.6354816979
 10
-13.9873737241
 20
18.6314728466
 10
-14.3423243847
 20
18.6010181854
 10
-14.6868908721
 20
18.5440745605
 10
-15.0202364469
 20
18.4606414042
 10
-15.3414448365
 20
18.3508023371
 10
-15.6496927045
 20
18.2146925558
  0
LINE
  5
3B0
100
AcDbEntity
  8
0
100
AcDbLine
 62
253
  6
CONTINUOUS
 10
-0.0803485984
 20
11.5024280703
 11
-9.979843535
 21
17.2182723769
  0
LINE
  5
3B1
100
AcDbEntity
  8
0
100
AcDbLine
 62
253
  6
CONTINUOUS
 10
-9.9048942875
 20
17.2989072022
 11
-0.0053993509
 21
11.5830628956
  0
LINE
  5
3B2
100
AcDbEntity
  8
0
100
AcDbLine
 62
7
  6
CONTINUOUS
 10
0.0197045528
 20
11.6904532108
 11
-10.0565670791
 21
17.5083661657
  0
LINE
  5
3B3
100
AcDbEntity
  8
0
100
AcDbLine
 62
253
  6
CONTINUOUS
 10
-10.0876294722
 20
17.5770266949
 11
-0.0113578403
 21
11.75911374
  0
LWPOLYLINE
  5
3B4
100
AcDbEntity
  8
0
100
AcDbPolyline
 62
253
  6
CONTINUOUS
 90
31
 70
0
 10
-0.0053993509
 20
11.5830628956
 10
0.4275356656
 20
11.3200014529
 10
0.8592840372
 20
11.0314806632
 10
1.2886623718
 20
10.7182913419
 10
1.7144937732
 20
10.3812919191
 10
2.1356110671
 20
10.0214060868
 10
2.5508600002
 20
9.6396202672
 10
2.9591024042
 20
9.2369809084
 10
3.3592193148
 20
8.8145916172
 10
3.7501140396
 20
8.3736101331
 10
4.1307151633
 20
7.9152451557
 10
4.4999794845
 20
7.4407530317
 10
4.8568948756
 20
6.9514343108
 10
5.2004830561
 20
6.4486301818
 10
5.5298022748
 20
5.9337187958
 10
5.8439498906
 20
5.4081114891
 10
6.1420648467
 20
4.8732489148
 10
6.4233300307
 20
4.3305970941
 10
6.6869745144
 20
3.7816433978
 10
6.9322756665
 20
3.2278924698
 10
7.1585611336
 20
2.6708621031
 10
7.3652106829
 20
2.1120790791
 10
7.5516579025
 20
1.5530749832
 10
7.7173917535
 20
0.9953820069
 10
7.8619579708
 20
0.4405287477
 10
7.9849603086
 20
-0.1099639801
 10
8.0860616259
 20
-0.6545873141
 10
8.1649848111
 20
-1.1918484798
 10
8.2215135413
 20
-1.7202748815
 10
8.2554928751
 20
-2.2384181393
 10
8.2668296774
 20
-2.7448580585
  0
LWPOLYLINE
  5
3B5
100
AcDbEntity
  8
0
100
AcDbPolyline
 62
253
  6
CONTINUOUS
 90
8
 70
0
 10
0.0197045528
 20
11.6904532108
 10
0.0177706064
 20
11.6916289824
 10
0.0091718096
 20
11.6985492897
 10
0.001940748
 20
11.7074172815
 10
-0.0038069531
 20
11.7180911576
 10
-0.0079793874
 20
11.7304002417
 10
-0.0105098372
 20
11.7441477103
 10
-0.0113578403
 20
11.75911374
  0
LINE
  5
3B6
100
AcDbEntity
  8
0
100
AcDbLine
 62
253
  6
CONTINUOUS
 10
0.4333155176
 20
11.4885377074
 11
-0.0113578403
 21
11.75911374
  0
LWPOLYLINE
  5
3B7
100
AcDbEntity
  8
0
100
AcDbPolyline
 62
7
  6
CONTINUOUS
 90
6
 70
0
 10
6.1535305391
 20
14.4216586439
 10
6.1344745765
 20
14.472779223
 10
6.111603635
 20
14.5233096701
 10
6.0852087547
 20
14.5726187493
 10
6.0556170634
 20
14.6200858698
 10
6.023194236
 20
14.6651139436
  0
LWPOLYLINE
  5
3B8
100
AcDbEntity
  8
0
100
AcDbPolyline
 62
7
  6
CONTINUOUS
 90
11
 70
0
 10
6.2194036211
 20
14.3763333361
 10
6.209247455
 20
14.4229561299
 10
6.1955111695
 20
14.4691646568
 10
6.1784233078
 20
14.5146816273
 10
6.1582258417
 20
14.5591473883
 10
6.1351809174
 20
14.6021729548
 10
6.1094649891
 20
14.6435247926
 10
6.0811842222
 20
14.6830151458
 10
6.0504635526
 20
14.7203619481
 10
6.0174850654
 20
14.7551861559
 10
5.9824238602
 20
14.7871108137
  0
LWPOLYLINE
  5
3B9
100
AcDbEntity
  8
0
100
AcDbPolyline
 62
7
  6
CONTINUOUS
 90
3
 70
0
 10
6.1792795464
 20
14.3202000752
 10
6.1685278113
 20
14.3705851941
 10
6.1535305391
 20
14.4216586439
  0
LINE
  5
3BA
100
AcDbEntity
  8
0
100
AcDbLine
 62
253
  6
CONTINUOUS
 10
11.084538169
 20
-4.1923126463
 11
11.084538169
 21
-15.8270140906
  0
LWPOLYLINE
  5
3BB
100
AcDbEntity
  8
0
100
AcDbPolyline
 62
253
  6
CONTINUOUS
 90
19
 70
0
 10
11.084538169
 20
-15.8270140906
 10
11.0721530593
 20
-16.420617925
 10
11.0350257867
 20
-16.9985750416
 10
10.9732404563
 20
-17.5595761817
 10
10.8869370318
 20
-18.1023504973
 10
10.7763110181
 20
-18.6256684299
 10
10.6416130188
 20
-19.1283444962
 10
10.4831481682
 20
-19.6092399731
 10
10.3012754401
 20
-20.0672654777
 10
10.0964068348
 20
-20.501383435
 10
9.8690064455
 20
-20.9106104281
 10
9.6195894073
 20
-21.2940194263
 10
9.3487207299
 20
-21.650741885
 10
9.0570140181
 20
-21.9799697128
 10
8.7451300813
 20
-22.2809571031
 10
8.4137754371
 20
-22.5530222225
 10
8.0637007102
 20
-22.795548756
 10
7.6956989325
 20
-23.007987303
 10
7.389176883
 20
-23.1558481898
  0
LWPOLYLINE
  5
3BC
100
AcDbEntity
  8
0
100
AcDbPolyline
 62
253
  6
CONTINUOUS
 90
11
 70
0
 10
10.7470645712
 20
-15.8185066238
 10
10.7345841282
 20
-16.405451657
 10
10.6979942518
 20
-16.9743259689
 10
10.6372949419
 20
-17.5251295594
 10
10.5522262306
 20
-18.0590060768
 10
10.4430480858
 20
-18.5748118728
 10
10.3105404118
 20
-19.0691160027
 10
10.1545509373
 20
-19.5417736528
 10
9.9752319336
 20
-19.9929296369
 10
9.7738201182
 20
-20.4195874512
 10
9.5501715241
 20
-20.8215845114
  0
LWPOLYLINE
  5
3BD
100
AcDbEntity
  8
0
100
AcDbPolyline
 62
253
  6
CONTINUOUS
 90
7
 70
0
 10
-18.4208707848
 20
12.6869878041
 10
-18.432068482
 20
12.6875676702
 10
-18.4505955774
 20
12.6899147342
 10
-18.4684615525
 20
12.6935930231
 10
-18.4853807285
 20
12.6985437208
 10
-18.5010825661
 20
12.704687665
 10
-18.5153159913
 20
12.7119266136
  0
LINE
  5
3BE
100
AcDbEntity
  8
0
100
AcDbLine
 62
253
  6
CONTINUOUS
 10
-0.0113578403
 20
14.4503290273
 11
-10.0876294722
 21
20.2682419822
  0
LINE
  5
3BF
100
AcDbEntity
  8
0
100
AcDbLine
 62
253
  6
CONTINUOUS
 10
-9.9262598811
 20
20.5647556019
 11
0.1500117508
 21
14.746842647
  0
LWPOLYLINE
  5
3C0
100
AcDbEntity
  8
0
100
AcDbPolyline
 62
253
  6
CONTINUOUS
 90
34
 70
0
 10
0.1500117508
 20
14.746842647
 10
0.6702974664
 20
14.4321355635
 10
1.1894045675
 20
14.0895401287
 10
1.7061571096
 20
13.7198324314
 10
2.2193844819
 20
13.3238499786
 10
2.7279240595
 20
12.9024897977
 10
3.2306238364
 20
12.4567064052
 10
3.7263450362
 20
11.9875096438
 10
4.2139646909
 20
11.4959623951
 10
4.692378185
 20
10.9831781717
 10
5.1605017581
 20
10.4503185948
 10
5.6172749599
 20
9.8985907628
 10
6.061663052
 20
9.3292445165
 10
6.4926593525
 20
8.7435696084
 10
6.9092875163
 20
8.1428927806
 10
7.3106037463
 20
7.5285747592
 10
7.6956989325
 20
6.9020071721
 10
8.0637007102
 20
6.2646093965
 10
8.4137754371
 20
5.6178253433
 10
8.7451300813
 20
4.9631201864
 10
9.0570140181
 20
4.3019770437
 10
9.3487207299
 20
3.6358936169
 10
9.6195894073
 20
2.9663787992
 10
9.8690064455
 20
2.2949492571
 10
10.0964068348
 20
1.6231259944
 10
10.3012754401
 20
0.9524309069
 10
10.4831481682
 20
0.2843833346
 10
10.6416130188
 20
-0.3795033797
 10
10.7763110181
 20
-1.0377253192
 10
10.8869370318
 20
-1.6887913994
 10
10.9732404563
 20
-2.3312267464
 10
11.0350257867
 20
-2.9635760373
 10
11.0721530593
 20
-3.5844067978
 10
11.084538169
 20
-4.1923126463
  0
LWPOLYLINE
  5
3C1
100
AcDbEntity
  8
0
100
AcDbPolyline
 62
253
  6
CONTINUOUS
 90
34
 70
0
 10
-0.0113578403
 20
14.4503290273
 10
0.5032086699
 20
14.1388140633
 10
1.0141808539
 20
13.8015361394
 10
1.5215587117
 20
13.4384952554
 10
2.0264627002
 20
13.0487442981
 10
2.5277723626
 20
12.6332303808
 10
3.022126328
 20
12.1947948436
 10
3.509475323
 20
11.7332903145
 10
3.989868621
 20
11.2488641654
 10
4.4600926716
 20
10.7447998526
 10
4.9200786586
 20
10.2209708764
 10
5.3698953982
 20
9.6775037364
 10
5.8065357887
 20
9.1180613881
 10
6.2299131535
 20
8.542539013
 10
6.6401141693
 20
7.9510414295
 10
7.0343917647
 20
7.3475460493
 10
7.4126403075
 20
6.731975548
 10
7.77496543
 20
6.1044072499
 10
8.1189369575
 20
5.4690505388
 10
8.4444350883
 20
4.8258526371
 10
8.7515796241
 20
4.1748663224
 10
9.0382997955
 20
3.5204593119
 10
9.3044614719
 20
2.8626089917
 10
9.5501987839
 20
2.2013379756
 10
9.7738433537
 20
1.541081822
 10
9.9752512098
 20
0.881844224
 10
10.1545663236
 20
0.2236214887
 10
10.3105522319
 20
-0.4291619044
 10
10.4430566639
 20
-1.0764749038
 10
10.5522318903
 20
-1.7183485608
 10
10.6372982594
 20
-2.3504515495
 10
10.6979958873
 20
-2.9713400945
 10
10.7345846579
 20
-3.5824579711
 10
10.7470645712
 20
-4.1838051795
  0
LWPOLYLINE
  5
3C2
100
AcDbEntity
  8
0
100
AcDbPolyline
 62
253
  6
CONTINUOUS
 90
8
 70
0
 10
13.8808137096
 20
-10.6525090155
 10
13.8817009169
 20
-10.6708770078
 10
13.8843505408
 20
-10.6878180236
 10
13.8887267497
 20
-10.7031029648
 10
13.894770363
 20
-10.7165251287
 10
13.902399651
 20
-10.7279030036
 10
13.9115114407
 20
-10.7370827232
 10
13.9223090205
 20
-10.7441053331
  0
LWPOLYLINE
  5
3C3
100
AcDbEntity
  8
0
100
AcDbPolyline
 62
253
  6
CONTINUOUS
 90
8
 70
0
 10
13.8808137096
 20
-5.3454522163
 10
13.8817009169
 20
-5.3638202086
 10
13.8843505408
 20
-5.3807612245
 10
13.8887267497
 20
-5.3960461656
 10
13.894770363
 20
-5.4094683295
 10
13.902399651
 20
-5.4208462044
 10
13.9115114407
 20
-5.4300259241
 10
13.9223090205
 20
-5.437048534
  0
LWPOLYLINE
  5
3C4
100
AcDbEntity
  8
0
100
AcDbPolyline
 62
7
  6
CONTINUOUS
 90
34
 70
0
 10
13.6004476975
 20
-2.973390682
 10
13.5875281599
 20
-2.3508762317
 10
13.5496509561
 20
-1.7182477906
 10
13.486816086
 20
-1.0755053586
 10
13.3987544353
 20
-0.4211542844
 10
13.2857351183
 20
0.2433107807
 10
13.1485654783
 20
0.9134058826
 10
12.9870878869
 20
1.5891631381
 10
12.8014599724
 20
2.2705504304
 10
12.5929619634
 20
2.9529874553
 10
12.3614448278
 20
3.6364780068
 10
12.1070575976
 20
4.3210182908
 10
11.8315275979
 20
5.002016621
 10
11.5347159888
 20
5.679449558
 10
11.2167616101
 20
6.353340541
 10
10.8798083062
 20
7.0191682015
 10
10.5237320746
 20
7.676877876
 10
10.1486569179
 20
8.3265242279
 10
9.7570986881
 20
8.9637498786
 10
9.3489480543
 20
9.5884747569
 10
8.9243143474
 20
10.2007789341
 10
8.4860414117
 20
10.7965452454
 10
8.0340395419
 20
11.3756651609
 10
7.5683984433
 20
11.9382472106
 10
7.0922310762
 20
12.4804998191
 10
6.6054662259
 20
13.0022920177
 10
6.1081751071
 20
13.5037547752
 10
5.6036843245
 20
13.9814894225
 10
5.0919428949
 20
14.4353433897
 10
4.5730018016
 20
14.8654692467
 10
4.0503405993
 20
15.2689260344
 10
3.5251191397
 20
15.6447334331
 10
2.9961775712
 20
15.9938717624
 10
2.4635158938
 20
16.3163410224
  0
LINE
  5
3C5
100
AcDbEntity
  8
0
100
AcDbLine
 62
7
  6
CONTINUOUS
 10
13.6004476975
 20
-2.973390682
 11
13.6004476975
 21
-14.6080921263
  0
LWPOLYLINE
  5
3C6
100
AcDbEntity
  8
0
100
AcDbPolyline
 62
253
  6
CONTINUOUS
 90
16
 70
0
 10
13.7114291841
 20
-5.2246786543
 10
13.7123874357
 20
-5.2073030881
 10
13.7152516919
 20
-5.1895045133
 10
13.7199905711
 20
-5.1714779348
 10
13.7265521534
 20
-5.1534208554
 10
13.7348645485
 20
-5.1355311125
 10
13.7448366841
 20
-5.1180047096
 10
13.7563593036
 20
-5.1010336699
 10
13.7693061625
 20
-5.0848039315
 10
13.7835354124
 20
-5.0694933108
 10
13.7988911548
 20
-5.0552695542
 10
13.8152051487
 20
-5.0422885002
 10
13.8322986549
 20
-5.0306923719
 10
13.8499843931
 20
-5.0206082189
 10
13.8680685947
 20
-5.0121465253
 10
13.8863531255
 20
-5.0053999992
  0
LWPOLYLINE
  5
3C7
100
AcDbEntity
  8
0
100
AcDbPolyline
 62
253
  6
CONTINUOUS
 90
16
 70
0
 10
13.7114291841
 20
-10.5317354535
 10
13.7123874357
 20
-10.5143598873
 10
13.7152516919
 20
-10.4965613125
 10
13.7199905711
 20
-10.4785347339
 10
13.7265521534
 20
-10.4604776546
 10
13.7348645485
 20
-10.4425879116
 10
13.7448366841
 20
-10.4250615088
 10
13.7563593036
 20
-10.408090469
 10
13.7693061625
 20
-10.3918607306
 10
13.7835354124
 20
-10.3765501099
 10
13.7988911548
 20
-10.3623263534
 10
13.8152051487
 20
-10.3493452993
 10
13.8322986549
 20
-10.337749171
 10
13.8499843931
 20
-10.3276650181
 10
13.8680685947
 20
-10.3192033245
 10
13.8863531255
 20
-10.3124567984
  0
LWPOLYLINE
  5
3C8
100
AcDbEntity
  8
0
100
AcDbPolyline
 62
7
  6
CONTINUOUS
 90
6
 70
0
 10
5.337468921
 20
14.3411356847
 10
4.7969615544
 20
14.7938854805
 10
4.250162599
 20
15.2190294719
 10
3.6982338102
 20
15.6155444852
 10
3.1425379846
 20
15.982322356
 10
2.5846284733
 20
16.3182316113
  0
LINE
  5
3C9
100
AcDbEntity
  8
0
100
AcDbLine
 62
7
  6
CONTINUOUS
 10
5.9515241923
 20
14.7456401066
 11
5.9131911567
 21
14.7801370317
  0
LWPOLYLINE
  5
3CA
100
AcDbEntity
  8
0
100
AcDbPolyline
 62
7
  6
CONTINUOUS
 90
3
 70
0
 10
6.023194236
 20
14.6651139436
 10
5.9883481998
 20
14.707139545
 10
5.9515241923
 20
14.7456401066
  0
LWPOLYLINE
  5
3CB
100
AcDbEntity
  8
0
100
AcDbPolyline
 62
7
  6
CONTINUOUS
 90
17
 70
0
 10
12.1821444787
 20
4.423789206
 10
11.8950875539
 20
5.1316177893
 10
11.5850611171
 20
5.8352175492
 10
11.2528305362
 20
6.5329010466
 10
10.8992141221
 20
7.2229870526
 10
10.5250689143
 20
7.9038285661
 10
10.1312871487
 20
8.5738139055
 10
9.718825651
 20
9.2313171898
 10
9.288666172
 20
9.8747675556
 10
8.841791756
 20
10.5026740363
 10
8.3792639215
 20
11.1135122724
 10
7.9021755452
 20
11.7057998735
 10
7.411591734
 20
12.278162409
 10
6.9086503006
 20
12.8292064164
 10
6.3945386085
 20
13.3575589271
 10
5.8704151532
 20
13.8619482134
 10
5.337468921
 20
14.3411356847
  0
LINE
  5
3CC
100
AcDbEntity
  8
0
100
AcDbLine
 62
7
  6
CONTINUOUS
 10
12.182132194
 20
4.423820786
 11
12.1909016642
 21
4.3993659444
  0
LWPOLYLINE
  5
3CD
100
AcDbEntity
  8
0
100
AcDbPolyline
 62
7
  6
CONTINUOUS
 90
9
 70
0
 10
12.1909016642
 20
4.3993659444
 10
12.2031834266
 20
4.355453748
 10
12.2111770046
 20
4.3123147163
 10
12.2152571507
 20
4.2705281736
 10
12.2158644931
 20
4.2303055392
 10
12.2133756584
 20
4.1914948452
 10
12.208103897
 20
4.1542406226
 10
12.2003879401
 20
4.1188172023
 10
12.1923568351
 20
4.0914833246
  0
LINE
  5
3CE
100
AcDbEntity
  8
0
100
AcDbLine
 62
253
  6
CONTINUOUS
 10
8.2702516814
 20
-13.6747931005
 11
8.1363687273
 21
-13.7519369673
  0
LINE
  5
3CF
100
AcDbEntity
  8
0
100
AcDbLine
 62
253
  6
CONTINUOUS
 10
8.2668296774
 20
-14.0095516984
 11
8.3775507582
 21
-13.9457537911
  0
LWPOLYLINE
  5
3D0
100
AcDbEntity
  8
0
100
AcDbPolyline
 62
253
  6
CONTINUOUS
 90
10
 70
0
 10
20.1717926159
 20
-7.0611209243
 10
20.1745137976
 20
-7.059621352
 10
20.1768294726
 20
-7.0559770191
 10
20.1788904081
 20
-7.0502069075
 10
20.1806740241
 20
-7.0423742359
 10
20.1821607789
 20
-7.0325648207
 10
20.1833343834
 20
-7.0208861358
 10
20.1841819792
 20
-7.0074661353
 10
20.18469428
 20
-6.9924518517
 10
20.1848656729
 20
-6.9760077845
  0
LINE
  5
3D1
100
AcDbEntity
  8
0
100
AcDbLine
 62
7
  6
CONTINUOUS
 10
8.2358526995
 20
-13.5387481441
 11
8.2407365383
 21
-13.5367047588
  0
LINE
  5
3D2
100
AcDbEntity
  8
0
100
AcDbLine
 62
7
  6
CONTINUOUS
 10
8.2261136059
 20
-13.5427108716
 11
8.2358526995
 21
-13.5387481441
  0
LINE
  5
3D3
100
AcDbEntity
  8
0
100
AcDbLine
 62
253
  6
CONTINUOUS
 10
8.2668296774
 20
-14.1754419336
 11
8.3723946959
 21
-14.1327629407
  0
LWPOLYLINE
  5
3D4
100
AcDbEntity
  8
0
100
AcDbPolyline
 62
7
  6
CONTINUOUS
 90
15
 70
0
 10
8.1970465222
 20
-13.553460593
 10
8.1930898678
 20
-13.555006649
 10
8.1893364756
 20
-13.5568161673
 10
8.1857998683
 20
-13.5588364194
 10
8.1824939685
 20
-13.5610461657
 10
8.1794273689
 20
-13.56332724
 10
8.1765985164
 20
-13.5654984915
 10
8.1740462325
 20
-13.5675129426
 10
8.1717359065
 20
-13.5693088158
 10
8.1695410926
 20
-13.5707505145
 10
8.1674624361
 20
-13.5718265889
 10
8.1654843805
 20
-13.5725265926
 10
8.1634413111
 20
-13.5728027492
 10
8.1612702859
 20
-13.5726843901
 10
8.1607732951
 20
-13.5726104813
  0
LWPOLYLINE
  5
3D5
100
AcDbEntity
  8
0
100
AcDbPolyline
 62
253
  6
CONTINUOUS
 90
10
 70
0
 10
8.2668296775
 20
-14.0095516984
 10
8.2560387056
 20
-14.0136782309
 10
8.2448923079
 20
-14.01747677
 10
8.2334203608
 20
-14.0209371342
 10
8.2216536135
 20
-14.0240500485
 10
8.2096236052
 20
-14.0268071691
 10
8.1973625809
 20
-14.0292011059
 10
8.1849034046
 20
-14.0312254422
 10
8.1722794715
 20
-14.032874752
 10
8.1595246186
 20
-14.0341446146
  0
LWPOLYLINE
  5
3D6
100
AcDbEntity
  8
0
100
AcDbPolyline
 62
253
  6
CONTINUOUS
 90
9
 70
0
 10
8.0170925521
 20
-13.566311105
 10
8.018365548
 20
-13.5658607331
 10
8.0204775672
 20
-13.5633193653
 10
8.0224058136
 20
-13.5584883749
 10
8.0240999039
 20
-13.5513815697
 10
8.0255197649
 20
-13.5420850343
 10
8.0266358896
 20
-13.5307247283
 10
8.027426381
 20
-13.5174370784
 10
8.0278720331
 20
-13.5024067351
  0
LWPOLYLINE
  5
3D7
100
AcDbEntity
  8
0
100
AcDbPolyline
 62
7
  6
CONTINUOUS
 90
7
 70
0
 10
8.1970341527
 20
-13.5534649438
 10
8.2018821425
 20
-13.551815347
 10
8.2067295666
 20
-13.5501086508
 10
8.211576425
 20
-13.5483448552
 10
8.2164193531
 20
-13.5465187095
 10
8.2212617155
 20
-13.5446354644
 10
8.2261136059
 20
-13.5427108716
  0
LINE
  5
3D8
100
AcDbEntity
  8
0
100
AcDbLine
 62
253
  6
CONTINUOUS
 10
1.6349307548
 20
17.3740436808
 11
1.1072074424
 21
17.5550502752
  0
LWPOLYLINE
  5
3D9
100
AcDbEntity
  8
0
100
AcDbPolyline
 62
7
  6
CONTINUOUS
 90
4
 70
0
 10
2.5846284733
 20
16.3182316113
 10
2.0256858677
 20
16.6224605991
 10
1.4670702931
 20
16.8941561473
 10
1.4504620884
 20
16.9012655931
  0
LWPOLYLINE
  5
3DA
100
AcDbEntity
  8
0
100
AcDbPolyline
 62
7
  6
CONTINUOUS
 90
19
 70
0
 10
-7.6127557381
 20
22.1342539773
 10
-8.1454260417
 20
22.4268934183
 10
-8.6743755613
 20
22.688566823
 10
-9.199604297
 20
22.9192741914
 10
-9.7222721262
 20
23.1193744858
 10
-10.2412191715
 20
23.2885087439
 10
-10.7529658002
 20
23.4256000792
 10
-11.2574610054
 20
23.530437033
 10
-11.754755794
 20
23.6032310638
 10
-12.2415235546
 20
23.643539661
 10
-12.7176930496
 20
23.6511496108
 10
-13.1833355167
 20
23.626274127
 10
-13.6353380563
 20
23.569110339
 10
-14.0736109423
 20
23.479446127
 10
-14.4982439008
 20
23.3574936109
 10
-14.9063932116
 20
23.2040862807
 10
-15.2979495258
 20
23.0190178188
 10
-15.6730221922
 20
22.8024945429
 10
-15.9601751067
 20
22.6071276859
  0
LINE
  5
3DB
100
AcDbEntity
  8
0
100
AcDbLine
 62
7
  6
CONTINUOUS
 10
-7.6127557381
 20
22.1342539773
 11
2.4635158938
 21
16.3163410224
  0
LWPOLYLINE
  5
3DC
100
AcDbEntity
  8
0
100
AcDbPolyline
 62
253
  6
CONTINUOUS
 90
9
 70
0
 10
5.9131909135
 20
14.780136112
 10
5.3854668032
 20
15.2085316901
 10
4.8530428064
 20
15.6089895637
 10
4.3172533698
 20
15.9805060756
 10
3.7794414386
 20
16.3221500676
 10
3.2409548927
 20
16.6330653416
 10
2.7031431684
 20
16.9124727675
 10
2.1673541427
 20
17.1596720817
 10
1.6349307548
 20
17.3740436808
  0
LWPOLYLINE
  5
3DD
100
AcDbEntity
  8
0
100
AcDbPolyline
 62
7
  6
CONTINUOUS
 90
10
 70
0
 10
5.9824252595
 20
14.7871089218
 10
5.4555232151
 20
15.2148314833
 10
4.9236559546
 20
15.6148555816
 10
4.3881193218
 20
15.9861722153
 10
3.8501885773
 20
16.3278567823
 10
3.3112086782
 20
16.6390115709
 10
2.7725814551
 20
16.9187910094
 10
2.2356422044
 20
17.166471321
 10
1.7016676497
 20
17.3814291074
 10
1.1719595839
 20
17.5630994819
  0
LWPOLYLINE
  5
3DE
100
AcDbEntity
  8
0
100
AcDbPolyline
 62
253
  6
CONTINUOUS
 90
3
 70
0
 10
20.5239619076
 20
-11.6656671633
 10
20.5289297733
 20
-11.6787860837
 10
20.5365018151
 20
-11.6914832997
  0
LWPOLYLINE
  5
3DF
100
AcDbEntity
  8
0
100
AcDbPolyline
 62
253
  6
CONTINUOUS
 90
7
 70
0
 10
20.1535787799
 20
-12.0057147544
 10
20.1503084091
 20
-11.9946872216
 10
20.1470738691
 20
-11.9855695926
 10
20.1439105983
 20
-11.978461762
 10
20.1408532541
 20
-11.9734416047
 10
20.1379353334
 20
-11.9705641227
 10
20.1353649439
 20
-11.9698398961
  0
LWPOLYLINE
  5
3E0
100
AcDbEntity
  8
0
100
AcDbPolyline
 62
253
  6
CONTINUOUS
 90
10
 70
0
 10
17.9573150675
 20
-7.1797154849
 10
17.9571035167
 20
-7.1979015633
 10
17.9564717252
 20
-7.2142992975
 10
17.955428237
 20
-7.2286869363
 10
17.9539871633
 20
-7.2408699115
 10
17.9521679922
 20
-7.2506834694
 10
17.949995325
 20
-7.2579948983
 10
17.9474985432
 20
-7.2627053238
 10
17.9447114114
 20
-7.2647510454
 10
17.9442420105
 20
-7.2648286247
  0
LWPOLYLINE
  5
3E1
100
AcDbEntity
  8
0
100
AcDbPolyline
 62
253
  6
CONTINUOUS
 90
10
 70
0
 10
17.9573150675
 20
-12.486772284
 10
17.9571035167
 20
-12.5049583624
 10
17.9564717252
 20
-12.5213560966
 10
17.955428237
 20
-12.5357437354
 10
17.9539871633
 20
-12.5479267107
 10
17.9521679922
 20
-12.5577402685
 10
17.949995325
 20
-12.5650516975
 10
17.9474985432
 20
-12.5697621229
 10
17.9447114114
 20
-12.5718078445
 10
17.9442420105
 20
-12.5718854239
  0
LWPOLYLINE
  5
3E2
100
AcDbEntity
  8
0
100
AcDbPolyline
 62
253
  6
CONTINUOUS
 90
21
 70
0
 10
17.3276326096
 20
-7.0754632472
 10
17.3285198169
 20
-7.055916674
 10
17.3311694408
 20
-7.0354558538
 10
17.3355456497
 20
-7.0143574841
 10
17.3415892629
 20
-6.992906884
 10
17.3492185509
 20
-6.9713941363
 10
17.3583303407
 20
-6.9501101639
 10
17.3688014109
 20
-6.929342796
 10
17.3804901582
 20
-6.9093728756
 10
17.3932385125
 20
-6.8904704617
 10
17.4068740741
 20
-6.872891177
 10
17.4212124453
 20
-6.8568727511
 10
17.4360597244
 20
-6.8426318058
 10
17.4512151274
 20
-6.8303609254
 10
17.4664737034
 20
-6.8202260526
 10
17.4816291064
 20
-6.812364244
 10
17.4964763855
 20
-6.8068818173
 10
17.5108147567
 20
-6.8038529127
 10
17.5244503183
 20
-6.8033184911
 10
17.5371986726
 20
-6.8052857796
 10
17.5485609103
 20
-6.8095629884
  0
LWPOLYLINE
  5
3E3
100
AcDbEntity
  8
0
100
AcDbPolyline
 62
253
  6
CONTINUOUS
 90
21
 70
0
 10
17.3276326096
 20
-12.3825200464
 10
17.3285198169
 20
-12.3629734732
 10
17.3311694408
 20
-12.342512653
 10
17.3355456497
 20
-12.3214142832
 10
17.3415892629
 20
-12.2999636832
 10
17.3492185509
 20
-12.2784509355
 10
17.3583303407
 20
-12.257166963
 10
17.3688014109
 20
-12.2363995951
 10
17.3804901582
 20
-12.2164296748
 10
17.3932385125
 20
-12.1975272609
 10
17.4068740741
 20
-12.1799479761
 10
17.4212124453
 20
-12.1639295502
 10
17.4360597244
 20
-12.1496886049
 10
17.4512151274
 20
-12.1374177246
 10
17.4664737034
 20
-12.1272828517
 10
17.4816291064
 20
-12.1194210432
 10
17.4964763855
 20
-12.1139386164
 10
17.5108147567
 20
-12.1109097119
 10
17.5244503183
 20
-12.1103752903
 10
17.5371986726
 20
-12.1123425787
 10
17.5485609103
 20
-12.1166197876
  0
LINE
  5
3E4
100
AcDbEntity
  8
0
100
AcDbLine
 62
253
  6
CONTINUOUS
 10
11.084538169
 20
-15.8270140906
 11
13.6004476975
 21
-14.6080921263
  0
LWPOLYLINE
  5
3E5
100
AcDbEntity
  8
0
100
AcDbPolyline
 62
7
  6
CONTINUOUS
 90
3
 70
0
 10
1.0539271025
 20
17.5784425077
 10
1.0175502312
 20
17.5739361562
 10
0.9831138434
 20
17.5650747422
  0
LWPOLYLINE
  5
3E6
100
AcDbEntity
  8
0
100
AcDbPolyline
 62
253
  6
CONTINUOUS
 90
6
 70
0
 10
1.1719597653
 20
17.5631000668
 10
1.1634829148
 20
17.5651956688
 10
1.1498758207
 20
17.566411677
 10
1.1358112864
 20
17.5651352176
 10
1.1215059885
 20
17.5613425564
 10
1.10720734
 20
17.5550509665
  0
LWPOLYLINE
  5
3E7
100
AcDbEntity
  8
0
100
AcDbPolyline
 62
7
  6
CONTINUOUS
 90
6
 70
0
 10
1.1072072949
 20
17.5550514327
 10
1.0694597505
 20
17.5644794203
 10
1.0331473158
 20
17.5682026849
 10
0.9987175757
 20
17.5661712639
 10
0.9665936667
 20
17.5584069655
 10
0.945202965
 20
17.5493615511
  0
LWPOLYLINE
  5
3E8
100
AcDbEntity
  8
0
100
AcDbPolyline
 62
7
  6
CONTINUOUS
 90
4
 70
0
 10
1.1719663321
 20
17.5630980127
 10
1.1316572512
 20
17.573231405
 10
1.0921756906
 20
17.5782974752
 10
1.0539271025
 20
17.5784425077
  0
LWPOLYLINE
  5
3E9
100
AcDbEntity
  8
0
100
AcDbPolyline
 62
253
  6
CONTINUOUS
 90
7
 70
0
 10
20.1535787799
 20
-6.6986579553
 10
20.1503084091
 20
-6.6876304224
 10
20.1470738691
 20
-6.6785127934
 10
20.1439105983
 20
-6.6714049628
 10
20.1408532541
 20
-6.6663848055
 10
20.1379353334
 20
-6.6635073235
 10
20.1353649439
 20
-6.662783097
  0
LWPOLYLINE
  5
3EA
100
AcDbEntity
  8
0
100
AcDbPolyline
 62
7
  6
CONTINUOUS
 90
4
 70
0
 10
20.9009538705
 20
-7.126348111
 10
20.9129025524
 20
-7.1797386732
 10
20.9193470257
 20
-7.2293366236
 10
20.9214995758
 20
-7.2794865226
  0
LINE
  5
3EB
100
AcDbEntity
  8
0
100
AcDbLine
 62
7
  6
CONTINUOUS
 10
20.5154302303
 20
-7.2329938572
 11
20.5199441711
 21
-7.255604117
  0
LWPOLYLINE
  5
3EC
100
AcDbEntity
  8
0
100
AcDbPolyline
 62
253
  6
CONTINUOUS
 90
3
 70
0
 10
20.5239619076
 20
-7.2975511825
 10
20.5216654001
 20
-7.2841879686
 10
20.5214995757
 20
-7.2794865226
  0
LINE
  5
3ED
100
AcDbEntity
  8
0
100
AcDbLine
 62
7
  6
CONTINUOUS
 10
20.5199441711
 20
-7.255604117
 11
20.5214995758
 21
-7.2794865226
  0
LWPOLYLINE
  5
3EE
100
AcDbEntity
  8
0
100
AcDbPolyline
 62
253
  6
CONTINUOUS
 90
3
 70
0
 10
20.5214995757
 20
-11.6476025034
 10
20.5216654001
 20
-11.6523039494
 10
20.5239619076
 20
-11.6656671633
  0
LWPOLYLINE
  5
3EF
100
AcDbEntity
  8
0
100
AcDbPolyline
 62
253
  6
CONTINUOUS
 90
16
 70
0
 10
20.1848656729
 20
-12.2830645836
 10
20.18469428
 20
-12.2653708975
 10
20.1841819792
 20
-12.2466214482
 10
20.1833343834
 20
-12.2270216586
 10
20.1821607789
 20
-12.206786268
 10
20.1806740241
 20
-12.1861369797
 10
20.1788904081
 20
-12.1653000316
 10
20.1768294726
 20
-12.1445037177
 10
20.1745137976
 20
-12.1239758866
 10
20.1719687542
 20
-12.1039414457
 10
20.1692222264
 20
-12.0846198965
 10
20.1663043057
 20
-12.0662229299
 10
20.1632469615
 20
-12.0489521068
 10
20.1600836907
 20
-12.0329966501
 10
20.1568491508
 20
-12.0185313711
 10
20.1535787799
 20
-12.0057147544
  0
LWPOLYLINE
  5
3F0
100
AcDbEntity
  8
0
100
AcDbPolyline
 62
253
  6
CONTINUOUS
 90
16
 70
0
 10
20.1848656729
 20
-6.9760077845
 10
20.18469428
 20
-6.9583140984
 10
20.1841819792
 20
-6.939564649
 10
20.1833343834
 20
-6.9199648594
 10
20.1821607789
 20
-6.8997294689
 10
20.1806740241
 20
-6.8790801806
 10
20.1788904081
 20
-6.8582432325
 10
20.1768294726
 20
-6.8374469185
 10
20.1745137976
 20
-6.8169190875
 10
20.1719687542
 20
-6.7968846466
 10
20.1692222264
 20
-6.7775630973
 10
20.1663043057
 20
-6.7591661307
 10
20.1632469615
 20
-6.7418953077
 10
20.1600836907
 20
-6.725939851
 10
20.1568491508
 20
-6.711474572
 10
20.1535787799
 20
-6.6986579553
  0
LINE
  5
3F1
100
AcDbEntity
  8
0
100
AcDbLine
 62
7
  6
CONTINUOUS
 10
20.5214995757
 20
-11.6476025034
 11
20.5214995757
 21
-7.2794865226
  0
LINE
  5
3F2
100
AcDbEntity
  8
0
100
AcDbLine
 62
7
  6
CONTINUOUS
 10
20.9214995757
 20
-11.6476025034
 11
20.9214995757
 21
-7.2794865226
  0
LINE
  5
3F3
100
AcDbEntity
  8
0
100
AcDbLine
 62
7
  6
CONTINUOUS
 10
20.5199489029
 20
-11.6720251706
 11
20.5214995758
 21
-11.6476025034
  0
LINE
  5
3F4
100
AcDbEntity
  8
0
100
AcDbLine
 62
253
  6
CONTINUOUS
 10
9.5501715241
 20
-20.8215845114
 11
9.3044301183
 21
-21.1990834019
  0
LWPOLYLINE
  5
3F5
100
AcDbEntity
  8
0
100
AcDbPolyline
 62
253
  6
CONTINUOUS
 90
22
 70
0
 10
9.3044301183
 20
-21.1990834019
 10
9.0382645194
 20
-21.5495753721
 10
8.7515406062
 20
-21.8728828997
 10
8.4443924998
 20
-22.1691835069
 10
8.1188911822
 20
-22.4365010104
 10
7.7749168653
 20
-22.6746442761
 10
7.4125893371
 20
-22.883804438
 10
7.0343389438
 20
-23.0625787138
 10
6.6400600703
 20
-23.2107677922
 10
6.2298583316
 20
-23.3285709845
 10
5.8064809188
 20
-23.4151834429
 10
5.3698411753
 20
-23.4704002573
 10
4.9200257576
 20
-23.4944263378
 10
4.4600418263
 20
-23.4870715664
 10
3.989820587
 20
-23.4481299837
 10
3.5094308341
 20
-23.377807549
 10
3.0220861114
 20
-23.2765320236
 10
2.5277371684
 20
-23.1440991495
 10
2.0264332557
 20
-22.9807131845
 10
1.5215356689
 20
-22.7874146634
 10
1.0141648399
 20
-22.5645504313
 10
0.5032003368
 20
-22.3117736432
  0
LWPOLYLINE
  5
3F6
100
AcDbEntity
  8
0
100
AcDbPolyline
 62
253
  6
CONTINUOUS
 90
15
 70
0
 10
6.2506932382
 20
-19.7348061864
 10
6.5372348973
 20
-19.5129981101
 10
6.8052340104
 20
-19.2648149322
 10
7.0545528402
 20
-18.9900563767
 10
7.285329124
 20
-18.6889227195
 10
7.4956730291
 20
-18.3637673303
 10
7.6854333136
 20
-18.0144044667
 10
7.8547612195
 20
-17.641019871
 10
8.0022206408
 20
-17.2465241394
 10
8.1276491015
 20
-16.8307492541
 10
8.2312090778
 20
-16.3938632329
 10
8.3119518914
 20
-15.939280725
 10
8.3695613164
 20
-15.4681399468
 10
8.4043535789
 20
-14.979302682
 10
8.4163286787
 20
-14.4727689304
  0
LWPOLYLINE
  5
3F7
100
AcDbEntity
  8
0
100
AcDbPolyline
 62
7
  6
CONTINUOUS
 90
15
 70
0
 10
6.1878184136
 20
-19.6076737989
 10
6.4598262784
 20
-19.4087466254
 10
6.7155449938
 20
-19.1854707956
 10
6.9544486312
 20
-18.9384960766
 10
7.1760069765
 20
-18.6685818469
 10
7.3798084756
 20
-18.3764539254
 10
7.5655257495
 20
-18.062774368
 10
7.7327189912
 20
-17.7284748584
 10
7.8810642966
 20
-17.3744192823
 10
8.010382084
 20
-17.0011630185
 10
8.1203611179
 20
-16.6096261575
 10
8.2107143972
 20
-16.2008719831
 10
8.2812728331
 20
-15.7756336183
 10
8.3318412388
 20
-15.3348619043
 10
8.3622472922
 20
-14.8797757216
  0
LWPOLYLINE
  5
3F8
100
AcDbEntity
  8
0
100
AcDbPolyline
 62
253
  6
CONTINUOUS
 90
16
 70
0
 10
5.7461216295
 20
-19.5341777772
 10
6.0430705454
 20
-19.3443164172
 10
6.3232355951
 20
-19.1273146894
 10
6.5858488657
 20
-18.8837673805
 10
6.8301905523
 20
-18.6143420367
 10
7.0555909315
 20
-18.3197771341
 10
7.2614321964
 20
-18.0008800546
 10
7.4471501506
 20
-17.6585248731
 10
7.6122357538
 20
-17.2936499612
 10
7.7562365181
 20
-16.9072554157
 10
7.8787577473
 20
-16.5004003172
 10
7.9794636192
 20
-16.0741998272
 10
8.058078106
 20
-15.6298221317
 10
8.114385731
 20
-15.1684852391
 10
8.1482321587
 20
-14.6914536416
 10
8.1595246186
 20
-14.2000348498
  0
LINE
  5
3F9
100
AcDbEntity
  8
0
100
AcDbLine
 62
7
  6
CONTINUOUS
 10
6.3175523361
 20
-19.5160184848
 11
6.2171912419
 21
-19.5783820829
  0
LWPOLYLINE
  5
3FA
100
AcDbEntity
  8
0
100
AcDbPolyline
 62
253
  6
CONTINUOUS
 90
10
 70
0
 10
20.1717926159
 20
-12.3681777235
 10
20.1745137976
 20
-12.3666781512
 10
20.1768294726
 20
-12.3630338182
 10
20.1788904081
 20
-12.3572637067
 10
20.1806740241
 20
-12.3494310351
 10
20.1821607789
 20
-12.3396216198
 10
20.1833343834
 20
-12.3279429349
 10
20.1841819792
 20
-12.3145229345
 10
20.18469428
 20
-12.2995086509
 10
20.1848656729
 20
-12.2830645836
  0
LINE
  5
3FB
100
AcDbEntity
  8
0
100
AcDbLine
 62
253
  6
CONTINUOUS
 10
5.4332027636
 20
-19.6963783725
 11
5.7461216295
 21
-19.5341777772
  0
LWPOLYLINE
  5
3FC
100
AcDbEntity
  8
0
100
AcDbPolyline
 62
253
  6
CONTINUOUS
 90
3
 70
0
 10
5.6575053474
 20
-19.9045449737
 10
5.9735341827
 20
-19.7407323346
 10
6.1878184136
 20
-19.6076737989
  0
LWPOLYLINE
  5
3FD
100
AcDbEntity
  8
0
100
AcDbPolyline
 62
7
  6
CONTINUOUS
 90
3
 70
0
 10
6.2552856622
 20
-19.460806972
 10
6.5728691371
 20
-19.2962735629
 10
6.6318596763
 20
-19.2585390052
  0
LINE
  5
3FE
100
AcDbEntity
  8
0
100
AcDbLine
 62
7
  6
CONTINUOUS
 10
6.2171912419
 20
-19.5783820829
 11
5.9025616729
 21
-19.7413851346
  0
LINE
  5
3FF
100
AcDbEntity
  8
0
100
AcDbLine
 62
7
  6
CONTINUOUS
 10
5.9215420305
 20
-19.5973501685
 11
6.2552856622
 21
-19.460806972
  0
LWPOLYLINE
  5
400
100
AcDbEntity
  8
0
100
AcDbPolyline
 62
7
  6
CONTINUOUS
 90
3
 70
0
 10
5.9025616729
 20
-19.7413851346
 10
5.571922256
 20
-19.8766583161
 10
5.2279046681
 20
-19.9830994908
  0
LINE
  5
401
100
AcDbEntity
  8
0
100
AcDbLine
 62
253
  6
CONTINUOUS
 10
5.1051716367
 20
-19.8304736227
 11
5.4332027636
 21
-19.6963783725
  0
LINE
  5
402
100
AcDbEntity
  8
0
100
AcDbLine
 62
7
  6
CONTINUOUS
 10
5.787546102
 20
-19.6427844237
 11
5.9215420305
 21
-19.5973501685
  0
LINE
  5
403
100
AcDbEntity
  8
0
100
AcDbLine
 62
7
  6
CONTINUOUS
 10
5.0693527411
 20
-19.872371764
 11
5.7875753361
 21
-19.6428447336
  0
LINE
  5
404
100
AcDbEntity
  8
0
100
AcDbLine
 62
253
  6
CONTINUOUS
 10
4.7629273593
 20
-19.936095982
 11
5.1051716367
 21
-19.8304736227
  0
LWPOLYLINE
  5
405
100
AcDbEntity
  8
0
100
AcDbPolyline
 62
253
  6
CONTINUOUS
 90
27
 70
0
 10
20.9214995757
 20
-7.2794865226
 10
20.9209278445
 20
-7.2882118695
 10
20.9178250124
 20
-7.3015206671
 10
20.9120672156
 20
-7.3145314906
 10
20.9037323184
 20
-7.3270683911
 10
20.8929330359
 20
-7.3389618285
 10
20.87981541
 20
-7.3500509643
 10
20.864556834
 20
-7.3601858372
 10
20.847363654
 20
-7.3692293902
 10
20.8284683782
 20
-7.3770593249
 10
20.8081265329
 20
-7.3835697549
 10
20.7866132066
 20
-7.3886726377
 10
20.7642193302
 20
-7.3922989655
 10
20.7412477424
 20
-7.3943996987
 10
20.7180090945
 20
-7.3949464282
 10
20.6948176493
 20
-7.3939317606
 10
20.6719870315
 20
-7.3913694175
 10
20.6498259858
 20
-7.3872940501
 10
20.6286342026
 20
-7.3817607709
 10
20.6086982641
 20
-7.3748444079
 10
20.59028777
 20
-7.3666384932
 10
20.5736516903
 20
-7.3572539975
 10
20.5590149998
 20
-7.3468178301
 10
20.5465756343
 20
-7.3354711223
 10
20.5365018151
 20
-7.3233673188
 10
20.5289297733
 20
-7.3106701029
 10
20.5239619076
 20
-7.2975511825
  0
LWPOLYLINE
  5
406
100
AcDbEntity
  8
0
100
AcDbPolyline
 62
7
  6
CONTINUOUS
 90
3
 70
0
 10
20.5077911534
 20
-11.721369363
 10
20.5153453033
 20
-11.6966969544
 10
20.5199489029
 20
-11.6720251706
  0
LWPOLYLINE
  5
407
100
AcDbEntity
  8
0
100
AcDbPolyline
 62
253
  6
CONTINUOUS
 90
12
 70
0
 10
-15.4688284878
 20
21.7095579405
 10
-15.0190130702
 20
21.7335840209
 10
-14.5590291389
 20
21.7262292496
 10
-14.0888078995
 20
21.6872876668
 10
-13.6084181466
 20
21.6169652322
 10
-13.121073424
 20
21.5156897068
 10
-12.626724481
 20
21.3832568326
 10
-12.1254205682
 20
21.2198708676
 10
-11.6205229814
 20
21.0265723466
 10
-11.1131521524
 20
20.8037081145
 10
-10.6021876494
 20
20.5509313264
 10
-10.0876294722
 20
20.2682419822
  0
LWPOLYLINE
  5
408
100
AcDbEntity
  8
0
100
AcDbPolyline
 62
7
  6
CONTINUOUS
 90
19
 70
0
 10
9.8366750948
 20
-22.0725733078
 10
10.1487096816
 20
-21.9219379824
 10
10.523782348
 20
-21.7054147065
 10
10.879855692
 20
-21.4588890597
 10
11.2168056969
 20
-21.1821631961
 10
11.5347563795
 20
-20.8754349616
 10
11.8315641152
 20
-20.5407503371
 10
12.1070900543
 20
-20.1779255731
 10
12.3614730466
 20
-19.7871444191
 10
12.5929860164
 20
-19.3710041045
 10
12.8014799267
 20
-18.929336348
 10
12.9871038145
 20
-18.4623094308
 10
13.1485777143
 20
-17.9730254255
 10
13.2857439982
 20
-17.4613344511
 10
13.3987602941
 20
-16.9273863885
 10
13.4868195202
 20
-16.3747329531
 10
13.5496526491
 20
-15.8045580502
 10
13.5875287083
 20
-15.2156777746
 10
13.6004476975
 20
-14.6080921263
  0
LINE
  5
409
100
AcDbEntity
  8
0
100
AcDbLine
 62
7
  6
CONTINUOUS
 10
7.389176883
 20
-23.1558481898
 11
9.8366828066
 21
-22.0725878385
  0
ENDSEC
  0
SECTION
  2
OBJECTS
  0
DICTIONARY
  5
C
100
AcDbDictionary
280
0
281
1
  3
ACAD_GROUP
350
D
  3
ACAD_MLINESTYLE
350
17
  3
ACAD_LAYOUT
350
1A
  3
ACAD_PLOTSETTINGS
350
19
  3
ACAD_PLOTSTYLENAME
350
E
  0
DICTIONARY
  5
D
102
{ACAD_REACTORS
330
C
102
}
100
AcDbDictionary
280
0
281
1
  0
ACDBDICTIONARYWDFLT
  5
E
102
{ACAD_REACTORS
330
C
102
}
100
AcDbDictionary
281
1
  3
Normal
350
F
100
AcDbDictionaryWithDefault
340
F
  0
DICTIONARY
  5
17
102
{ACAD_REACTORS
330
C
102
}
100
AcDbDictionary
280
0
281
1
  3
Standard
350
18
  0
DICTIONARY
  5
19
102
{ACAD_REACTORS
330
C
102
}
100
AcDbDictionary
281
1
  0
DICTIONARY
  5
1A
102
{ACAD_REACTORS
330
C
102
}
100
AcDbDictionary
281
1
  3
Model
350
40A
  3
Layout1
350
40B
  0
ACDBPLACEHOLDER
  5
F
102
{ACAD_REACTORS
330
E
102
}
  0
MLINESTYLE
  5
18
102
{ACAD_REACTORS
330
17
102
}
100
AcDbMlineStyle
  2
STANDARD
 70
0
  3

 62
256
 51
90.0
 52
90.0
 71
2
 49
0.5
 62
256
  6
BYLAYER
 49
-0.5
 62
256
  6
BYLAYER
  0
LAYOUT
  5
40A
102
{ACAD_REACTORS
330
1A
102
}
100
AcDbPlotSettings
  1

  2
none_device
  4
ISO_A4_(297.00_x_210.00_MM)
  6

 40
0.0
 41
0.0
 42
0.0
 43
0.0
 44
297.0
 45
210.0
 46
0.0
 47
0.0
 48
0.0
 49
0.0
140
0.0
141
0.0
142
1.0
143
1.0
 70
1024
 72
1
 73
0
 74
0
  7

 75
0
147
1.0
148
0.0
149
0.0
100
AcDbLayout
  1
Model
 70
0
 71
0
 10
0.0
 20
0.0
 11
297.0
 21
210.0
 12
0.0
 22
0.0
 32
0.0
 14
0.0
 24
0.0
 34
0.0
 15
0.0
 25
0.0
 35
0.0
146
0.0
 13
0.0
 23
0.0
 33
0.0
 16
1.0
 26
0.0
 36
0.0
 17
0.0
 27
1.0
 37
0.0
 76
0
330
215
345
0
346
0
  0
LAYOUT
  5
40B
102
{ACAD_REACTORS
330
1A
102
}
100
AcDbPlotSettings
  1

  2
none_device
  4
ISO_A4_(297.00_x_210.00_MM)
  6

 40
0.0
 41
0.0
 42
0.0
 43
0.0
 44
297.0
 45
210.0
 46
0.0
 47
0.0
 48
0.0
 49
0.0
140
0.0
141
0.0
142
1.0
143
1.0
 70
0
 72
1
 73
0
 74
0
  7

 75
0
147
1.0
148
0.0
149
0.0
100
AcDbLayout
  1
Layout1
 70
0
 71
1
 10
0.0
 20
0.0
 11
297.0
 21
210.0
 12
0.0
 22
0.0
 32
0.0
 14
0.0
 24
0.0
 34
0.0
 15
0.0
 25
0.0
 35
0.0
146
0.0
 13
0.0
 23
0.0
 33
0.0
 16
1.0
 26
0.0
 36
0.0
 17
0.0
 27
1.0
 37
0.0
 76
0
330
216
345
0
346
0
  0
ENDSEC
  0
EOF
