  0
SECTION
  2
HEADER
  9
$ACADVER
  1
AC1021
  9
$DWGCODEPAGE
  3
ANSI_1252
  9
$EXTMAX
 10
297.0
 20
210.0
 30
0.0
  9
$EXTMIN
 10
0.0
 20
0.0
 30
0.0
  9
$LIMMIN
 10
0.0
 20
0.0
  9
$LIMMAX
 10
297.0
 20
210.0
  9
$VIEWCTR
 10
148.5
 20
105.0
  9
$VIEWSIZE
 40
210.0
  9
$CLAYER
  8
0
  9
$LTSCALE
 40
16.335
  9
$CELTYPE
  6
BYLAYER
  9
$DIMSCALE
 40
1.0
  9
$DIMASZ
 40
3.0
  9
$DIMEXO
 40
0.5
  9
$DIMDLI
 40
11.286
  9
$DIMEXE
 40
1.5
  9
$DIMCEN
 40
2.673
  9
$DIMLFAC
 40
1.0
  9
$DIMBLK
  1
_FILLED
  9
$DIMALT
 70
0
  9
$DIMALTF
 40
0.0393700787
  9
$DIMTXT
 40
3.0
  9
$DIMTOL
 70
1
  9
$DIMLIM
 70
0
  9
$DIMTFAC
 40
1.0
  9
$DIMTP
 40
0.01
  9
$DIMTM
 40
0.01
  9
$DIMGAP
 40
0.625
  9
$DIMDSEP
 70
44
  9
$AUNITS
 70
0
  9
$PDMODE
 70
3
  9
$PDSIZE
 40
3.0
  9
$HANDSEED
  5
632
  9
$TILEMODE
 70
1
  9
$MEASUREMENT
 70
1
  9
$INSUNITS
 70
4
  0
ENDSEC
  0
SECTION
  2
CLASSES
  0
CLASS
  1
ACDBDICTIONARYWDFLT
  2
AcDbDictionaryWithDefault
  3
AutoCAD 2000
 90
0
 91
1
280
0
281
0
  0
CLASS
  1
ACDBPLACEHOLDER
  2
AcDbPlaceHolder
  3
AutoCAD 2000
 90
0
 91
1
280
0
281
0
  0
CLASS
  1
LAYOUT
  2
AcDbLayout
  3
AutoCAD 2000
 90
0
 91
0
280
0
281
0
  0
ENDSEC
  0
SECTION
  2
TABLES
  0
TABLE
  2
VPORT
  5
8
100
AcDbSymbolTable
 70
2
  0
VPORT
  5
1F4
100
AcDbSymbolTableRecord
100
AcDbViewportTableRecord
  2
*ACTIVE
 70
0
 10
0.0
 20
0.0
 11
1.0
 21
1.0
 12
148.5
 22
105.0
 13
0.0
 23
0.0
 14
1.0
 24
1.0
 15
0.0
 25
0.0
 16
0.0
 26
0.0
 36
1.0
 17
0.0
 27
0.0
 37
0.0
 40
210.0
 41
1.4142857143
 42
50.0
 43
0.0
 44
0.0
 50
0.0
 51
0.0
 71
0
 72
100
 73
1
 74
1
 75
0
 76
0
 77
0
 78
0
  0
ENDTAB
  0
TABLE
  2
LTYPE
  5
5
100
AcDbSymbolTable
 70
6
  0
LTYPE
  5
14
100
AcDbSymbolTableRecord
100
AcDbLinetypeTableRecord
  2
BYBLOCK
 70
0
  3

 72
65
 73
0
 40
0.0
  0
LTYPE
  5
15
100
AcDbSymbolTableRecord
100
AcDbLinetypeTableRecord
  2
BYLAYER
 70
0
  3

 72
65
 73
0
 40
0.0
  0
LTYPE
  5
16
100
AcDbSymbolTableRecord
100
AcDbLinetypeTableRecord
  2
CONTINUOUS
 70
64
  3
Solid line
 72
65
 73
0
 40
0.0
  0
LTYPE
  5
1F5
100
AcDbSymbolTableRecord
100
AcDbLinetypeTableRecord
  2
CENTER
 70
64
  3
____ _ ____ _ ____ _ ____ _ ____ _ ____ _ ____
 72
65
 73
4
 40
0.6
 49
0.375
 74
0
 49
-0.075
 74
0
 49
0.075
 74
0
 49
-0.075
 74
0
  0
LTYPE
  5
1F6
100
AcDbSymbolTableRecord
100
AcDbLinetypeTableRecord
  2
HIDDEN
 70
64
  3
- - - - - - - - - - - - - - - - - - - -
 72
65
 73
2
 40
0.2
 49
0.1
 74
0
 49
-0.1
 74
0
  0
LTYPE
  5
1F7
100
AcDbSymbolTableRecord
100
AcDbLinetypeTableRecord
  2
PHANTOM
 70
64
  3
_____ _ _ _____ _ _ _____ _ _ _____
 72
65
 73
6
 40
0.8
 49
0.45
 74
0
 49
-0.05
 74
0
 49
0.1
 74
0
 49
-0.05
 74
0
 49
0.1
 74
0
 49
-0.05
 74
0
  0
LTYPE
  5
1F8
100
AcDbSymbolTableRecord
100
AcDbLinetypeTableRecord
  2
DOT
 70
64
  3
. . . . . . . . . . . . . . . . . . . .
 72
65
 73
2
 40
0.2
 49
0.1
 74
0
 49
-0.1
 74
0
  0
LTYPE
  5
1F9
100
AcDbSymbolTableRecord
100
AcDbLinetypeTableRecord
  2
DASHED
 70
64
  3
- - - - - - - - - - - - - - - - - - - -
 72
65
 73
2
 40
0.2
 49
0.1
 74
0
 49
-0.1
 74
0
  0
ENDTAB
  0
TABLE
  2
LAYER
  5
2
100
AcDbSymbolTable
 70
36
  0
LAYER
  5
10
100
AcDbSymbolTableRecord
100
AcDbLayerTableRecord
  2
0
 70
0
 62
7
  6
CONTINUOUS
370
-3
390
F
  0
LAYER
  5
1FA
100
AcDbSymbolTableRecord
100
AcDbLayerTableRecord
  2
DEFAULT_1
 70
0
 62
7
  6
CENTER
370
-3
390
F
  0
LAYER
  5
1FB
100
AcDbSymbolTableRecord
100
AcDbLayerTableRecord
  2
DEFAULT_2
 70
0
 62
7
  6
HIDDEN
370
-3
390
F
  0
LAYER
  5
1FC
100
AcDbSymbolTableRecord
100
AcDbLayerTableRecord
  2
DEFAULT_3
 70
0
 62
7
  6
PHANTOM
370
-3
390
F
  0
LAYER
  5
1FD
100
AcDbSymbolTableRecord
100
AcDbLayerTableRecord
  2
ASSI
 70
0
 62
7
  6
CONTINUOUS
370
-3
390
F
  0
LAYER
  5
1FE
100
AcDbSymbolTableRecord
100
AcDbLayerTableRecord
  2
COORDINATE
 70
0
 62
7
  6
CONTINUOUS
370
-3
390
F
  0
LAYER
  5
1FF
100
AcDbSymbolTableRecord
100
AcDbLayerTableRecord
  2
COSMETICI
 70
0
 62
7
  6
CONTINUOUS
370
-3
390
F
  0
LAYER
  5
200
100
AcDbSymbolTableRecord
100
AcDbLayerTableRecord
  2
CURVE
 70
0
 62
7
  6
CONTINUOUS
370
-3
390
F
  0
LAYER
  5
201
100
AcDbSymbolTableRecord
100
AcDbLayerTableRecord
  2
INTF_7
 70
0
 62
7
  6
CONTINUOUS
370
-3
390
F
  0
LAYER
  5
202
100
AcDbSymbolTableRecord
100
AcDbLayerTableRecord
  2
NOTE
 70
0
 62
7
  6
CONTINUOUS
370
-3
390
F
  0
LAYER
  5
203
100
AcDbSymbolTableRecord
100
AcDbLayerTableRecord
  2
PIANI
 70
0
 62
7
  6
CONTINUOUS
370
-3
390
F
  0
LAYER
  5
204
100
AcDbSymbolTableRecord
100
AcDbLayerTableRecord
  2
PUNTI
 70
0
 62
7
  6
CONTINUOUS
370
-3
390
F
  0
LAYER
  5
205
100
AcDbSymbolTableRecord
100
AcDbLayerTableRecord
  2
RGB__255__255__255__
 70
0
 62
7
  6
CONTINUOUS
370
-3
390
F
  0
LAYER
  5
206
100
AcDbSymbolTableRecord
100
AcDbLayerTableRecord
  2
SCRITTE
 70
0
 62
7
  6
CONTINUOUS
370
-3
390
F
  0
LAYER
  5
207
100
AcDbSymbolTableRecord
100
AcDbLayerTableRecord
  2
SIMBOLI
 70
0
 62
7
  6
CONTINUOUS
370
-3
390
F
  0
LAYER
  5
208
100
AcDbSymbolTableRecord
100
AcDbLayerTableRecord
  2
SNAPLINE
 70
0
 62
7
  6
CONTINUOUS
370
-3
390
F
  0
LAYER
  5
209
100
AcDbSymbolTableRecord
100
AcDbLayerTableRecord
  2
SUPERFICI
 70
0
 62
7
  6
CONTINUOUS
370
-3
390
F
  0
ENDTAB
  0
TABLE
  2
STYLE
  5
3
100
AcDbSymbolTable
 70
1
  0
STYLE
  5
11
100
AcDbSymbolTableRecord
100
AcDbTextStyleTableRecord
  2
STANDARD
 70
0
 40
0.0
 41
0.8
 50
0.0
 71
0
 42
0.2
  3
txt
  4

  0
STYLE
  5
20A
100
AcDbSymbolTableRecord
100
AcDbTextStyleTableRecord
  2
TEXTSTYLE_1
 70
0
 40
0.0
 41
0.8
 50
0.0
 71
0
 42
0.2
  3
gdt
  4

  0
ENDTAB
  0
TABLE
  2
VIEW
  5
6
100
AcDbSymbolTable
 70
0
  0
ENDTAB
  0
TABLE
  2
UCS
  5
7
100
AcDbSymbolTable
 70
0
  0
ENDTAB
  0
TABLE
  2
APPID
  5
9
100
AcDbSymbolTable
 70
1
  0
APPID
  5
20B
100
AcDbSymbolTableRecord
100
AcDbRegAppTableRecord
  2
ACAD
 70
0
  0
ENDTAB
  0
TABLE
  2
BLOCK_RECORD
  5
1
100
AcDbSymbolTable
 70
0
  0
BLOCK_RECORD
  5
20C
100
AcDbSymbolTableRecord
100
AcDbBlockTableRecord
  2
*Model_Space
  0
BLOCK_RECORD
  5
20D
100
AcDbSymbolTableRecord
100
AcDbBlockTableRecord
  2
*Paper_Space
  0
ENDTAB
  0
TABLE
  2
DIMSTYLE
  5
A
100
AcDbSymbolTable
 70
1
100
AcDbDimStyleTable
 71
0
  0
DIMSTYLE
105
20E
100
AcDbSymbolTableRecord
100
AcDbDimStyleTableRecord
  2
STANDARD
 70
0
  3

  4

 40
1.0
 41
3.0
 42
0.5
 43
0.38
 44
1.5
 45
0.0
 46
0.0
 47
0.01
 48
0.01
140
3.0
141
0.09
142
0.0
143
25.4
144
1.0
145
0.0
146
1.0
147
0.625
 71
1.0
 72
0.0
 73
0
 74
0
 75
0
 76
0
 77
1
 78
8
170
0
171
2
172
0
173
0
174
0
175
0
176
0
177
0
178
0
270
2
271
2
272
2
273
2
274
2
275
0
280
0
281
0
282
0
283
1
284
8
285
0
286
0
287
3
288
0
340
11
278
44
  0
ENDTAB
  0
ENDSEC
  0
SECTION
  2
BLOCKS
  0
BLOCK
  5
20
100
AcDbEntity
  8
0
100
AcDbBlockBegin
  2
*Model_Space
 70
0
 10
0.0
 20
0.0
 30
0.0
  3
*Model_Space
  1

  0
ENDBLK
  5
21
100
AcDbEntity
  8
0
100
AcDbBlockEnd
  0
BLOCK
  5
1C
100
AcDbEntity
  8
0
100
AcDbBlockBegin
  2
*Paper_Space
 70
0
 10
0.0
 20
0.0
 30
0.0
  3
*Paper_Space
  1

  0
ENDBLK
  5
1D
100
AcDbEntity
  8
0
100
AcDbBlockEnd
  0
ENDSEC
  0
SECTION
  2
ENTITIES
  0
LWPOLYLINE
  5
20F
100
AcDbEntity
  8
0
100
AcDbPolyline
 62
7
  6
CONTINUOUS
 90
19
 70
0
 10
-36.9472325077
 20
37.4811625386
 10
-36.7509885433
 20
37.608604936
 10
-36.0259005799
 20
38.0271751633
 10
-35.2689478616
 20
38.3849373135
 10
-34.4799190323
 20
38.6814925258
 10
-33.6590254481
 20
38.9172396611
 10
-32.8117647733
 20
39.0905680619
 10
-31.9379635914
 20
39.2010676635
 10
-31.0377953189
 20
39.2491485307
 10
-30.11727787
 20
39.2344302006
 10
-29.1762735734
 20
39.1565005078
 10
-28.2149201004
 20
39.0157716177
 10
-27.2396483781
 20
38.8130995634
 10
-26.2503598466
 20
38.5480755849
 10
-25.2471530658
 20
38.2211084423
 10
-24.2367546432
 20
37.8342804482
 10
-23.2214067812
 20
37.3882857069
 10
-22.1988672774
 20
36.8824301143
 10
-21.1691361317
 20
36.3167136702
  0
LWPOLYLINE
  5
210
100
AcDbEntity
  8
0
100
AcDbPolyline
 62
7
  6
CONTINUOUS
 90
19
 70
0
 10
-34.7799938693
 20
37.0885551119
 10
-34.9775219645
 20
36.9879924649
 10
-35.6681971389
 20
36.5892823515
 10
-36.3252263646
 20
36.1341023335
 10
-36.947121259
 20
35.6234835399
 10
-37.5324730303
 20
35.0585826866
 10
-38.0799556683
 20
34.4406794557
 10
-38.5883289488
 20
33.7711735967
 10
-39.0564412429
 20
33.0515817557
 10
-39.4832321255
 20
32.2835340397
 10
-39.8677347782
 20
31.4687703238
 10
-40.2090781787
 20
30.6091363099
 10
-40.5064890744
 20
29.7065793456
 10
-40.7592937339
 20
28.7631440125
 10
-40.9669194736
 20
27.7809674952
 10
-41.1288959541
 20
26.7622747395
 10
-41.2448562468
 20
25.709373412
 10
-41.3145376643
 20
24.6246486729
 10
-41.3377823556
 20
23.5105577726
  0
LINE
  5
211
100
AcDbEntity
  8
0
100
AcDbLine
 62
7
  6
CONTINUOUS
 10
-12.9163549799
 20
50.6961671852
 11
-35.6183671051
 21
39.4630256793
  0
LWPOLYLINE
  5
212
100
AcDbEntity
  8
0
100
AcDbPolyline
 62
7
  6
CONTINUOUS
 90
17
 70
0
 10
-35.6182838395
 20
39.4628741059
 10
-35.0491949389
 20
39.7239588282
 10
-34.2328936714
 20
40.0307643423
 10
-33.3836262575
 20
40.2746599748
 10
-32.5070803861
 20
40.4539793964
 10
-31.6030766465
 20
40.5682983687
 10
-30.6717944493
 20
40.6180411301
 10
-29.7194597152
 20
40.6028140673
 10
-28.7459300145
 20
40.5221907686
 10
-27.7513477769
 20
40.3765976456
 10
-26.7423662119
 20
40.1669203199
 10
-25.7188833526
 20
39.892735903
 10
-24.6810011659
 20
39.5544672832
 10
-23.6356787614
 20
39.1542687478
 10
-22.5852358422
 20
38.6928583924
 10
-21.5273527053
 20
38.1695181212
 10
-20.4620293505
 20
37.5842479344
  0
LINE
  5
213
100
AcDbEntity
  8
0
100
AcDbLine
 62
7
  6
CONTINUOUS
 10
-29.0140390122
 20
36.1054779329
 11
-26.331263122
 21
37.664675602
  0
LINE
  5
214
100
AcDbEntity
  8
0
100
AcDbLine
 62
7
  6
CONTINUOUS
 10
-28.4676288507
 20
35.6209331079
 11
-25.4038353876
 21
37.4015736912
  0
LINE
  5
215
100
AcDbEntity
  8
0
100
AcDbLine
 62
7
  6
CONTINUOUS
 10
-42.6799530108
 20
-0.2911004696
 11
-42.7100549793
 21
0.21167267
  0
LINE
  5
216
100
AcDbEntity
  8
0
100
AcDbLine
 62
7
  6
CONTINUOUS
 10
-42.7100549793
 20
0.21167267
 11
-42.7358929578
 21
1.4566810167
  0
LWPOLYLINE
  5
217
100
AcDbEntity
  8
0
100
AcDbPolyline
 62
7
  6
CONTINUOUS
 90
34
 70
0
 10
-42.3037081819
 20
0.3905937569
 10
-42.2791907562
 20
-0.7907528414
 10
-42.2073111301
 20
-1.9912927752
 10
-42.0880693037
 20
-3.2110260445
 10
-41.9209545781
 20
-4.4527890514
 10
-41.7064776522
 20
-5.7137453937
 10
-41.4461706223
 20
-6.9853858654
 10
-41.1397343568
 20
-8.2677714143
 10
-40.7874679874
 20
-9.5608410925
 10
-40.3918010056
 20
-10.8559028498
 10
-39.9524505929
 20
-12.152963886
 10
-39.4696995679
 20
-13.4520170014
 10
-38.9468258776
 20
-14.7443485455
 10
-38.3835660454
 20
-16.0299140377
 10
-37.7801835479
 20
-17.3087579587
 10
-37.140746762
 20
-18.5723001004
 10
-36.4650203677
 20
-19.820436728
 10
-35.7532396848
 20
-21.0532715764
 10
-35.0101790496
 20
-22.2625356417
 10
-34.2356309848
 20
-23.4480769726
 10
-33.4298029675
 20
-24.6100475204
 10
-32.5980917655
 20
-25.7406341355
 10
-31.7403271448
 20
-26.8396308607
 10
-30.8566793393
 20
-27.9072436532
 10
-29.9530558185
 20
-28.936277235
 10
-29.029321438
 20
-29.9264830665
 10
-28.0856113421
 20
-30.8781096873
 10
-27.1282384336
 20
-31.7847074381
 10
-26.1571059614
 20
-32.6459867868
 10
-25.1723106766
 20
-33.4622372655
 10
-24.1804557356
 20
-34.2278778116
 10
-23.1837421905
 20
-34.9410480711
 10
-22.1799689892
 20
-35.603608398
 10
-21.1691361317
 20
-36.2155587924
  0
LWPOLYLINE
  5
218
100
AcDbEntity
  8
0
100
AcDbPolyline
 62
7
  6
CONTINUOUS
 90
34
 70
0
 10
-41.3377823556
 20
0.241154884
 10
-41.3145376643
 20
-0.8997784032
 10
-41.2448562468
 20
-2.0649694965
 10
-41.1288959541
 20
-3.2517788633
 10
-40.9669194736
 20
-4.4575179988
 10
-40.7592937339
 20
-5.6794555158
 10
-40.5064890744
 20
-6.914823333
 10
-40.2090781787
 20
-8.1608229448
 10
-39.8677347782
 20
-9.4146317615
 10
-39.4832321255
 20
-10.6734095028
 10
-39.0564412429
 20
-11.9343046322
 10
-38.5883289488
 20
-13.1944608167
 10
-38.0799556683
 20
-14.4510233972
 10
-37.5324730303
 20
-15.7011458554
 10
-36.947121259
 20
-16.9419962618
 10
-36.3252263646
 20
-18.1707636911
 10
-35.6681971389
 20
-19.3846645899
 10
-34.9775219645
 20
-20.5809490823
 10
-34.2547654428
 20
-21.756907199
 10
-33.5015648498
 20
-22.9098750167
 10
-32.7196264271
 20
-24.0372406925
 10
-31.9107215167
 20
-25.1364503805
 10
-31.0766825484
 20
-26.2050140173
 10
-30.2193988886
 20
-27.2405109624
 10
-29.3408125608
 20
-28.2405954824
 10
-28.4429138454
 20
-29.203002064
 10
-27.5277367718
 20
-30.1255505469
 10
-26.5973545105
 20
-31.0061510619
 10
-25.6538746765
 20
-31.8428087658
 10
-24.6994345551
 20
-32.6336283596
 10
-23.7361962602
 20
-33.3768183827
 10
-22.7663418363
 20
-34.0706952706
 10
-21.7920683156
 20
-34.7136871691
 10
-20.8155827411
 20
-35.3043374946
  0
LINE
  5
219
100
AcDbEntity
  8
0
100
AcDbLine
 62
7
  6
CONTINUOUS
 10
-42.7358929579
 20
24.7260839053
 11
-42.7358929579
 21
1.4566810167
  0
LINE
  5
21A
100
AcDbEntity
  8
0
100
AcDbLine
 62
7
  6
CONTINUOUS
 10
-42.6988350617
 20
23.8881379538
 11
-42.6988350617
 21
0.6187350652
  0
LINE
  5
21B
100
AcDbEntity
  8
0
100
AcDbLine
 62
7
  6
CONTINUOUS
 10
-42.3037081819
 20
23.6599966455
 11
-42.3037081819
 21
0.3905937569
  0
LINE
  5
21C
100
AcDbEntity
  8
0
100
AcDbLine
 62
7
  6
CONTINUOUS
 10
-41.3377823556
 20
23.5105577726
 11
-41.3377823556
 21
0.241154884
  0
LWPOLYLINE
  5
21D
100
AcDbEntity
  8
0
100
AcDbPolyline
 62
7
  6
CONTINUOUS
 90
19
 70
0
 10
-42.7358929578
 20
24.7260839053
 10
-42.7100538826
 20
25.9412744895
 10
-42.634299475
 20
27.1190520806
 10
-42.5086297348
 20
28.2594166787
 10
-42.3325064333
 20
29.3647360533
 10
-42.1064677994
 20
30.4326424348
 10
-41.8321285194
 20
31.4560325146
 10
-41.5091733365
 20
32.4346064755
 10
-41.1379175075
 20
33.3686641347
 10
-40.7209214895
 20
34.2520016352
 10
-40.2578872183
 20
35.0842823682
 10
-39.7491127581
 20
35.8658429425
 10
-39.1980527586
 20
36.5914893283
 10
-38.6044295404
 20
37.2608539894
 10
-37.9685207829
 20
37.8743044621
 10
-37.2946141752
 20
38.4277493244
 10
-36.582461712
 20
38.9207928598
 10
-35.8323113986
 20
39.3538307848
 10
-35.6182838395
 20
39.4628741059
  0
LWPOLYLINE
  5
21E
100
AcDbEntity
  8
0
100
AcDbPolyline
 62
7
  6
CONTINUOUS
 90
17
 70
0
 10
-42.6988350617
 20
23.8881379538
 10
-42.6738592641
 20
25.0627292992
 10
-42.6006357938
 20
26.201157611
 10
-42.4791646509
 20
27.3034228892
 10
-42.3089255885
 20
28.3718137969
 10
-42.0904388536
 20
29.404041671
 10
-41.825265186
 20
30.3932405228
 10
-41.5130998617
 20
31.339120552
 10
-41.1542476049
 20
32.2419715589
 10
-40.7511833283
 20
33.0957969561
 10
-40.3036189259
 20
33.9002713805
 10
-39.8118425038
 20
34.6557201952
 10
-39.2791932926
 20
35.3571229015
 10
-38.70540289
 20
36.0041242428
 10
-38.0907396983
 20
36.5970794758
 10
-37.4393481559
 20
37.1320338722
 10
-36.9472325077
 20
37.4811625386
  0
LINE
  5
21F
100
AcDbEntity
  8
0
100
AcDbLine
 62
253
  6
CONTINUOUS
 10
-20.4620293505
 20
36.7677776576
 11
-21.1691361317
 21
36.3167136702
  0
LINE
  5
220
100
AcDbEntity
  8
0
100
AcDbLine
 62
253
  6
CONTINUOUS
 10
-26.8672966946
 20
31.0335029505
 11
-41.3377823556
 21
23.5105577726
  0
LINE
  5
221
100
AcDbEntity
  8
0
100
AcDbLine
 62
253
  6
CONTINUOUS
 10
1.4582808663
 20
48.9142891118
 11
-20.4620293505
 21
37.5842479344
  0
LINE
  5
222
100
AcDbEntity
  8
0
100
AcDbLine
 62
7
  6
CONTINUOUS
 10
0.0131382779
 20
-48.8733396685
 11
-1.0165928678
 21
-48.3076232245
  0
LWPOLYLINE
  5
223
100
AcDbEntity
  8
0
100
AcDbPolyline
 62
7
  6
CONTINUOUS
 90
23
 70
0
 10
-1.0165928678
 20
-47.8513847022
 10
-0.0057436403
 20
-48.4067270046
 10
0.9980446499
 20
-48.9033050139
 10
1.9947720029
 20
-49.3411187302
 10
2.9866395199
 20
-49.7208493565
 10
3.9714460997
 20
-50.0418156898
 10
4.9425884382
 20
-50.3019741206
 10
5.8999697395
 20
-50.5009233637
 10
6.8436867996
 20
-50.6390647044
 10
7.7674267029
 20
-50.7155583892
 10
8.671054262
 20
-50.7299998024
 10
9.5547046643
 20
-50.6827935596
 10
10.4124705561
 20
-50.5743137542
 10
11.2441816638
 20
-50.4041578456
 10
12.050008261
 20
-50.1727283744
 10
12.8245538151
 20
-49.8816070558
 10
13.567610815
 20
-49.5304023604
 10
14.2793867719
 20
-49.1195058176
 10
14.9551076865
 20
-48.6516737309
 10
15.5945382121
 20
-48.1265306479
 10
16.1979136954
 20
-47.544452021
 10
16.7611661769
 20
-46.9093205113
 10
17.2840321616
 20
-46.220787417
  0
LWPOLYLINE
  5
224
100
AcDbEntity
  8
0
100
AcDbPolyline
 62
7
  6
CONTINUOUS
 90
19
 70
0
 10
-0.6630394773
 20
-46.9401634044
 10
0.3134460973
 20
-47.477134144
 10
1.287719618
 20
-47.9592088862
 10
2.2575740419
 20
-48.3852955767
 10
3.2208123368
 20
-48.7544289921
 10
4.1752524582
 20
-49.0657729266
 10
5.1187322922
 20
-49.3186220858
 10
6.0491145535
 20
-49.5124036853
 10
6.9642916271
 20
-49.6466787473
 10
7.8621903425
 20
-49.7211430956
 10
8.7407766703
 20
-49.7356280445
 10
9.59806033
 20
-49.690100781
 10
10.4320992984
 20
-49.5846644389
 10
11.2410042088
 20
-49.4195578655
 10
12.0229426315
 20
-49.1951550803
 10
12.7761432245
 20
-48.9119644278
 10
13.4988997462
 20
-48.5706274258
 10
14.1895749206
 20
-48.1719173125
 10
14.3767906171
 20
-48.0502566399
  0
LINE
  5
225
100
AcDbEntity
  8
0
100
AcDbLine
 62
7
  6
CONTINUOUS
 10
-20.4620293505
 20
-37.1227823921
 11
-0.3094860867
 21
-48.758608302
  0
LINE
  5
226
100
AcDbEntity
  8
0
100
AcDbLine
 62
7
  6
CONTINUOUS
 10
-21.1691361317
 20
-36.6717973146
 11
-1.0165928678
 21
-48.3076232245
  0
LINE
  5
227
100
AcDbEntity
  8
0
100
AcDbLine
 62
7
  6
CONTINUOUS
 10
-21.1691361317
 20
-36.2155587924
 11
-1.0165928678
 21
-47.8513847022
  0
LINE
  5
228
100
AcDbEntity
  8
0
100
AcDbLine
 62
7
  6
CONTINUOUS
 10
-20.8155827411
 20
-35.3043374946
 11
-0.6630394773
 21
-46.9401634044
  0
LWPOLYLINE
  5
229
100
AcDbEntity
  8
0
100
AcDbPolyline
 62
7
  6
CONTINUOUS
 90
3
 70
0
 10
-20.4620293505
 20
-37.1227823921
 10
-21.5273699577
 20
-36.4778326445
 10
-21.9463241751
 20
-36.2012931124
  0
LWPOLYLINE
  5
22A
100
AcDbEntity
  8
0
100
AcDbPolyline
 62
7
  6
CONTINUOUS
 90
34
 70
0
 10
-21.1691361317
 20
-36.6717973146
 10
-22.1988839534
 20
-36.0483951903
 10
-23.2214388283
 20
-35.3734363644
 10
-24.2368007563
 20
-34.6469208372
 10
-25.24721199
 20
-33.8669532502
 10
-26.2504302769
 20
-33.0354289617
 10
-27.2397288593
 20
-32.1580340468
 10
-28.2150091313
 20
-31.2344735853
 10
-29.1763696987
 20
-30.2650424974
 10
-30.1173796212
 20
-29.2563116184
 10
-31.037901184
 20
-28.2080277977
 10
-31.9380721019
 20
-27.120444186
 10
-32.8118745787
 20
-26.0008910707
 10
-33.6591351573
 20
-24.8491586893
 10
-34.4800272949
 20
-23.6654568042
 10
-35.2690535665
 20
-22.4577449905
 10
-36.0260025816
 20
-21.2258685076
 10
-36.7510857307
 20
-19.969982096
 10
-37.4394397611
 20
-18.698509553
 10
-38.0908249262
 20
-17.4113452601
 10
-38.7054809725
 20
-16.1085948357
 10
-39.279263887
 20
-14.7989989325
 10
-39.8119052484
 20
-13.4825122959
 10
-40.3036734781
 20
-12.1591801805
 10
-40.751229827
 20
-10.8378790029
 10
-41.1542861802
 20
-9.5186161533
 10
-41.5131306527
 20
-8.2013842414
 10
-41.8252888403
 20
-6.8950375132
 10
-42.0904560199
 20
-5.5996381082
 10
-42.3089369147
 20
-4.3151238869
 10
-42.4791712898
 20
-3.0501626761
 10
-42.6006390668
 20
-1.8076437517
 10
-42.6738603241
 20
-0.5846778379
 10
-42.6988350617
 20
0.6187350652
  0
LINE
  5
22B
100
AcDbEntity
  8
0
100
AcDbLine
 62
7
  6
CONTINUOUS
 10
-24.0089176152
 20
27.8982187196
 11
-16.1357825161
 21
32.6554704452
  0
LWPOLYLINE
  5
22C
100
AcDbEntity
  8
0
100
AcDbPolyline
 62
7
  6
CONTINUOUS
 90
13
 70
0
 10
11.0155767711
 20
-34.5815585606
 10
10.7971903871
 20
-34.631951554
 10
10.5712262853
 20
-34.6596469642
 10
10.3376844658
 20
-34.6646447911
 10
10.0954609618
 20
-34.6467666832
 10
9.8456597399
 20
-34.606190992
 10
9.5915927004
 20
-34.5434527723
 10
9.333202639
 20
-34.4582548274
 10
9.0705467599
 20
-34.3508943541
 10
8.8071085754
 20
-34.2227979978
 10
8.5440492564
 20
-34.0744413071
 10
8.280207632
 20
-33.9053487334
 10
8.0155837023
 20
-33.7155202767
  0
LWPOLYLINE
  5
22D
100
AcDbEntity
  8
0
100
AcDbPolyline
 62
7
  6
CONTINUOUS
 90
10
 70
0
 10
-27.9891777872
 20
21.2616869546
 10
-27.7559596559
 20
21.6604061092
 10
-27.5130625749
 20
22.0471188872
 10
-27.2604865441
 20
22.4218252885
 10
-26.9981040404
 20
22.784689783
 10
-26.7260425869
 20
23.135547901
 10
-26.4446847533
 20
23.4739062323
 10
-26.154158063
 20
23.7996003071
 10
-25.8543349926
 20
24.1127945954
 10
-25.5452155422
 20
24.4134890971
  0
LWPOLYLINE
  5
22E
100
AcDbEntity
  8
0
100
AcDbPolyline
 62
7
  6
CONTINUOUS
 90
4
 70
0
 10
-27.2033407519
 20
20.3737203108
 10
-27.2177881062
 20
20.353755025
 10
-27.2344470028
 20
20.3381956696
 10
-27.2467540343
 20
20.3302854223
  0
LWPOLYLINE
  5
22F
100
AcDbEntity
  8
0
100
AcDbPolyline
 62
7
  6
CONTINUOUS
 90
10
 70
0
 10
-24.6092124791
 20
23.6253530723
 10
-24.9398912405
 20
23.3206991828
 10
-25.2600792803
 20
23.0017353935
 10
-25.5697765983
 20
22.6684617043
 10
-25.8691429946
 20
22.3206777954
 10
-26.1580186692
 20
21.9585839867
 10
-26.4359242223
 20
21.5827812379
 10
-26.7026998537
 20
21.193469869
 10
-26.9585053636
 20
20.7904495599
 10
-27.2033407519
 20
20.3737203108
  0
LINE
  5
230
100
AcDbEntity
  8
0
100
AcDbLine
 62
7
  6
CONTINUOUS
 10
-21.0089245464
 20
27.0321804358
 11
-13.8682361387
 21
31.346217586
  0
LINE
  5
231
100
AcDbEntity
  8
0
100
AcDbLine
 62
7
  6
CONTINUOUS
 10
-16.7714313715
 20
27.2911575699
 11
-11.8814659853
 21
30.1990813995
  0
LINE
  5
232
100
AcDbEntity
  8
0
100
AcDbLine
 62
7
  6
CONTINUOUS
 10
-12.2661552283
 20
30.4211961471
 11
-17.0572763355
 21
27.5726844043
  0
LWPOLYLINE
  5
233
100
AcDbEntity
  8
0
100
AcDbPolyline
 62
7
  6
CONTINUOUS
 90
13
 70
0
 10
-20.1032831105
 20
25.0842412078
 10
-20.1318283249
 20
25.0675379846
 10
-20.1616939003
 20
25.0486636711
 10
-20.1923785768
 20
25.0279076809
 10
-20.2232851944
 20
25.0055425428
 10
-20.2539461598
 20
24.9819104754
 10
-20.284033428
 20
24.9574176275
 10
-20.3129887361
 20
24.9323304182
 10
-20.3402644399
 20
24.9070209195
 10
-20.3655403761
 20
24.8820584029
 10
-20.3883494367
 20
24.857840687
 10
-20.4080982585
 20
24.8345821912
 10
-20.42430314
 20
24.812562162
  0
LWPOLYLINE
  5
234
100
AcDbEntity
  8
0
100
AcDbPolyline
 62
7
  6
CONTINUOUS
 90
12
 70
0
 10
-23.7864244397
 20
26.6672897433
 10
-23.853116791
 20
26.6283995834
 10
-24.0109948619
 20
26.515690949
 10
-24.1547246493
 20
26.3812218704
 10
-24.2845345621
 20
26.2253483278
 10
-24.3981444631
 20
26.0506845607
 10
-24.4952909256
 20
25.8569114908
 10
-24.5762373764
 20
25.6443481965
 10
-24.6394939581
 20
25.4165661527
 10
-24.6845640518
 20
25.1747558512
 10
-24.7119442763
 20
24.9177268003
 10
-24.7216346319
 20
24.6454789999
  0
LINE
  5
235
100
AcDbEntity
  8
0
100
AcDbLine
 62
7
  6
CONTINUOUS
 10
-17.6916092771
 20
26.4247428757
 11
-20.1032831105
 21
25.0842412078
  0
LINE
  5
236
100
AcDbEntity
  8
0
100
AcDbLine
 62
7
  6
CONTINUOUS
 10
-24.6092124791
 20
23.6253530723
 11
-20.3788422315
 21
25.9575740327
  0
LINE
  5
237
100
AcDbEntity
  8
0
100
AcDbLine
 62
253
  6
CONTINUOUS
 10
-11.0448593676
 20
29.7160352236
 11
-16.5825064117
 21
26.7142617939
  0
LINE
  5
238
100
AcDbEntity
  8
0
100
AcDbLine
 62
7
  6
CONTINUOUS
 10
-16.6267770515
 20
26.4615854264
 11
-10.8401064232
 21
29.5978134397
  0
LINE
  5
239
100
AcDbEntity
  8
0
100
AcDbLine
 62
253
  6
CONTINUOUS
 10
-20.6203247895
 20
23.9394542428
 11
-27.2039657629
 21
20.3744507838
  0
LINE
  5
23A
100
AcDbEntity
  8
0
100
AcDbLine
 62
7
  6
CONTINUOUS
 10
-27.1952625126
 20
20.3588009309
 11
-20.6117110955
 21
23.9235270859
  0
LWPOLYLINE
  5
23B
100
AcDbEntity
  8
0
100
AcDbPolyline
 62
7
  6
CONTINUOUS
 90
4
 70
0
 10
-16.626505668
 20
26.4611047854
 10
-16.6348058125
 20
26.4571127677
 10
-16.6566112459
 20
26.4504675795
 10
-16.6811265548
 20
26.4479406414
  0
LWPOLYLINE
  5
23C
100
AcDbEntity
  8
0
100
AcDbPolyline
 62
7
  6
CONTINUOUS
 90
10
 70
0
 10
8.0155837023
 20
-33.7155202767
 10
7.6005915725
 20
-33.8328379187
 10
7.1794226005
 20
-33.9358549402
 10
6.7520767863
 20
-34.0245713412
 10
6.3183479214
 20
-34.0990153065
 10
5.8784422143
 20
-34.1591586513
 10
5.4329782904
 20
-34.2049168213
 10
4.9821623583
 20
-34.2362616316
 10
4.5257882095
 20
-34.253221267
 10
4.0638558439
 20
-34.2557957276
  0
LWPOLYLINE
  5
23D
100
AcDbEntity
  8
0
100
AcDbPolyline
 62
7
  6
CONTINUOUS
 90
10
 70
0
 10
6.8711613562
 20
-32.7785177849
 10
6.9762068844
 20
-32.7524551691
 10
7.0808240628
 20
-32.7254734022
 10
7.1850128916
 20
-32.6975724843
 10
7.2887766249
 20
-32.6687514787
 10
7.3921120085
 20
-32.639011322
 10
7.4950092797
 20
-32.608354824
 10
7.5974651843
 20
-32.5767829212
 10
7.6994829766
 20
-32.5442946771
 10
7.8010626565
 20
-32.5108900916
  0
LINE
  5
23E
100
AcDbEntity
  8
0
100
AcDbLine
 62
7
  6
CONTINUOUS
 10
6.6796851687
 20
-32.7737334405
 11
6.7578068605
 21
-32.755678228
  0
LINE
  5
23F
100
AcDbEntity
  8
0
100
AcDbLine
 62
253
  6
CONTINUOUS
 10
8.1708128405
 20
-31.1468116237
 11
8.0447959221
 21
-31.1759362137
  0
LINE
  5
240
100
AcDbEntity
  8
0
100
AcDbLine
 62
253
  6
CONTINUOUS
 10
8.2154179095
 20
-31.029726801
 11
8.3452240619
 21
-30.9997264565
  0
LINE
  5
241
100
AcDbEntity
  8
0
100
AcDbLine
 62
253
  6
CONTINUOUS
 10
8.1955089087
 20
-31.1438860844
 11
8.1708140797
 21
-31.1468102072
  0
LWPOLYLINE
  5
242
100
AcDbEntity
  8
0
100
AcDbPolyline
 62
253
  6
CONTINUOUS
 90
13
 70
0
 10
8.3452208007
 20
-30.9997284171
 10
8.3681651316
 20
-30.9970807263
 10
8.3927427549
 20
-30.9989397682
 10
8.4185340481
 20
-31.0052366562
 10
8.4449748932
 20
-31.0157686955
 10
8.4717533909
 20
-31.0303490431
 10
8.4988268297
 20
-31.0490060091
 10
8.5259061522
 20
-31.0717156645
 10
8.5523315916
 20
-31.0981055063
 10
8.5774945964
 20
-31.1276880635
 10
8.6008822213
 20
-31.1599474926
 10
8.6220691563
 20
-31.1943920675
 10
8.6406181293
 20
-31.2304295265
  0
LWPOLYLINE
  5
243
100
AcDbEntity
  8
0
100
AcDbPolyline
 62
7
  6
CONTINUOUS
 90
10
 70
0
 10
3.687785676
 20
-33.1312804833
 10
4.0242081472
 20
-33.1305113361
 10
4.3576582914
 20
-33.1218297866
 10
4.6881361087
 20
-33.1052358348
 10
5.0157284677
 20
-33.0807208099
 10
5.3403484998
 20
-33.0482933827
 10
5.6617355984
 20
-33.0079795656
 10
5.9798028945
 20
-32.9597880293
 10
6.2946372571
 20
-32.9037101031
 10
6.6062386861
 20
-32.839745787
  0
LWPOLYLINE
  5
244
100
AcDbEntity
  8
0
100
AcDbPolyline
 62
7
  6
CONTINUOUS
 90
13
 70
0
 10
4.0638558439
 20
-34.2557957276
 10
4.0366636268
 20
-34.2525895664
 10
4.0094119192
 20
-34.2450962939
 10
3.9821007211
 20
-34.2333159101
 10
3.9543091267
 20
-34.2169016798
 10
3.9264580419
 20
-34.1962003381
 10
3.8998101837
 20
-34.172252091
 10
3.8744022681
 20
-34.1449579025
 10
3.8501975792
 20
-34.1144168086
 10
3.8283486867
 20
-34.0819661238
 10
3.8092397806
 20
-34.0480516198
 10
3.792486671
 20
-34.012227525
 10
3.7780893578
 20
-33.9744938393
  0
LWPOLYLINE
  5
245
100
AcDbEntity
  8
0
100
AcDbPolyline
 62
7
  6
CONTINUOUS
 90
10
 70
0
 10
-25.5927740241
 20
25.148463967
 10
-25.5821533139
 20
25.4733657376
 10
-25.5516831075
 20
25.7818169017
 10
-25.5013634048
 20
26.0738174593
 10
-25.4307311101
 20
26.3507003315
 10
-25.3402493191
 20
26.6111325973
 10
-25.2313073193
 20
26.8511154931
 10
-25.1043682065
 20
27.069316098
 10
-24.9589688848
 20
27.267067333
 10
-24.7951093543
 20
27.4443691981
  0
LWPOLYLINE
  5
246
100
AcDbEntity
  8
0
100
AcDbPolyline
 62
7
  6
CONTINUOUS
 90
6
 70
0
 10
-20.7584485859
 20
24.3069806108
 10
-20.7700300528
 20
24.2860462524
 10
-20.7779247601
 20
24.2677742611
 10
-20.7818864287
 20
24.2523067984
 10
-20.7816455
 20
24.2395700896
 10
-20.7789720553
 20
24.2324341421
  0
LWPOLYLINE
  5
247
100
AcDbEntity
  8
0
100
AcDbPolyline
 62
253
  6
CONTINUOUS
 90
13
 70
0
 10
-18.0460348298
 20
21.5209826655
 10
-18.063514513
 20
21.4910080294
 10
-18.0831543202
 20
21.4601199032
 10
-18.1046248571
 20
21.4288363353
 10
-18.127566025
 20
21.3976820065
 10
-18.1515930598
 20
21.3671794298
 10
-18.1763029858
 20
21.3378401874
 10
-18.2012813739
 20
21.3101563503
 10
-18.2261092923
 20
21.2845922252
 10
-18.250370333
 20
21.2615765678
 10
-18.2736575954
 20
21.2414953912
 10
-18.2955805111
 20
21.2246854923
 10
-18.315771394
 20
21.2114288028
  0
LINE
  5
248
100
AcDbEntity
  8
0
100
AcDbLine
 62
7
  6
CONTINUOUS
 10
-20.7584485859
 20
24.3069806108
 11
-20.7222214035
 21
24.3642466834
  0
LWPOLYLINE
  5
249
100
AcDbEntity
  8
0
100
AcDbPolyline
 62
7
  6
CONTINUOUS
 90
9
 70
0
 10
-20.7222214035
 20
24.3642466834
 10
-20.6857688857
 20
24.4212406434
 10
-20.6490910326
 20
24.4779624909
 10
-20.6121874268
 20
24.5344128572
 10
-20.5750584856
 20
24.5905911111
 10
-20.5377054611
 20
24.6464953579
 10
-20.5001287707
 20
24.7021249663
 10
-20.462327997
 20
24.7574805676
 10
-20.42430314
 20
24.812562162
  0
LINE
  5
24A
100
AcDbEntity
  8
0
100
AcDbLine
 62
253
  6
CONTINUOUS
 10
-18.9216648258
 20
21.0154836769
 11
-18.0460348298
 21
21.5209826655
  0
LINE
  5
24B
100
AcDbEntity
  8
0
100
AcDbLine
 62
253
  6
CONTINUOUS
 10
-18.315771394
 20
21.2114288028
 11
-18.7853188385
 21
20.9403703924
  0
LWPOLYLINE
  5
24C
100
AcDbEntity
  8
0
100
AcDbPolyline
 62
7
  6
CONTINUOUS
 90
5
 70
0
 10
-27.2467540343
 20
20.3302854223
 10
-27.2533174417
 20
20.3270422446
 10
-27.2747556452
 20
20.3202946768
 10
-27.298405391
 20
20.3179530395
 10
-27.3231980128
 20
20.3200175526
  0
LWPOLYLINE
  5
24D
100
AcDbEntity
  8
0
100
AcDbPolyline
 62
253
  6
CONTINUOUS
 90
6
 70
0
 10
-18.7853188385
 20
20.9403703924
 10
-18.8038970109
 20
20.9312466418
 10
-18.8200929249
 20
20.9260514601
 10
-18.8336349464
 20
20.9248719796
 10
-18.8442959518
 20
20.9277279825
 10
-18.8474406332
 20
20.9297745437
  0
LWPOLYLINE
  5
24E
100
AcDbEntity
  8
0
100
AcDbPolyline
 62
253
  6
CONTINUOUS
 90
10
 70
0
 10
-16.7649829757
 20
-21.234137895
 10
-17.43748163
 20
-20.4432131328
 10
-18.0968093594
 20
-19.6356352576
 10
-18.7429661641
 20
-18.8114042695
 10
-19.3766228223
 20
-17.9695921213
 10
-19.9971085557
 20
-17.1111268602
 10
-20.6024110294
 20
-16.2387926269
 10
-21.191859465
 20
-15.3535174682
 10
-21.766124641
 20
-14.4543733374
 10
-22.3252065571
 20
-13.5413602344
  0
LWPOLYLINE
  5
24F
100
AcDbEntity
  8
0
100
AcDbPolyline
 62
7
  6
CONTINUOUS
 90
6
 70
0
 10
-16.8418497325
 20
-21.7508231247
 10
-17.8525649913
 20
-20.5525636761
 10
-18.8849588606
 20
-19.252048584
 10
-19.8844190505
 20
-17.9124912624
 10
-20.8486325677
 20
-16.5371801965
 10
-21.7754823205
 20
-15.1292986969
  0
LWPOLYLINE
  5
250
100
AcDbEntity
  8
0
100
AcDbPolyline
 62
7
  6
CONTINUOUS
 90
8
 70
0
 10
-16.841766746
 20
-21.7507560534
 10
-16.8536956589
 20
-21.7354353903
 10
-16.87936649
 20
-21.6799032009
 10
-16.8891730996
 20
-21.6117779142
 10
-16.8827123966
 20
-21.5330051053
 10
-16.8598500173
 20
-21.4442332993
 10
-16.8207203254
 20
-21.3448139711
 10
-16.7653233209
 20
-21.2347471207
  0
LWPOLYLINE
  5
251
100
AcDbEntity
  8
0
100
AcDbPolyline
 62
7
  6
CONTINUOUS
 90
7
 70
0
 10
-21.7754823205
 20
-15.1292986969
 10
-22.6630188578
 20
-13.6919129648
 10
-23.5091818026
 20
-12.2284126722
 10
-24.3120093898
 20
-10.742212778
 10
-25.0697723895
 20
-9.2364687073
 10
-25.7806998308
 20
-7.7145673429
 10
-26.4430092724
 20
-6.1801419202
  0
LINE
  5
252
100
AcDbEntity
  8
0
100
AcDbLine
 62
7
  6
CONTINUOUS
 10
-24.4619046169
 20
-14.2434679104
 11
-24.6170248187
 21
-13.9786404036
  0
LINE
  5
253
100
AcDbEntity
  8
0
100
AcDbLine
 62
7
  6
CONTINUOUS
 10
-24.6170248187
 20
-13.9786404036
 11
-24.7704875917
 21
-13.7128350839
  0
LINE
  5
254
100
AcDbEntity
  8
0
100
AcDbLine
 62
7
  6
CONTINUOUS
 10
-24.7704875917
 20
-13.7128350839
 11
-24.9222747322
 21
-13.4460834812
  0
LINE
  5
255
100
AcDbEntity
  8
0
100
AcDbLine
 62
7
  6
CONTINUOUS
 10
-26.4430092724
 20
-6.1801419202
 11
-27.0263141034
 21
-4.7124169025
  0
LWPOLYLINE
  5
256
100
AcDbEntity
  8
0
100
AcDbPolyline
 62
7
  6
CONTINUOUS
 90
10
 70
0
 10
-27.0262308982
 20
-4.7123816877
 10
-27.0344978173
 20
-4.674060633
 10
-27.0292748234
 20
-4.6160151444
 10
-27.005593742
 20
-4.5516653277
 10
-26.9629848783
 20
-4.4808580757
 10
-26.9019179272
 20
-4.4037464956
 10
-26.8239558729
 20
-4.3224833983
 10
-26.7296197101
 20
-4.2377863875
 10
-26.618388444
 20
-4.1489378595
 10
-26.4902620747
 20
-4.0559378144
  0
LWPOLYLINE
  5
257
100
AcDbEntity
  8
0
100
AcDbPolyline
 62
7
  6
CONTINUOUS
 90
10
 70
0
 10
-24.7216346319
 20
24.6454789999
 10
-24.7202279664
 20
24.5370869395
 10
-24.7160416231
 20
24.4273788739
 10
-24.7090756021
 20
24.3163548032
 10
-24.6993185613
 20
24.2039118086
 10
-24.6867818428
 20
24.0901528089
 10
-24.6714994727
 20
23.9753865598
 10
-24.653482793
 20
23.85971598
 10
-24.6327204619
 20
23.7430381508
 10
-24.6092124791
 20
23.6253530723
  0
LWPOLYLINE
  5
258
100
AcDbEntity
  8
0
100
AcDbPolyline
 62
253
  6
CONTINUOUS
 90
13
 70
0
 10
-16.7849301645
 20
20.0272769797
 10
-16.7647608429
 20
20.040518277
 10
-16.7428522089
 20
20.0573143233
 10
-16.7195691634
 20
20.0773884382
 10
-16.6952961701
 20
20.1004125878
 10
-16.6704437045
 20
20.1260007211
 10
-16.6454421145
 20
20.1537109063
 10
-16.620712292
 20
20.1830761567
 10
-16.5966687688
 20
20.2136037377
 10
-16.5737248214
 20
20.2447671949
 10
-16.5522665103
 20
20.2760385304
 10
-16.5326476077
 20
20.306898308
 10
-16.5151936003
 20
20.3368308425
  0
LINE
  5
259
100
AcDbEntity
  8
0
100
AcDbLine
 62
253
  6
CONTINUOUS
 10
-17.2699705721
 20
19.7472748556
 11
-16.7849301645
 21
20.0272769797
  0
LINE
  5
25A
100
AcDbEntity
  8
0
100
AcDbLine
 62
253
  6
CONTINUOUS
 10
-16.5151936003
 20
19.9904845991
 11
-17.0002340079
 21
19.710482475
  0
LINE
  5
25B
100
AcDbEntity
  8
0
100
AcDbLine
 62
7
  6
CONTINUOUS
 10
-8.2903428407
 20
24.4912057554
 11
-7.5902996312
 21
24.8953238094
  0
LINE
  5
25C
100
AcDbEntity
  8
0
100
AcDbLine
 62
253
  6
CONTINUOUS
 10
-17.0002340079
 20
19.710482475
 11
-17.0021586306
 21
19.709399572
  0
LINE
  5
25D
100
AcDbEntity
  8
0
100
AcDbLine
 62
253
  6
CONTINUOUS
 10
-7.5902983902
 20
25.2416707691
 11
-16.5151936003
 21
20.3368308425
  0
LINE
  5
25E
100
AcDbEntity
  8
0
100
AcDbLine
 62
253
  6
CONTINUOUS
 10
-16.5151936003
 20
19.9904845991
 11
-7.5902983902
 21
24.8953245258
  0
LINE
  5
25F
100
AcDbEntity
  8
0
100
AcDbLine
 62
7
  6
CONTINUOUS
 10
-8.2903440817
 20
24.491205039
 11
-17.0002340079
 21
19.710482475
  0
LINE
  5
260
100
AcDbEntity
  8
0
100
AcDbLine
 62
253
  6
CONTINUOUS
 10
-0.3094860867
 20
25.9484220246
 11
21.6108241301
 21
37.2784632019
  0
LWPOLYLINE
  5
261
100
AcDbEntity
  8
0
100
AcDbPolyline
 62
7
  6
CONTINUOUS
 90
9
 70
0
 10
-17.0021586306
 20
19.709399572
 10
-17.0367084848
 20
19.6932048959
 10
-17.0734567325
 20
19.6814190658
 10
-17.1117183054
 20
19.6744122814
 10
-17.1507425306
 20
19.6724180525
 10
-17.1897243875
 20
19.6755171134
 10
-17.2279529827
 20
19.6836549237
 10
-17.2648270358
 20
19.6967062566
 10
-17.2997272869
 20
19.7144663623
  0
LWPOLYLINE
  5
262
100
AcDbEntity
  8
0
100
AcDbPolyline
 62
253
  6
CONTINUOUS
 90
10
 70
0
 10
-16.5151936003
 20
19.9904845991
 10
-16.5422888704
 20
19.9781248117
 10
-16.571140446
 20
19.96980677
 10
-16.6013231525
 20
19.9656530539
 10
-16.6323921986
 20
19.9657248751
 10
-16.6638897318
 20
19.9700211752
 10
-16.6953515848
 20
19.9784786413
 10
-16.7263141162
 20
19.9909726389
 10
-16.756321043
 20
20.0073190486
 10
-16.7849301645
 20
20.0272769797
  0
LINE
  5
263
100
AcDbEntity
  8
0
100
AcDbLine
 62
253
  6
CONTINUOUS
 10
-17.0273270772
 20
19.698123501
 11
-17.0002340079
 21
19.710482475
  0
LWPOLYLINE
  5
264
100
AcDbEntity
  8
0
100
AcDbPolyline
 62
7
  6
CONTINUOUS
 90
4
 70
0
 10
18.8871970411
 20
-23.7944940991
 10
18.8623295754
 20
-23.7966406733
 10
18.8401931906
 20
-23.8029819568
 10
18.8269407733
 20
-23.8095470449
  0
LINE
  5
265
100
AcDbEntity
  8
0
100
AcDbLine
 62
7
  6
CONTINUOUS
 10
18.9495302314
 20
-23.7954101589
 11
18.8871970411
 21
-23.7944940991
  0
LWPOLYLINE
  5
266
100
AcDbEntity
  8
0
100
AcDbPolyline
 62
7
  6
CONTINUOUS
 90
11
 70
0
 10
14.8356220244
 20
-26.8936683866
 10
14.7730758727
 20
-26.8887887767
 10
14.711186055
 20
-26.8867656818
 10
14.6504596742
 20
-26.8878780461
 10
14.5912612291
 20
-26.892495043
 10
14.534157607
 20
-26.9005142858
 10
14.4799332907
 20
-26.911515693
 10
14.4291053572
 20
-26.9255303024
 10
14.3819596956
 20
-26.9426307586
 10
14.3389853983
 20
-26.9626461635
 10
14.3151817881
 20
-26.9761915763
  0
LWPOLYLINE
  5
267
100
AcDbEntity
  8
0
100
AcDbPolyline
 62
7
  6
CONTINUOUS
 90
3
 70
0
 10
-10.3457479759
 20
-19.9078106771
 10
-10.3389736741
 20
-19.9107344991
 10
-10.3074439618
 20
-19.9218664322
  0
LINE
  5
268
100
AcDbEntity
  8
0
100
AcDbLine
 62
253
  6
CONTINUOUS
 10
-10.345529919
 20
-19.9079079466
 11
-10.3456792859
 21
-19.9078412702
  0
LINE
  5
269
100
AcDbEntity
  8
0
100
AcDbLine
 62
7
  6
CONTINUOUS
 10
-10.3455989004
 20
-19.9078817047
 11
-10.435517281
 21
-19.8645749023
  0
LWPOLYLINE
  5
26A
100
AcDbEntity
  8
0
100
AcDbPolyline
 62
253
  6
CONTINUOUS
 90
6
 70
0
 10
-10.4356222911
 20
-19.756339726
 10
-10.5107699004
 20
-19.7200485867
 10
-10.5855776899
 20
-19.6785851471
 10
-10.6600456596
 20
-19.6319494073
 10
-10.7344582141
 20
-19.5799226382
 10
-10.8085309488
 20
-19.5227235688
  0
LINE
  5
26B
100
AcDbEntity
  8
0
100
AcDbLine
 62
7
  6
CONTINUOUS
 10
-10.435517281
 20
-19.8645749023
 11
-10.5245940094
 21
-19.8152707745
  0
LWPOLYLINE
  5
26C
100
AcDbEntity
  8
0
100
AcDbPolyline
 62
253
  6
CONTINUOUS
 90
5
 70
0
 10
-10.351754314
 20
-19.9049212755
 10
-10.3656181932
 20
-19.8965726417
 10
-10.3782705338
 20
-19.8866463019
 10
-10.3896436374
 20
-19.8753499204
 10
-10.3992161179
 20
-19.8632332383
  0
LWPOLYLINE
  5
26D
100
AcDbEntity
  8
0
100
AcDbPolyline
 62
7
  6
CONTINUOUS
 90
3
 70
0
 10
-10.5245940094
 20
-19.8152707745
 10
-10.6125822703
 20
-19.7602399862
 10
-10.699332838
 20
-19.6996929869
  0
LWPOLYLINE
  5
26E
100
AcDbEntity
  8
0
100
AcDbPolyline
 62
7
  6
CONTINUOUS
 90
3
 70
0
 10
-10.699332838
 20
-19.6996929869
 10
-10.7845918151
 20
-19.6339085929
 10
-10.8679757608
 20
-19.56329537
  0
LWPOLYLINE
  5
26F
100
AcDbEntity
  8
0
100
AcDbPolyline
 62
7
  6
CONTINUOUS
 90
8
 70
0
 10
-15.5192536751
 20
-20.5318179976
 10
-15.5051536334
 20
-20.5428848318
 10
-15.4844448792
 20
-20.5494635804
 10
-15.4578937155
 20
-20.5509737075
 10
-15.4264772476
 20
-20.5472325124
 10
-15.3905211776
 20
-20.5381790948
 10
-15.3496998035
 20
-20.523874355
 10
-15.3040131254
 20
-20.504318293
  0
LWPOLYLINE
  5
270
100
AcDbEntity
  8
0
100
AcDbPolyline
 62
253
  6
CONTINUOUS
 90
4
 70
0
 10
-10.8085309488
 20
-19.5227235688
 10
-10.8814106504
 20
-19.4610083862
 10
-10.9528129145
 20
-19.3949958194
 10
-11.0230221454
 20
-19.3244671393
  0
LINE
  5
271
100
AcDbEntity
  8
0
100
AcDbLine
 62
253
  6
CONTINUOUS
 10
-15.4569678434
 20
-20.3253698376
 11
-15.3041623468
 21
-20.5043885879
  0
LWPOLYLINE
  5
272
100
AcDbEntity
  8
0
100
AcDbPolyline
 62
7
  6
CONTINUOUS
 90
13
 70
0
 10
-13.5861759029
 20
-18.4092182303
 10
-14.5194272501
 20
-17.3053701394
 10
-15.422578253
 20
-16.1689470822
 10
-16.2956289115
 20
-14.9999490587
 10
-17.1406394219
 20
-13.7952501063
 10
-17.955549588
 20
-12.5579761876
 10
-18.7341788211
 20
-11.2975051905
 10
-19.4762495017
 20
-10.0136596123
 10
-20.1820392493
 20
-8.7066169558
 10
-20.8462003341
 20
-7.386287617
 10
-21.4669501795
 20
-6.0559750612
 10
-22.0460713621
 20
-4.712375823
 10
-22.5835638819
 20
-3.3554899025
  0
LWPOLYLINE
  5
273
100
AcDbEntity
  8
0
100
AcDbPolyline
 62
7
  6
CONTINUOUS
 90
6
 70
0
 10
-25.3362166956
 20
-4.1071914294
 10
-25.3269599925
 20
-4.120596494
 10
-25.3106763193
 20
-4.1307428199
 10
-25.2875086585
 20
-4.1372578373
 10
-25.2573756802
 20
-4.1403539651
 10
-25.2202773843
 20
-4.1400312033
  0
LWPOLYLINE
  5
274
100
AcDbEntity
  8
0
100
AcDbPolyline
 62
253
  6
CONTINUOUS
 90
10
 70
0
 10
-21.891016509
 20
-13.1029618402
 10
-21.3444077107
 20
-14.0002617312
 10
-20.7826440662
 20
-14.8838539419
 10
-20.2057255755
 20
-15.7537384722
 10
-19.6129773344
 20
-16.6108516851
 10
-19.005074247
 20
-17.4542572176
 10
-18.3840410262
 20
-18.2811459808
 10
-17.750552576
 20
-19.0905816115
 10
-17.1039339924
 20
-19.8835004728
 10
-16.4441852753
 20
-20.6599025648
  0
LWPOLYLINE
  5
275
100
AcDbEntity
  8
0
100
AcDbPolyline
 62
253
  6
CONTINUOUS
 90
10
 70
0
 10
-19.576443888
 20
-11.7113140829
 10
-19.0605657129
 20
-12.5581294191
 10
-18.5290225568
 20
-13.3936892616
 10
-17.9824132802
 20
-14.2170522309
 10
-17.4213537177
 20
-15.0272906892
 10
-16.8464759845
 20
-15.8234917851
 10
-16.2584277637
 20
-16.6047584826
 10
-15.6578715771
 20
-17.3702105712
 10
-15.0454840384
 20
-18.1189856582
 10
-14.4219550909
 20
-18.8502401397
  0
LWPOLYLINE
  5
276
100
AcDbEntity
  8
0
100
AcDbPolyline
 62
253
  6
CONTINUOUS
 90
10
 70
0
 10
-22.3252065571
 20
-13.5413602344
 10
-22.8745266662
 20
-12.6043024644
 10
-23.4045850206
 20
-11.6590902018
 10
-23.9153816204
 20
-10.7057234465
 10
-24.4074418646
 20
-9.7431234442
 10
-24.8802403542
 20
-8.7723689492
 10
-25.3322008921
 20
-7.7966962247
 10
-25.7627980794
 20
-6.8171840251
 10
-26.1725573151
 20
-5.8327535959
 10
-26.5614785992
 20
-4.8434049372
  0
LINE
  5
277
100
AcDbEntity
  8
0
100
AcDbLine
 62
7
  6
CONTINUOUS
 10
-21.8963973628
 20
-4.3024772305
 11
-21.7840830006
 21
-4.5781060852
  0
LINE
  5
278
100
AcDbEntity
  8
0
100
AcDbLine
 62
7
  6
CONTINUOUS
 10
-22.0067932097
 20
-4.0266207576
 11
-21.8963973628
 21
-4.3024772305
  0
LWPOLYLINE
  5
279
100
AcDbEntity
  8
0
100
AcDbPolyline
 62
253
  6
CONTINUOUS
 90
10
 70
0
 10
-25.9214364959
 20
-4.8033044606
 10
-25.5505285718
 20
-5.7468156014
 10
-25.1600278078
 20
-6.6857439668
 10
-24.7499342039
 20
-7.6200895569
 10
-24.3197628132
 20
-8.5508510004
 10
-23.8699985826
 20
-9.4770296686
 10
-23.4020963528
 20
-10.3956296752
 10
-22.9165410707
 20
-11.3056523917
 10
-22.4128477894
 20
-12.2080964467
 10
-21.891016509
 20
-13.1029618402
  0
LWPOLYLINE
  5
27A
100
AcDbEntity
  8
0
100
AcDbPolyline
 62
253
  6
CONTINUOUS
 90
10
 70
0
 10
-23.3804806609
 20
-3.8615333658
 10
-23.0320171703
 20
-4.7523021212
 10
-22.6639903353
 20
-5.640680176
 10
-22.2768029315
 20
-6.5256952721
 10
-21.8708787044
 20
-7.4063788316
 10
-21.4466619053
 20
-8.2817670174
 10
-21.0046168053
 20
-9.1509017877
 10
-20.5452271872
 20
-10.0128319446
 10
-20.0689958158
 20
-10.8666141749
 10
-19.576443888
 20
-11.7113140829
  0
LINE
  5
27B
100
AcDbEntity
  8
0
100
AcDbLine
 62
7
  6
CONTINUOUS
 10
-22.1152660519
 20
-3.7505480395
 11
-22.0067932097
 21
-4.0266207576
  0
LINE
  5
27C
100
AcDbEntity
  8
0
100
AcDbLine
 62
253
  6
CONTINUOUS
 10
-25.2024926904
 20
-3.9432737132
 11
-25.1278372086
 21
-4.1342395607
  0
LWPOLYLINE
  5
27D
100
AcDbEntity
  8
0
100
AcDbPolyline
 62
7
  6
CONTINUOUS
 90
3
 70
0
 10
-22.2743371334
 20
-3.3361159583
 10
-22.2217979319
 20
-3.474304569
 10
-22.1152660519
 20
-3.7505480395
  0
LWPOLYLINE
  5
27E
100
AcDbEntity
  8
0
100
AcDbPolyline
 62
253
  6
CONTINUOUS
 90
14
 70
0
 10
-22.0838673538
 20
-0.6955330825
 10
-22.1132328944
 20
-0.5399081806
 10
-22.1297830103
 20
-0.3876672523
 10
-22.1335228983
 20
-0.2402978624
 10
-22.1244681488
 20
-0.1022627049
 10
-22.1022620729
 20
0.0261805812
 10
-22.0672613595
 20
0.1452896348
 10
-22.0205516658
 20
0.251374679
 10
-21.9618079938
 20
0.3440708247
 10
-21.8913553414
 20
0.423742961
 10
-21.8112543603
 20
0.4877959782
 10
-21.7221919342
 20
0.5353648399
 10
-21.6234811792
 20
0.5673145826
 10
-21.5151220955
 20
0.5836452063
  0
LWPOLYLINE
  5
27F
100
AcDbEntity
  8
0
100
AcDbPolyline
 62
7
  6
CONTINUOUS
 90
10
 70
0
 10
-25.5452155422
 20
24.4134890971
 10
-25.5551848969
 20
24.4973674461
 10
-25.5639841638
 20
24.5807104421
 10
-25.5716133429
 20
24.663518085
 10
-25.5780740101
 20
24.7458147291
 10
-25.5833645895
 20
24.8275760201
 10
-25.5874803533
 20
24.9087288957
 10
-25.5904197257
 20
24.9892490016
 10
-25.5921842827
 20
25.069160692
 10
-25.5927740241
 20
25.148463967
  0
LWPOLYLINE
  5
280
100
AcDbEntity
  8
0
100
AcDbPolyline
 62
7
  6
CONTINUOUS
 90
4
 70
0
 10
-19.5443438128
 20
-5.934197157
 10
-19.5562920309
 20
-5.7858461703
 10
-19.5812116689
 20
-5.6368862899
 10
-19.6178883384
 20
-5.4897191859
  0
LWPOLYLINE
  5
281
100
AcDbEntity
  8
0
100
AcDbPolyline
 62
253
  6
CONTINUOUS
 90
10
 70
0
 10
-19.089009295
 20
10.6171119672
 10
-19.0833013421
 20
10.5416280169
 10
-19.0662209245
 20
10.466718545
 10
-19.0378980344
 20
10.3929536579
 10
-18.9985482261
 20
10.3208947508
 10
-18.9484709755
 20
10.2510902357
 10
-18.8880474006
 20
10.1840713669
 10
-18.8177373614
 20
10.1203481986
 10
-18.7380759596
 20
10.0604057025
 10
-18.6496694667
 20
10.0047000772
  0
LWPOLYLINE
  5
282
100
AcDbEntity
  8
0
100
AcDbPolyline
 62
253
  6
CONTINUOUS
 90
10
 70
0
 10
-19.6103766359
 20
-6.1327447004
 10
-19.6129068078
 20
-6.0449711611
 10
-19.6204857418
 20
-5.9546776227
 10
-19.6330787455
 20
-5.8622774002
 10
-19.650628175
 20
-5.7681934521
 10
-19.6730536984
 20
-5.6728564439
 10
-19.7002526639
 20
-5.5767027771
 10
-19.7321005691
 20
-5.4801725912
 10
-19.7684516317
 20
-5.3837077495
 10
-19.8091394559
 20
-5.2877498159
  0
LINE
  5
283
100
AcDbEntity
  8
0
100
AcDbLine
 62
253
  6
CONTINUOUS
 10
-19.9235745981
 20
11.3740162655
 11
-19.9235745981
 21
22.7508422871
  0
LINE
  5
284
100
AcDbEntity
  8
0
100
AcDbLine
 62
7
  6
CONTINUOUS
 10
-19.089009295
 20
10.6171119672
 11
-19.089009295
 21
21.3053327813
  0
LINE
  5
285
100
AcDbEntity
  8
0
100
AcDbLine
 62
253
  6
CONTINUOUS
 10
-18.6496694667
 20
20.7740612326
 11
-18.6496694667
 21
10.0047000772
  0
LWPOLYLINE
  5
286
100
AcDbEntity
  8
0
100
AcDbPolyline
 62
7
  6
CONTINUOUS
 90
10
 70
0
 10
-20.4538210694
 20
-6.9762434758
 10
-20.45455975
 20
-7.0284541104
 10
-20.456755498
 20
-7.0796609746
 10
-20.4604083134
 20
-7.1298640683
 10
-20.465525033
 20
-7.1791135675
 10
-20.4720988199
 20
-7.2273592964
 10
-20.4801091639
 20
-7.2744507268
 10
-20.489549228
 20
-7.3203376828
 10
-20.5004258491
 20
-7.3650703403
 10
-20.5127390272
 20
-7.4086486995
  0
LWPOLYLINE
  5
287
100
AcDbEntity
  8
0
100
AcDbPolyline
 62
253
  6
CONTINUOUS
 90
3
 70
0
 10
-19.6153511905
 20
-6.250830861
 10
-19.6116209749
 20
-6.1925735897
 10
-19.6103766359
 20
-6.1327447004
  0
LWPOLYLINE
  5
288
100
AcDbEntity
  8
0
100
AcDbPolyline
 62
7
  6
CONTINUOUS
 90
4
 70
0
 10
-19.5879172965
 20
-6.3364831268
 10
-19.5606293209
 20
-6.2099565892
 10
-19.5459778929
 20
-6.0760277616
 10
-19.5443438128
 20
-5.934197157
  0
LINE
  5
289
100
AcDbEntity
  8
0
100
AcDbLine
 62
7
  6
CONTINUOUS
 10
-23.3619554091
 20
-12.5453487839
 11
-23.3505486588
 21
-12.5027802202
  0
LWPOLYLINE
  5
28A
100
AcDbEntity
  8
0
100
AcDbPolyline
 62
7
  6
CONTINUOUS
 90
28
 70
0
 10
-13.2014932298
 20
15.1898380392
 10
-13.3166528032
 20
15.1156648061
 10
-13.4363307417
 20
15.0128901081
 10
-13.5415431535
 20
14.89187844
 10
-13.6328390695
 20
14.7513843082
 10
-13.7096694588
 20
14.5926532064
 10
-13.7703872286
 20
14.4194216158
 10
-13.8146305783
 20
14.231379581
 10
-13.8427613086
 20
14.0288370575
 10
-13.8542177287
 20
13.8164603937
 10
-13.8486312372
 20
13.5940465308
 10
-13.8263704355
 20
13.3617985277
 10
-13.7879794365
 20
13.1249919085
 10
-13.7331037196
 20
12.883528057
 10
-13.6620978054
 20
12.6375055894
 10
-13.5765693687
 20
12.3924958792
 10
-13.4761982264
 20
12.1485193668
 10
-13.3613045616
 20
11.9055556117
 10
-13.2344565984
 20
11.6691146651
 10
-13.0953814314
 20
11.4393252755
 10
-12.944351966
 20
11.2160586944
 10
-12.7847551428
 20
11.0044387283
 10
-12.6163891379
 20
10.8047100761
 10
-12.4394557751
 20
10.616628039
 10
-12.2579474667
 20
10.4445823269
 10
-12.0731950168
 20
10.2900361766
 10
-11.8838676214
 20
10.1515263513
 10
-11.6899652803
 20
10.029052851
  0
LINE
  5
28B
100
AcDbEntity
  8
0
100
AcDbLine
 62
253
  6
CONTINUOUS
 10
-1.0165928678
 20
24.6808877604
 11
-0.3094860867
 21
25.1319517478
  0
LINE
  5
28C
100
AcDbEntity
  8
0
100
AcDbLine
 62
7
  6
CONTINUOUS
 10
-10.9420554644
 20
16.4301862072
 11
-13.2014932298
 21
15.1898380392
  0
LINE
  5
28D
100
AcDbEntity
  8
0
100
AcDbLine
 62
253
  6
CONTINUOUS
 10
-41.3377823556
 20
0.241154884
 11
-19.9235745981
 21
11.3740162655
  0
LWPOLYLINE
  5
28E
100
AcDbEntity
  8
0
100
AcDbPolyline
 62
253
  6
CONTINUOUS
 90
19
 70
0
 10
-19.9235745981
 20
11.3740162655
 10
-19.8734098565
 20
11.3969184173
 10
-19.8185925216
 20
11.4159361619
 10
-19.7600193666
 20
11.4307583824
 10
-19.698648607
 20
11.4411425976
 10
-19.6354842254
 20
11.4469189292
 10
-19.5715595466
 20
11.4479928804
 10
-19.5079203334
 20
11.4443468821
 10
-19.4456076786
 20
11.4360405803
 10
-19.3856409734
 20
11.4232098602
 10
-19.329001231
 20
11.4060646234
 10
-19.2766150377
 20
11.384885354
 10
-19.2293393948
 20
11.3600185298
 10
-19.1879476986
 20
11.3318709546
 10
-19.1531170881
 20
11.3009031031
 10
-19.1254173677
 20
11.2676215874
 10
-19.1053016852
 20
11.2325708697
 10
-19.0930991192
 20
11.1963243552
 10
-19.089009295
 20
11.1594750113
  0
LWPOLYLINE
  5
28F
100
AcDbEntity
  8
0
100
AcDbPolyline
 62
253
  6
CONTINUOUS
 90
13
 70
0
 10
17.9997659921
 20
-18.6608926337
 10
17.9650680437
 20
-18.6610443598
 10
17.9284987521
 20
-18.6626097589
 10
17.8906714488
 20
-18.6655625764
 10
17.8522205646
 20
-18.6698532885
 10
17.8137909887
 20
-18.6754099323
 10
17.776027253
 20
-18.6821393131
 10
17.739562722
 20
-18.6899285673
 10
17.7050089705
 20
-18.6986470552
 10
17.6729455258
 20
-18.7081485526
 10
17.6439101486
 20
-18.7182737024
 10
17.6183898135
 20
-18.728852688
 10
17.5968125415
 20
-18.7397080812
  0
LINE
  5
290
100
AcDbEntity
  8
0
100
AcDbLine
 62
253
  6
CONTINUOUS
 10
-10.0335721198
 20
-19.8686696677
 11
-10.1776469905
 21
-19.8587465421
  0
LWPOLYLINE
  5
291
100
AcDbEntity
  8
0
100
AcDbPolyline
 62
7
  6
CONTINUOUS
 90
8
 70
0
 10
-10.1179694266
 20
-19.9511894042
 10
-9.9482871759
 20
-19.9636241936
 10
-9.7855833672
 20
-19.9636382632
 10
-9.6307329828
 20
-19.9514288558
 10
-9.4844257656
 20
-19.9272246746
 10
-9.3474741604
 20
-19.891330584
 10
-9.2206308261
 20
-19.8441497148
 10
-9.1862240766
 20
-19.8286086239
  0
LINE
  5
292
100
AcDbEntity
  8
0
100
AcDbLine
 62
253
  6
CONTINUOUS
 10
-10.1776469905
 20
-19.8587465421
 11
-10.3308160376
 21
-19.8391374407
  0
LINE
  5
293
100
AcDbEntity
  8
0
100
AcDbLine
 62
7
  6
CONTINUOUS
 10
-10.2733100797
 20
-19.9296873272
 11
-10.1179694266
 21
-19.9511894042
  0
LINE
  5
294
100
AcDbEntity
  8
0
100
AcDbLine
 62
7
  6
CONTINUOUS
 10
-10.2732440455
 20
-19.9296986588
 11
-10.273171644
 21
-19.9297108906
  0
LINE
  5
295
100
AcDbEntity
  8
0
100
AcDbLine
 62
7
  6
CONTINUOUS
 10
-10.3074439618
 20
-19.9218664322
 11
-10.273171644
 21
-19.9297108906
  0
LINE
  5
296
100
AcDbEntity
  8
0
100
AcDbLine
 62
7
  6
CONTINUOUS
 10
-22.8581813107
 20
-13.3543653225
 11
-22.9015852937
 21
-13.3427332131
  0
LWPOLYLINE
  5
297
100
AcDbEntity
  8
0
100
AcDbPolyline
 62
7
  6
CONTINUOUS
 90
27
 70
0
 10
-13.537823673
 20
-16.3073829174
 10
-13.5278727554
 20
-16.3118828901
 10
-13.5176011689
 20
-16.31712264
 10
-13.5070011472
 20
-16.3231011277
 10
-13.4960804566
 20
-16.3298193926
 10
-13.4848958752
 20
-16.3371829206
 10
-13.473466175
 20
-16.3451746001
 10
-13.4617725839
 20
-16.3538115427
 10
-13.4498155637
 20
-16.3630505683
 10
-13.4375967735
 20
-16.3728844161
 10
-13.4251145543
 20
-16.3833203469
 10
-13.4123643903
 20
-16.3943369633
 10
-13.3993481435
 20
-16.4059285736
 10
-13.3860639519
 20
-16.4181008695
 10
-13.3725017142
 20
-16.4308495284
 10
-13.3586646112
 20
-16.4441682388
 10
-13.344549462
 20
-16.4580633121
 10
-13.3301366227
 20
-16.4725493602
 10
-13.31542536
 20
-16.4876244849
 10
-13.3004164071
 20
-16.5032905843
 10
-13.2850923198
 20
-16.5195679649
 10
-13.2694534208
 20
-16.5364542597
 10
-13.2534993875
 20
-16.5539518357
 10
-13.2372118079
 20
-16.5720881006
 10
-13.2205845448
 20
-16.5908721902
 10
-13.2036237354
 20
-16.6102949686
 10
-13.1863293798
 20
-16.6303564359
  0
LWPOLYLINE
  5
298
100
AcDbEntity
  8
0
100
AcDbPolyline
 62
253
  6
CONTINUOUS
 90
10
 70
0
 10
-9.1048728434
 20
-19.479745651
 10
-9.0731808338
 20
-19.4949595764
 10
-9.0404135072
 20
-19.5071487553
 10
-9.007020395
 20
-19.5161354256
 10
-8.9735106983
 20
-19.5217795478
 10
-8.9402992504
 20
-19.524008256
 10
-8.9077082889
 20
-19.5227672259
 10
-8.8761660633
 20
-19.5180085859
 10
-8.8461916261
 20
-19.5097434937
 10
-8.8182455758
 20
-19.4980360049
  0
LWPOLYLINE
  5
299
100
AcDbEntity
  8
0
100
AcDbPolyline
 62
7
  6
CONTINUOUS
 90
5
 70
0
 10
-18.0228752429
 20
-9.7215734839
 10
-18.0395776528
 20
-9.7119520232
 10
-18.0567342995
 20
-9.7026453213
 10
-18.0743268049
 20
-9.6936685745
 10
-18.0923448212
 20
-9.6850144491
  0
LINE
  5
29A
100
AcDbEntity
  8
0
100
AcDbLine
 62
253
  6
CONTINUOUS
 10
10.7251583158
 20
-28.7870947338
 11
-0.4677592272
 21
-22.3244444247
  0
LINE
  5
29B
100
AcDbEntity
  8
0
100
AcDbLine
 62
7
  6
CONTINUOUS
 10
11.5336565101
 20
-28.290296078
 11
-0.7059326961
 21
-21.2233106685
  0
LINE
  5
29C
100
AcDbEntity
  8
0
100
AcDbLine
 62
253
  6
CONTINUOUS
 10
-1.0165928678
 20
-20.5366844541
 11
11.9592564943
 21
-28.0287772502
  0
LWPOLYLINE
  5
29D
100
AcDbEntity
  8
0
100
AcDbPolyline
 62
253
  6
CONTINUOUS
 90
7
 70
0
 10
-0.4677592272
 20
-22.3244444247
 10
-1.4584575248
 20
-21.7232842202
 10
-2.4465853842
 20
-21.0653969217
 10
-3.4295790363
 20
-20.3524894651
 10
-4.4048880332
 20
-19.5864115404
 10
-5.3699818653
 20
-18.769150792
 10
-5.9061816517
 20
-18.281399179
  0
LWPOLYLINE
  5
29E
100
AcDbEntity
  8
0
100
AcDbPolyline
 62
7
  6
CONTINUOUS
 90
6
 70
0
 10
-0.7059689363
 20
-21.2232897459
 10
-1.6592561295
 20
-20.6448443647
 10
-2.6063658652
 20
-20.0142607567
 10
-3.5451877891
 20
-19.3333596394
 10
-4.4736946766
 20
-18.6039942163
 10
-5.2307717759
 20
-17.9628347328
  0
LWPOLYLINE
  5
29F
100
AcDbEntity
  8
0
100
AcDbPolyline
 62
253
  6
CONTINUOUS
 90
6
 70
0
 10
-1.0165928678
 20
-20.5366844541
 10
-1.9092852623
 20
-19.9948211998
 10
-2.7952438184
 20
-19.4057369905
 10
-3.6744685363
 20
-18.7694318261
 10
-4.5491612731
 20
-18.0840487784
 10
-4.8856347339
 20
-17.8000470766
  0
LWPOLYLINE
  5
2A0
100
AcDbEntity
  8
0
100
AcDbPolyline
 62
253
  6
CONTINUOUS
 90
19
 70
0
 10
-0.2362507019
 20
-21.4944467517
 10
-0.2063972821
 20
-21.5164027801
 10
-0.1811101851
 20
-21.5450902667
 10
-0.16081517
 20
-21.5800329303
 10
-0.145844249
 20
-21.6206591335
 10
-0.1364423358
 20
-21.66630426
 10
-0.1327632393
 20
-21.7162215879
 10
-0.1348671466
 20
-21.7695945046
 10
-0.1427196396
 20
-21.8255498667
 10
-0.1561922568
 20
-21.883172284
 10
-0.1750645957
 20
-21.9415190941
 10
-0.1990279181
 20
-21.9996357843
 10
-0.227690201
 20
-22.0565716063
 10
-0.2605825495
 20
-22.1113951303
 10
-0.297166868
 20
-22.1632094817
 10
-0.3368446626
 20
-22.2111670144
 10
-0.3789668326
 20
-22.2544831767
 10
-0.4228442889
 20
-22.2924493468
 10
-0.4677592272
 20
-22.3244444247
  0
LWPOLYLINE
  5
2A1
100
AcDbEntity
  8
0
100
AcDbPolyline
 62
7
  6
CONTINUOUS
 90
6
 70
0
 10
-17.946021912
 20
-9.7756637696
 10
-17.9605040118
 20
-9.7639886763
 10
-17.9754368262
 20
-9.7527417349
 10
-17.9908160458
 20
-9.7419191144
 10
-18.0066277029
 20
-9.7315385536
 10
-18.0228752429
 20
-9.7215734839
  0
LWPOLYLINE
  5
2A2
100
AcDbEntity
  8
0
100
AcDbPolyline
 62
7
  6
CONTINUOUS
 90
15
 70
0
 10
7.8010626565
 20
-32.5108900916
 10
8.0355619506
 20
-32.7096521894
 10
8.2706035222
 20
-32.8877048606
 10
8.5061873713
 20
-33.045048105
 10
8.7436791208
 20
-33.1823116737
 10
8.9817131477
 20
-33.2988658157
 10
9.2161925831
 20
-33.3928212784
 10
9.4470482298
 20
-33.4638003955
 10
9.6743492851
 20
-33.5121808332
 10
9.8942064718
 20
-33.5372063381
 10
10.1064935788
 20
-33.5384901023
 10
10.3113368173
 20
-33.5164189336
 10
10.5052255447
 20
-33.4713970011
 10
10.6879780013
 20
-33.4030435947
 10
10.8472061776
 20
-33.3194281176
  0
LINE
  5
2A3
100
AcDbEntity
  8
0
100
AcDbLine
 62
7
  6
CONTINUOUS
 10
-17.9243516554
 20
-9.7947523653
 11
-17.946021912
 21
-9.7756637696
  0
LINE
  5
2A4
100
AcDbEntity
  8
0
100
AcDbLine
 62
7
  6
CONTINUOUS
 10
16.0206981682
 20
-42.7888177739
 11
15.4742880067
 21
-42.3042729488
  0
LWPOLYLINE
  5
2A5
100
AcDbEntity
  8
0
100
AcDbPolyline
 62
7
  6
CONTINUOUS
 90
3
 70
0
 10
-10.8679757608
 20
-19.56329537
 10
-10.9492146407
 20
-19.488209933
 10
-11.0281724356
 20
-19.4088951726
  0
LINE
  5
2A6
100
AcDbEntity
  8
0
100
AcDbLine
 62
7
  6
CONTINUOUS
 10
-17.9036121032
 20
-9.8152933976
 11
-17.9243516554
 21
-9.7947523653
  0
LINE
  5
2A7
100
AcDbEntity
  8
0
100
AcDbLine
 62
7
  6
CONTINUOUS
 10
-16.8100739573
 20
-10.9611930322
 11
-16.8510174221
 21
-10.9194572837
  0
LINE
  5
2A8
100
AcDbEntity
  8
0
100
AcDbLine
 62
7
  6
CONTINUOUS
 10
-16.8510174221
 20
-10.9194572837
 11
-17.0259734849
 21
-10.7401239634
  0
LINE
  5
2A9
100
AcDbEntity
  8
0
100
AcDbLine
 62
253
  6
CONTINUOUS
 10
-17.1115885135
 20
-10.7224780312
 11
-16.8243789291
 21
-11.0162798829
  0
LWPOLYLINE
  5
2AA
100
AcDbEntity
  8
0
100
AcDbPolyline
 62
7
  6
CONTINUOUS
 90
5
 70
0
 10
-17.0259734849
 20
-10.7401239634
 10
-17.1998118936
 20
-10.5603207532
 10
-17.3725230771
 20
-10.3800584647
 10
-17.5440974372
 20
-10.1993479758
 10
-17.7145253546
 20
-10.0182002281
  0
LINE
  5
2AB
100
AcDbEntity
  8
0
100
AcDbLine
 62
253
  6
CONTINUOUS
 10
-17.3957214363
 20
-10.4274694561
 11
-17.1115885135
 21
-10.7224780312
  0
LINE
  5
2AC
100
AcDbEntity
  8
0
100
AcDbLine
 62
253
  6
CONTINUOUS
 10
-17.6767422468
 20
-10.1313108698
 11
-17.3957214363
 21
-10.4274694561
  0
LINE
  5
2AD
100
AcDbEntity
  8
0
100
AcDbLine
 62
7
  6
CONTINUOUS
 10
-17.7145253546
 20
-10.0182002281
 11
-17.9036121032
 21
-9.8152933976
  0
LWPOLYLINE
  5
2AE
100
AcDbEntity
  8
0
100
AcDbPolyline
 62
253
  6
CONTINUOUS
 90
3
 70
0
 10
-18.0923452669
 20
-9.6850136664
 10
-17.9546061553
 20
-9.8340429137
 10
-17.6767422468
 20
-10.1313108698
  0
LINE
  5
2AF
100
AcDbEntity
  8
0
100
AcDbLine
 62
253
  6
CONTINUOUS
 10
-11.0230221454
 20
-19.3244671393
 11
-11.0920383433
 21
-19.2494223461
  0
LINE
  5
2B0
100
AcDbEntity
  8
0
100
AcDbLine
 62
7
  6
CONTINUOUS
 10
-11.0281724356
 20
-19.4088951726
 11
-11.1046308903
 21
-19.3256719255
  0
LWPOLYLINE
  5
2B1
100
AcDbEntity
  8
0
100
AcDbPolyline
 62
253
  6
CONTINUOUS
 90
10
 70
0
 10
-10.4356201497
 20
-19.7563359601
 10
-10.4257620667
 20
-19.7671183994
 10
-10.4153919686
 20
-19.777563506
 10
-10.404536105
 20
-19.7876448403
 10
-10.3932219555
 20
-19.7973368835
 10
-10.3814781594
 20
-19.8066151021
 10
-10.3693344438
 20
-19.8154560101
 10
-10.356821548
 20
-19.8238372288
 10
-10.3439711458
 20
-19.8317375427
 10
-10.3308157655
 20
-19.8391369537
  0
LINE
  5
2B2
100
AcDbEntity
  8
0
100
AcDbLine
 62
7
  6
CONTINUOUS
 10
-11.1046327325
 20
-19.3256812015
 11
-11.121182762
 21
-19.3069401485
  0
LINE
  5
2B3
100
AcDbEntity
  8
0
100
AcDbLine
 62
253
  6
CONTINUOUS
 10
-11.0920383433
 20
-19.2494223461
 11
-11.1097861367
 21
-19.2293241674
  0
LWPOLYLINE
  5
2B4
100
AcDbEntity
  8
0
100
AcDbPolyline
 62
7
  6
CONTINUOUS
 90
5
 70
0
 10
-16.7961274703
 20
-10.9769391494
 10
-16.8000997487
 20
-10.9721055377
 10
-16.8042156712
 20
-10.9674047338
 10
-16.8084705407
 20
-10.9628409051
 10
-16.8100739573
 20
-10.9611930322
  0
LINE
  5
2B5
100
AcDbEntity
  8
0
100
AcDbLine
 62
7
  6
CONTINUOUS
 10
-13.2185352136
 20
-16.5898281086
 11
-13.5562756749
 21
-16.172908927
  0
LWPOLYLINE
  5
2B6
100
AcDbEntity
  8
0
100
AcDbPolyline
 62
253
  6
CONTINUOUS
 90
10
 70
0
 10
-13.595465024
 20
-16.3002876949
 10
-13.8922501054
 20
-15.9281814225
 10
-14.1861218283
 20
-15.5521220888
 10
-14.4769999464
 20
-15.172212383
 10
-14.7648050225
 20
-14.7885560563
 10
-15.0494584753
 20
-14.4012578614
 10
-15.3308825993
 20
-14.0104235231
 10
-15.6090005541
 20
-13.6161597529
 10
-15.8837363864
 20
-13.2185742208
 10
-16.1550150741
 20
-12.8177754933
  0
LWPOLYLINE
  5
2B7
100
AcDbEntity
  8
0
100
AcDbPolyline
 62
7
  6
CONTINUOUS
 90
8
 70
0
 10
-13.5562756749
 20
-16.172908927
 10
-13.9267104057
 20
-15.7044746305
 10
-14.2925784277
 20
-15.2298897944
 10
-14.6537210841
 20
-14.7493565332
 10
-15.0099794515
 20
-14.2630827916
 10
-15.36119469
 20
-13.7712822694
 10
-15.7072126626
 20
-13.2741681055
 10
-16.0478837296
 20
-12.7719527633
  0
LWPOLYLINE
  5
2B8
100
AcDbEntity
  8
0
100
AcDbPolyline
 62
7
  6
CONTINUOUS
 90
3
 70
0
 10
-13.1863671686
 20
-16.6303824674
 10
-13.2026439929
 20
-16.609649609
 10
-13.2185352136
 20
-16.5898281086
  0
LWPOLYLINE
  5
2B9
100
AcDbEntity
  8
0
100
AcDbPolyline
 62
7
  6
CONTINUOUS
 90
5
 70
0
 10
-22.0470021569
 20
-1.0267748468
 10
-22.041414169
 20
-1.0349261446
 10
-22.031649185
 20
-1.0410145681
 10
-22.0177515313
 20
-1.0449235923
 10
-21.9996726749
 20
-1.0467807898
  0
LINE
  5
2BA
100
AcDbEntity
  8
0
100
AcDbLine
 62
7
  6
CONTINUOUS
 10
-16.0478837296
 20
-12.7719527633
 11
-16.2022713562
 21
-12.5396890391
  0
LWPOLYLINE
  5
2BB
100
AcDbEntity
  8
0
100
AcDbPolyline
 62
253
  6
CONTINUOUS
 90
8
 70
0
 10
-10.3992161179
 20
-19.8632332383
 10
-10.4073055263
 20
-19.8506199534
 10
-10.4147874513
 20
-19.8368051117
 10
-10.4211611498
 20
-19.821928959
 10
-10.4260406174
 20
-19.8070460689
 10
-10.4300187621
 20
-19.7919031513
 10
-10.4333408993
 20
-19.7752036071
 10
-10.4356203225
 20
-19.7563362023
  0
LWPOLYLINE
  5
2BC
100
AcDbEntity
  8
0
100
AcDbPolyline
 62
7
  6
CONTINUOUS
 90
5
 70
0
 10
-16.782374924
 20
-10.9965155067
 10
-16.7851482976
 20
-10.9921455052
 10
-16.7886517039
 20
-10.9869590616
 10
-16.7923103465
 20
-10.9818919293
 10
-16.7961274703
 20
-10.9769391494
  0
LINE
  5
2BD
100
AcDbEntity
  8
0
100
AcDbLine
 62
7
  6
CONTINUOUS
 10
-13.577119289
 20
-18.3930682421
 11
-14.663299707
 21
-16.6589572772
  0
LINE
  5
2BE
100
AcDbEntity
  8
0
100
AcDbLine
 62
253
  6
CONTINUOUS
 10
-16.7552465518
 20
-11.1280704705
 11
-16.8243789291
 21
-11.0162798829
  0
LINE
  5
2BF
100
AcDbEntity
  8
0
100
AcDbLine
 62
7
  6
CONTINUOUS
 10
-16.7130606671
 20
-11.1086001957
 11
-16.7823749292
 21
-10.9965154982
  0
LINE
  5
2C0
100
AcDbEntity
  8
0
100
AcDbLine
 62
7
  6
CONTINUOUS
 10
-17.8537876127
 20
-9.8687587763
 11
-17.9321637405
 21
-9.7326029463
  0
LWPOLYLINE
  5
2C1
100
AcDbEntity
  8
0
100
AcDbPolyline
 62
7
  6
CONTINUOUS
 90
9
 70
0
 10
-19.7915075603
 20
-5.0625497639
 10
-19.867621926
 20
-4.9292435971
 10
-19.9520096719
 20
-4.801471115
 10
-20.0443545931
 20
-4.6798948537
 10
-20.1439158119
 20
-4.5658393461
 10
-20.2497947
 20
-4.4606861872
 10
-20.3624116714
 20
-4.364632966
 10
-20.4805720412
 20
-4.2794940184
 10
-20.6009139318
 20
-4.2079406228
  0
LWPOLYLINE
  5
2C2
100
AcDbEntity
  8
0
100
AcDbPolyline
 62
7
  6
CONTINUOUS
 90
8
 70
0
 10
-17.9321637405
 20
-9.7326029463
 10
-18.1761148725
 20
-9.3017797614
 10
-18.4158328178
 20
-8.8687381202
 10
-18.6512500252
 20
-8.433600358
 10
-18.8822991109
 20
-7.9964914473
 10
-19.1089129667
 20
-7.5575390313
 10
-19.3310269443
 20
-7.1168692943
 10
-19.548578785
 20
-6.6746068535
  0
LWPOLYLINE
  5
2C3
100
AcDbEntity
  8
0
100
AcDbPolyline
 62
253
  6
CONTINUOUS
 90
10
 70
0
 10
-18.0923452669
 20
-9.6850136664
 10
-18.2827814245
 20
-9.3476147588
 10
-18.4706083948
 20
-9.0088476949
 10
-18.6557936329
 20
-8.6687711689
 10
-18.8383046187
 20
-8.3274449178
 10
-19.0181101737
 20
-7.9849272686
 10
-19.1951804009
 20
-7.6412751001
 10
-19.369484972
 20
-7.2965471057
 10
-19.540993198
 20
-6.9508038108
 10
-19.7096752995
 20
-6.6041051002
  0
LWPOLYLINE
  5
2C4
100
AcDbEntity
  8
0
100
AcDbPolyline
 62
253
  6
CONTINUOUS
 90
5
 70
0
 10
-11.1046308903
 20
-19.3256719255
 10
-11.1095469506
 20
-19.3166310764
 10
-11.1109224028
 20
-19.3041695487
 10
-11.1084545697
 20
-19.2886933507
 10
-11.1021148526
 20
-19.2703914103
  0
LINE
  5
2C5
100
AcDbEntity
  8
0
100
AcDbLine
 62
7
  6
CONTINUOUS
 10
-16.7130606679
 20
-11.1086001944
 11
-16.7007616031
 21
-11.13167564
  0
LWPOLYLINE
  5
2C6
100
AcDbEntity
  8
0
100
AcDbPolyline
 62
7
  6
CONTINUOUS
 90
10
 70
0
 10
-20.5127390272
 20
-7.4086486995
 10
-19.9620837372
 20
-8.5027813246
 10
-19.38572696
 20
-9.581722616
 10
-18.7836686955
 20
-10.6454725738
 10
-18.1547370106
 20
-11.6958844623
 10
-17.5001038384
 20
-12.7311050171
 10
-16.8232849785
 20
-13.745574445
 10
-16.1254523641
 20
-14.7374394813
 10
-15.405434062
 20
-15.7085533907
 10
-14.6632300723
 20
-16.6589161731
  0
LINE
  5
2C7
100
AcDbEntity
  8
0
100
AcDbLine
 62
7
  6
CONTINUOUS
 10
-19.548578785
 20
-6.6746068535
 11
-19.6407682423
 21
-6.4834855335
  0
LWPOLYLINE
  5
2C8
100
AcDbEntity
  8
0
100
AcDbPolyline
 62
253
  6
CONTINUOUS
 90
9
 70
0
 10
-19.8091394559
 20
-5.2877498159
 10
-19.8672697039
 20
-5.1663226764
 10
-19.9317669775
 20
-5.0473574564
 10
-20.0021473542
 20
-4.9317467507
 10
-20.0778827708
 20
-4.8203579853
 10
-20.1584049851
 20
-4.714026909
 10
-20.2431098398
 20
-4.613551323
 10
-20.3313621394
 20
-4.5196847483
 10
-20.4224994056
 20
-4.4331318671
  0
LWPOLYLINE
  5
2C9
100
AcDbEntity
  8
0
100
AcDbPolyline
 62
253
  6
CONTINUOUS
 90
7
 70
0
 10
-16.6935939373
 20
-11.1498628645
 10
-16.6946245283
 20
-11.1473996979
 10
-16.6986945581
 20
-11.1416118437
 10
-16.7046045693
 20
-11.1373906906
 10
-16.713043863
 20
-11.133681464
 10
-16.7244492118
 20
-11.130275453
 10
-16.7385457694
 20
-11.1282465497
  0
LINE
  5
2CA
100
AcDbEntity
  8
0
100
AcDbLine
 62
7
  6
CONTINUOUS
 10
-20.6750577637
 20
-4.1856324042
 11
-20.7708050505
 21
-3.9559012087
  0
LINE
  5
2CB
100
AcDbEntity
  8
0
100
AcDbLine
 62
7
  6
CONTINUOUS
 10
-13.1863293798
 20
-16.6303564359
 11
-12.5927319835
 21
-18.0641551922
  0
LWPOLYLINE
  5
2CC
100
AcDbEntity
  8
0
100
AcDbPolyline
 62
7
  6
CONTINUOUS
 90
6
 70
0
 10
-20.7708050505
 20
-3.9559012087
 10
-20.8568779303
 20
-3.7465151691
 10
-20.9418681351
 20
-3.5369941202
 10
-21.0257704814
 20
-3.3273511674
 10
-21.1085797494
 20
-3.1175997035
 10
-21.1902909048
 20
-2.9077528539
  0
LINE
  5
2CD
100
AcDbEntity
  8
0
100
AcDbLine
 62
253
  6
CONTINUOUS
 10
-20.8019938786
 20
-4.172147777
 11
-20.9449222198
 21
-3.8255833991
  0
LINE
  5
2CE
100
AcDbEntity
  8
0
100
AcDbLine
 62
253
  6
CONTINUOUS
 10
-20.9449222198
 20
-3.8255833991
 11
-21.0848715532
 21
-3.478631903
  0
LINE
  5
2CF
100
AcDbEntity
  8
0
100
AcDbLine
 62
7
  6
CONTINUOUS
 10
-16.7007616031
 20
-11.13167564
 11
-16.6935939373
 21
-11.1498628645
  0
LINE
  5
2D0
100
AcDbEntity
  8
0
100
AcDbLine
 62
253
  6
CONTINUOUS
 10
-21.0848715532
 20
-3.478631903
 11
-21.2218197047
 21
-3.1313489355
  0
LWPOLYLINE
  5
2D1
100
AcDbEntity
  8
0
100
AcDbPolyline
 62
7
  6
CONTINUOUS
 90
3
 70
0
 10
-21.1902909048
 20
-2.9077528539
 10
-21.2708990934
 20
-2.6978234707
 10
-21.3486530005
 20
-2.4924702354
  0
LINE
  5
2D2
100
AcDbEntity
  8
0
100
AcDbLine
 62
253
  6
CONTINUOUS
 10
-21.2218197047
 20
-3.1313489355
 11
-21.3557479108
 21
-2.7837823176
  0
LINE
  5
2D3
100
AcDbEntity
  8
0
100
AcDbLine
 62
253
  6
CONTINUOUS
 10
-21.3557479108
 20
-2.7837823176
 11
-21.4215722295
 21
-2.6099115207
  0
LINE
  5
2D4
100
AcDbEntity
  8
0
100
AcDbLine
 62
7
  6
CONTINUOUS
 10
-22.0470843468
 20
-1.0268096518
 11
-22.0559150475
 21
-1.0030648587
  0
LINE
  5
2D5
100
AcDbEntity
  8
0
100
AcDbLine
 62
253
  6
CONTINUOUS
 10
-21.9773390942
 20
-1.0465815543
 11
-21.9867055887
 21
-1.0213975015
  0
LINE
  5
2D6
100
AcDbEntity
  8
0
100
AcDbLine
 62
253
  6
CONTINUOUS
 10
-16.2922875886
 20
-12.446845118
 11
-16.1550150741
 21
-12.8177754933
  0
LWPOLYLINE
  5
2D7
100
AcDbEntity
  8
0
100
AcDbPolyline
 62
7
  6
CONTINUOUS
 90
6
 70
0
 10
-16.1824384445
 20
-12.5934936725
 10
-16.2764502426
 20
-12.3375865997
 10
-16.3589588985
 20
-12.1095754482
 10
-16.4406333894
 20
-11.8806215359
 10
-16.521468389
 20
-11.6507379965
 10
-16.6014586654
 20
-11.4199379087
  0
LINE
  5
2D8
100
AcDbEntity
  8
0
100
AcDbLine
 62
253
  6
CONTINUOUS
 10
-16.4273630388
 20
-12.0732628927
 11
-16.2922875886
 21
-12.446845118
  0
LINE
  5
2D9
100
AcDbEntity
  8
0
100
AcDbLine
 62
253
  6
CONTINUOUS
 10
-16.5602069401
 20
-11.6970842405
 11
-16.4273630388
 21
-12.0732628927
  0
LINE
  5
2DA
100
AcDbEntity
  8
0
100
AcDbLine
 62
253
  6
CONTINUOUS
 10
-16.6908044904
 20
-11.3183651518
 11
-16.5602069401
 21
-11.6970842405
  0
LINE
  5
2DB
100
AcDbEntity
  8
0
100
AcDbLine
 62
253
  6
CONTINUOUS
 10
-16.7552465518
 20
-11.1280704705
 11
-16.6908044904
 21
-11.3183651518
  0
LINE
  5
2DC
100
AcDbEntity
  8
0
100
AcDbLine
 62
7
  6
CONTINUOUS
 10
-16.6014586654
 20
-11.4199379087
 11
-16.6935703955
 21
-11.1499312922
  0
LINE
  5
2DD
100
AcDbEntity
  8
0
100
AcDbLine
 62
7
  6
CONTINUOUS
 10
-22.0558963458
 20
-1.0030692471
 11
-22.1123560608
 21
-0.8362535486
  0
LWPOLYLINE
  5
2DE
100
AcDbEntity
  8
0
100
AcDbPolyline
 62
7
  6
CONTINUOUS
 90
8
 70
0
 10
-21.3486654835
 20
-2.4924755223
 10
-21.3478317155
 20
-2.4949725644
 10
-21.3467490725
 20
-2.5094113997
 10
-21.351048941
 20
-2.5260950235
 10
-21.3606932479
 20
-2.5445420145
 10
-21.375669302
 20
-2.5645918989
 10
-21.3959897945
 20
-2.5864051505
 10
-21.4216547254
 20
-2.6099817693
  0
LINE
  5
2DF
100
AcDbEntity
  8
0
100
AcDbLine
 62
253
  6
CONTINUOUS
 10
-21.9867055887
 20
-1.0213975015
 11
-22.0416915852
 21
-0.8560295228
  0
LWPOLYLINE
  5
2E0
100
AcDbEntity
  8
0
100
AcDbPolyline
 62
7
  6
CONTINUOUS
 90
4
 70
0
 10
-19.6178883384
 20
-5.4897191859
 10
-19.6658612251
 20
-5.3437097532
 10
-19.724084487
 20
-5.2008285088
 10
-19.7915075603
 20
-5.0625497639
  0
LWPOLYLINE
  5
2E1
100
AcDbEntity
  8
0
100
AcDbPolyline
 62
7
  6
CONTINUOUS
 90
14
 70
0
 10
-22.1123560608
 20
-0.8362535486
 10
-22.1576733462
 20
-0.6691232853
 10
-22.1913251968
 20
-0.5028827907
 10
-22.2128806599
 20
-0.3380812203
 10
-22.2217132135
 20
-0.1765499399
 10
-22.2174775785
 20
-0.0210381545
 10
-22.200051379
 20
0.1280240108
 10
-22.1693743616
 20
0.2692491578
 10
-22.1263815834
 20
0.3992335646
 10
-22.0722909209
 20
0.5166924676
 10
-22.0076178023
 20
0.6222633789
 10
-21.9330906289
 20
0.7157286122
 10
-21.8502635413
 20
0.7961249041
 10
-21.7805224304
 20
0.8497958493
  0
LINE
  5
2E2
100
AcDbEntity
  8
0
100
AcDbLine
 62
253
  6
CONTINUOUS
 10
-22.0416915852
 20
-0.8560295228
 11
-22.0838673538
 21
-0.6955330825
  0
LWPOLYLINE
  5
2E3
100
AcDbEntity
  8
0
100
AcDbPolyline
 62
253
  6
CONTINUOUS
 90
8
 70
0
 10
-18.7326598965
 20
2.9551737279
 10
-19.0218003559
 20
4.0932542549
 10
-19.2958490123
 20
5.3511586211
 10
-19.521046831
 20
6.5955434855
 10
-19.6968095201
 20
7.823180202
 10
-19.8226810506
 20
9.0308835785
 10
-19.8983348396
 20
10.2155201413
 10
-19.9235745981
 20
11.3740162655
  0
LINE
  5
2E4
100
AcDbEntity
  8
0
100
AcDbLine
 62
7
  6
CONTINUOUS
 10
-29.2538205898
 20
35.1670835863
 11
-29.4002307514
 21
35.8825387601
  0
LWPOLYLINE
  5
2E5
100
AcDbEntity
  8
0
100
AcDbPolyline
 62
7
  6
CONTINUOUS
 90
5
 70
0
 10
-16.1529754288
 20
-12.7701278468
 10
-16.1546319221
 20
-12.7238378854
 10
-16.1601034626
 20
-12.6789176257
 10
-16.1692137492
 20
-12.6356594443
 10
-16.1823571214
 20
-12.5935725392
  0
LWPOLYLINE
  5
2E6
100
AcDbEntity
  8
0
100
AcDbPolyline
 62
253
  6
CONTINUOUS
 90
4
 70
0
 10
-16.8074903188
 20
-10.9788728064
 10
-16.8072381178
 20
-10.968958427
 10
-16.8091054726
 20
-10.9623915673
 10
-16.8100739573
 20
-10.9611930322
  0
LINE
  5
2E7
100
AcDbEntity
  8
0
100
AcDbLine
 62
7
  6
CONTINUOUS
 10
-16.1550148687
 20
-12.8177758
 11
-16.1529754288
 21
-12.7701278468
  0
LWPOLYLINE
  5
2E8
100
AcDbEntity
  8
0
100
AcDbPolyline
 62
7
  6
CONTINUOUS
 90
8
 70
0
 10
-13.1749994474
 20
21.8100939892
 10
-13.2574905389
 20
21.0400523941
 10
-13.3232002119
 20
20.1132367317
 10
-13.3577338681
 20
19.1648966576
 10
-13.3609461451
 20
18.1990240163
 10
-13.3327885886
 20
17.2169494227
 10
-13.2733096529
 20
16.217342262
 10
-13.1825093379
 20
15.2002025341
  0
LWPOLYLINE
  5
2E9
100
AcDbEntity
  8
0
100
AcDbPolyline
 62
7
  6
CONTINUOUS
 90
11
 70
0
 10
-10.5064797798
 20
21.7397729785
 10
-10.4875173176
 20
21.8680940532
 10
-10.4802763951
 20
22.0018009605
 10
-10.4847570123
 20
22.1408937003
 10
-10.5012602066
 20
22.2868071647
 10
-10.5294849406
 20
22.4381064617
 10
-10.5685281021
 20
22.5904869155
 10
-10.6186687233
 20
22.7439557559
 10
-10.6796277721
 20
22.8985057532
 10
-10.7496650403
 20
23.0498105428
 10
-10.7875789951
 20
23.1205117927
  0
LWPOLYLINE
  5
2EA
100
AcDbEntity
  8
0
100
AcDbPolyline
 62
7
  6
CONTINUOUS
 90
3
 70
0
 10
-19.6743781632
 20
-6.5562819249
 10
-19.6267403527
 20
-6.4531022506
 10
-19.5879172965
 20
-6.3364831268
  0
LWPOLYLINE
  5
2EB
100
AcDbEntity
  8
0
100
AcDbPolyline
 62
253
  6
CONTINUOUS
 90
8
 70
0
 10
-19.7096600247
 20
-6.6041202359
 10
-19.689075296
 20
-6.5603055797
 10
-19.6708013319
 20
-6.514090877
 10
-19.6548794122
 20
-6.4655800051
 10
-19.6413454402
 20
-6.414881659
 10
-19.6302301538
 20
-6.362110165
 10
-19.6215588853
 20
-6.3073853657
 10
-19.6153511905
 20
-6.250830861
  0
LWPOLYLINE
  5
2EC
100
AcDbEntity
  8
0
100
AcDbPolyline
 62
7
  6
CONTINUOUS
 90
3
 70
0
 10
-19.6742541048
 20
-6.5560485994
 10
-19.6882337937
 20
-6.5785115315
 10
-19.7096641302
 20
-6.6041282827
  0
LWPOLYLINE
  5
2ED
100
AcDbEntity
  8
0
100
AcDbPolyline
 62
253
  6
CONTINUOUS
 90
13
 70
0
 10
-21.4170387924
 20
0.9729380361
 10
-21.4419182119
 20
0.9537972909
 10
-21.4645616376
 20
0.9308599885
 10
-21.4846388971
 20
0.9045169519
 10
-21.5017906817
 20
0.8753498655
 10
-21.5158835605
 20
0.8437130748
 10
-21.526864726
 20
0.8096151561
 10
-21.5344892505
 20
0.7733005507
 10
-21.5384413822
 20
0.7355075633
 10
-21.5385432625
 20
0.6969859475
 10
-21.53472592
 20
0.6584213358
 10
-21.526980999
 20
0.6204145042
 10
-21.5153659958
 20
0.5836299252
  0
LINE
  5
2EE
100
AcDbEntity
  8
0
100
AcDbLine
 62
7
  6
CONTINUOUS
 10
-21.7800588718
 20
0.8498056623
 11
-13.0913540159
 21
6.8526040761
  0
LINE
  5
2EF
100
AcDbEntity
  8
0
100
AcDbLine
 62
253
  6
CONTINUOUS
 10
-21.4170353824
 20
0.9729382498
 11
-12.7309398789
 21
6.9738537673
  0
LWPOLYLINE
  5
2F0
100
AcDbEntity
  8
0
100
AcDbPolyline
 62
7
  6
CONTINUOUS
 90
25
 70
0
 10
-10.1407371786
 20
9.8887909595
 10
-10.073359884
 20
9.9334884227
 10
-9.9614768521
 20
10.0262365771
 10
-9.861772127
 20
10.1347300837
 10
-9.7737820883
 20
10.2599107662
 10
-9.6979703565
 20
10.4008368008
 10
-9.6357277931
 20
10.5546827167
 10
-9.587310432
 20
10.7216802748
 10
-9.5524622393
 20
10.9015977142
 10
-9.5318059753
 20
11.0909142804
 10
-9.5256064012
 20
11.2898015353
 10
-9.5335987558
 20
11.4980879172
 10
-9.5556115146
 20
11.7117379866
 10
-9.5919064926
 20
11.9308518502
 10
-9.6422218748
 20
12.1553294014
 10
-9.7056006918
 20
12.3808348807
 10
-9.782287682
 20
12.6073915419
 10
-9.8720381071
 20
12.8349761314
 10
-9.9731607831
 20
13.0591831287
 10
-10.0858736345
 20
13.2799620181
 10
-10.2099587367
 20
13.4973633154
 10
-10.3430711326
 20
13.7071330482
 10
-10.4844291697
 20
13.9078532255
 10
-10.6348145005
 20
14.1009418383
 10
-10.7942271249
 20
14.2863988864
  0
LINE
  5
2F1
100
AcDbEntity
  8
0
100
AcDbLine
 62
7
  6
CONTINUOUS
 10
-10.1974212228
 20
9.8564856205
 11
-10.1407371786
 21
9.8887909595
  0
LINE
  5
2F2
100
AcDbEntity
  8
0
100
AcDbLine
 62
7
  6
CONTINUOUS
 10
7.6101098626
 20
-12.3605619067
 11
7.5276141502
 21
-12.3824167491
  0
LINE
  5
2F3
100
AcDbEntity
  8
0
100
AcDbLine
 62
7
  6
CONTINUOUS
 10
8.3113240086
 20
-11.7926185482
 11
8.022588897
 21
-11.8691103966
  0
LINE
  5
2F4
100
AcDbEntity
  8
0
100
AcDbLine
 62
253
  6
CONTINUOUS
 10
-16.714627679
 20
-11.1084113636
 11
-16.7130605511
 21
-11.1086003827
  0
LINE
  5
2F5
100
AcDbEntity
  8
0
100
AcDbLine
 62
253
  6
CONTINUOUS
 10
-20.7062982671
 20
-4.2235506391
 11
-20.8019937947
 21
-4.1721290918
  0
LWPOLYLINE
  5
2F6
100
AcDbEntity
  8
0
100
AcDbPolyline
 62
253
  6
CONTINUOUS
 90
10
 70
0
 10
-7.0713221155
 20
-14.0045676607
 10
-7.0844769186
 20
-13.9971685893
 10
-7.0973269128
 20
-13.9892685682
 10
-7.1098395624
 20
-13.9808875773
 10
-7.1219831838
 20
-13.9720468146
 10
-7.1337270259
 20
-13.9627686432
 10
-7.1450413477
 20
-13.9530765349
 10
-7.155897494
 20
-13.9429950104
 10
-7.1662679677
 20
-13.9325495776
 10
-7.1761264997
 20
-13.9217666671
  0
LWPOLYLINE
  5
2F7
100
AcDbEntity
  8
0
100
AcDbPolyline
 62
7
  6
CONTINUOUS
 90
16
 70
0
 10
-21.7840830006
 20
-4.5781060852
 10
-21.639600346
 20
-4.6806415616
 10
-21.5003735171
 20
-4.7954642882
 10
-21.3664025139
 20
-4.9225742649
 10
-21.2365064493
 20
-5.0634778867
 10
-21.1118662103
 20
-5.2166687586
 10
-20.9960244583
 20
-5.3776276959
 10
-20.8892178614
 20
-5.5465512285
 10
-20.7912097513
 20
-5.7232428265
 10
-20.7048327847
 20
-5.9025937151
 10
-20.6303893005
 20
-6.0846818263
 10
-20.5675769597
 20
-6.2694292282
 10
-20.5183214022
 20
-6.451493351
 10
-20.483264508
 20
-6.6290933383
 10
-20.461764397
 20
-6.8040100465
 10
-20.4538210694
 20
-6.9762434758
  0
LWPOLYLINE
  5
2F8
100
AcDbEntity
  8
0
100
AcDbPolyline
 62
253
  6
CONTINUOUS
 90
4
 70
0
 10
-20.4224994056
 20
-4.4331318671
 10
-20.515836748
 20
-4.3545429453
 10
-20.610673439
 20
-4.2845075927
 10
-20.7062982671
 20
-4.2235506391
  0
LWPOLYLINE
  5
2F9
100
AcDbEntity
  8
0
100
AcDbPolyline
 62
253
  6
CONTINUOUS
 90
13
 70
0
 10
-7.0713221952
 20
-14.0045678034
 10
-6.9724478226
 20
-14.1199067409
 10
-6.8866488146
 20
-14.233079683
 10
-6.8139251715
 20
-14.3440866298
 10
-6.7545917757
 20
-14.4532800109
 10
-6.7083337448
 20
-14.5603073968
 10
-6.6742064302
 20
-14.6641114982
 10
-6.6519761917
 20
-14.7645686687
 10
-6.6418766697
 20
-14.8618025549
 10
-6.643664137
 20
-14.9551268067
 10
-6.6572573514
 20
-15.0443126408
 10
-6.6827375551
 20
-15.1295888405
 10
-6.7201047482
 20
-15.2109554058
  0
LWPOLYLINE
  5
2FA
100
AcDbEntity
  8
0
100
AcDbPolyline
 62
7
  6
CONTINUOUS
 90
13
 70
0
 10
-8.2169908205
 20
-14.0511534038
 10
-9.0510331622
 20
-13.0766845204
 10
-9.857582476
 20
-12.0719313016
 10
-10.6366387618
 20
-11.0368937476
 10
-11.3901705884
 20
-9.9685951717
 10
-12.1162093871
 20
-8.8700122606
 10
-12.8088494518
 20
-7.7500750736
 10
-13.4678166466
 20
-6.6086083355
 10
-14.0933851075
 20
-5.4457873216
 10
-14.6804715363
 20
-4.2710679176
 10
-15.2273815005
 20
-3.0876020852
 10
-15.7358094327
 20
-1.8922378627
 10
-16.2057553329
 20
-0.6849752501
  0
LWPOLYLINE
  5
2FB
100
AcDbEntity
  8
0
100
AcDbPolyline
 62
253
  6
CONTINUOUS
 90
12
 70
0
 10
8.5179650568
 20
-31.3335181386
 10
8.4937068087
 20
-31.3050012921
 10
8.467113697
 20
-31.2776617865
 10
8.4386420798
 20
-31.2519384572
 10
8.4089198234
 20
-31.2283466912
 10
8.3783036482
 20
-31.20712054
 10
8.3468349443
 20
-31.1883282133
 10
8.3148246635
 20
-31.1722877659
 10
8.2830241447
 20
-31.1595099311
 10
8.2521447816
 20
-31.1503683312
 10
8.22280043
 20
-31.1451072387
 10
8.1955089087
 20
-31.1438860844
  0
LWPOLYLINE
  5
2FC
100
AcDbEntity
  8
0
100
AcDbPolyline
 62
253
  6
CONTINUOUS
 90
10
 70
0
 10
-8.4621756776
 20
-12.1922811818
 10
-7.6140003279
 20
-13.1830799359
 10
-7.5482853565
 20
-13.266668045
 10
-7.4854821551
 20
-13.3531197639
 10
-7.4253569637
 20
-13.442813165
 10
-7.3681435424
 20
-13.5353701761
 10
-7.3145431712
 20
-13.6296565804
 10
-7.2647896103
 20
-13.7252943057
 10
-7.2186490995
 20
-13.8226614242
 10
-7.1761216389
 20
-13.921757936
  0
LWPOLYLINE
  5
2FD
100
AcDbEntity
  8
0
100
AcDbPolyline
 62
253
  6
CONTINUOUS
 90
10
 70
0
 10
-7.3902492117
 20
-12.818334072
 10
-7.310674586
 20
-12.9131064827
 10
-7.2338861336
 20
-13.0120247364
 10
-7.1601984987
 20
-13.1146831299
 10
-7.089914807
 20
-13.2206626961
 10
-7.0233202914
 20
-13.3295281581
 10
-6.9606809227
 20
-13.4408296796
 10
-6.9022493498
 20
-13.5541111174
 10
-6.8482641442
 20
-13.668911897
 10
-6.7989435326
 20
-13.7847640895
  0
LWPOLYLINE
  5
2FE
100
AcDbEntity
  8
0
100
AcDbPolyline
 62
253
  6
CONTINUOUS
 90
13
 70
0
 10
-6.7989499755
 20
-13.7847653398
 10
-6.6926863374
 20
-13.9210338761
 10
-6.6002879521
 20
-14.0569415883
 10
-6.5219818318
 20
-14.191401396
 10
-6.4580960757
 20
-14.3228815423
 10
-6.4082270774
 20
-14.4508498331
 10
-6.3717289894
 20
-14.5757923449
 10
-6.3487059336
 20
-14.696639803
 10
-6.3389922008
 20
-14.8126544161
 10
-6.3424123628
 20
-14.924738658
 10
-6.3592955968
 20
-15.0324684488
 10
-6.3897096684
 20
-15.1342731837
 10
-6.4334780852
 20
-15.2292450468
  0
LWPOLYLINE
  5
2FF
100
AcDbEntity
  8
0
100
AcDbPolyline
 62
253
  6
CONTINUOUS
 90
12
 70
0
 10
-15.1463149017
 20
-0.6147258786
 10
-14.7076935251
 20
-1.7427848257
 10
-14.2330289879
 20
-2.8597221584
 10
-13.72232129
 20
-3.9655378767
 10
-13.1739812362
 20
-5.0631903703
 10
-12.5895980218
 20
-6.1497212495
 10
-11.9739392321
 20
-7.2162553449
 10
-11.3267461924
 20
-8.2626276625
 10
-10.6482775774
 20
-9.2890031963
 10
-9.9440769967
 20
-10.2870017594
 10
-9.21599232
 20
-11.253829956
 10
-8.4621756776
 20
-12.1922811818
  0
LWPOLYLINE
  5
300
100
AcDbEntity
  8
0
100
AcDbPolyline
 62
253
  6
CONTINUOUS
 90
13
 70
0
 10
-14.7591717298
 20
-0.4892205835
 10
-14.3283975822
 20
-1.5980455864
 10
-13.8593227531
 20
-2.701844671
 10
-13.3532265758
 20
-3.7976073864
 10
-12.8114893535
 20
-4.8823451998
 10
-12.2355885955
 20
-5.9530996472
 10
-11.6270949871
 20
-7.006950402
 10
-10.9876682015
 20
-8.0410230902
 10
-10.3190520948
 20
-9.0524975861
 10
-9.6230699075
 20
-10.038615669
 10
-8.9016196883
 20
-10.9966879471
 10
-8.1566691584
 20
-11.9241012286
 10
-7.3902500375
 20
-12.8183260803
  0
LWPOLYLINE
  5
301
100
AcDbEntity
  8
0
100
AcDbPolyline
 62
253
  6
CONTINUOUS
 90
13
 70
0
 10
-16.7827917903
 20
0.8801392957
 10
-16.7939694211
 20
0.9152481041
 10
-16.8016360929
 20
0.951608393
 10
-16.805705621
 20
0.9886449564
 10
-16.8061552582
 20
1.0256069166
 10
-16.8030394043
 20
1.0621049316
 10
-16.7963197695
 20
1.0980900871
 10
-16.7859117563
 20
1.1331720113
 10
-16.7718985662
 20
1.1665094117
 10
-16.7544787519
 20
1.1973616968
 10
-16.7339087141
 20
1.2251262355
 10
-16.710454722
 20
1.2493164669
 10
-16.6844645869
 20
1.2694474067
  0
LWPOLYLINE
  5
302
100
AcDbEntity
  8
0
100
AcDbPolyline
 62
7
  6
CONTINUOUS
 90
8
 70
0
 10
-18.1510873367
 20
3.3569669638
 10
-18.2319028685
 20
3.6751427461
 10
-18.4912088106
 20
4.865564856
 10
-18.7048760867
 20
6.0463635251
 10
-18.8721262626
 20
7.2146602316
 10
-18.9922835434
 20
8.3676984812
 10
-19.0647514365
 20
9.5027606558
 10
-19.089009295
 20
10.6171119672
  0
LWPOLYLINE
  5
303
100
AcDbEntity
  8
0
100
AcDbPolyline
 62
253
  6
CONTINUOUS
 90
6
 70
0
 10
-10.3308160376
 20
-19.8391374407
 10
-10.3237466391
 20
-19.8670779079
 10
-10.3146932751
 20
-19.8904215401
 10
-10.3038324324
 20
-19.9087004098
 10
-10.2913724718
 20
-19.9215490642
 10
-10.2775615975
 20
-19.9286987307
  0
LWPOLYLINE
  5
304
100
AcDbEntity
  8
0
100
AcDbPolyline
 62
253
  6
CONTINUOUS
 90
7
 70
0
 10
-17.8656380159
 20
3.5541764166
 10
-18.0915584197
 20
4.6013262048
 10
-18.2920111448
 20
5.7192654156
 10
-18.4482007613
 20
6.8194229784
 10
-18.5596201051
 20
7.8989636594
 10
-18.6267763402
 20
8.9607226923
 10
-18.6496694667
 20
10.0047000772
  0
LWPOLYLINE
  5
305
100
AcDbEntity
  8
0
100
AcDbPolyline
 62
7
  6
CONTINUOUS
 90
3
 70
0
 10
-10.7942271249
 20
14.2863988864
 10
-10.8707054775
 20
15.1791420705
 10
-10.9200383944
 20
16.056588931
  0
LWPOLYLINE
  5
306
100
AcDbEntity
  8
0
100
AcDbPolyline
 62
7
  6
CONTINUOUS
 90
4
 70
0
 10
-10.8393528163
 20
19.4739247995
 10
-10.8426542978
 20
19.5867318013
 10
-10.8399421879
 20
20.5538484143
 10
-10.8057867199
 20
21.5033880085
  0
LWPOLYLINE
  5
307
100
AcDbEntity
  8
0
100
AcDbPolyline
 62
7
  6
CONTINUOUS
 90
8
 70
0
 10
-10.9200383944
 20
16.056588931
 10
-10.9422258757
 20
16.9187394679
 10
-10.9372241004
 20
17.7667287521
 10
-10.9050768896
 20
18.5994217126
 10
-10.8459157058
 20
19.4134131368
 10
-10.75978437
 20
20.2075679537
 10
-10.6466390613
 20
20.9830212342
 10
-10.5064797798
 20
21.7397729785
  0
LWPOLYLINE
  5
308
100
AcDbEntity
  8
0
100
AcDbPolyline
 62
7
  6
CONTINUOUS
 90
3
 70
0
 10
-10.8057867199
 20
21.5033880085
 10
-10.740332503
 20
22.4313303726
 10
-10.6883896193
 20
22.917434382
  0
LWPOLYLINE
  5
309
100
AcDbEntity
  8
0
100
AcDbPolyline
 62
7
  6
CONTINUOUS
 90
35
 70
0
 10
-4.8732595749
 20
26.1526308516
 10
-4.9263607219
 20
25.8684972512
 10
-4.9744528066
 20
25.4440476376
 10
-4.995273977
 20
24.9997895014
 10
-4.9885839497
 20
24.5402863579
 10
-4.9540593847
 20
24.0644069346
 10
-4.892023622
 20
23.5732825039
 10
-4.8032063991
 20
23.0748703977
 10
-4.6870888041
 20
22.5691709099
 10
-4.5441897488
 20
22.0561837466
 10
-4.3767957068
 20
21.5438653587
 10
-4.1845756548
 20
21.0324270101
 10
-3.9678606159
 20
20.5216574368
 10
-3.7299301337
 20
20.0188792976
 10
-3.4705676996
 20
19.5243159274
 10
-3.1899898222
 20
19.0377439912
 10
-2.8921255706
 20
18.565816143
 10
-2.5767500211
 20
18.1086873209
 10
-2.2440880976
 20
17.6662025869
 10
-1.89874364
 20
17.2445497803
 10
-1.5404815507
 20
16.8439341071
 10
-1.1695369274
 20
16.4641503613
 10
-0.791218904
 20
16.1107707646
 10
-0.4052171657
 20
15.7840898097
 10
-0.0118420272
 20
15.483813004
 10
0.3826664338
 20
15.2146290906
 10
0.7776519906
 20
14.9772716701
 10
1.1737708698
 20
14.771007142
 10
1.5667516732
 20
14.5983234487
 10
1.9573525942
 20
14.4592804665
 10
2.3448154393
 20
14.3538183192
 10
2.7225942298
 20
14.2842453198
 10
3.0904230839
 20
14.2513429446
 10
3.4485678834
 20
14.2543297174
 10
3.6166619433
 20
14.2733799194
  0
LWPOLYLINE
  5
30A
100
AcDbEntity
  8
0
100
AcDbPolyline
 62
7
  6
CONTINUOUS
 90
39
 70
0
 10
-6.711665258
 20
27.2141032523
 10
-6.8128408935
 20
26.7721146106
 10
-6.8870618813
 20
26.295846993
 10
-6.9318959134
 20
25.7969437889
 10
-6.9469244541
 20
25.2796124411
 10
-6.9319020051
 20
24.7425851086
 10
-6.8870740648
 20
24.1871296323
 10
-6.812758592
 20
23.6212569781
 10
-6.7084295265
 20
23.0449412166
 10
-6.5746129286
 20
22.4582082771
 10
-6.413204937
 20
21.8691469138
 10
-6.2238389351
 20
21.2778955771
 10
-6.0068815396
 20
20.6843158166
 10
-5.7653287392
 20
20.0960810349
 10
-5.4989469246
 20
19.513410234
 10
-5.207969705
 20
18.9360844119
 10
-4.8960938973
 20
18.3711199649
 10
-4.5631090961
 20
17.8186746095
 10
-4.2092257067
 20
17.2785906292
 10
-3.8387717621
 20
16.7574112704
 10
-3.4515453658
 20
16.2553153415
 10
-3.0477484142
 20
15.7721240341
 10
-2.6323146292
 20
15.3138441701
 10
-2.2050235433
 20
14.8806980165
 10
-1.766095624
 20
14.4724633062
 10
-1.3211259952
 20
14.0944800604
 10
-0.8698068981
 20
13.7470643382
 10
-0.4124460915
 20
13.4299000804
 10
0.0444380237
 20
13.1473791297
 10
0.5000113474
 20
12.9002565537
 10
0.9551079798
 20
12.6877772848
 10
1.405711821
 20
12.5120679627
 10
1.8527194255
 20
12.3731304565
 10
2.2952342389
 20
12.270962897
 10
2.7265504978
 20
12.2076863166
 10
3.1463501796
 20
12.1840619179
 10
3.5549513069
 20
12.1993284982
 10
3.9466021849
 20
12.2533234813
 10
4.3099935128
 20
12.3436579269
  0
LINE
  5
30B
100
AcDbEntity
  8
0
100
AcDbLine
 62
7
  6
CONTINUOUS
 10
-19.7096600247
 20
-6.6041202359
 11
-19.7957794045
 21
-6.6931411426
  0
LINE
  5
30C
100
AcDbEntity
  8
0
100
AcDbLine
 62
7
  6
CONTINUOUS
 10
-19.7957794045
 20
-6.6931411426
 11
-19.9703304348
 21
-6.8712284753
  0
LINE
  5
30D
100
AcDbEntity
  8
0
100
AcDbLine
 62
7
  6
CONTINUOUS
 10
-19.9703304348
 20
-6.8712284753
 11
-20.1480991381
 21
-7.04988523
  0
LINE
  5
30E
100
AcDbEntity
  8
0
100
AcDbLine
 62
7
  6
CONTINUOUS
 10
-20.1480991381
 20
-7.04988523
 11
-20.3288974148
 21
-7.2289379008
  0
LINE
  5
30F
100
AcDbEntity
  8
0
100
AcDbLine
 62
7
  6
CONTINUOUS
 10
-20.3288974148
 20
-7.2289379008
 11
-20.5127271989
 21
-7.4086097032
  0
LINE
  5
310
100
AcDbEntity
  8
0
100
AcDbLine
 62
7
  6
CONTINUOUS
 10
-22.2743371334
 20
-3.3361159583
 11
-21.4216547254
 21
-2.6099817693
  0
LWPOLYLINE
  5
311
100
AcDbEntity
  8
0
100
AcDbPolyline
 62
7
  6
CONTINUOUS
 90
8
 70
0
 10
-25.2023570712
 20
-3.9431799332
 10
-25.2421634963
 20
-3.972574661
 10
-25.2751160397
 20
-4.0000451308
 10
-25.3012147013
 20
-4.0255913426
 10
-25.3205779566
 20
-4.049499088
 10
-25.3330873302
 20
-4.0714825754
 10
-25.3383873958
 20
-4.0906844298
 10
-25.3362166956
 20
-4.1071914294
  0
LWPOLYLINE
  5
312
100
AcDbEntity
  8
0
100
AcDbPolyline
 62
7
  6
CONTINUOUS
 90
16
 70
0
 10
5.6687443238
 20
16.5056886403
 10
5.5231934432
 20
16.4015450965
 10
5.3768124287
 20
16.2902194847
 10
5.2296012805
 20
16.1717118048
 10
5.0801301506
 20
16.0447229147
 10
4.9298288868
 20
15.9105519565
 10
4.782987033
 20
15.7730963569
 10
4.6396750032
 20
15.6322540821
 10
4.4998223833
 20
15.4881271659
 10
4.367507475
 20
15.3449191352
 10
4.2429076425
 20
15.2026225503
 10
4.1258455215
 20
15.061244851
 10
4.0198673202
 20
14.9250118836
 10
3.9261551081
 20
14.7953322636
 10
3.8435268157
 20
14.6707973756
 10
3.7719824431
 20
14.5514072194
  0
LINE
  5
313
100
AcDbEntity
  8
0
100
AcDbLine
 62
7
  6
CONTINUOUS
 10
-22.0594225678
 20
-0.9926506826
 11
-26.4902620747
 21
-4.0559378144
  0
LINE
  5
314
100
AcDbEntity
  8
0
100
AcDbLine
 62
7
  6
CONTINUOUS
 10
-25.2023570712
 20
-3.9431799332
 11
-20.9164904086
 21
-0.9801163364
  0
LINE
  5
315
100
AcDbEntity
  8
0
100
AcDbLine
 62
7
  6
CONTINUOUS
 10
5.6687443238
 20
16.5056886403
 11
7.0904437719
 21
17.4851517916
  0
LINE
  5
316
100
AcDbEntity
  8
0
100
AcDbLine
 62
7
  6
CONTINUOUS
 10
-22.351424756
 20
-2.7108858254
 11
-24.1925066207
 21
-3.8799021235
  0
LINE
  5
317
100
AcDbEntity
  8
0
100
AcDbLine
 62
7
  6
CONTINUOUS
 10
-23.3795739971
 20
-3.8609576177
 11
-22.5835638819
 21
-3.3554899025
  0
LINE
  5
318
100
AcDbEntity
  8
0
100
AcDbLine
 62
253
  6
CONTINUOUS
 10
-16.6844645865
 20
1.2694474067
 11
-7.139099277
 21
7.3241986462
  0
LWPOLYLINE
  5
319
100
AcDbEntity
  8
0
100
AcDbPolyline
 62
7
  6
CONTINUOUS
 90
5
 70
0
 10
-21.7800588718
 20
0.8498056623
 10
-21.7149309596
 20
0.8895768326
 10
-21.6221433718
 20
0.9307378315
 10
-21.5225415957
 20
0.9585004318
 10
-21.4169036426
 20
0.9726243643
  0
LWPOLYLINE
  5
31A
100
AcDbEntity
  8
0
100
AcDbPolyline
 62
7
  6
CONTINUOUS
 90
16
 70
0
 10
-23.3795739971
 20
-3.8609576177
 10
-23.5350767209
 20
-3.9557102614
 10
-23.6971406523
 20
-4.0477728504
 10
-23.8657657914
 20
-4.1371453845
 10
-24.0427132465
 20
-4.2246206594
 10
-24.2262219092
 20
-4.3094058794
 10
-24.4110084541
 20
-4.3891226582
 10
-24.5971355706
 20
-4.4636540467
 10
-24.7845405693
 20
-4.5331169939
 10
-24.9677520564
 20
-4.5954839608
 10
-25.1466974379
 20
-4.6505737226
 10
-25.3214493078
 20
-4.6985675042
 10
-25.4867540537
 20
-4.7379814409
 10
-25.6408604716
 20
-4.7683209114
 10
-25.7855197654
 20
-4.7900805371
 10
-25.9207319354
 20
-4.8032603179
  0
LWPOLYLINE
  5
31B
100
AcDbEntity
  8
0
100
AcDbPolyline
 62
7
  6
CONTINUOUS
 90
13
 70
0
 10
-22.351424756
 20
-2.7108858254
 10
-22.3014471272
 20
-2.6808536999
 10
-22.2496042238
 20
-2.6521994313
 10
-22.1958960457
 20
-2.6249230195
 10
-22.1395117405
 20
-2.5986952458
 10
-22.0812621607
 20
-2.573845329
 10
-22.0235798632
 20
-2.5513609252
 10
-21.9664681526
 20
-2.5313030421
 10
-21.9099237244
 20
-2.513610672
 10
-21.8563692222
 20
-2.4990884483
 10
-21.8066121937
 20
-2.488004582
 10
-21.7598450913
 20
-2.480090862
 10
-21.7160679147
 20
-2.4753472884
  0
LWPOLYLINE
  5
31C
100
AcDbEntity
  8
0
100
AcDbPolyline
 62
7
  6
CONTINUOUS
 90
3
 70
0
 10
3.8566091192
 20
14.6905146316
 10
3.7585445785
 20
14.6554490536
 10
3.4524408329
 20
14.5846974094
  0
LINE
  5
31D
100
AcDbEntity
  8
0
100
AcDbLine
 62
7
  6
CONTINUOUS
 10
7.0532632724
 20
-10.6145655944
 11
7.1357591029
 21
-10.5927108292
  0
LINE
  5
31E
100
AcDbEntity
  8
0
100
AcDbLine
 62
7
  6
CONTINUOUS
 10
7.2771804592
 20
-10.5110559105
 11
7.1946846287
 21
-10.5329106757
  0
LINE
  5
31F
100
AcDbEntity
  8
0
100
AcDbLine
 62
7
  6
CONTINUOUS
 10
5.3827235019
 20
-10.5880891347
 11
5.671458761
 21
-10.5115973227
  0
LINE
  5
320
100
AcDbEntity
  8
0
100
AcDbLine
 62
7
  6
CONTINUOUS
 10
5.6452275248
 20
-10.4743569678
 11
5.5241448581
 21
-10.506434216
  0
LWPOLYLINE
  5
321
100
AcDbEntity
  8
0
100
AcDbPolyline
 62
7
  6
CONTINUOUS
 90
8
 70
0
 10
-13.5953961144
 20
-16.3002336647
 10
-13.5888691181
 20
-16.2985246441
 10
-13.5817545422
 20
-16.2977316778
 10
-13.5740523868
 20
-16.2978547658
 10
-13.5656848411
 20
-16.2989201226
 10
-13.5567297159
 20
-16.3009015337
 10
-13.5474204429
 20
-16.3037203554
 10
-13.537823673
 20
-16.3073829174
  0
LWPOLYLINE
  5
322
100
AcDbEntity
  8
0
100
AcDbPolyline
 62
253
  6
CONTINUOUS
 90
13
 70
0
 10
-7.17612625
 20
-13.9217669548
 10
-7.1519668508
 20
-13.9178888948
 10
-7.1248543298
 20
-13.9121619026
 10
-7.095202547
 20
-13.9046694817
 10
-7.0634486574
 20
-13.8955176904
 10
-7.030100831
 20
-13.8848480729
 10
-6.9957380911
 20
-13.8728440705
 10
-6.9609004813
 20
-13.8596968139
 10
-6.9261342486
 20
-13.8456128842
 10
-6.8920404937
 20
-13.8308377565
 10
-6.8591616473
 20
-13.8156153363
 10
-6.8279761259
 20
-13.8001777003
 10
-6.7989502754
 20
-13.7847649487
  0
LINE
  5
323
100
AcDbEntity
  8
0
100
AcDbLine
 62
253
  6
CONTINUOUS
 10
-16.7385457694
 20
-11.1282465497
 11
-16.7552480373
 21
-11.128074171
  0
LINE
  5
324
100
AcDbEntity
  8
0
100
AcDbLine
 62
7
  6
CONTINUOUS
 10
6.4964166823
 20
-10.8836874516
 11
6.5582885256
 21
-10.8846680666
  0
LINE
  5
325
100
AcDbEntity
  8
0
100
AcDbLine
 62
7
  6
CONTINUOUS
 10
9.4692111268
 20
-9.2821454567
 11
9.5310829702
 21
-9.2831260717
  0
LINE
  5
326
100
AcDbEntity
  8
0
100
AcDbLine
 62
7
  6
CONTINUOUS
 10
9.4692111268
 20
-8.6915073815
 11
9.5310829702
 21
-8.6924879966
  0
LWPOLYLINE
  5
327
100
AcDbEntity
  8
0
100
AcDbPolyline
 62
253
  6
CONTINUOUS
 90
5
 70
0
 10
-16.7823852638
 20
-10.9964987404
 10
-16.7839185351
 20
-10.9963666889
 10
-16.7890423427
 20
-10.99818635
 10
-16.7976084389
 20
-11.002207171
 10
-16.809466233
 20
-11.0082947644
  0
LINE
  5
328
100
AcDbEntity
  8
0
100
AcDbLine
 62
7
  6
CONTINUOUS
 10
7.4244943326
 20
-12.1491595781
 11
7.506990045
 21
-12.1620481567
  0
LINE
  5
329
100
AcDbEntity
  8
0
100
AcDbLine
 62
7
  6
CONTINUOUS
 10
7.5780613922
 20
-12.0694022229
 11
7.5659156888
 21
-12.0675046594
  0
LINE
  5
32A
100
AcDbEntity
  8
0
100
AcDbLine
 62
7
  6
CONTINUOUS
 10
7.2388788025
 20
-10.8259679108
 11
7.156382972
 21
-10.8130792641
  0
LINE
  5
32B
100
AcDbEntity
  8
0
100
AcDbLine
 62
7
  6
CONTINUOUS
 10
7.5276141502
 20
-12.3824167491
 11
7.4244943326
 21
-12.3576200738
  0
LINE
  5
32C
100
AcDbEntity
  8
0
100
AcDbLine
 62
7
  6
CONTINUOUS
 10
6.5789125127
 20
-11.1050365697
 11
6.4757926951
 21
-11.0802398913
  0
LINE
  5
32D
100
AcDbEntity
  8
0
100
AcDbLine
 62
7
  6
CONTINUOUS
 10
7.1357591029
 20
-10.5927108292
 11
7.2388788025
 21
-10.6175074394
  0
LINE
  5
32E
100
AcDbEntity
  8
0
100
AcDbLine
 62
7
  6
CONTINUOUS
 10
7.3803001587
 20
-10.5358525208
 11
7.2771804592
 21
-10.5110559105
  0
LWPOLYLINE
  5
32F
100
AcDbEntity
  8
0
100
AcDbPolyline
 62
7
  6
CONTINUOUS
 90
39
 70
0
 10
19.8591601373
 20
-16.4758776482
 10
19.7284721644
 20
-16.4407739896
 10
19.3606994119
 20
-16.3112043731
 10
18.9903766928
 20
-16.1499714062
 10
18.6167762414
 20
-15.9570746094
 10
18.2436901342
 20
-15.7344623192
 10
17.8703638626
 20
-15.4813754634
 10
17.4975519351
 20
-15.1985731141
 10
17.1313099539
 20
-14.8902808244
 10
16.7718159753
 20
-14.5560228819
 10
16.418891943
 20
-14.1962749989
 10
16.0780592904
 20
-13.8166898651
 10
15.7496583147
 20
-13.4170891754
 10
15.4333487187
 20
-12.997651235
 10
15.1336310442
 20
-12.5645636485
 10
14.850798223
 20
-12.1177515224
 10
14.5845573234
 20
-11.6572897503
 10
14.3385300922
 20
-11.1895906182
 10
14.1129568343
 20
-10.7145418347
 10
13.9075972449
 20
-10.2322556911
 10
13.7253521565
 20
-9.749481347
 10
13.5665089919
 20
-9.2661155844
 10
13.4307803284
 20
-8.7822616212
 10
13.3202047295
 20
-8.3049782704
 10
13.2351790459
 20
-7.8342200917
 10
13.1753064271
 20
-7.3700325254
 10
13.1414348844
 20
-6.9196107051
 10
13.1338356472
 20
-6.4838025149
 10
13.1522374861
 20
-6.0617600708
 10
13.1966747248
 20
-5.6581348549
 10
13.2675673905
 20
-5.2723009084
 10
13.364495456
 20
-4.9048841901
 10
13.4862331622
 20
-4.5624140582
 10
13.6332758418
 20
-4.2455235269
 10
13.8051281621
 20
-3.9535795819
 10
13.9990783661
 20
-3.6912125392
 10
14.2142225347
 20
-3.4599658372
 10
14.4514645869
 20
-3.2582960375
 10
14.7108045228
 20
-3.0862031399
  0
LWPOLYLINE
  5
330
100
AcDbEntity
  8
0
100
AcDbPolyline
 62
7
  6
CONTINUOUS
 90
38
 70
0
 10
19.8591601373
 20
-16.9318463535
 10
19.6169331287
 20
-16.8464239125
 10
19.2105629776
 20
-16.6693384531
 10
18.8005187285
 20
-16.4574573598
 10
18.391052211
 20
-16.2129360501
 10
17.981297293
 20
-15.9348686987
 10
17.5721201067
 20
-15.6241611308
 10
17.1703708788
 20
-15.2856862393
 10
16.7763679281
 20
-14.919017214
 10
16.3897929358
 20
-14.5245808651
 10
16.0165411715
 20
-14.1085305159
 10
15.6569601995
 20
-13.670676204
 10
15.3107024556
 20
-13.2112078917
 10
14.9826205158
 20
-12.736848789
 10
14.6730214849
 20
-12.2475162306
 10
14.3815982582
 20
-11.7432928818
 10
14.1122820979
 20
-11.2311499484
 10
13.8653291298
 20
-10.7109703415
 10
13.6404832281
 20
-10.1828711501
 10
13.4409072773
 20
-9.6541748473
 10
13.266904847
 20
-9.1247912532
 10
13.1181723676
 20
-8.5948105478
 10
12.9969620146
 20
-8.0718257444
 10
12.9036908913
 20
-7.555658728
 10
12.8379418945
 20
-7.0464876137
 10
12.8007158892
 20
-6.5524397603
 10
12.7923430635
 20
-6.0745151735
 10
12.8124932293
 20
-5.6117138475
 10
12.861176688
 20
-5.1691631239
 10
12.9388295191
 20
-4.746230202
 10
13.0450156431
 20
-4.3435478826
 10
13.178437122
 20
-3.9681419091
 10
13.3396701141
 20
-3.6206221203
 10
13.5281384612
 20
-3.3003786776
 10
13.7408157512
 20
-3.0126078085
 10
13.9766931802
 20
-2.759041589
 10
14.2367795522
 20
-2.5379479432
 10
14.5210748671
 20
-2.3493268711
  0
LWPOLYLINE
  5
331
100
AcDbEntity
  8
0
100
AcDbPolyline
 62
7
  6
CONTINUOUS
 90
5
 70
0
 10
-20.6997517542
 20
-4.1600339608
 10
-20.706133497
 20
-4.1577246433
 10
-20.7252814129
 20
-4.1549134816
 10
-20.7478771085
 20
-4.1565371759
 10
-20.7735738841
 20
-4.1623545013
  0
LWPOLYLINE
  5
332
100
AcDbEntity
  8
0
100
AcDbPolyline
 62
7
  6
CONTINUOUS
 90
4
 70
0
 10
14.3937367322
 20
-20.2110540331
 10
13.5574923742
 20
-19.8340605843
 10
12.7207474528
 20
-19.4204716237
 10
11.883501968
 20
-18.9702871513
  0
LWPOLYLINE
  5
333
100
AcDbEntity
  8
0
100
AcDbPolyline
 62
7
  6
CONTINUOUS
 90
7
 70
0
 10
11.4996702181
 20
-18.6930266128
 10
10.7647499055
 20
-18.3569995849
 10
10.0295029949
 20
-17.9894401442
 10
9.2939294863
 20
-17.5903482905
 10
8.5570244353
 20
-17.1590931831
 10
7.8197927864
 20
-16.6963056628
 10
7.0852493729
 20
-16.2038782519
  0
LINE
  5
334
100
AcDbEntity
  8
0
100
AcDbLine
 62
7
  6
CONTINUOUS
 10
-20.6009139318
 20
-4.2079406228
 11
-20.6997590674
 21
-4.1600109841
  0
LINE
  5
335
100
AcDbEntity
  8
0
100
AcDbLine
 62
7
  6
CONTINUOUS
 10
11.883501968
 20
-18.9702871513
 11
11.0621236014
 21
-18.4929675226
  0
LWPOLYLINE
  5
336
100
AcDbEntity
  8
0
100
AcDbPolyline
 62
7
  6
CONTINUOUS
 90
4
 70
0
 10
7.0852493729
 20
-16.2038782519
 10
6.3543991394
 20
-15.6824417911
 10
5.6262371414
 20
-15.1313654395
 10
4.9007633789
 20
-14.5506491974
  0
LWPOLYLINE
  5
337
100
AcDbEntity
  8
0
100
AcDbPolyline
 62
7
  6
CONTINUOUS
 90
11
 70
0
 10
4.9007633789
 20
-14.5506491974
 10
4.7801483407
 20
-14.459112326
 10
4.6607302206
 20
-14.3818009724
 10
4.5425090187
 20
-14.3187151366
 10
4.4243925754
 20
-14.2695718159
 10
4.3074730502
 20
-14.234654013
 10
4.1950269221
 20
-14.2148107353
 10
4.0871874594
 20
-14.2104411181
 10
3.9838213937
 20
-14.221146026
 10
3.8878053992
 20
-14.2465770601
 10
3.8043513449
 20
-14.2843132402
  0
LWPOLYLINE
  5
338
100
AcDbEntity
  8
0
100
AcDbPolyline
 62
7
  6
CONTINUOUS
 90
10
 70
0
 10
4.3976481613
 20
-16.9932114151
 10
5.2228460086
 20
-17.6534803234
 10
6.0510956288
 20
-18.2795134834
 10
6.8823970219
 20
-18.8713108951
 10
7.7179268008
 20
-19.4296078683
 10
8.5565083526
 20
-19.9536690932
 10
9.394611839
 20
-20.4412886407
 10
10.231060647
 20
-20.8917312011
 10
11.0670313896
 20
-21.3057320842
 10
11.9025240667
 20
-21.6832912899
  0
LWPOLYLINE
  5
339
100
AcDbEntity
  8
0
100
AcDbPolyline
 62
7
  6
CONTINUOUS
 90
13
 70
0
 10
-27.8884524274
 20
20.8735653563
 10
-27.9139324471
 20
20.9049012391
 10
-27.9365806502
 20
20.9373222213
 10
-27.9563970369
 20
20.9708283029
 10
-27.9735755564
 20
21.0059750789
 10
-27.9879222595
 20
21.0422069543
 10
-27.9988552976
 20
21.0778571442
 10
-28.0062705392
 20
21.1129079191
 10
-28.010272116
 20
21.1473770086
 10
-28.0105905745
 20
21.1796508165
 10
-28.007136097
 20
21.2091914775
 10
-27.9999985012
 20
21.2365368568
 10
-27.9891777872
 20
21.2616869546
  0
LWPOLYLINE
  5
33A
100
AcDbEntity
  8
0
100
AcDbPolyline
 62
7
  6
CONTINUOUS
 90
11
 70
0
 10
-16.5825074722
 20
26.714265032
 10
-16.572459184
 20
26.6777234632
 10
-16.5659085686
 20
26.6431725879
 10
-16.562855626
 20
26.6106124061
 10
-16.5633847577
 20
26.5796421647
 10
-16.5674115622
 20
26.5506626169
 10
-16.5746828346
 20
26.5248760212
 10
-16.5852923708
 20
26.502374698
 10
-16.5991463749
 20
26.4830663269
 10
-16.6157102547
 20
26.4678762059
 10
-16.626505668
 20
26.4611047854
  0
LWPOLYLINE
  5
33B
100
AcDbEntity
  8
0
100
AcDbPolyline
 62
253
  6
CONTINUOUS
 90
37
 70
0
 10
-7.7623915604
 20
12.9119783695
 10
-7.7537417508
 20
13.1237233939
 10
-7.7295228009
 20
13.3215941375
 10
-7.6897347106
 20
13.5055906001
 10
-7.6337850257
 20
13.676912637
 10
-7.5622662004
 20
13.8343603929
 10
-7.4769555974
 20
13.9743343027
 10
-7.3775054411
 20
14.0963551543
 10
-7.2642635071
 20
14.2009021598
 10
-7.1400504846
 20
14.2858133895
 10
-7.004872154
 20
14.3506323096
 10
-6.8587227349
 20
14.395815454
 10
-6.7044055749
 20
14.4205704945
 10
-6.5414910442
 20
14.4245284268
 10
-6.3704087726
 20
14.4080582553
 10
-6.1952509977
 20
14.3714746643
 10
-6.0160281105
 20
14.3142916037
 10
-5.8327297199
 20
14.2369951236
 10
-5.6494168903
 20
14.1413580586
 10
-5.4661470833
 20
14.0270506209
 10
-5.2828628374
 20
13.8944025982
 10
-5.1034528324
 20
13.746176189
 10
-4.9279085518
 20
13.5819735968
 10
-4.756238512
 20
13.402192618
 10
-4.592356943
 20
13.2107888403
 10
-4.4365159138
 20
13.0076896575
 10
-4.2884633552
 20
12.7929676756
 10
-4.1513572901
 20
12.5707963002
 10
-4.0252124393
 20
12.3406130269
 10
-3.910014082
 20
12.1029803601
 10
-3.8088760786
 20
11.8637592175
 10
-3.7222360989
 20
11.6228464015
 10
-3.6496564731
 20
11.3803451098
 10
-3.5929380525
 20
11.1424258536
 10
-3.5526811208
 20
10.91114547
 10
-3.5282853944
 20
10.684447122
 10
-3.5197508732
 20
10.4623308095
  0
LWPOLYLINE
  5
33C
100
AcDbEntity
  8
0
100
AcDbPolyline
 62
253
  6
CONTINUOUS
 90
37
 70
0
 10
-3.5197508732
 20
10.4623308095
 10
-3.5284006828
 20
10.250585785
 10
-3.5526196327
 20
10.0527150415
 10
-3.592407723
 20
9.8687185788
 10
-3.6483574079
 20
9.697396542
 10
-3.7198762332
 20
9.5399487861
 10
-3.8051868362
 20
9.3999748763
 10
-3.9046369925
 20
9.2779540247
 10
-4.0178789265
 20
9.1734070192
 10
-4.142091949
 20
9.0884957895
 10
-4.2772702796
 20
9.0236768694
 10
-4.4234196987
 20
8.978493725
 10
-4.5777368587
 20
8.9537386845
 10
-4.7406513894
 20
8.9497807521
 10
-4.911733661
 20
8.9662509237
 10
-5.0868914359
 20
9.0028345147
 10
-5.2661143231
 20
9.0600175753
 10
-5.4494127137
 20
9.1373140554
 10
-5.6327255433
 20
9.2329511203
 10
-5.8159953503
 20
9.3472585581
 10
-5.9992795962
 20
9.4799065808
 10
-6.1786896012
 20
9.62813299
 10
-6.3542338818
 20
9.7923355822
 10
-6.5259039216
 20
9.9721165609
 10
-6.6897854906
 20
10.1635203387
 10
-6.8456265199
 20
10.3666195215
 10
-6.9936790784
 20
10.5813415034
 10
-7.1307851435
 20
10.8035128788
 10
-7.2569299943
 20
11.0336961521
 10
-7.3721283516
 20
11.2713288189
 10
-7.473266355
 20
11.5105499615
 10
-7.5599063347
 20
11.7514627775
 10
-7.6324859605
 20
11.9939640692
 10
-7.6892043811
 20
12.2318833254
 10
-7.7294613128
 20
12.463163709
 10
-7.7538570392
 20
12.689862057
 10
-7.7623915604
 20
12.9119783695
  0
LINE
  5
33D
100
AcDbEntity
  8
0
100
AcDbLine
 62
253
  6
CONTINUOUS
 10
-20.8155827411
 20
-35.3043374946
 11
-21.1691361317
 21
-36.2155587924
  0
LWPOLYLINE
  5
33E
100
AcDbEntity
  8
0
100
AcDbPolyline
 62
7
  6
CONTINUOUS
 90
6
 70
0
 10
-15.5002435043
 20
-20.4028342751
 10
-15.5169228389
 20
-20.4373204816
 10
-15.5272577817
 20
-20.4673489092
 10
-15.5312483325
 20
-20.4929195581
 10
-15.5287271639
 20
-20.5142360424
 10
-15.5192536751
 20
-20.5318179976
  0
LINE
  5
33F
100
AcDbEntity
  8
0
100
AcDbLine
 62
7
  6
CONTINUOUS
 10
-16.4441852753
 20
-20.6599025648
 11
-16.7649829757
 21
-21.234137895
  0
LWPOLYLINE
  5
340
100
AcDbEntity
  8
0
100
AcDbPolyline
 62
253
  6
CONTINUOUS
 90
4
 70
0
 10
-16.8243870397
 20
-11.0162847179
 10
-16.8155721187
 20
-11.0041201615
 10
-16.8099994196
 20
-10.9911961206
 10
-16.8074903188
 20
-10.9788728064
  0
LINE
  5
341
100
AcDbEntity
  8
0
100
AcDbLine
 62
253
  6
CONTINUOUS
 10
-14.7591717298
 20
-0.4892205835
 11
-5.1951586054
 21
5.5138061866
  0
LWPOLYLINE
  5
342
100
AcDbEntity
  8
0
100
AcDbPolyline
 62
253
  6
CONTINUOUS
 90
13
 70
0
 10
-14.7591838165
 20
-0.4892217669
 10
-14.7882088252
 20
-0.5045707551
 10
-14.8194160128
 20
-0.5196809402
 10
-14.8523015241
 20
-0.534320382
 10
-14.8861812041
 20
-0.5482045124
 10
-14.9206808968
 20
-0.5611988329
 10
-14.9557669001
 20
-0.5732768135
 10
-14.9911025766
 20
-0.5842749037
 10
-15.0258918582
 20
-0.5938968804
 10
-15.0594014417
 20
-0.601907583
 10
-15.0910021804
 20
-0.608132993
 10
-15.1201638788
 20
-0.6124434682
 10
-15.1463355196
 20
-0.6147268626
  0
LINE
  5
343
100
AcDbEntity
  8
0
100
AcDbLine
 62
7
  6
CONTINUOUS
 10
-21.5665259957
 20
-4.4844069383
 11
-21.7840492616
 21
-4.578188148
  0
LINE
  5
344
100
AcDbEntity
  8
0
100
AcDbLine
 62
7
  6
CONTINUOUS
 10
-21.3485979326
 20
-4.392654011
 11
-21.5665259957
 21
-4.4844069383
  0
LWPOLYLINE
  5
345
100
AcDbEntity
  8
0
100
AcDbPolyline
 62
7
  6
CONTINUOUS
 90
3
 70
0
 10
-21.0209403439
 20
-4.2588314745
 10
-21.1302590273
 20
-4.3029351457
 10
-21.3485979326
 20
-4.392654011
  0
LWPOLYLINE
  5
346
100
AcDbEntity
  8
0
100
AcDbPolyline
 62
7
  6
CONTINUOUS
 90
8
 70
0
 10
-26.5621578115
 20
-4.8434474918
 10
-26.6816955944
 20
-4.8462204183
 10
-26.7840149983
 20
-4.8399282284
 10
-26.8691160232
 20
-4.824570922
 10
-26.9374632052
 20
-4.7997927328
 10
-26.9885920082
 20
-4.7659494272
 10
-27.0211088242
 20
-4.724108304
 10
-27.0262308982
 20
-4.7123816877
  0
LINE
  5
347
100
AcDbEntity
  8
0
100
AcDbLine
 62
7
  6
CONTINUOUS
 10
9.324843807
 20
-7.9132831653
 11
9.2629719637
 21
-7.9123025502
  0
LINE
  5
348
100
AcDbEntity
  8
0
100
AcDbLine
 62
253
  6
CONTINUOUS
 10
-42.3037081819
 20
0.3905937569
 11
-41.3377823556
 21
0.241154884
  0
LINE
  5
349
100
AcDbEntity
  8
0
100
AcDbLine
 62
7
  6
CONTINUOUS
 10
9.5517075473
 20
-9.4687515248
 11
9.4485874937
 21
-9.4439547132
  0
LINE
  5
34A
100
AcDbEntity
  8
0
100
AcDbLine
 62
7
  6
CONTINUOUS
 10
9.5517075473
 20
-8.8781134284
 11
9.4485874937
 21
-8.8533166624
  0
LINE
  5
34B
100
AcDbEntity
  8
0
100
AcDbLine
 62
7
  6
CONTINUOUS
 10
9.2423483306
 20
-7.7266776635
 11
9.3454674401
 21
-7.7514739331
  0
LINE
  5
34C
100
AcDbEntity
  8
0
100
AcDbLine
 62
7
  6
CONTINUOUS
 10
9.4868887963
 20
-7.6698190144
 11
9.3837696868
 21
-7.6450227448
  0
LINE
  5
34D
100
AcDbEntity
  8
0
100
AcDbLine
 62
7
  6
CONTINUOUS
 10
7.4244943326
 20
-12.3576200738
 11
7.2388788025
 21
-12.250447993
  0
LINE
  5
34E
100
AcDbEntity
  8
0
100
AcDbLine
 62
7
  6
CONTINUOUS
 10
6.104561694
 20
-11.5955075109
 11
5.9808180073
 21
-11.5240594571
  0
LINE
  5
34F
100
AcDbEntity
  8
0
100
AcDbLine
 62
7
  6
CONTINUOUS
 10
7.2388788025
 20
-12.0419874973
 11
7.4244943326
 21
-12.1491595781
  0
LINE
  5
350
100
AcDbEntity
  8
0
100
AcDbLine
 62
7
  6
CONTINUOUS
 10
7.3803001587
 20
-11.9603325787
 11
7.5659156888
 21
-12.0675046594
  0
LINE
  5
351
100
AcDbEntity
  8
0
100
AcDbLine
 62
7
  6
CONTINUOUS
 10
7.5894859935
 20
-12.0359631996
 11
7.7132296802
 21
-12.1074112534
  0
LINE
  5
352
100
AcDbEntity
  8
0
100
AcDbLine
 62
7
  6
CONTINUOUS
 10
7.7309073498
 20
-11.9543082809
 11
7.8546510365
 21
-12.0257563348
  0
LINE
  5
353
100
AcDbEntity
  8
0
100
AcDbLine
 62
7
  6
CONTINUOUS
 10
6.4757926951
 20
-11.0802398913
 11
6.104561694
 21
-10.8658957639
  0
LINE
  5
354
100
AcDbEntity
  8
0
100
AcDbLine
 62
7
  6
CONTINUOUS
 10
6.104561694
 20
-10.6574352925
 11
6.4964166823
 21
-10.8836874516
  0
LINE
  5
355
100
AcDbEntity
  8
0
100
AcDbLine
 62
7
  6
CONTINUOUS
 10
6.2459830503
 20
-10.5757803738
 11
6.6006089412
 21
-10.7805369187
  0
LINE
  5
356
100
AcDbEntity
  8
0
100
AcDbLine
 62
7
  6
CONTINUOUS
 10
7.7132296802
 20
-11.3083127313
 11
7.5894859935
 21
-11.2368646774
  0
LINE
  5
357
100
AcDbEntity
  8
0
100
AcDbLine
 62
7
  6
CONTINUOUS
 10
7.4244943326
 20
-10.9331399915
 11
7.2388788025
 21
-10.8259679108
  0
LINE
  5
358
100
AcDbEntity
  8
0
100
AcDbLine
 62
7
  6
CONTINUOUS
 10
6.4964166823
 20
-10.3625361759
 11
6.104561694
 21
-10.1362840168
  0
LINE
  5
359
100
AcDbEntity
  8
0
100
AcDbLine
 62
7
  6
CONTINUOUS
 10
5.9808180073
 20
-9.8911189035
 11
6.4757926951
 21
-10.1769110848
  0
LINE
  5
35A
100
AcDbEntity
  8
0
100
AcDbLine
 62
7
  6
CONTINUOUS
 10
7.2388788025
 20
-10.6175074394
 11
7.4244943326
 21
-10.7246795202
  0
LINE
  5
35B
100
AcDbEntity
  8
0
100
AcDbLine
 62
7
  6
CONTINUOUS
 10
6.1222393636
 20
-9.8094639848
 11
6.6172140514
 21
-10.0952561661
  0
LINE
  5
35C
100
AcDbEntity
  8
0
100
AcDbLine
 62
7
  6
CONTINUOUS
 10
7.3803001587
 20
-10.5358525208
 11
7.5659156888
 21
-10.6430246015
  0
LWPOLYLINE
  5
35D
100
AcDbEntity
  8
0
100
AcDbPolyline
 62
7
  6
CONTINUOUS
 90
9
 70
0
 10
15.5994510297
 20
-21.6506550768
 10
15.5250252812
 20
-21.5942758435
 10
15.3432988825
 20
-21.4374393695
 10
15.1662371337
 20
-21.2645299571
 10
14.9937500949
 20
-21.0759114883
 10
14.8298548291
 20
-20.8758300526
 10
14.6758903572
 20
-20.665701013
 10
14.5305176582
 20
-20.4441090066
 10
14.3937367322
 20
-20.2110540331
  0
LINE
  5
35E
100
AcDbEntity
  8
0
100
AcDbLine
 62
7
  6
CONTINUOUS
 10
7.2388788025
 20
-12.250447993
 11
7.1357591029
 21
-12.1561645559
  0
LINE
  5
35F
100
AcDbEntity
  8
0
100
AcDbLine
 62
253
  6
CONTINUOUS
 10
14.1479296734
 20
-27.165831632
 11
14.9377239293
 21
-28.0470965607
  0
LINE
  5
360
100
AcDbEntity
  8
0
100
AcDbLine
 62
253
  6
CONTINUOUS
 10
14.8345255944
 20
-26.8933870969
 11
15.2506675737
 21
-27.3577249026
  0
LINE
  5
361
100
AcDbEntity
  8
0
100
AcDbLine
 62
7
  6
CONTINUOUS
 10
-27.4833062946
 20
20.42149689
 11
-27.8884524274
 21
20.8735653563
  0
LWPOLYLINE
  5
362
100
AcDbEntity
  8
0
100
AcDbPolyline
 62
7
  6
CONTINUOUS
 90
4
 70
0
 10
-18.9216648258
 20
21.0154836769
 10
-18.9078000241
 20
20.9936927142
 10
-18.8892414022
 20
20.9697893
 10
-18.8690917347
 20
20.9485651293
  0
LWPOLYLINE
  5
363
100
AcDbEntity
  8
0
100
AcDbPolyline
 62
253
  6
CONTINUOUS
 90
10
 70
0
 10
-18.8739892485
 20
21.043001297
 10
-18.8660467436
 20
21.0298845732
 10
-18.8575706612
 20
21.0171221899
 10
-18.8485831507
 20
21.0047474971
 10
-18.8391076976
 20
20.9927928317
 10
-18.8291690629
 20
20.981289433
 10
-18.8187932175
 20
20.9702673612
 10
-18.8080072752
 20
20.9597554184
 10
-18.7968394211
 20
20.949781074
 10
-18.7853188385
 20
20.9403703924
  0
LINE
  5
364
100
AcDbEntity
  8
0
100
AcDbLine
 62
7
  6
CONTINUOUS
 10
15.4742880067
 20
-42.3042729488
 11
11.0155767711
 21
-34.5815585606
  0
LINE
  5
365
100
AcDbEntity
  8
0
100
AcDbLine
 62
7
  6
CONTINUOUS
 10
-24.7951093543
 20
27.4443691981
 11
-29.2538205898
 21
35.1670835863
  0
LINE
  5
366
100
AcDbEntity
  8
0
100
AcDbLine
 62
7
  6
CONTINUOUS
 10
17.3173287204
 20
-45.0346477667
 11
16.0206981682
 21
-42.7888177739
  0
LINE
  5
367
100
AcDbEntity
  8
0
100
AcDbLine
 62
7
  6
CONTINUOUS
 10
-29.4002307514
 20
35.8825387601
 11
-30.6964512628
 21
38.1276585413
  0
LINE
  5
368
100
AcDbEntity
  8
0
100
AcDbLine
 62
7
  6
CONTINUOUS
 10
-30.1959492296
 20
38.1526064772
 11
-29.0140390122
 21
36.1054779329
  0
LINE
  5
369
100
AcDbEntity
  8
0
100
AcDbLine
 62
7
  6
CONTINUOUS
 10
16.4068899073
 20
-42.565878601
 11
17.5892101655
 21
-44.613717357
  0
LINE
  5
36A
100
AcDbEntity
  8
0
100
AcDbLine
 62
7
  6
CONTINUOUS
 10
-28.4676288507
 20
35.6209331079
 11
-24.0089176152
 21
27.8982187196
  0
LINE
  5
36B
100
AcDbEntity
  8
0
100
AcDbLine
 62
7
  6
CONTINUOUS
 10
11.8017685102
 20
-34.1277090391
 11
16.2604797458
 21
-41.8504234273
  0
LINE
  5
36C
100
AcDbEntity
  8
0
100
AcDbLine
 62
7
  6
CONTINUOUS
 10
-20.7789670064
 20
24.2324253971
 11
-18.9216648352
 21
21.0154836749
  0
LINE
  5
36D
100
AcDbEntity
  8
0
100
AcDbLine
 62
253
  6
CONTINUOUS
 10
-18.8739892485
 20
21.043001297
 11
-20.7584485859
 21
24.3069806108
  0
LINE
  5
36E
100
AcDbEntity
  8
0
100
AcDbLine
 62
253
  6
CONTINUOUS
 10
-20.42430314
 20
24.812562162
 11
-18.4044418039
 21
21.3140597073
  0
LINE
  5
36F
100
AcDbEntity
  8
0
100
AcDbLine
 62
253
  6
CONTINUOUS
 10
-20.1032831105
 20
25.0842412078
 11
-18.0460348298
 21
21.5209826655
  0
LWPOLYLINE
  5
370
100
AcDbEntity
  8
0
100
AcDbPolyline
 62
253
  6
CONTINUOUS
 90
13
 70
0
 10
-16.5151936003
 20
20.3368308425
 10
-16.4973751493
 20
20.3019561804
 10
-16.4823550852
 20
20.2662258804
 10
-16.4703922767
 20
20.2302499321
 10
-16.4616930434
 20
20.194640278
 10
-16.4564099327
 20
20.1600096286
 10
-16.4546360356
 20
20.1269599095
 10
-16.4564014048
 20
20.0960592629
 10
-16.4616755297
 20
20.0678334831
 10
-16.4703681683
 20
20.042765521
 10
-16.4823305872
 20
20.0212842963
 10
-16.4973581063
 20
20.0037573588
 10
-16.5151936003
 20
19.9904845991
  0
LINE
  5
371
100
AcDbEntity
  8
0
100
AcDbLine
 62
7
  6
CONTINUOUS
 10
-16.7714302182
 20
27.2911540482
 11
-16.5825074722
 21
26.714265032
  0
LINE
  5
372
100
AcDbEntity
  8
0
100
AcDbLine
 62
7
  6
CONTINUOUS
 10
3.7780893578
 20
-33.9744938393
 11
3.5891666136
 21
-33.3976048287
  0
LWPOLYLINE
  5
373
100
AcDbEntity
  8
0
100
AcDbPolyline
 62
7
  6
CONTINUOUS
 90
11
 70
0
 10
3.5891666136
 20
-33.3976048287
 10
3.579118328
 20
-33.3610632778
 10
3.5725677145
 20
-33.3265124156
 10
3.5695147731
 20
-33.2939522421
 10
3.5700439051
 20
-33.2629820026
 10
3.5740707092
 20
-33.2340024518
 10
3.5813419815
 20
-33.2082158534
 10
3.5919515194
 20
-33.185714529
 10
3.6058055255
 20
-33.166406157
 10
3.6223694038
 20
-33.1512160365
 10
3.6284457865
 20
-33.1471630911
  0
LWPOLYLINE
  5
374
100
AcDbEntity
  8
0
100
AcDbPolyline
 62
253
  6
CONTINUOUS
 90
10
 70
0
 10
-1.0165928678
 20
-20.5366844541
 10
-1.0125567357
 20
-20.6410941521
 10
-1.0004790565
 20
-20.740048405
 10
-0.9804517489
 20
-20.8327941111
 10
-0.9526272326
 20
-20.9186254197
 10
-0.9172172691
 20
-20.9968891026
 10
-0.8744913496
 20
-21.0669895261
 10
-0.8247746441
 20
-21.1283931834
 10
-0.7684455267
 20
-21.1806327558
 10
-0.7059689363
 20
-21.2232897459
  0
LINE
  5
375
100
AcDbEntity
  8
0
100
AcDbLine
 62
7
  6
CONTINUOUS
 10
5.6741008877
 20
16.7163834269
 11
5.575485592
 21
16.4389608076
  0
LWPOLYLINE
  5
376
100
AcDbEntity
  8
0
100
AcDbPolyline
 62
7
  6
CONTINUOUS
 90
6
 70
0
 10
-11.1098229696
 20
-19.2293900992
 10
-11.1198319752
 20
-19.2500822514
 10
-11.1260329863
 20
-19.2680981505
 10
-11.1284260029
 20
-19.2834377962
 10
-11.1269103951
 20
-19.2962231817
 10
-11.1211170242
 20
-19.3068870483
  0
LINE
  5
377
100
AcDbEntity
  8
0
100
AcDbLine
 62
253
  6
CONTINUOUS
 10
-11.1021148526
 20
-19.2703914103
 11
-11.0919372187
 21
-19.2495237302
  0
LWPOLYLINE
  5
378
100
AcDbEntity
  8
0
100
AcDbPolyline
 62
7
  6
CONTINUOUS
 90
8
 70
0
 10
3.4504914282
 20
13.9759308403
 10
3.3943383196
 20
13.866746854
 10
3.3531709198
 20
13.7696858628
 10
3.3269892289
 20
13.6847478665
 10
3.3158665527
 20
13.6113547854
 10
3.3197295853
 20
13.5500846993
 10
3.3383584092
 20
13.5026718477
 10
3.3476880294
 20
13.4903471949
  0
LINE
  5
379
100
AcDbEntity
  8
0
100
AcDbLine
 62
7
  6
CONTINUOUS
 10
3.4508444312
 20
13.9765627238
 11
3.7716421316
 21
14.550798054
  0
LINE
  5
37A
100
AcDbEntity
  8
0
100
AcDbLine
 62
7
  6
CONTINUOUS
 10
-15.5001762234
 20
-20.4027138407
 11
-15.3035925653
 21
-20.0508245295
  0
LINE
  5
37B
100
AcDbEntity
  8
0
100
AcDbLine
 62
7
  6
CONTINUOUS
 10
-13.5771861638
 20
-18.3931263707
 11
-13.5861759029
 21
-18.4092182303
  0
LINE
  5
37C
100
AcDbEntity
  8
0
100
AcDbLine
 62
7
  6
CONTINUOUS
 10
-12.8861807278
 20
-18.5894744509
 11
-12.5926963969
 21
-18.0641306861
  0
LINE
  5
37D
100
AcDbEntity
  8
0
100
AcDbLine
 62
7
  6
CONTINUOUS
 10
-11.1097861367
 20
-19.2293241674
 11
-8.2169908205
 21
-14.0511534038
  0
LINE
  5
37E
100
AcDbEntity
  8
0
100
AcDbLine
 62
253
  6
CONTINUOUS
 10
-7.1761216389
 20
-13.921757936
 11
-10.4356222911
 21
-19.756339726
  0
LWPOLYLINE
  5
37F
100
AcDbEntity
  8
0
100
AcDbPolyline
 62
253
  6
CONTINUOUS
 90
13
 70
0
 10
-7.6826283415
 20
-13.1023577685
 10
-7.6695505194
 20
-13.080406016
 10
-7.6534143816
 20
-13.0569575155
 10
-7.6344987134
 20
-13.0323898408
 10
-7.6132270086
 20
-13.0072123933
 10
-7.5898626058
 20
-12.9817010388
 10
-7.564408207
 20
-12.9558814863
 10
-7.5370352648
 20
-12.9300048453
 10
-7.5082900392
 20
-12.9046614735
 10
-7.4787363511
 20
-12.8803936663
 10
-7.4488958438
 20
-12.8576600694
 10
-7.4192289384
 20
-12.8368418763
 10
-7.3902492117
 20
-12.818334072
  0
LWPOLYLINE
  5
380
100
AcDbEntity
  8
0
100
AcDbPolyline
 62
7
  6
CONTINUOUS
 90
16
 70
0
 10
-16.4438323846
 20
-20.6592708823
 10
-16.3715454573
 20
-20.5407713754
 10
-16.2868817997
 20
-20.4185961487
 10
-16.1898414119
 20
-20.2927452023
 10
-16.0791774812
 20
-20.1618782414
 10
-15.9561368203
 20
-20.0273355608
 10
-15.8244598668
 20
-19.8931380444
 10
-15.683941668
 20
-19.7593271536
 10
-15.5347871765
 20
-19.6258614271
 10
-15.3813516877
 20
-19.4966373644
 10
-15.2235515844
 20
-19.3717842722
 10
-15.0614704837
 20
-19.2511728439
 10
-14.8997145331
 20
-19.1383116589
 10
-14.739819115
 20
-19.0343702439
 10
-14.580248847
 20
-18.9381790723
 10
-14.421003729
 20
-18.8497381441
  0
LWPOLYLINE
  5
381
100
AcDbEntity
  8
0
100
AcDbPolyline
 62
7
  6
CONTINUOUS
 90
29
 70
0
 10
6.8866091831
 20
8.8873193439
 10
6.7773329494
 20
8.782796209
 10
6.6587387727
 20
8.635050502
 10
6.5544105624
 20
8.4670613264
 10
6.4666442604
 20
8.2819982722
 10
6.3958323184
 20
8.079428366
 10
6.3415822847
 20
7.8597845812
 10
6.3050127451
 20
7.6275354284
 10
6.2865025168
 20
7.3825862879
 10
6.2856727826
 20
7.1250317794
 10
6.3025056776
 20
6.8596242713
 10
6.3373148459
 20
6.5861729012
 10
6.3897866434
 20
6.3048685316
 10
6.4589622719
 20
6.0210361184
 10
6.5451821879
 20
5.7345779802
 10
6.6481059349
 20
5.4455917985
 10
6.7657533463
 20
5.1596955729
 10
6.8981419878
 20
4.8772922984
 10
7.0452542936
 20
4.5979789801
 10
7.2050574001
 20
4.3261646331
 10
7.3782211868
 20
4.061288452
 10
7.564075774
 20
3.8039112421
 10
7.7585786594
 20
3.5601244354
 10
7.961843322
 20
3.3304761449
 10
8.1737562827
 20
3.1144182575
 10
8.3899346012
 20
2.9163978655
 10
8.6089172976
 20
2.7378973328
 10
8.8321653519
 20
2.5774342955
 10
9.0596787641
 20
2.4350087535
  0
LINE
  5
382
100
AcDbEntity
  8
0
100
AcDbLine
 62
7
  6
CONTINUOUS
 10
-23.3714774796
 20
-12.5292426065
 11
-24.9222747322
 21
-13.4460834812
  0
LINE
  5
383
100
AcDbEntity
  8
0
100
AcDbLine
 62
7
  6
CONTINUOUS
 10
-24.9222747322
 20
-13.4460834812
 11
-23.3619554091
 21
-12.5453487839
  0
LINE
  5
384
100
AcDbEntity
  8
0
100
AcDbLine
 62
7
  6
CONTINUOUS
 10
-22.9015852937
 20
-13.3427332131
 11
-24.4619046169
 21
-14.2434679104
  0
LINE
  5
385
100
AcDbEntity
  8
0
100
AcDbLine
 62
7
  6
CONTINUOUS
 10
-24.4619046169
 20
-14.2434679105
 11
-22.8925399405
 21
-13.3587789162
  0
LINE
  5
386
100
AcDbEntity
  8
0
100
AcDbLine
 62
7
  6
CONTINUOUS
 10
-20.8019938786
 20
-4.172147777
 11
-21.0209403439
 21
-4.2588314745
  0
LINE
  5
387
100
AcDbEntity
  8
0
100
AcDbLine
 62
7
  6
CONTINUOUS
 10
-20.7735738841
 20
-4.1623545013
 11
-20.8020036764
 21
-4.1721242779
  0
LWPOLYLINE
  5
388
100
AcDbEntity
  8
0
100
AcDbPolyline
 62
7
  6
CONTINUOUS
 90
13
 70
0
 10
-24.8278018156
 20
-4.1154414813
 10
-24.7840270031
 20
-4.1106988248
 10
-24.7372626156
 20
-4.1027857402
 10
-24.6875086533
 20
-4.0917022276
 10
-24.6339574232
 20
-4.077179979
 10
-24.5774166182
 20
-4.0594873024
 10
-24.5203093174
 20
-4.0394291218
 10
-24.4626324223
 20
-4.0169445667
 10
-24.4043890313
 20
-3.9920945075
 10
-24.3480115182
 20
-3.96586648
 10
-24.2943106744
 20
-3.9385896628
 10
-24.2424757086
 20
-3.9099348773
 10
-24.1925066207
 20
-3.8799021235
  0
LWPOLYLINE
  5
389
100
AcDbEntity
  8
0
100
AcDbPolyline
 62
7
  6
CONTINUOUS
 90
16
 70
0
 10
13.5688169011
 20
-1.8398923533
 10
13.7045091116
 20
-1.8277920777
 10
13.8503370158
 20
-1.8089630159
 10
14.0063006137
 20
-1.7834051679
 10
14.1741826633
 20
-1.7507131739
 10
14.3522004067
 20
-1.7112923936
 10
14.5350055694
 20
-1.666358907
 10
14.7226865477
 20
-1.6157725695
 10
14.9151549453
 20
-1.5596735257
 10
15.1067972993
 20
-1.4996982889
 10
15.2975675274
 20
-1.4357553774
 10
15.4875117118
 20
-1.367936273
 10
15.6711546373
 20
-1.2981519345
 10
15.846671232
 20
-1.2270393481
 10
16.0158865677
 20
-1.1539615276
 10
16.1788006444
 20
-1.078918473
  0
LINE
  5
38A
100
AcDbEntity
  8
0
100
AcDbLine
 62
7
  6
CONTINUOUS
 10
-25.9207319354
 20
-4.8032603179
 11
-26.5621578115
 21
-4.8434474918
  0
LINE
  5
38B
100
AcDbEntity
  8
0
100
AcDbLine
 62
7
  6
CONTINUOUS
 10
12.9273908686
 20
-1.880079537
 11
13.5688169011
 21
-1.8398923533
  0
LINE
  5
38C
100
AcDbEntity
  8
0
100
AcDbLine
 62
7
  6
CONTINUOUS
 10
-24.8279276548
 20
-4.1154493655
 11
-25.220143116
 21
-4.140022791
  0
LINE
  5
38D
100
AcDbEntity
  8
0
100
AcDbLine
 62
7
  6
CONTINUOUS
 10
-22.2743371334
 20
-3.3361159583
 11
-22.5835638819
 21
-3.3554899025
  0
LINE
  5
38E
100
AcDbEntity
  8
0
100
AcDbLine
 62
7
  6
CONTINUOUS
 10
16.8708892131
 20
-0.747756507
 11
17.927547064
 21
-0.6815538569
  0
LINE
  5
38F
100
AcDbEntity
  8
0
100
AcDbLine
 62
253
  6
CONTINUOUS
 10
17.8641080396
 20
-0.4941319599
 11
17.3311425994
 21
-0.527523776
  0
LINE
  5
390
100
AcDbEntity
  8
0
100
AcDbLine
 62
7
  6
CONTINUOUS
 10
-21.7160679147
 20
-2.4753472884
 11
-21.4647822754
 21
-2.4596035212
  0
LINE
  5
391
100
AcDbEntity
  8
0
100
AcDbLine
 62
7
  6
CONTINUOUS
 10
-16.2057553329
 20
-0.6849752501
 11
-21.9773390942
 21
-1.0465815543
  0
LWPOLYLINE
  5
392
100
AcDbEntity
  8
0
100
AcDbPolyline
 62
7
  6
CONTINUOUS
 90
7
 70
0
 10
-21.4647822754
 20
-2.4596035212
 10
-21.4325715109
 20
-2.4590084558
 10
-21.4054483481
 20
-2.4610093528
 10
-21.3834127873
 20
-2.4656062122
 10
-21.3663665249
 20
-2.4729160918
 10
-21.3544078645
 20
-2.4828219338
 10
-21.3486654835
 20
-2.4924755223
  0
LWPOLYLINE
  5
393
100
AcDbEntity
  8
0
100
AcDbPolyline
 62
253
  6
CONTINUOUS
 90
7
 70
0
 10
-21.9868013259
 20
-1.0210371224
 10
-22.0083957898
 20
-1.0213227904
 10
-22.0262766689
 20
-1.0196943753
 10
-22.0402032577
 20
-1.0161958796
 10
-22.0499634567
 20
-1.0109288706
 10
-22.0555255313
 20
-1.0039788302
 10
-22.0558963458
 20
-1.0030692471
  0
LINE
  5
394
100
AcDbEntity
  8
0
100
AcDbLine
 62
7
  6
CONTINUOUS
 10
-21.9996726749
 20
-1.0467807898
 11
-21.977412616
 21
-1.0465861607
  0
LWPOLYLINE
  5
395
100
AcDbEntity
  8
0
100
AcDbPolyline
 62
253
  6
CONTINUOUS
 90
16
 70
0
 10
-16.7830504945
 20
0.8801230872
 10
-16.6665469518
 20
0.8776879182
 10
-16.5477775682
 20
0.8588950257
 10
-16.4267423438
 20
0.8237444099
 10
-16.3021158566
 20
0.771466911
 10
-16.1752235284
 20
0.7028316887
 10
-16.0500416255
 20
0.6201462221
 10
-15.9266162616
 20
0.5230105524
 10
-15.8049013229
 20
0.4118246383
 10
-15.6887347347
 20
0.290095835
 10
-15.5782703061
 20
0.1575141098
 10
-15.473354228
 20
0.0143894954
 10
-15.3773629987
 20
-0.1348405559
 10
-15.2914221176
 20
-0.2886968933
 10
-15.2144060853
 20
-0.4486586675
 10
-15.1463149017
 20
-0.6147258786
  0
LINE
  5
396
100
AcDbEntity
  8
0
100
AcDbLine
 62
7
  6
CONTINUOUS
 10
10.5622806741
 20
-10.0869871977
 11
10.4385369874
 21
-10.0155391439
  0
LINE
  5
397
100
AcDbEntity
  8
0
100
AcDbLine
 62
7
  6
CONTINUOUS
 10
9.4485874937
 20
-9.4439547132
 11
9.3660920173
 21
-9.396322859
  0
LINE
  5
398
100
AcDbEntity
  8
0
100
AcDbLine
 62
7
  6
CONTINUOUS
 10
8.4586380001
 20
-8.8723702826
 11
8.3348943133
 21
-8.8009222287
  0
LINE
  5
399
100
AcDbEntity
  8
0
100
AcDbLine
 62
7
  6
CONTINUOUS
 10
7.757423618
 20
-8.4674978867
 11
7.6336799313
 21
-8.3960498328
  0
LINE
  5
39A
100
AcDbEntity
  8
0
100
AcDbLine
 62
7
  6
CONTINUOUS
 10
6.3137475878
 20
-7.6339374403
 11
6.1900039011
 21
-7.5624893865
  0
LINE
  5
39B
100
AcDbEntity
  8
0
100
AcDbLine
 62
7
  6
CONTINUOUS
 10
5.0763104847
 20
-6.9194567657
 11
4.952566798
 21
-6.8480087119
  0
LINE
  5
39C
100
AcDbEntity
  8
0
100
AcDbLine
 62
7
  6
CONTINUOUS
 10
4.3750963387
 20
-6.5145845061
 11
4.251352652
 21
-6.4431364523
  0
LINE
  5
39D
100
AcDbEntity
  8
0
100
AcDbLine
 62
7
  6
CONTINUOUS
 10
4.086360991
 20
-6.347872335
 11
3.9626173043
 21
-6.2764242812
  0
LINE
  5
39E
100
AcDbEntity
  8
0
100
AcDbLine
 62
7
  6
CONTINUOUS
 10
3.385146845
 20
-5.9430000754
 11
3.2614031583
 21
-5.8715520216
  0
LINE
  5
39F
100
AcDbEntity
  8
0
100
AcDbLine
 62
7
  6
CONTINUOUS
 10
3.0964116154
 20
-5.7762879725
 11
2.9726679287
 21
-5.7048399187
  0
LINE
  5
3A0
100
AcDbEntity
  8
0
100
AcDbLine
 62
7
  6
CONTINUOUS
 10
2.3951973514
 20
-5.3714156448
 11
2.2714536647
 21
-5.2999675909
  0
LINE
  5
3A1
100
AcDbEntity
  8
0
100
AcDbLine
 62
7
  6
CONTINUOUS
 10
2.1064620627
 20
-5.2047035078
 11
1.982718376
 21
-5.133255454
  0
LINE
  5
3A2
100
AcDbEntity
  8
0
100
AcDbLine
 62
7
  6
CONTINUOUS
 10
1.4052478577
 20
-4.7998312141
 11
1.281504171
 21
-4.7283831603
  0
LINE
  5
3A3
100
AcDbEntity
  8
0
100
AcDbLine
 62
7
  6
CONTINUOUS
 10
9.3454674401
 20
-9.2106974029
 11
9.4692111268
 21
-9.2821454567
  0
LINE
  5
3A4
100
AcDbEntity
  8
0
100
AcDbLine
 62
7
  6
CONTINUOUS
 10
9.4868887963
 20
-9.1290424842
 11
9.610632483
 21
-9.200490538
  0
LINE
  5
3A5
100
AcDbEntity
  8
0
100
AcDbLine
 62
7
  6
CONTINUOUS
 10
9.0773564336
 20
-8.8474329722
 11
9.1804760152
 21
-8.9069729262
  0
LINE
  5
3A6
100
AcDbEntity
  8
0
100
AcDbLine
 62
7
  6
CONTINUOUS
 10
10.7685198372
 20
-9.7196592906
 11
10.5622806741
 21
-9.6005793825
  0
LINE
  5
3A7
100
AcDbEntity
  8
0
100
AcDbLine
 62
7
  6
CONTINUOUS
 10
10.4385369874
 20
-9.5291313287
 11
9.9435622405
 21
-9.2433391134
  0
LINE
  5
3A8
100
AcDbEntity
  8
0
100
AcDbLine
 62
7
  6
CONTINUOUS
 10
7.9636632532
 20
-8.1001702521
 11
7.757423618
 21
-7.9810900715
  0
LINE
  5
3A9
100
AcDbEntity
  8
0
100
AcDbLine
 62
7
  6
CONTINUOUS
 10
7.6336799313
 20
-7.9096420177
 11
7.1387051845
 21
-7.6238498023
  0
LINE
  5
3AA
100
AcDbEntity
  8
0
100
AcDbLine
 62
7
  6
CONTINUOUS
 10
6.519986751
 20
-7.2666095332
 11
6.3137475878
 21
-7.1475296252
  0
LINE
  5
3AB
100
AcDbEntity
  8
0
100
AcDbLine
 62
7
  6
CONTINUOUS
 10
6.1900039011
 20
-7.0760815713
 11
5.6950291543
 21
-6.790289356
  0
LINE
  5
3AC
100
AcDbEntity
  8
0
100
AcDbLine
 62
7
  6
CONTINUOUS
 10
9.2187777898
 20
-8.7657780536
 11
9.3218973714
 21
-8.8253180076
  0
LINE
  5
3AD
100
AcDbEntity
  8
0
100
AcDbLine
 62
7
  6
CONTINUOUS
 10
9.4485874937
 20
-8.8533166624
 11
9.3454674401
 21
-8.7937764358
  0
LINE
  5
3AE
100
AcDbEntity
  8
0
100
AcDbLine
 62
7
  6
CONTINUOUS
 10
6.9737137596
 20
-7.4243555857
 11
6.6849786479
 21
-7.257643551
  0
LINE
  5
3AF
100
AcDbEntity
  8
0
100
AcDbLine
 62
7
  6
CONTINUOUS
 10
5.5300372573
 20
-6.5907948668
 11
5.2413021457
 21
-6.4240828321
  0
LINE
  5
3B0
100
AcDbEntity
  8
0
100
AcDbLine
 62
7
  6
CONTINUOUS
 10
5.8393964741
 20
-6.6651847171
 11
6.1900039011
 21
-6.8676210513
  0
LINE
  5
3B1
100
AcDbEntity
  8
0
100
AcDbLine
 62
7
  6
CONTINUOUS
 10
6.3137475878
 20
-6.9390691051
 11
6.519986751
 21
-7.0581490132
  0
LINE
  5
3B2
100
AcDbEntity
  8
0
100
AcDbLine
 62
7
  6
CONTINUOUS
 10
7.2830729763
 20
-7.498745436
 11
7.6336799313
 21
-7.7011814976
  0
LINE
  5
3B3
100
AcDbEntity
  8
0
100
AcDbLine
 62
7
  6
CONTINUOUS
 10
7.757423618
 20
-7.7726295515
 11
7.9636632532
 21
-7.8917097321
  0
LINE
  5
3B4
100
AcDbEntity
  8
0
100
AcDbLine
 62
7
  6
CONTINUOUS
 10
10.0879295603
 20
-9.1182344745
 11
10.4385369874
 21
-9.3206708087
  0
LINE
  5
3B5
100
AcDbEntity
  8
0
100
AcDbLine
 62
7
  6
CONTINUOUS
 10
10.5622806741
 20
-9.3921188625
 11
10.7685198372
 21
-9.5111987706
  0
LINE
  5
3B6
100
AcDbEntity
  8
0
100
AcDbLine
 62
7
  6
CONTINUOUS
 10
5.2413021457
 20
-6.250365724
 11
5.5300372573
 21
-6.4170777587
  0
LINE
  5
3B7
100
AcDbEntity
  8
0
100
AcDbLine
 62
7
  6
CONTINUOUS
 10
6.6849786479
 20
-7.0839264428
 11
6.9737137596
 21
-7.2506384776
  0
LINE
  5
3B8
100
AcDbEntity
  8
0
100
AcDbLine
 62
7
  6
CONTINUOUS
 10
9.324843807
 20
-8.6081515004
 11
9.4692111268
 21
-8.6915073815
  0
LINE
  5
3B9
100
AcDbEntity
  8
0
100
AcDbLine
 62
7
  6
CONTINUOUS
 10
5.9808178303
 20
-6.5835297984
 11
6.1900039011
 21
-6.704311214
  0
LINE
  5
3BA
100
AcDbEntity
  8
0
100
AcDbLine
 62
7
  6
CONTINUOUS
 10
6.455168944
 20
-6.8574141865
 11
6.6614081072
 21
-6.9764940945
  0
LINE
  5
3BB
100
AcDbEntity
  8
0
100
AcDbLine
 62
7
  6
CONTINUOUS
 10
7.4244943326
 20
-7.4170905173
 11
7.6336799313
 21
-7.5378716603
  0
LINE
  5
3BC
100
AcDbEntity
  8
0
100
AcDbLine
 62
7
  6
CONTINUOUS
 10
7.8988449743
 20
-7.6909746328
 11
8.1050846095
 21
-7.8100548134
  0
LINE
  5
3BD
100
AcDbEntity
  8
0
100
AcDbLine
 62
7
  6
CONTINUOUS
 10
10.2293509166
 20
-9.0365795558
 11
10.4385369874
 21
-9.1573609714
  0
LINE
  5
3BE
100
AcDbEntity
  8
0
100
AcDbLine
 62
7
  6
CONTINUOUS
 10
10.7037020303
 20
-9.3104639439
 11
10.9099411935
 21
-9.4295438519
  0
LINE
  5
3BF
100
AcDbEntity
  8
0
100
AcDbLine
 62
7
  6
CONTINUOUS
 10
5.3827235019
 20
-6.1687108053
 11
5.6714586135
 21
-6.33542284
  0
LINE
  5
3C0
100
AcDbEntity
  8
0
100
AcDbLine
 62
7
  6
CONTINUOUS
 10
6.8264000042
 20
-7.0022715242
 11
7.1151351158
 21
-7.1689835589
  0
LINE
  5
3C1
100
AcDbEntity
  8
0
100
AcDbLine
 62
7
  6
CONTINUOUS
 10
9.4662651632
 20
-8.5264965818
 11
9.610632483
 21
-8.6098524629
  0
LINE
  5
3C2
100
AcDbEntity
  8
0
100
AcDbLine
 62
7
  6
CONTINUOUS
 10
9.4692111268
 20
-7.9966390464
 11
9.324843807
 21
-7.9132831653
  0
LINE
  5
3C3
100
AcDbEntity
  8
0
100
AcDbLine
 62
7
  6
CONTINUOUS
 10
8.7473731117
 20
-7.5798588232
 11
8.1286546782
 21
-7.222618554
  0
LINE
  5
3C4
100
AcDbEntity
  8
0
100
AcDbLine
 62
7
  6
CONTINUOUS
 10
1.281504171
 20
-3.0954426067
 11
1.4052478577
 21
-3.1668906605
  0
LINE
  5
3C5
100
AcDbEntity
  8
0
100
AcDbLine
 62
7
  6
CONTINUOUS
 10
1.982718376
 20
-3.5003149004
 11
2.1064620627
 21
-3.5717629542
  0
LINE
  5
3C6
100
AcDbEntity
  8
0
100
AcDbLine
 62
7
  6
CONTINUOUS
 10
2.2714536647
 20
-3.6670270373
 11
2.3951973514
 21
-3.7384750912
  0
LINE
  5
3C7
100
AcDbEntity
  8
0
100
AcDbLine
 62
7
  6
CONTINUOUS
 10
2.9726679287
 20
-4.0718993651
 11
3.0964116154
 21
-4.1433474189
  0
LINE
  5
3C8
100
AcDbEntity
  8
0
100
AcDbLine
 62
7
  6
CONTINUOUS
 10
3.2614031583
 20
-4.238611468
 11
3.385146845
 21
-4.3100595218
  0
LINE
  5
3C9
100
AcDbEntity
  8
0
100
AcDbLine
 62
7
  6
CONTINUOUS
 10
3.9626173043
 20
-4.6434837276
 11
4.086360991
 21
-4.7149317815
  0
LINE
  5
3CA
100
AcDbEntity
  8
0
100
AcDbLine
 62
7
  6
CONTINUOUS
 10
4.251352652
 20
-4.8101958987
 11
4.3750963387
 21
-4.8816439525
  0
LINE
  5
3CB
100
AcDbEntity
  8
0
100
AcDbLine
 62
7
  6
CONTINUOUS
 10
4.952566798
 20
-5.2150681583
 11
5.0763104847
 21
-5.2865162121
  0
LINE
  5
3CC
100
AcDbEntity
  8
0
100
AcDbLine
 62
7
  6
CONTINUOUS
 10
6.1900039011
 20
-5.9295488329
 11
6.3137475878
 21
-6.0009968867
  0
LINE
  5
3CD
100
AcDbEntity
  8
0
100
AcDbLine
 62
7
  6
CONTINUOUS
 10
7.6336799313
 20
-6.7631092792
 11
7.757423618
 21
-6.8345573331
  0
LINE
  5
3CE
100
AcDbEntity
  8
0
100
AcDbLine
 62
7
  6
CONTINUOUS
 10
8.1286546782
 20
-7.0489014946
 11
8.8711167984
 21
-7.4775898176
  0
LINE
  5
3CF
100
AcDbEntity
  8
0
100
AcDbLine
 62
7
  6
CONTINUOUS
 10
9.3454674401
 20
-7.7514739331
 11
9.4485874937
 21
-7.8110141596
  0
LINE
  5
3D0
100
AcDbEntity
  8
0
100
AcDbLine
 62
7
  6
CONTINUOUS
 10
10.4385369874
 20
-8.3825985903
 11
10.5622806741
 21
-8.4540466441
  0
LINE
  5
3D1
100
AcDbEntity
  8
0
100
AcDbLine
 62
7
  6
CONTINUOUS
 10
1.4229255273
 20
-3.013787688
 11
1.546669214
 21
-3.0852357419
  0
LINE
  5
3D2
100
AcDbEntity
  8
0
100
AcDbLine
 62
7
  6
CONTINUOUS
 10
2.1241397323
 20
-3.4186599817
 11
2.247883419
 21
-3.4901080355
  0
LINE
  5
3D3
100
AcDbEntity
  8
0
100
AcDbLine
 62
7
  6
CONTINUOUS
 10
2.4128750209
 20
-3.5853721187
 11
2.5366187076
 21
-3.6568201725
  0
LINE
  5
3D4
100
AcDbEntity
  8
0
100
AcDbLine
 62
7
  6
CONTINUOUS
 10
3.1140892849
 20
-3.9902444464
 11
3.2378329716
 21
-4.0616925003
  0
LINE
  5
3D5
100
AcDbEntity
  8
0
100
AcDbLine
 62
7
  6
CONTINUOUS
 10
3.4028245146
 20
-4.1569565493
 11
3.5265682013
 21
-4.2284046032
  0
LINE
  5
3D6
100
AcDbEntity
  8
0
100
AcDbLine
 62
7
  6
CONTINUOUS
 10
4.1040386606
 20
-4.561828809
 11
4.2277823473
 21
-4.6332768628
  0
LINE
  5
3D7
100
AcDbEntity
  8
0
100
AcDbLine
 62
7
  6
CONTINUOUS
 10
4.3927740082
 20
-4.72854098
 11
4.5165176949
 21
-4.7999890338
  0
LINE
  5
3D8
100
AcDbEntity
  8
0
100
AcDbLine
 62
7
  6
CONTINUOUS
 10
5.0939881542
 20
-5.1334132396
 11
5.2177318409
 21
-5.2048612935
  0
LINE
  5
3D9
100
AcDbEntity
  8
0
100
AcDbLine
 62
7
  6
CONTINUOUS
 10
6.3314252573
 20
-5.8478939142
 11
6.455168944
 21
-5.9193419681
  0
LINE
  5
3DA
100
AcDbEntity
  8
0
100
AcDbLine
 62
7
  6
CONTINUOUS
 10
7.7751012876
 20
-6.6814543606
 11
7.8988449743
 21
-6.7529024144
  0
LINE
  5
3DB
100
AcDbEntity
  8
0
100
AcDbLine
 62
7
  6
CONTINUOUS
 10
8.2700760344
 20
-6.9672465759
 11
9.0125381546
 21
-7.3959348989
  0
LINE
  5
3DC
100
AcDbEntity
  8
0
100
AcDbLine
 62
7
  6
CONTINUOUS
 10
9.4868887963
 20
-7.6698190144
 11
9.59000885
 21
-7.729359241
  0
LINE
  5
3DD
100
AcDbEntity
  8
0
100
AcDbLine
 62
7
  6
CONTINUOUS
 10
10.5799583436
 20
-8.3009436716
 11
10.7037020303
 21
-8.3723917255
  0
LINE
  5
3DE
100
AcDbEntity
  8
0
100
AcDbLine
 62
7
  6
CONTINUOUS
 10
6.4757926951
 20
-10.1769110848
 11
6.5789125127
 21
-10.2711945869
  0
LINE
  5
3DF
100
AcDbEntity
  8
0
100
AcDbLine
 62
7
  6
CONTINUOUS
 10
6.720333869
 20
-10.1895396683
 11
6.6172140514
 21
-10.0952561661
  0
LINE
  5
3E0
100
AcDbEntity
  8
0
100
AcDbLine
 62
7
  6
CONTINUOUS
 10
7.4244943326
 20
-10.7246795202
 11
7.5276141502
 21
-10.8189630224
  0
LINE
  5
3E1
100
AcDbEntity
  8
0
100
AcDbLine
 62
7
  6
CONTINUOUS
 10
7.6690355064
 20
-10.7373081037
 11
7.5659156888
 21
-10.6430246015
  0
LINE
  5
3E2
100
AcDbEntity
  8
0
100
AcDbLine
 62
7
  6
CONTINUOUS
 10
9.3660920173
 20
-9.396322859
 11
9.2629719637
 21
-9.3020392175
  0
LINE
  5
3E3
100
AcDbEntity
  8
0
100
AcDbLine
 62
7
  6
CONTINUOUS
 10
9.3454674401
 20
-8.7937764358
 11
9.2423483306
 21
-8.6994932938
  0
LINE
  5
3E4
100
AcDbEntity
  8
0
100
AcDbLine
 62
7
  6
CONTINUOUS
 10
7.156382972
 20
-11.9596120269
 11
7.2388788025
 21
-12.0419874973
  0
LINE
  5
3E5
100
AcDbEntity
  8
0
100
AcDbLine
 62
7
  6
CONTINUOUS
 10
7.3803001587
 20
-11.9603325787
 11
7.2978043283
 21
-11.8779571082
  0
LINE
  5
3E6
100
AcDbEntity
  8
0
100
AcDbLine
 62
7
  6
CONTINUOUS
 10
7.506990045
 20
-11.0155153939
 11
7.4244943326
 21
-10.9331399915
  0
LWPOLYLINE
  5
3E7
100
AcDbEntity
  8
0
100
AcDbPolyline
 62
7
  6
CONTINUOUS
 90
16
 70
0
 10
2.5779067232
 20
-7.4915257443
 10
1.9167924241
 20
-6.7498966073
 10
1.2731095124
 20
-5.9857867897
 10
0.6468579883
 20
-5.1991962916
 10
0.0368090407
 20
-4.3883999559
 10
-0.5558085193
 20
-3.5551229398
 10
-1.1273082588
 20
-2.7045407138
 10
-1.6775577373
 20
-1.8365440731
 10
-2.2066893952
 20
-0.9512422226
 10
-2.7114141209
 20
-0.0541382474
 10
-3.1915782627
 20
0.8548415679
 10
-3.6473354724
 20
1.7756235079
 10
-4.0758575941
 20
2.7024833417
 10
-4.4762019093
 20
3.6335129924
 10
-4.8493111365
 20
4.5706205369
 10
-5.1951852757
 20
5.5138059752
  0
LINE
  5
3E8
100
AcDbEntity
  8
0
100
AcDbLine
 62
7
  6
CONTINUOUS
 10
6.5582885256
 20
-10.4330036147
 11
6.4964166823
 21
-10.3625361759
  0
LINE
  5
3E9
100
AcDbEntity
  8
0
100
AcDbLine
 62
7
  6
CONTINUOUS
 10
5.671458761
 20
-10.5115973227
 11
5.3827235019
 21
-10.1016813196
  0
LINE
  5
3EA
100
AcDbEntity
  8
0
100
AcDbLine
 62
7
  6
CONTINUOUS
 10
7.1357591029
 20
-12.1561645559
 11
7.0532632725
 21
-12.0390456644
  0
LINE
  5
3EB
100
AcDbEntity
  8
0
100
AcDbLine
 62
7
  6
CONTINUOUS
 10
8.022588897
 20
-11.8691103966
 11
8.3113240086
 21
-12.2790263633
  0
LINE
  5
3EC
100
AcDbEntity
  8
0
100
AcDbLine
 62
7
  6
CONTINUOUS
 10
8.4527453649
 20
-12.1973714446
 11
8.1902414541
 21
-11.8246957984
  0
LINE
  5
3ED
100
AcDbEntity
  8
0
100
AcDbLine
 62
7
  6
CONTINUOUS
 10
7.5276141502
 20
-10.8189630224
 11
7.6101098626
 21
-10.9360818366
  0
LINE
  5
3EE
100
AcDbEntity
  8
0
100
AcDbLine
 62
7
  6
CONTINUOUS
 10
7.7515312189
 20
-10.8544269179
 11
7.6690355064
 21
-10.7373081037
  0
LINE
  5
3EF
100
AcDbEntity
  8
0
100
AcDbLine
 62
7
  6
CONTINUOUS
 10
5.4239713987
 20
-10.0212671025
 11
5.8158264054
 21
-10.5949533912
  0
LINE
  5
3F0
100
AcDbEntity
  8
0
100
AcDbLine
 62
7
  6
CONTINUOUS
 10
5.9572477616
 20
-10.5132984725
 11
5.5653927549
 21
-9.9396121839
  0
LINE
  5
3F1
100
AcDbEntity
  8
0
100
AcDbLine
 62
7
  6
CONTINUOUS
 10
8.2700762704
 20
-12.3594406719
 11
7.8782211052
 21
-11.785754243
  0
LWPOLYLINE
  5
3F2
100
AcDbEntity
  8
0
100
AcDbPolyline
 62
7
  6
CONTINUOUS
 90
20
 70
0
 10
11.9025240667
 20
-21.6832912899
 10
12.0428164603
 20
-21.9191849012
 10
12.1916695798
 20
-22.1433185549
 10
12.3490834249
 20
-22.3556922509
 10
12.5164112018
 20
-22.5577212594
 10
12.6922997044
 20
-22.7479903102
 10
12.8726893148
 20
-22.9222535932
 10
13.0576675534
 20
-23.0801438837
 10
13.2471468997
 20
-23.2220284065
 10
13.4368051748
 20
-23.3447630259
 10
13.62663392
 20
-23.4479172473
 10
13.816641594
 20
-23.5319215653
 10
14.0025313944
 20
-23.5949233272
 10
14.1842114506
 20
-23.6364601362
 10
14.3617736332
 20
-23.6569943891
 10
14.531196751
 20
-23.6560606237
 10
14.6923029942
 20
-23.6331864711
 10
14.8452701727
 20
-23.5888443002
 10
14.9866105244
 20
-23.5239857552
 10
15.019517595
 20
-23.5048211701
  0
LINE
  5
3F3
100
AcDbEntity
  8
0
100
AcDbLine
 62
7
  6
CONTINUOUS
 10
7.0945111287
 20
-11.8544011518
 11
7.156382972
 21
-11.9596120269
  0
LINE
  5
3F4
100
AcDbEntity
  8
0
100
AcDbLine
 62
7
  6
CONTINUOUS
 10
7.2978043283
 20
-11.8779571082
 11
7.2359324849
 21
-11.7727462331
  0
LWPOLYLINE
  5
3F5
100
AcDbEntity
  8
0
100
AcDbPolyline
 62
7
  6
CONTINUOUS
 90
19
 70
0
 10
-5.1951852757
 20
5.5138059752
 10
-5.2585525152
 20
5.679093968
 10
-5.3301303854
 20
5.840284315
 10
-5.4099188863
 20
5.9973770163
 10
-5.4986827829
 20
6.1515138129
 10
-5.5956573103
 20
6.3015529637
 10
-5.6985481732
 20
6.4440692456
 10
-5.8074733875
 20
6.5788868972
 10
-5.9223149374
 20
6.7061816798
 10
-6.0404244803
 20
6.8230556534
 10
-6.1618718113
 20
6.9292865735
 10
-6.2865871352
 20
7.0250966846
 10
-6.4117127252
 20
7.1082547807
 10
-6.5372544689
 20
7.1784939533
 10
-6.6632064785
 20
7.2360811109
 10
-6.786693364
 20
7.2795857723
 10
-6.906756662
 20
7.3085311106
 10
-7.0243548359
 20
7.3233939528
 10
-7.1394878858
 20
7.3241742989
  0
LINE
  5
3F6
100
AcDbEntity
  8
0
100
AcDbLine
 62
7
  6
CONTINUOUS
 10
1.6321112735
 20
-4.0969773244
 11
1.281504171
 21
-3.0954426067
  0
LINE
  5
3F7
100
AcDbEntity
  8
0
100
AcDbLine
 62
7
  6
CONTINUOUS
 10
1.982718376
 20
-5.133255454
 11
1.6939831169
 21
-4.3064184108
  0
LINE
  5
3F8
100
AcDbEntity
  8
0
100
AcDbLine
 62
7
  6
CONTINUOUS
 10
1.4052478577
 20
-3.1668906605
 11
1.6939831169
 21
-3.9937277037
  0
LINE
  5
3F9
100
AcDbEntity
  8
0
100
AcDbLine
 62
7
  6
CONTINUOUS
 10
1.800409238
 20
-3.8118586416
 11
1.546669214
 21
-3.0852357419
  0
LINE
  5
3FA
100
AcDbEntity
  8
0
100
AcDbLine
 62
7
  6
CONTINUOUS
 10
1.7558549602
 20
-4.1684253782
 11
2.1064620627
 21
-5.2047035078
  0
LINE
  5
3FB
100
AcDbEntity
  8
0
100
AcDbLine
 62
7
  6
CONTINUOUS
 10
2.247883419
 20
-5.1230485891
 11
1.8972763165
 21
-4.0867704596
  0
LWPOLYLINE
  5
3FC
100
AcDbEntity
  8
0
100
AcDbPolyline
 62
7
  6
CONTINUOUS
 90
16
 70
0
 10
3.4392804994
 20
-15.0733346189
 10
3.4446971925
 20
-15.205230357
 10
3.4596285388
 20
-15.3393872135
 10
3.4840745385
 20
-15.4758051885
 10
3.5184007416
 20
-15.6156002205
 10
3.5622415981
 20
-15.757656371
 10
3.6145004572
 20
-15.8986258241
 10
3.6753556313
 20
-16.0384817067
 10
3.7446288081
 20
-16.177250892
 10
3.8206883989
 20
-16.311666184
 10
3.903681256
 20
-16.4416377905
 10
3.9934605273
 20
-16.5672555036
 10
4.0879540679
 20
-16.6855215046
 10
4.186471163
 20
-16.7954365203
 10
4.2897025275
 20
-16.8979998238
 10
4.3976481613
 20
-16.9932114151
  0
LWPOLYLINE
  5
3FD
100
AcDbEntity
  8
0
100
AcDbPolyline
 62
7
  6
CONTINUOUS
 90
6
 70
0
 10
6.2370006462
 20
16.8971960748
 10
6.2427717282
 20
16.9187910245
 10
6.3185104561
 20
17.3240537861
 10
6.3666025409
 20
17.7485033997
 10
6.3874237113
 20
18.1927615359
 10
6.3872889539
 20
18.2020173171
  0
LINE
  5
3FE
100
AcDbEntity
  8
0
100
AcDbLine
 62
7
  6
CONTINUOUS
 10
1.281504171
 20
-4.7283831603
 11
1.6321112735
 21
-4.0969773244
  0
LINE
  5
3FF
100
AcDbEntity
  8
0
100
AcDbLine
 62
7
  6
CONTINUOUS
 10
2.2714536647
 20
-5.2999675909
 11
2.6220607377
 21
-4.668561738
  0
LINE
  5
400
100
AcDbEntity
  8
0
100
AcDbLine
 62
253
  6
CONTINUOUS
 10
-7.0713221952
 20
-14.0045678034
 11
-10.3308160376
 21
-19.8391374407
  0
LINE
  5
401
100
AcDbEntity
  8
0
100
AcDbLine
 62
253
  6
CONTINUOUS
 10
-9.1048728426
 20
-19.4797456501
 11
-6.7201047482
 21
-15.2109554058
  0
LINE
  5
402
100
AcDbEntity
  8
0
100
AcDbLine
 62
253
  6
CONTINUOUS
 10
-6.4334774806
 20
-15.2292457592
 11
-8.8182431655
 21
-19.4980316905
  0
LINE
  5
403
100
AcDbEntity
  8
0
100
AcDbLine
 62
7
  6
CONTINUOUS
 10
1.6939831169
 20
-3.9937277037
 11
1.982718376
 21
-3.5003149004
  0
LINE
  5
404
100
AcDbEntity
  8
0
100
AcDbLine
 62
7
  6
CONTINUOUS
 10
1.6939831169
 20
-4.3064184108
 11
1.4052478577
 21
-4.7998312141
  0
LINE
  5
405
100
AcDbEntity
  8
0
100
AcDbLine
 62
7
  6
CONTINUOUS
 10
1.546669214
 20
-4.7181762954
 11
1.7289783519
 21
-4.4066325542
  0
LINE
  5
406
100
AcDbEntity
  8
0
100
AcDbLine
 62
7
  6
CONTINUOUS
 10
2.683932581
 20
-4.5653121174
 11
2.9726679287
 21
-4.0718993651
  0
LINE
  5
407
100
AcDbEntity
  8
0
100
AcDbLine
 62
7
  6
CONTINUOUS
 10
2.683932581
 20
-4.8780028244
 11
2.3951973514
 21
-5.3714156448
  0
LINE
  5
408
100
AcDbEntity
  8
0
100
AcDbLine
 62
7
  6
CONTINUOUS
 10
2.5366187076
 20
-5.2897607261
 11
2.7189278269
 21
-4.9782169743
  0
LINE
  5
409
100
AcDbEntity
  8
0
100
AcDbLine
 62
7
  6
CONTINUOUS
 10
2.1064620627
 20
-3.5717629542
 11
1.7558549602
 21
-4.1684253782
  0
LINE
  5
40A
100
AcDbEntity
  8
0
100
AcDbLine
 62
7
  6
CONTINUOUS
 10
1.8972763165
 20
-4.0867704596
 11
2.247883419
 21
-3.4901080356
  0
LINE
  5
40B
100
AcDbEntity
  8
0
100
AcDbLine
 62
7
  6
CONTINUOUS
 10
3.0964116154
 20
-4.1433474189
 11
2.7458044244
 21
-4.7400097918
  0
LINE
  5
40C
100
AcDbEntity
  8
0
100
AcDbLine
 62
7
  6
CONTINUOUS
 10
2.8872257806
 20
-4.6583548732
 11
3.2378329716
 21
-4.0616925003
  0
LWPOLYLINE
  5
40D
100
AcDbEntity
  8
0
100
AcDbPolyline
 62
253
  6
CONTINUOUS
 90
6
 70
0
 10
-8.8184285143
 20
-19.4978005854
 10
-8.8763448136
 20
-19.5850707093
 10
-8.9460211604
 20
-19.6636858664
 10
-9.0269449375
 20
-19.7332204703
 10
-9.1181536226
 20
-19.793090129
 10
-9.1856002499
 20
-19.8281727856
  0
LINE
  5
40E
100
AcDbEntity
  8
0
100
AcDbLine
 62
253
  6
CONTINUOUS
 10
-9.1048728426
 20
-19.4797456501
 11
-9.1546388046
 21
-19.5542982641
  0
LWPOLYLINE
  5
40F
100
AcDbEntity
  8
0
100
AcDbPolyline
 62
253
  6
CONTINUOUS
 90
10
 70
0
 10
-6.7989502754
 20
-13.7847649487
 10
-6.823629847
 20
-13.8157271059
 10
-6.851083997
 20
-13.8463638914
 10
-6.8807701749
 20
-13.8760697211
 10
-6.9121017273
 20
-13.9042574148
 10
-6.9444594253
 20
-13.9303698235
 10
-6.9772036666
 20
-13.9538908848
 10
-7.0096872244
 20
-13.9743557758
 10
-7.0412680737
 20
-13.9913600595
 10
-7.0713219916
 20
-14.0045677249
  0
LINE
  5
410
100
AcDbEntity
  8
0
100
AcDbLine
 62
7
  6
CONTINUOUS
 10
1.281504171
 20
-3.0954426067
 11
1.4229255273
 21
-3.013787688
  0
LINE
  5
411
100
AcDbEntity
  8
0
100
AcDbLine
 62
7
  6
CONTINUOUS
 10
1.4052478577
 20
-3.1668906605
 11
1.546669214
 21
-3.0852357419
  0
LINE
  5
412
100
AcDbEntity
  8
0
100
AcDbLine
 62
7
  6
CONTINUOUS
 10
1.982718376
 20
-3.5003149004
 11
2.1241397323
 21
-3.4186599817
  0
LINE
  5
413
100
AcDbEntity
  8
0
100
AcDbLine
 62
7
  6
CONTINUOUS
 10
2.1064620627
 20
-3.5717629542
 11
2.247883419
 21
-3.4901080356
  0
LINE
  5
414
100
AcDbEntity
  8
0
100
AcDbLine
 62
7
  6
CONTINUOUS
 10
2.2714536647
 20
-3.6670270373
 11
2.4128750209
 21
-3.5853721187
  0
LINE
  5
415
100
AcDbEntity
  8
0
100
AcDbLine
 62
7
  6
CONTINUOUS
 10
2.3951973514
 20
-3.7384750912
 11
2.5366187076
 21
-3.6568201725
  0
LINE
  5
416
100
AcDbEntity
  8
0
100
AcDbLine
 62
7
  6
CONTINUOUS
 10
1.7558549602
 20
-4.1684253782
 11
1.8972763165
 21
-4.0867704596
  0
LINE
  5
417
100
AcDbEntity
  8
0
100
AcDbLine
 62
7
  6
CONTINUOUS
 10
1.4052478577
 20
-4.7998312141
 11
1.546669214
 21
-4.7181762954
  0
LINE
  5
418
100
AcDbEntity
  8
0
100
AcDbLine
 62
7
  6
CONTINUOUS
 10
2.9726679287
 20
-4.0718993651
 11
3.1140892849
 21
-3.9902444464
  0
LWPOLYLINE
  5
419
100
AcDbEntity
  8
0
100
AcDbPolyline
 62
253
  6
CONTINUOUS
 90
5
 70
0
 10
-16.7552480373
 20
-11.128074171
 10
-16.7403385224
 20
-11.1200661306
 10
-16.7284427505
 20
-11.114042348
 10
-16.7198117822
 20
-11.1101299029
 10
-16.714627679
 20
-11.1084113636
  0
LINE
  5
41A
100
AcDbEntity
  8
0
100
AcDbLine
 62
253
  6
CONTINUOUS
 10
-16.809466233
 20
-11.0082947644
 11
-16.8243870397
 21
-11.0162847179
  0
LINE
  5
41B
100
AcDbEntity
  8
0
100
AcDbLine
 62
253
  6
CONTINUOUS
 10
-21.5151220955
 20
0.5836452063
 11
-16.7830504945
 21
0.8801230872
  0
LINE
  5
41C
100
AcDbEntity
  8
0
100
AcDbLine
 62
253
  6
CONTINUOUS
 10
-21.4170353824
 20
0.9729382498
 11
-16.6844645865
 21
1.2694474067
  0
LWPOLYLINE
  5
41D
100
AcDbEntity
  8
0
100
AcDbPolyline
 62
253
  6
CONTINUOUS
 90
19
 70
0
 10
-16.6844587716
 20
1.2694337565
 10
-16.5744224342
 20
1.2686651079
 10
-16.4598997157
 20
1.2539194355
 10
-16.3417842805
 20
1.2253228798
 10
-16.2210049718
 20
1.1831081204
 10
-16.0984879966
 20
1.1276136197
 10
-15.9751488992
 20
1.0592737815
 10
-15.8519349859
 20
0.9786205067
 10
-15.7297966805
 20
0.8862769713
 10
-15.6096497465
 20
0.7829435748
 10
-15.4924131007
 20
0.6694150839
 10
-15.3789878543
 20
0.5465611287
 10
-15.270230961
 20
0.4153023682
 10
-15.1669745449
 20
0.2766457565
 10
-15.0700130227
 20
0.1316519109
 10
-14.9800890557
 20
-0.0185977934
 10
-14.8978964583
 20
-0.1729608925
 10
-14.8240710204
 20
-0.3302397321
 10
-14.7591838165
 20
-0.4892217669
  0
LINE
  5
41E
100
AcDbEntity
  8
0
100
AcDbLine
 62
7
  6
CONTINUOUS
 10
16.2666381026
 20
-1.092388191
 11
16.1802933946
 21
-1.0724529757
  0
LWPOLYLINE
  5
41F
100
AcDbEntity
  8
0
100
AcDbPolyline
 62
7
  6
CONTINUOUS
 90
10
 70
0
 10
-11.6899652803
 20
10.029052851
 10
-11.5050919361
 20
9.9317564811
 10
-11.324068741
 20
9.8538856142
 10
-11.1468956951
 20
9.7954402502
 10
-10.972361292
 20
9.7562803154
 10
-10.8016770381
 20
9.7365458835
 10
-10.6384774523
 20
9.736657176
 10
-10.483974041
 20
9.7567542665
 10
-10.3369552978
 20
9.7966970814
 10
-10.1974212228
 20
9.8564856205
  0
LWPOLYLINE
  5
420
100
AcDbEntity
  8
0
100
AcDbPolyline
 62
7
  6
CONTINUOUS
 90
25
 70
0
 10
-9.5605780582
 20
11.7417211586
 10
-9.5922835723
 20
11.7649377898
 10
-9.7740696382
 20
11.9172107636
 10
-9.9526357207
 20
12.086772281
 10
-10.1266618384
 20
12.2721679588
 10
-10.2921880466
 20
12.4690346483
 10
-10.4490124877
 20
12.6776153823
 10
-10.5973370193
 20
12.897667128
 10
-10.733807269
 20
13.1240976377
 10
-10.8581504208
 20
13.3570338148
 10
-10.9706392908
 20
13.596348756
 10
-11.0687379546
 20
13.8365695038
 10
-11.1521264791
 20
14.0777144276
 10
-11.2211247975
 20
14.319765158
 10
-11.2741567853
 20
14.5571936295
 10
-11.3108685322
 20
14.7898991029
 10
-11.3316139486
 20
15.0179823172
 10
-11.3358786411
 20
15.2362174243
 10
-11.3232950558
 20
15.444399224
 10
-11.2942307466
 20
15.6427329164
 10
-11.2492739811
 20
15.8266082538
 10
-11.1880646439
 20
15.9957134596
 10
-11.1109628503
 20
16.1503603104
 10
-11.0196372147
 20
16.2868738878
 10
-10.9285796072
 20
16.3884792942
  0
LINE
  5
421
100
AcDbEntity
  8
0
100
AcDbLine
 62
7
  6
CONTINUOUS
 10
-17.3320923668
 20
19.736679007
 11
-18.8474406332
 21
20.9297745437
  0
LINE
  5
422
100
AcDbEntity
  8
0
100
AcDbLine
 62
253
  6
CONTINUOUS
 10
-18.7853188385
 20
20.9403703924
 11
-17.2699705721
 21
19.7472748556
  0
LWPOLYLINE
  5
423
100
AcDbEntity
  8
0
100
AcDbPolyline
 62
253
  6
CONTINUOUS
 90
10
 70
0
 10
-18.315771394
 20
21.2114288028
 10
-18.3272919765
 20
21.2208394844
 10
-18.3384598306
 20
21.2308138287
 10
-18.349245773
 20
21.2413257715
 10
-18.3596216184
 20
21.2523478434
 10
-18.3695602531
 20
21.263851242
 10
-18.3790357061
 20
21.2758059074
 10
-18.3880232167
 20
21.2881806002
 10
-18.396499299
 20
21.3009429835
 10
-18.4044418039
 20
21.3140597073
  0
LINE
  5
424
100
AcDbEntity
  8
0
100
AcDbLine
 62
7
  6
CONTINUOUS
 10
-18.8690917347
 20
20.9485651293
 11
-18.8474406332
 21
20.9297745438
  0
LINE
  5
425
100
AcDbEntity
  8
0
100
AcDbLine
 62
7
  6
CONTINUOUS
 10
9.4485874937
 20
-7.8110141596
 11
9.5517075473
 21
-7.9052977981
  0
LINE
  5
426
100
AcDbEntity
  8
0
100
AcDbLine
 62
7
  6
CONTINUOUS
 10
9.6931289036
 20
-7.8236428794
 11
9.5900088499
 21
-7.729359241
  0
LINE
  5
427
100
AcDbEntity
  8
0
100
AcDbLine
 62
7
  6
CONTINUOUS
 10
9.2835955967
 20
-9.140229964
 11
9.3454674401
 21
-9.2106974029
  0
LINE
  5
428
100
AcDbEntity
  8
0
100
AcDbLine
 62
7
  6
CONTINUOUS
 10
9.4868887963
 20
-9.1290424842
 11
9.425016953
 21
-9.0585750454
  0
LINE
  5
429
100
AcDbEntity
  8
0
100
AcDbLine
 62
7
  6
CONTINUOUS
 10
9.2629719636
 20
-8.5376840616
 11
9.324843807
 21
-8.6081515004
  0
LINE
  5
42A
100
AcDbEntity
  8
0
100
AcDbLine
 62
7
  6
CONTINUOUS
 10
9.4662651632
 20
-8.5264965818
 11
9.4043933199
 21
-8.4560291429
  0
LINE
  5
42B
100
AcDbEntity
  8
0
100
AcDbLine
 62
7
  6
CONTINUOUS
 10
9.5310829702
 20
-8.0671064852
 11
9.4692111268
 21
-7.9966390464
  0
LINE
  5
42C
100
AcDbEntity
  8
0
100
AcDbLine
 62
253
  6
CONTINUOUS
 10
-21.1691361317
 20
35.860475148
 11
-20.8155827411
 21
35.3575284435
  0
LINE
  5
42D
100
AcDbEntity
  8
0
100
AcDbLine
 62
7
  6
CONTINUOUS
 10
9.2629719637
 20
-9.3020392175
 11
9.1598523821
 21
-9.1382690187
  0
LINE
  5
42E
100
AcDbEntity
  8
0
100
AcDbLine
 62
7
  6
CONTINUOUS
 10
9.2423483306
 20
-8.6994932938
 11
9.1392282769
 21
-8.5357228316
  0
LINE
  5
42F
100
AcDbEntity
  8
0
100
AcDbLine
 62
7
  6
CONTINUOUS
 10
9.5517075473
 20
-7.9052977981
 11
9.6548266569
 21
-8.0690677152
  0
LINE
  5
430
100
AcDbEntity
  8
0
100
AcDbLine
 62
7
  6
CONTINUOUS
 10
9.7962480131
 20
-7.9874127966
 11
9.6931289036
 21
-7.8236428794
  0
LWPOLYLINE
  5
431
100
AcDbEntity
  8
0
100
AcDbPolyline
 62
7
  6
CONTINUOUS
 90
21
 70
0
 10
15.0377794494
 20
-20.0467766445
 10
14.9090542536
 20
-19.8292032502
 10
14.7727824854
 20
-19.6213344039
 10
14.6289641449
 20
-19.4231701059
 10
14.4765517298
 20
-19.2335702157
 10
14.3165927424
 20
-19.0536748737
 10
14.1522296891
 20
-18.8869045006
 10
13.9833898818
 20
-18.7335127601
 10
13.8101460086
 20
-18.5932459885
 10
13.6358586406
 20
-18.4687636157
 10
13.4605115897
 20
-18.3603620053
 10
13.2841210439
 20
-18.2677447937
 10
13.1100961384
 20
-18.1926823198
 10
12.9384810957
 20
-18.1355024255
 10
12.7692316932
 20
-18.0958772689
 10
12.6056243989
 20
-18.0745936642
 10
12.4477614547
 20
-18.0719932348
 10
12.2955406187
 20
-18.0877343574
 10
12.1519316324
 20
-18.1215789752
 10
12.017087218
 20
-18.1738668976
 10
11.9586584883
 20
-18.203601934
  0
LINE
  5
432
100
AcDbEntity
  8
0
100
AcDbLine
 62
7
  6
CONTINUOUS
 10
7.5688618884
 20
-11.1207262446
 11
7.506990045
 21
-11.0155153939
  0
LINE
  5
433
100
AcDbEntity
  8
0
100
AcDbLine
 62
7
  6
CONTINUOUS
 10
9.2217237534
 20
-9.0350191134
 11
9.2835955967
 21
-9.140229964
  0
LINE
  5
434
100
AcDbEntity
  8
0
100
AcDbLine
 62
7
  6
CONTINUOUS
 10
9.425016953
 20
-9.0585750454
 11
9.3631451096
 21
-8.9533641947
  0
LINE
  5
435
100
AcDbEntity
  8
0
100
AcDbLine
 62
7
  6
CONTINUOUS
 10
9.2011001203
 20
-8.4324732109
 11
9.2629719636
 21
-8.5376840616
  0
LINE
  5
436
100
AcDbEntity
  8
0
100
AcDbLine
 62
7
  6
CONTINUOUS
 10
9.4043933199
 20
-8.4560291429
 11
9.3425214765
 21
-8.3508182922
  0
LINE
  5
437
100
AcDbEntity
  8
0
100
AcDbLine
 62
7
  6
CONTINUOUS
 10
9.5929548135
 20
-8.1723173359
 11
9.5310829702
 21
-8.0671064852
  0
LINE
  5
438
100
AcDbEntity
  8
0
100
AcDbLine
 62
7
  6
CONTINUOUS
 10
17.3842406533
 20
-21.0842490838
 11
19.092611664
 21
-24.0432344694
  0
LINE
  5
439
100
AcDbEntity
  8
0
100
AcDbLine
 62
253
  6
CONTINUOUS
 10
19.1395407165
 20
-24.0144238121
 11
17.43191624
 21
-21.0567314617
  0
LINE
  5
43A
100
AcDbEntity
  8
0
100
AcDbLine
 62
7
  6
CONTINUOUS
 10
6.5789125127
 20
-10.2711945869
 11
6.6614082252
 21
-10.4230568131
  0
LINE
  5
43B
100
AcDbEntity
  8
0
100
AcDbLine
 62
7
  6
CONTINUOUS
 10
6.8028295814
 20
-10.3414018944
 11
6.720333869
 21
-10.1895396683
  0
LINE
  5
43C
100
AcDbEntity
  8
0
100
AcDbLine
 62
253
  6
CONTINUOUS
 10
19.8591601373
 20
-35.0931927336
 11
20.1179791824
 21
-35.6509061998
  0
LINE
  5
43D
100
AcDbEntity
  8
0
100
AcDbLine
 62
7
  6
CONTINUOUS
 10
7.0532632725
 20
-12.0390456644
 11
6.970767442
 21
-11.8524399461
  0
LINE
  5
43E
100
AcDbEntity
  8
0
100
AcDbLine
 62
7
  6
CONTINUOUS
 10
6.5995363819
 20
-10.5263064337
 11
6.5582885256
 21
-10.4330036147
  0
LINE
  5
43F
100
AcDbEntity
  8
0
100
AcDbLine
 62
7
  6
CONTINUOUS
 10
7.6101098626
 20
-10.9360818366
 11
7.6926055751
 21
-11.1226874746
  0
LINE
  5
440
100
AcDbEntity
  8
0
100
AcDbLine
 62
7
  6
CONTINUOUS
 10
7.8340269313
 20
-11.041032556
 11
7.7515312189
 21
-10.8544269179
  0
LINE
  5
441
100
AcDbEntity
  8
0
100
AcDbLine
 62
7
  6
CONTINUOUS
 10
6.6614082252
 20
-10.4230568131
 11
6.7232800686
 21
-10.5977544876
  0
LINE
  5
442
100
AcDbEntity
  8
0
100
AcDbLine
 62
7
  6
CONTINUOUS
 10
6.8647014248
 20
-10.5160995689
 11
6.8028295814
 21
-10.3414018944
  0
LINE
  5
443
100
AcDbEntity
  8
0
100
AcDbLine
 62
7
  6
CONTINUOUS
 10
2.6220607377
 20
-4.668561738
 11
2.2714536647
 21
-3.6670270373
  0
LINE
  5
444
100
AcDbEntity
  8
0
100
AcDbLine
 62
7
  6
CONTINUOUS
 10
3.6120103493
 20
-5.2401462368
 11
3.2614031583
 21
-4.238611468
  0
LINE
  5
445
100
AcDbEntity
  8
0
100
AcDbLine
 62
7
  6
CONTINUOUS
 10
4.601959843
 20
-5.8117306675
 11
4.251352652
 21
-4.8101958987
  0
LINE
  5
446
100
AcDbEntity
  8
0
100
AcDbLine
 62
7
  6
CONTINUOUS
 10
2.9726679287
 20
-5.7048399187
 11
2.683932581
 21
-4.8780028244
  0
LINE
  5
447
100
AcDbEntity
  8
0
100
AcDbLine
 62
7
  6
CONTINUOUS
 10
2.3951973514
 20
-3.7384750912
 11
2.683932581
 21
-4.5653121174
  0
LINE
  5
448
100
AcDbEntity
  8
0
100
AcDbLine
 62
7
  6
CONTINUOUS
 10
2.7903587203
 20
-4.3834430989
 11
2.5366187076
 21
-3.6568201725
  0
LINE
  5
449
100
AcDbEntity
  8
0
100
AcDbLine
 62
7
  6
CONTINUOUS
 10
3.9626173043
 20
-6.2764242812
 11
3.6738821927
 21
-5.4495873232
  0
LINE
  5
44A
100
AcDbEntity
  8
0
100
AcDbLine
 62
7
  6
CONTINUOUS
 10
3.385146845
 20
-4.3100595218
 11
3.6738821927
 21
-5.1368966162
  0
LINE
  5
44B
100
AcDbEntity
  8
0
100
AcDbLine
 62
7
  6
CONTINUOUS
 10
3.7803082813
 20
-4.9550274853
 11
3.5265682013
 21
-4.2284046032
  0
LINE
  5
44C
100
AcDbEntity
  8
0
100
AcDbLine
 62
7
  6
CONTINUOUS
 10
4.952566798
 20
-6.8480087119
 11
4.6638316864
 21
-6.0211717538
  0
LINE
  5
44D
100
AcDbEntity
  8
0
100
AcDbLine
 62
7
  6
CONTINUOUS
 10
4.3750963387
 20
-4.8816439525
 11
4.6638316864
 21
-5.7084810468
  0
LINE
  5
44E
100
AcDbEntity
  8
0
100
AcDbLine
 62
7
  6
CONTINUOUS
 10
4.770257775
 20
-5.526611916
 11
4.5165176949
 21
-4.7999890338
  0
LINE
  5
44F
100
AcDbEntity
  8
0
100
AcDbLine
 62
7
  6
CONTINUOUS
 10
2.7458044244
 20
-4.7400097918
 11
3.0964116154
 21
-5.7762879725
  0
LINE
  5
450
100
AcDbEntity
  8
0
100
AcDbLine
 62
7
  6
CONTINUOUS
 10
3.2378329716
 20
-5.6946330539
 11
2.8872257806
 21
-4.6583548732
  0
LINE
  5
451
100
AcDbEntity
  8
0
100
AcDbLine
 62
7
  6
CONTINUOUS
 10
3.7357540361
 20
-5.3115942906
 11
4.086360991
 21
-6.347872335
  0
LINE
  5
452
100
AcDbEntity
  8
0
100
AcDbLine
 62
7
  6
CONTINUOUS
 10
4.2277823473
 20
-6.2662174164
 11
3.8771753923
 21
-5.229939372
  0
LINE
  5
453
100
AcDbEntity
  8
0
100
AcDbLine
 62
7
  6
CONTINUOUS
 10
4.7257035297
 20
-5.8831787213
 11
5.0763104847
 21
-6.9194567657
  0
LINE
  5
454
100
AcDbEntity
  8
0
100
AcDbLine
 62
7
  6
CONTINUOUS
 10
5.2177318409
 20
-6.837801847
 11
4.867124886
 21
-5.8015238026
  0
LINE
  5
455
100
AcDbEntity
  8
0
100
AcDbLine
 62
7
  6
CONTINUOUS
 10
5.4239713987
 20
-10.716135389
 11
5.3827235019
 21
-10.5880891347
  0
LINE
  5
456
100
AcDbEntity
  8
0
100
AcDbLine
 62
7
  6
CONTINUOUS
 10
7.0532632724
 20
-11.7263549209
 11
7.0945111287
 21
-11.8544011518
  0
LINE
  5
457
100
AcDbEntity
  8
0
100
AcDbLine
 62
7
  6
CONTINUOUS
 10
7.2359324849
 20
-11.7727462331
 11
7.1946846287
 21
-11.6447000022
  0
LINE
  5
458
100
AcDbEntity
  8
0
100
AcDbLine
 62
7
  6
CONTINUOUS
 10
8.2700762704
 20
-11.6645723854
 11
8.3113240086
 21
-11.7926185482
  0
LINE
  5
459
100
AcDbEntity
  8
0
100
AcDbLine
 62
7
  6
CONTINUOUS
 10
8.4527453649
 20
-11.7109636295
 11
8.4114976267
 21
-11.5829174667
  0
LINE
  5
45A
100
AcDbEntity
  8
0
100
AcDbLine
 62
7
  6
CONTINUOUS
 10
6.970767442
 20
-11.8524399461
 11
6.9295195857
 21
-11.689650279
  0
LINE
  5
45B
100
AcDbEntity
  8
0
100
AcDbLine
 62
7
  6
CONTINUOUS
 10
6.620160369
 20
-10.6424447011
 11
6.5995363819
 21
-10.5263064337
  0
LINE
  5
45C
100
AcDbEntity
  8
0
100
AcDbLine
 62
7
  6
CONTINUOUS
 10
6.7232800686
 20
-10.5977544876
 11
6.7439040557
 21
-10.7138927549
  0
LINE
  5
45D
100
AcDbEntity
  8
0
100
AcDbLine
 62
7
  6
CONTINUOUS
 10
6.8853254119
 20
-10.6322378363
 11
6.8647014248
 21
-10.5160995689
  0
LINE
  5
45E
100
AcDbEntity
  8
0
100
AcDbLine
 62
7
  6
CONTINUOUS
 10
9.7579467105
 20
-8.4412987461
 11
9.7785703436
 21
-8.6964104566
  0
LINE
  5
45F
100
AcDbEntity
  8
0
100
AcDbLine
 62
7
  6
CONTINUOUS
 10
9.9199916998
 20
-8.614755538
 11
9.8993680667
 21
-8.3596438275
  0
LINE
  5
460
100
AcDbEntity
  8
0
100
AcDbLine
 62
7
  6
CONTINUOUS
 10
7.0583104014
 20
17.4630149591
 11
7.0566787835
 21
17.521342563
  0
LWPOLYLINE
  5
461
100
AcDbEntity
  8
0
100
AcDbPolyline
 62
7
  6
CONTINUOUS
 90
6
 70
0
 10
5.8979481589
 20
18.6859935556
 10
5.9047606965
 20
18.2953017517
 10
5.8863588575
 20
17.8732593076
 10
5.8419216189
 20
17.4696340917
 10
5.7710289531
 20
17.0838001452
 10
5.6741008877
 20
16.7163834269
  0
LINE
  5
462
100
AcDbEntity
  8
0
100
AcDbLine
 62
7
  6
CONTINUOUS
 10
5.2413021457
 20
-6.4240828321
 11
5.2413021457
 21
-6.250365724
  0
LINE
  5
463
100
AcDbEntity
  8
0
100
AcDbLine
 62
7
  6
CONTINUOUS
 10
5.5300372573
 20
-6.4170777587
 11
5.5300372573
 21
-6.5907948668
  0
LINE
  5
464
100
AcDbEntity
  8
0
100
AcDbLine
 62
7
  6
CONTINUOUS
 10
5.6714586135
 20
-6.33542284
 11
5.6714586135
 21
-6.5091399482
  0
LINE
  5
465
100
AcDbEntity
  8
0
100
AcDbLine
 62
7
  6
CONTINUOUS
 10
5.6950291543
 20
-6.790289356
 11
5.6950291543
 21
-6.581828836
  0
LINE
  5
466
100
AcDbEntity
  8
0
100
AcDbLine
 62
7
  6
CONTINUOUS
 10
5.9808180073
 20
-11.5240594571
 11
5.9808180073
 21
-9.8911189035
  0
LINE
  5
467
100
AcDbEntity
  8
0
100
AcDbLine
 62
7
  6
CONTINUOUS
 10
6.104561694
 20
-10.1362840168
 11
6.104561694
 21
-10.6574352925
  0
LINE
  5
468
100
AcDbEntity
  8
0
100
AcDbLine
 62
7
  6
CONTINUOUS
 10
6.104561694
 20
-10.8658957639
 11
6.104561694
 21
-11.5955075109
  0
LINE
  5
469
100
AcDbEntity
  8
0
100
AcDbLine
 62
7
  6
CONTINUOUS
 10
6.1900039011
 20
-7.5624893865
 11
6.1900039011
 21
-7.0760815713
  0
LINE
  5
46A
100
AcDbEntity
  8
0
100
AcDbLine
 62
7
  6
CONTINUOUS
 10
6.1900039011
 20
-6.8676210513
 11
6.1900039011
 21
-6.207496128
  0
LINE
  5
46B
100
AcDbEntity
  8
0
100
AcDbLine
 62
7
  6
CONTINUOUS
 10
6.2459830503
 20
-10.2179389355
 11
6.2459830503
 21
-10.5757803738
  0
LINE
  5
46C
100
AcDbEntity
  8
0
100
AcDbLine
 62
7
  6
CONTINUOUS
 10
6.2459830503
 20
-10.9475506825
 11
6.2459830503
 21
-11.5138525923
  0
LINE
  5
46D
100
AcDbEntity
  8
0
100
AcDbLine
 62
7
  6
CONTINUOUS
 10
6.3137475878
 20
-6.0009968867
 11
6.3137475878
 21
-6.9390691051
  0
LINE
  5
46E
100
AcDbEntity
  8
0
100
AcDbLine
 62
7
  6
CONTINUOUS
 10
6.3137475878
 20
-7.1475296252
 11
6.3137475878
 21
-7.6339374403
  0
LINE
  5
46F
100
AcDbEntity
  8
0
100
AcDbLine
 62
7
  6
CONTINUOUS
 10
6.455168944
 20
-5.9193419681
 11
6.455168944
 21
-6.8574141865
  0
LINE
  5
470
100
AcDbEntity
  8
0
100
AcDbLine
 62
7
  6
CONTINUOUS
 10
6.455168944
 20
-7.2291845438
 11
6.455168944
 21
-7.5522825216
  0
LINE
  5
471
100
AcDbEntity
  8
0
100
AcDbLine
 62
7
  6
CONTINUOUS
 10
6.519986751
 20
-7.0581490132
 11
6.519986751
 21
-7.2666095332
  0
LINE
  5
472
100
AcDbEntity
  8
0
100
AcDbLine
 62
7
  6
CONTINUOUS
 10
6.620160369
 20
-10.7466750341
 11
6.620160369
 21
-10.6424447011
  0
LINE
  5
473
100
AcDbEntity
  8
0
100
AcDbLine
 62
7
  6
CONTINUOUS
 10
6.6614081072
 20
-6.9764940945
 11
6.6614081072
 21
-7.1849546145
  0
LINE
  5
474
100
AcDbEntity
  8
0
100
AcDbLine
 62
7
  6
CONTINUOUS
 10
6.6849786479
 20
-7.257643551
 11
6.6849786479
 21
-7.0839264428
  0
LINE
  5
475
100
AcDbEntity
  8
0
100
AcDbLine
 62
7
  6
CONTINUOUS
 10
6.7439040557
 20
-10.7138927549
 11
6.7439040557
 21
-10.8528664998
  0
LINE
  5
476
100
AcDbEntity
  8
0
100
AcDbLine
 62
7
  6
CONTINUOUS
 10
6.8853254119
 20
-10.6322378363
 11
6.8853254119
 21
-10.7712115812
  0
LINE
  5
477
100
AcDbEntity
  8
0
100
AcDbLine
 62
7
  6
CONTINUOUS
 10
6.9088955986
 20
-11.5040251878
 11
6.9088955986
 21
-10.9828739608
  0
LINE
  5
478
100
AcDbEntity
  8
0
100
AcDbLine
 62
7
  6
CONTINUOUS
 10
6.9737137596
 20
-7.2506384776
 11
6.9737137596
 21
-7.4243555857
  0
LINE
  5
479
100
AcDbEntity
  8
0
100
AcDbLine
 62
7
  6
CONTINUOUS
 10
7.0326392853
 20
-11.0543220146
 11
7.0326392853
 21
-11.5754732417
  0
LINE
  5
47A
100
AcDbEntity
  8
0
100
AcDbLine
 62
7
  6
CONTINUOUS
 10
7.1151351158
 20
-7.1689835589
 11
7.1151351158
 21
-7.3427006671
  0
LINE
  5
47B
100
AcDbEntity
  8
0
100
AcDbLine
 62
7
  6
CONTINUOUS
 10
7.1387051845
 20
-7.6238498023
 11
7.1387051845
 21
-7.4153892823
  0
LINE
  5
47C
100
AcDbEntity
  8
0
100
AcDbLine
 62
7
  6
CONTINUOUS
 10
7.1740606416
 20
-10.9726670959
 11
7.1740606416
 21
-11.493818323
  0
LINE
  5
47D
100
AcDbEntity
  8
0
100
AcDbLine
 62
7
  6
CONTINUOUS
 10
7.6336799313
 20
-8.3960498328
 11
7.6336799313
 21
-7.9096420177
  0
LINE
  5
47E
100
AcDbEntity
  8
0
100
AcDbLine
 62
7
  6
CONTINUOUS
 10
7.6336799313
 20
-7.7011814976
 11
7.6336799313
 21
-7.0410565744
  0
LINE
  5
47F
100
AcDbEntity
  8
0
100
AcDbLine
 62
7
  6
CONTINUOUS
 10
7.757423618
 20
-6.8345573331
 11
7.757423618
 21
-7.7726295515
  0
LINE
  5
480
100
AcDbEntity
  8
0
100
AcDbLine
 62
7
  6
CONTINUOUS
 10
7.757423618
 20
-7.9810900715
 11
7.757423618
 21
-8.4674978867
  0
LINE
  5
481
100
AcDbEntity
  8
0
100
AcDbLine
 62
7
  6
CONTINUOUS
 10
7.8988449743
 20
-6.7529024144
 11
7.8988449743
 21
-7.6909746328
  0
LINE
  5
482
100
AcDbEntity
  8
0
100
AcDbLine
 62
7
  6
CONTINUOUS
 10
7.8988449743
 20
-8.0627449902
 11
7.8988449743
 21
-8.385842968
  0
LINE
  5
483
100
AcDbEntity
  8
0
100
AcDbLine
 62
7
  6
CONTINUOUS
 10
7.9636632532
 20
-7.8917097321
 11
7.9636632532
 21
-8.1001702521
  0
LINE
  5
484
100
AcDbEntity
  8
0
100
AcDbLine
 62
7
  6
CONTINUOUS
 10
8.1050846095
 20
-7.8100548134
 11
8.1050846095
 21
-8.0185153334
  0
LINE
  5
485
100
AcDbEntity
  8
0
100
AcDbLine
 62
7
  6
CONTINUOUS
 10
8.1286546782
 20
-7.222618554
 11
8.1286546782
 21
-7.0489014946
  0
LINE
  5
486
100
AcDbEntity
  8
0
100
AcDbLine
 62
7
  6
CONTINUOUS
 10
8.8711167984
 20
-7.4775898176
 11
8.8711167984
 21
-7.651306877
  0
LINE
  5
487
100
AcDbEntity
  8
0
100
AcDbLine
 62
7
  6
CONTINUOUS
 10
9.0125381546
 20
-7.3959348989
 11
9.0125381546
 21
-7.5696519583
  0
LINE
  5
488
100
AcDbEntity
  8
0
100
AcDbLine
 62
7
  6
CONTINUOUS
 10
9.0361086954
 20
-8.1634921705
 11
9.0361086954
 21
-8.024518523
  0
LINE
  5
489
100
AcDbEntity
  8
0
100
AcDbLine
 62
7
  6
CONTINUOUS
 10
9.1392282769
 20
-8.1188018889
 11
9.1392282769
 21
-8.1882887127
  0
LINE
  5
48A
100
AcDbEntity
  8
0
100
AcDbLine
 62
7
  6
CONTINUOUS
 10
9.2806496332
 20
-8.0371469702
 11
9.2806496332
 21
-8.106633794
  0
LWPOLYLINE
  5
48B
100
AcDbEntity
  8
0
100
AcDbPolyline
 62
7
  6
CONTINUOUS
 90
4
 70
0
 10
6.5955371825
 20
17.9920917269
 10
6.579656505
 20
17.6273503809
 10
6.5309730463
 20
17.1847996573
 10
6.5130906843
 20
17.0874041149
  0
LINE
  5
48C
100
AcDbEntity
  8
0
100
AcDbLine
 62
7
  6
CONTINUOUS
 10
6.9088955986
 20
-10.9828739608
 11
6.9295195857
 21
-10.8210648357
  0
LINE
  5
48D
100
AcDbEntity
  8
0
100
AcDbLine
 62
7
  6
CONTINUOUS
 10
7.7132296802
 20
-12.1074112534
 11
7.6926055751
 21
-12.2692202374
  0
LINE
  5
48E
100
AcDbEntity
  8
0
100
AcDbLine
 62
7
  6
CONTINUOUS
 10
7.8340269313
 20
-12.1875653187
 11
7.8546510365
 21
-12.0257563348
  0
LINE
  5
48F
100
AcDbEntity
  8
0
100
AcDbLine
 62
7
  6
CONTINUOUS
 10
7.0532632724
 20
-10.9272563987
 11
7.0326392853
 21
-11.0543220146
  0
LINE
  5
490
100
AcDbEntity
  8
0
100
AcDbLine
 62
7
  6
CONTINUOUS
 10
7.1740606416
 20
-10.9726670959
 11
7.1946846287
 21
-10.8456014801
  0
LINE
  5
491
100
AcDbEntity
  8
0
100
AcDbLine
 62
7
  6
CONTINUOUS
 10
6.5995363819
 20
-10.8389972381
 11
6.620160369
 21
-10.7466750341
  0
LINE
  5
492
100
AcDbEntity
  8
0
100
AcDbLine
 62
7
  6
CONTINUOUS
 10
6.7439040557
 20
-10.8528664998
 11
6.7232800686
 21
-10.9451887038
  0
LINE
  5
493
100
AcDbEntity
  8
0
100
AcDbLine
 62
7
  6
CONTINUOUS
 10
6.8647014248
 20
-10.8635337852
 11
6.8853254119
 21
-10.7712115812
  0
LWPOLYLINE
  5
494
100
AcDbEntity
  8
0
100
AcDbPolyline
 62
7
  6
CONTINUOUS
 90
19
 70
0
 10
3.2744775422
 20
-10.0996611376
 10
3.3252667738
 20
-9.9928028392
 10
3.3649801554
 20
-9.8773681257
 10
3.3936176869
 20
-9.7533569969
 10
3.4111957995
 20
-9.6196699364
 10
3.4176980621
 20
-9.4774064607
 10
3.4130751814
 20
-9.3298651191
 10
3.3970937032
 20
-9.1769318232
 10
3.3699870816
 20
-9.0187206615
 10
3.3324063863
 20
-8.8588724485
 10
3.2841281381
 20
-8.6973521576
 10
3.225375816
 20
-8.5341948155
 10
3.1574709271
 20
-8.3731463167
 10
3.0802085656
 20
-8.2142370366
 10
2.9937936372
 20
-8.0574365999
 10
2.9001623664
 20
-7.9063997754
 10
2.7999601611
 20
-7.7623448195
 10
2.6925416134
 20
-7.6240534758
 10
2.5779067232
 20
-7.4915257443
  0
LINE
  5
495
100
AcDbEntity
  8
0
100
AcDbLine
 62
7
  6
CONTINUOUS
 10
5.3827235019
 20
-10.1016813196
 11
5.4239713987
 21
-10.0212671025
  0
LINE
  5
496
100
AcDbEntity
  8
0
100
AcDbLine
 62
7
  6
CONTINUOUS
 10
3.2614031583
 20
-5.8715520216
 11
3.6120103493
 21
-5.2401462368
  0
LINE
  5
497
100
AcDbEntity
  8
0
100
AcDbLine
 62
7
  6
CONTINUOUS
 10
4.251352652
 20
-6.4431364523
 11
4.601959843
 21
-5.8117306675
  0
LINE
  5
498
100
AcDbEntity
  8
0
100
AcDbLine
 62
7
  6
CONTINUOUS
 10
0.4721305359
 20
-15.1159273255
 11
3.2744775422
 21
-10.0996611376
  0
LINE
  5
499
100
AcDbEntity
  8
0
100
AcDbLine
 62
7
  6
CONTINUOUS
 10
3.6738821927
 20
-5.1368966162
 11
3.9626173043
 21
-4.6434837276
  0
LINE
  5
49A
100
AcDbEntity
  8
0
100
AcDbLine
 62
7
  6
CONTINUOUS
 10
3.6738821927
 20
-5.4495873232
 11
3.385146845
 21
-5.9430000754
  0
LINE
  5
49B
100
AcDbEntity
  8
0
100
AcDbLine
 62
7
  6
CONTINUOUS
 10
3.5265682013
 20
-5.8613451568
 11
3.7088774025
 21
-5.5498014352
  0
LINE
  5
49C
100
AcDbEntity
  8
0
100
AcDbLine
 62
7
  6
CONTINUOUS
 10
4.6638316864
 20
-5.7084810468
 11
4.952566798
 21
-5.2150681583
  0
LINE
  5
49D
100
AcDbEntity
  8
0
100
AcDbLine
 62
7
  6
CONTINUOUS
 10
4.6638316864
 20
-6.0211717538
 11
4.3750963387
 21
-6.5145845061
  0
LINE
  5
49E
100
AcDbEntity
  8
0
100
AcDbLine
 62
7
  6
CONTINUOUS
 10
4.5165176949
 20
-6.4329295874
 11
4.6988268962
 21
-6.1213858659
  0
LINE
  5
49F
100
AcDbEntity
  8
0
100
AcDbLine
 62
7
  6
CONTINUOUS
 10
4.086360991
 20
-4.7149317815
 11
3.7357540361
 21
-5.3115942906
  0
LINE
  5
4A0
100
AcDbEntity
  8
0
100
AcDbLine
 62
7
  6
CONTINUOUS
 10
3.8771753923
 20
-5.229939372
 11
4.2277823473
 21
-4.6332768628
  0
LINE
  5
4A1
100
AcDbEntity
  8
0
100
AcDbLine
 62
7
  6
CONTINUOUS
 10
5.0763104847
 20
-5.2865162121
 11
4.7257035297
 21
-5.8831787213
  0
LINE
  5
4A2
100
AcDbEntity
  8
0
100
AcDbLine
 62
7
  6
CONTINUOUS
 10
4.867124886
 20
-5.8015238026
 11
5.2177318409
 21
-5.2048612935
  0
LINE
  5
4A3
100
AcDbEntity
  8
0
100
AcDbLine
 62
7
  6
CONTINUOUS
 10
5.6950291543
 20
-6.581828836
 11
6.1900039011
 21
-5.9295488329
  0
LINE
  5
4A4
100
AcDbEntity
  8
0
100
AcDbLine
 62
7
  6
CONTINUOUS
 10
6.1900039011
 20
-6.207496128
 11
5.8393964741
 21
-6.6651847171
  0
LINE
  5
4A5
100
AcDbEntity
  8
0
100
AcDbLine
 62
7
  6
CONTINUOUS
 10
5.9808178303
 20
-6.5835297984
 11
6.1900039011
 21
-6.3104549283
  0
LWPOLYLINE
  5
4A6
100
AcDbEntity
  8
0
100
AcDbPolyline
 62
253
  6
CONTINUOUS
 90
3
 70
0
 10
-9.1546388046
 20
-19.5542982641
 10
-9.2140544858
 20
-19.6211469499
 10
-9.2831198861
 20
-19.6802917075
  0
LINE
  5
4A7
100
AcDbEntity
  8
0
100
AcDbLine
 62
7
  6
CONTINUOUS
 10
3.0964116154
 20
-4.1433474189
 11
3.2378329716
 21
-4.0616925003
  0
LINE
  5
4A8
100
AcDbEntity
  8
0
100
AcDbLine
 62
7
  6
CONTINUOUS
 10
3.2614031583
 20
-4.238611468
 11
3.4028245146
 21
-4.1569565493
  0
LINE
  5
4A9
100
AcDbEntity
  8
0
100
AcDbLine
 62
7
  6
CONTINUOUS
 10
3.385146845
 20
-4.3100595218
 11
3.5265682013
 21
-4.2284046032
  0
LINE
  5
4AA
100
AcDbEntity
  8
0
100
AcDbLine
 62
7
  6
CONTINUOUS
 10
2.7458044244
 20
-4.7400097918
 11
2.8872257806
 21
-4.6583548732
  0
LINE
  5
4AB
100
AcDbEntity
  8
0
100
AcDbLine
 62
7
  6
CONTINUOUS
 10
2.1064620627
 20
-5.2047035078
 11
2.247883419
 21
-5.1230485891
  0
LINE
  5
4AC
100
AcDbEntity
  8
0
100
AcDbLine
 62
7
  6
CONTINUOUS
 10
2.3951973514
 20
-5.3714156448
 11
2.5366187076
 21
-5.2897607261
  0
LINE
  5
4AD
100
AcDbEntity
  8
0
100
AcDbLine
 62
7
  6
CONTINUOUS
 10
3.9626173043
 20
-4.6434837276
 11
4.1040386606
 21
-4.561828809
  0
LINE
  5
4AE
100
AcDbEntity
  8
0
100
AcDbLine
 62
7
  6
CONTINUOUS
 10
4.086360991
 20
-4.7149317815
 11
4.2277823473
 21
-4.6332768628
  0
LINE
  5
4AF
100
AcDbEntity
  8
0
100
AcDbLine
 62
7
  6
CONTINUOUS
 10
4.251352652
 20
-4.8101958987
 11
4.3927740082
 21
-4.72854098
  0
LINE
  5
4B0
100
AcDbEntity
  8
0
100
AcDbLine
 62
7
  6
CONTINUOUS
 10
4.3750963387
 20
-4.8816439525
 11
4.5165176949
 21
-4.7999890338
  0
LINE
  5
4B1
100
AcDbEntity
  8
0
100
AcDbLine
 62
7
  6
CONTINUOUS
 10
3.7357540361
 20
-5.3115942906
 11
3.8771753923
 21
-5.229939372
  0
LINE
  5
4B2
100
AcDbEntity
  8
0
100
AcDbLine
 62
7
  6
CONTINUOUS
 10
3.0964116154
 20
-5.7762879725
 11
3.2378329716
 21
-5.6946330539
  0
LINE
  5
4B3
100
AcDbEntity
  8
0
100
AcDbLine
 62
7
  6
CONTINUOUS
 10
3.385146845
 20
-5.9430000754
 11
3.5265682013
 21
-5.8613451568
  0
LINE
  5
4B4
100
AcDbEntity
  8
0
100
AcDbLine
 62
7
  6
CONTINUOUS
 10
4.952566798
 20
-5.2150681583
 11
5.0939881542
 21
-5.1334132396
  0
LINE
  5
4B5
100
AcDbEntity
  8
0
100
AcDbLine
 62
7
  6
CONTINUOUS
 10
5.0763104847
 20
-5.2865162121
 11
5.2177318409
 21
-5.2048612935
  0
LINE
  5
4B6
100
AcDbEntity
  8
0
100
AcDbLine
 62
7
  6
CONTINUOUS
 10
4.7257035297
 20
-5.8831787213
 11
4.867124886
 21
-5.8015238026
  0
LINE
  5
4B7
100
AcDbEntity
  8
0
100
AcDbLine
 62
7
  6
CONTINUOUS
 10
4.086360991
 20
-6.347872335
 11
4.2277823473
 21
-6.2662174164
  0
LINE
  5
4B8
100
AcDbEntity
  8
0
100
AcDbLine
 62
7
  6
CONTINUOUS
 10
4.3750963387
 20
-6.5145845061
 11
4.5165176949
 21
-6.4329295874
  0
LINE
  5
4B9
100
AcDbEntity
  8
0
100
AcDbLine
 62
7
  6
CONTINUOUS
 10
5.2413021457
 20
-6.250365724
 11
5.3827235019
 21
-6.1687108053
  0
LINE
  5
4BA
100
AcDbEntity
  8
0
100
AcDbLine
 62
7
  6
CONTINUOUS
 10
6.1900039011
 20
-5.9295488329
 11
6.3314252573
 21
-5.8478939142
  0
LINE
  5
4BB
100
AcDbEntity
  8
0
100
AcDbLine
 62
7
  6
CONTINUOUS
 10
5.5300372573
 20
-6.4170777587
 11
5.6714586135
 21
-6.33542284
  0
LINE
  5
4BC
100
AcDbEntity
  8
0
100
AcDbLine
 62
7
  6
CONTINUOUS
 10
6.3137475878
 20
-6.0009968867
 11
6.455168944
 21
-5.9193419681
  0
LINE
  5
4BD
100
AcDbEntity
  8
0
100
AcDbLine
 62
7
  6
CONTINUOUS
 10
5.5300372573
 20
-6.5907948668
 11
5.6714586135
 21
-6.5091399482
  0
LINE
  5
4BE
100
AcDbEntity
  8
0
100
AcDbLine
 62
7
  6
CONTINUOUS
 10
5.0763104847
 20
-6.9194567657
 11
5.2177318409
 21
-6.837801847
  0
LINE
  5
4BF
100
AcDbEntity
  8
0
100
AcDbLine
 62
7
  6
CONTINUOUS
 10
5.8393964741
 20
-6.6651847171
 11
5.9808178303
 21
-6.5835297984
  0
LINE
  5
4C0
100
AcDbEntity
  8
0
100
AcDbLine
 62
7
  6
CONTINUOUS
 10
6.3137475878
 20
-6.9390691051
 11
6.455168944
 21
-6.8574141865
  0
LINE
  5
4C1
100
AcDbEntity
  8
0
100
AcDbLine
 62
7
  6
CONTINUOUS
 10
6.519986751
 20
-7.0581490132
 11
6.6614081072
 21
-6.9764940945
  0
LINE
  5
4C2
100
AcDbEntity
  8
0
100
AcDbLine
 62
7
  6
CONTINUOUS
 10
6.6849786479
 20
-7.0839264428
 11
6.8264000042
 21
-7.0022715242
  0
LINE
  5
4C3
100
AcDbEntity
  8
0
100
AcDbLine
 62
253
  6
CONTINUOUS
 10
2.5779188301
 20
-7.49150116
 11
-7.3902500375
 21
-12.8183260803
  0
LWPOLYLINE
  5
4C4
100
AcDbEntity
  8
0
100
AcDbPolyline
 62
7
  6
CONTINUOUS
 90
12
 70
0
 10
14.5210748671
 20
-2.3493268711
 10
14.825106325
 20
-2.1981296049
 10
15.1449470466
 20
-2.0837579136
 10
15.480597032
 20
-2.0062117975
 10
15.8339553508
 20
-1.9654697052
 10
16.2031229334
 20
-1.961553188
 10
16.5824025711
 20
-1.9945268993
 10
16.9720411798
 20
-2.0651105885
 10
17.3717918437
 20
-2.1725845064
 10
17.7752166056
 20
-2.3148540579
 10
18.1815867566
 20
-2.4919395174
 10
18.525713172
 20
-2.6697590607
  0
LWPOLYLINE
  5
4C5
100
AcDbEntity
  8
0
100
AcDbPolyline
 62
7
  6
CONTINUOUS
 90
13
 70
0
 10
14.7108045228
 20
-3.0862031399
 10
14.9882681025
 20
-2.9482848059
 10
15.2800517652
 20
-2.8439498168
 10
15.5861555107
 20
-2.7731981726
 10
15.9082683315
 20
-2.7360197866
 10
16.2447012351
 20
-2.7324247456
 10
16.5903872447
 20
-2.7624433097
 10
16.945629159
 20
-2.826735491
 10
17.3101241793
 20
-2.9246412776
 10
17.6778969318
 20
-3.054210894
 10
18.0482196509
 20
-3.2154438609
 10
18.4218201022
 20
-3.4083406577
 10
18.7779633008
 20
-3.6208434863
  0
LINE
  5
4C6
100
AcDbEntity
  8
0
100
AcDbLine
 62
7
  6
CONTINUOUS
 10
17.7995382313
 20
-0.3033693168
 11
16.1788006444
 21
-1.078918473
  0
LWPOLYLINE
  5
4C7
100
AcDbEntity
  8
0
100
AcDbPolyline
 62
7
  6
CONTINUOUS
 90
5
 70
0
 10
-12.7306134268
 20
6.9738742204
 10
-12.8355673376
 20
6.9599568505
 10
-12.9332277471
 20
6.9333094237
 10
-13.0235946554
 20
6.8939319402
 10
-13.0913831499
 20
6.8526514285
  0
LINE
  5
4C8
100
AcDbEntity
  8
0
100
AcDbLine
 62
7
  6
CONTINUOUS
 10
-7.1394878858
 20
7.3241742989
 11
-12.7306134268
 21
6.9738742204
  0
LWPOLYLINE
  5
4C9
100
AcDbEntity
  8
0
100
AcDbPolyline
 62
7
  6
CONTINUOUS
 90
12
 70
0
 10
18.6036351204
 20
-2.9559788198
 10
18.2183788644
 20
-2.7553706085
 10
17.8253980611
 20
-2.5826869152
 10
17.4347971401
 20
-2.4436439331
 10
17.0473342949
 20
-2.3381817857
 10
16.6695555044
 20
-2.2686087864
 10
16.3017266503
 20
-2.2357064112
 10
15.9435818509
 20
-2.238693184
 10
15.6008694395
 20
-2.2775329899
 10
15.2755055273
 20
-2.3522137908
 10
14.9655740032
 20
-2.4627476248
 10
14.6710748671
 20
-2.609134492
  0
LWPOLYLINE
  5
4CA
100
AcDbEntity
  8
0
100
AcDbPolyline
 62
7
  6
CONTINUOUS
 90
10
 70
0
 10
9.0596787641
 20
2.4350087535
 10
9.2867345886
 20
2.3151088864
 10
9.5092110879
 20
2.217995005
 10
9.7271082621
 20
2.1436671093
 10
9.9417366032
 20
2.0920091289
 10
10.1517856191
 20
2.0631371342
 10
10.3533238336
 20
2.0573993367
 10
10.5462977454
 20
2.0753392533
 10
10.7307608558
 20
2.1164133671
 10
10.7839258205
 20
2.1358432142
  0
LWPOLYLINE
  5
4CB
100
AcDbEntity
  8
0
100
AcDbPolyline
 62
7
  6
CONTINUOUS
 90
6
 70
0
 10
18.348787264
 20
-2.0359869844
 10
18.0749195044
 20
-1.8666368643
 10
17.6193461807
 20
-1.6195142883
 10
17.1642495483
 20
-1.4070350194
 10
16.7136457071
 20
-1.2313256972
 10
16.2666381026
 20
-1.092388191
  0
LWPOLYLINE
  5
4CC
100
AcDbEntity
  8
0
100
AcDbPolyline
 62
253
  6
CONTINUOUS
 90
6
 70
0
 10
-17.3320923668
 20
19.736679007
 10
-17.3289476854
 20
19.7346324457
 10
-17.31828668
 20
19.7317764428
 10
-17.3047446585
 20
19.7329559233
 10
-17.2885487445
 20
19.738151105
 10
-17.2699705721
 20
19.7472748556
  0
LINE
  5
4CD
100
AcDbEntity
  8
0
100
AcDbLine
 62
7
  6
CONTINUOUS
 10
-17.2997272869
 20
19.7144663623
 11
-17.3320923668
 21
19.736679007
  0
LWPOLYLINE
  5
4CE
100
AcDbEntity
  8
0
100
AcDbPolyline
 62
253
  6
CONTINUOUS
 90
3
 70
0
 10
-17.2699705721
 20
19.7472748556
 10
-17.2413607241
 20
19.7273164745
 10
-17.2113529959
 20
19.710969792
  0
LINE
  5
4CF
100
AcDbEntity
  8
0
100
AcDbLine
 62
253
  6
CONTINUOUS
 10
-16.7849301645
 20
20.0272769797
 11
-18.315771394
 21
21.2114288028
  0
LINE
  5
4D0
100
AcDbEntity
  8
0
100
AcDbLine
 62
253
  6
CONTINUOUS
 10
-16.5151936003
 20
20.3368308425
 11
-18.0460348298
 21
21.5209826655
  0
LWPOLYLINE
  5
4D1
100
AcDbEntity
  8
0
100
AcDbPolyline
 62
7
  6
CONTINUOUS
 90
15
 70
0
 10
-20.7944035006
 20
25.8275502506
 10
-21.0289027947
 20
26.0263123485
 10
-21.2639443663
 20
26.2043650196
 10
-21.4995282154
 20
26.3617082641
 10
-21.7370199648
 20
26.4989718327
 10
-21.9750539918
 20
26.6155259747
 10
-22.2095334272
 20
26.7094814374
 10
-22.4403890739
 20
26.7804605545
 10
-22.6676901291
 20
26.8288409923
 10
-22.8875473159
 20
26.8538664971
 10
-23.0998344229
 20
26.8551502613
 10
-23.3046776613
 20
26.8330790927
 10
-23.4985663888
 20
26.7880571602
 10
-23.6813188454
 20
26.7197037537
 10
-23.7864244397
 20
26.6672897433
  0
LINE
  5
4D2
100
AcDbEntity
  8
0
100
AcDbLine
 62
7
  6
CONTINUOUS
 10
-29.0140390122
 20
36.1054779329
 11
-28.4676288507
 21
35.6209331079
  0
LINE
  5
4D3
100
AcDbEntity
  8
0
100
AcDbLine
 62
253
  6
CONTINUOUS
 10
17.9014636846
 20
-20.7856730514
 11
19.6017539287
 21
-23.7306621389
  0
LINE
  5
4D4
100
AcDbEntity
  8
0
100
AcDbLine
 62
253
  6
CONTINUOUS
 10
18.2598706587
 20
-20.5787500932
 11
19.8591601373
 21
-23.3488007233
  0
LINE
  5
4D5
100
AcDbEntity
  8
0
100
AcDbLine
 62
7
  6
CONTINUOUS
 10
-7.5902996312
 20
25.2416729187
 11
-9.7378890851
 21
28.9614069626
  0
LWPOLYLINE
  5
4D6
100
AcDbEntity
  8
0
100
AcDbPolyline
 62
253
  6
CONTINUOUS
 90
10
 70
0
 10
17.9014636845
 20
-20.7856730513
 10
17.894075512
 20
-20.772236263
 10
17.8872609783
 20
-20.7585145224
 10
17.8810378907
 20
-20.7445436864
 10
17.8754225111
 20
-20.730360263
 10
17.8704295133
 20
-20.7160013155
 10
17.8660719448
 20
-20.701504366
 10
17.8623611925
 20
-20.6869072972
 10
17.8593069533
 20
-20.6722482533
 10
17.8569172081
 20
-20.6575655406
  0
LINE
  5
4D7
100
AcDbEntity
  8
0
100
AcDbLine
 62
7
  6
CONTINUOUS
 10
17.3720308429
 20
-21.0607659481
 11
17.38424066
 21
-21.0842490828
  0
LINE
  5
4D8
100
AcDbEntity
  8
0
100
AcDbLine
 62
7
  6
CONTINUOUS
 10
9.1598523821
 20
-9.1382690187
 11
9.0979805387
 21
-8.9635713321
  0
LINE
  5
4D9
100
AcDbEntity
  8
0
100
AcDbLine
 62
7
  6
CONTINUOUS
 10
9.1392282769
 20
-8.5357228316
 11
9.0773564336
 21
-8.3610251571
  0
LINE
  5
4DA
100
AcDbEntity
  8
0
100
AcDbLine
 62
7
  6
CONTINUOUS
 10
9.6548266569
 20
-8.0690677152
 11
9.7166985002
 21
-8.2437653897
  0
LINE
  5
4DB
100
AcDbEntity
  8
0
100
AcDbLine
 62
7
  6
CONTINUOUS
 10
9.8581198565
 20
-8.162110471
 11
9.7962480131
 21
-7.9874127966
  0
LINE
  5
4DC
100
AcDbEntity
  8
0
100
AcDbLine
 62
7
  6
CONTINUOUS
 10
9.1804760152
 20
-8.9069729262
 11
9.2217237534
 21
-9.0350191134
  0
LINE
  5
4DD
100
AcDbEntity
  8
0
100
AcDbLine
 62
7
  6
CONTINUOUS
 10
9.3631451096
 20
-8.9533641947
 11
9.3218973714
 21
-8.8253180076
  0
LINE
  5
4DE
100
AcDbEntity
  8
0
100
AcDbLine
 62
7
  6
CONTINUOUS
 10
9.1598523821
 20
-8.3044270481
 11
9.2011001203
 21
-8.4324732109
  0
LINE
  5
4DF
100
AcDbEntity
  8
0
100
AcDbLine
 62
7
  6
CONTINUOUS
 10
9.3425214765
 20
-8.3508182922
 11
9.3012737383
 21
-8.2227721295
  0
LINE
  5
4E0
100
AcDbEntity
  8
0
100
AcDbLine
 62
7
  6
CONTINUOUS
 10
9.6342030238
 20
-8.3003637712
 11
9.5929548135
 21
-8.1723173359
  0
LINE
  5
4E1
100
AcDbEntity
  8
0
100
AcDbLine
 62
7
  6
CONTINUOUS
 10
9.0773564336
 20
-8.3610251571
 11
9.0361086954
 21
-8.1634921705
  0
LINE
  5
4E2
100
AcDbEntity
  8
0
100
AcDbLine
 62
7
  6
CONTINUOUS
 10
9.7166985002
 20
-8.2437653897
 11
9.7579467105
 21
-8.4412987461
  0
LINE
  5
4E3
100
AcDbEntity
  8
0
100
AcDbLine
 62
7
  6
CONTINUOUS
 10
9.8993680667
 20
-8.3596438275
 11
9.8581198565
 21
-8.162110471
  0
LINE
  5
4E4
100
AcDbEntity
  8
0
100
AcDbLine
 62
7
  6
CONTINUOUS
 10
16.2604797458
 20
-41.8504234273
 11
16.4068899073
 21
-42.565878601
  0
LINE
  5
4E5
100
AcDbEntity
  8
0
100
AcDbLine
 62
7
  6
CONTINUOUS
 10
7.5894859935
 20
-11.2368646774
 11
7.5688618884
 21
-11.1207262446
  0
LINE
  5
4E6
100
AcDbEntity
  8
0
100
AcDbLine
 62
7
  6
CONTINUOUS
 10
9.0979805387
 20
-8.9635713321
 11
9.0773564336
 21
-8.8474329722
  0
LINE
  5
4E7
100
AcDbEntity
  8
0
100
AcDbLine
 62
7
  6
CONTINUOUS
 10
9.1392282769
 20
-8.1882887127
 11
9.1598523821
 21
-8.3044270481
  0
LINE
  5
4E8
100
AcDbEntity
  8
0
100
AcDbLine
 62
7
  6
CONTINUOUS
 10
9.3012737383
 20
-8.2227721295
 11
9.2806496332
 21
-8.106633794
  0
LINE
  5
4E9
100
AcDbEntity
  8
0
100
AcDbLine
 62
7
  6
CONTINUOUS
 10
9.6548266569
 20
-8.4165019315
 11
9.6342030238
 21
-8.3003637712
  0
LINE
  5
4EA
100
AcDbEntity
  8
0
100
AcDbLine
 62
7
  6
CONTINUOUS
 10
7.0326392853
 20
-11.5754732417
 11
7.0532632724
 21
-11.7263549209
  0
LINE
  5
4EB
100
AcDbEntity
  8
0
100
AcDbLine
 62
7
  6
CONTINUOUS
 10
7.1946846287
 20
-11.6447000022
 11
7.1740606416
 21
-11.493818323
  0
LWPOLYLINE
  5
4EC
100
AcDbEntity
  8
0
100
AcDbPolyline
 62
7
  6
CONTINUOUS
 90
10
 70
0
 10
12.5518746981
 20
-31.0968289381
 10
12.5618440528
 20
-31.1807072871
 10
12.5706433198
 20
-31.264050283
 10
12.5782724988
 20
-31.346857926
 10
12.584733166
 20
-31.4291545701
 10
12.5900237454
 20
-31.5109158611
 10
12.5941395092
 20
-31.5920687367
 10
12.5970788817
 20
-31.6725888426
 10
12.5988434386
 20
-31.752500533
 10
12.59943318
 20
-31.831803808
  0
LINE
  5
4ED
100
AcDbEntity
  8
0
100
AcDbLine
 62
7
  6
CONTINUOUS
 10
6.9295195857
 20
-11.689650279
 11
6.9088955986
 21
-11.5040251878
  0
LINE
  5
4EE
100
AcDbEntity
  8
0
100
AcDbLine
 62
7
  6
CONTINUOUS
 10
7.6926055751
 20
-11.1226874746
 11
7.7132296802
 21
-11.3083127313
  0
LINE
  5
4EF
100
AcDbEntity
  8
0
100
AcDbLine
 62
7
  6
CONTINUOUS
 10
7.8546510365
 20
-11.2266578126
 11
7.8340269313
 21
-11.041032556
  0
LWPOLYLINE
  5
4F0
100
AcDbEntity
  8
0
100
AcDbPolyline
 62
7
  6
CONTINUOUS
 90
10
 70
0
 10
11.7282937878
 20
-31.3288188409
 10
11.7268871223
 20
-31.2204267805
 10
11.722700779
 20
-31.1107187149
 10
11.7157347581
 20
-30.9996946441
 10
11.7059777172
 20
-30.8872516496
 10
11.6934409987
 20
-30.7734926499
 10
11.6781586286
 20
-30.6587264008
 10
11.660141949
 20
-30.543055821
 10
11.6393796178
 20
-30.4263779918
 10
11.6158716351
 20
-30.3086929133
  0
LINE
  5
4F1
100
AcDbEntity
  8
0
100
AcDbLine
 62
7
  6
CONTINUOUS
 10
9.6548266569
 20
-8.4859887553
 11
9.6548266569
 21
-8.4165019315
  0
LINE
  5
4F2
100
AcDbEntity
  8
0
100
AcDbLine
 62
7
  6
CONTINUOUS
 10
9.675451234
 20
-8.8800746584
 11
9.675451234
 21
-8.8105878346
  0
LINE
  5
4F3
100
AcDbEntity
  8
0
100
AcDbLine
 62
7
  6
CONTINUOUS
 10
9.7785703436
 20
-8.6964104566
 11
9.7785703436
 21
-8.9396143399
  0
LINE
  5
4F4
100
AcDbEntity
  8
0
100
AcDbLine
 62
7
  6
CONTINUOUS
 10
9.9199916998
 20
-8.614755538
 11
9.9199916998
 21
-8.8579594212
  0
LINE
  5
4F5
100
AcDbEntity
  8
0
100
AcDbLine
 62
7
  6
CONTINUOUS
 10
9.9435622405
 20
-9.2433391134
 11
9.9435622405
 21
-9.0348785934
  0
LINE
  5
4F6
100
AcDbEntity
  8
0
100
AcDbLine
 62
7
  6
CONTINUOUS
 10
10.4385369874
 20
-10.0155391439
 11
10.4385369874
 21
-9.5291313287
  0
LINE
  5
4F7
100
AcDbEntity
  8
0
100
AcDbLine
 62
7
  6
CONTINUOUS
 10
10.4385369874
 20
-9.3206708087
 11
10.4385369874
 21
-8.6605458854
  0
LINE
  5
4F8
100
AcDbEntity
  8
0
100
AcDbLine
 62
7
  6
CONTINUOUS
 10
10.5622806741
 20
-8.4540466441
 11
10.5622806741
 21
-9.3921188625
  0
LINE
  5
4F9
100
AcDbEntity
  8
0
100
AcDbLine
 62
7
  6
CONTINUOUS
 10
10.5622806741
 20
-9.6005793825
 11
10.5622806741
 21
-10.0869871977
  0
LINE
  5
4FA
100
AcDbEntity
  8
0
100
AcDbLine
 62
7
  6
CONTINUOUS
 10
10.7037020303
 20
-8.3723917255
 11
10.7037020303
 21
-9.3104639439
  0
LINE
  5
4FB
100
AcDbEntity
  8
0
100
AcDbLine
 62
7
  6
CONTINUOUS
 10
10.7037020303
 20
-9.6822343012
 11
10.7037020303
 21
-10.005332279
  0
LINE
  5
4FC
100
AcDbEntity
  8
0
100
AcDbLine
 62
7
  6
CONTINUOUS
 10
10.7685198372
 20
-9.5111987706
 11
10.7685198372
 21
-9.7196592906
  0
LINE
  5
4FD
100
AcDbEntity
  8
0
100
AcDbLine
 62
7
  6
CONTINUOUS
 10
10.9099411935
 20
-9.4295438519
 11
10.9099411935
 21
-9.6380043719
  0
LWPOLYLINE
  5
4FE
100
AcDbEntity
  8
0
100
AcDbPolyline
 62
7
  6
CONTINUOUS
 90
10
 70
0
 10
12.59943318
 20
-31.831803808
 10
12.5888124698
 20
-32.1567055786
 10
12.5583422634
 20
-32.4651567427
 10
12.5080225607
 20
-32.7571573003
 10
12.437390266
 20
-33.0340401725
 10
12.346908475
 20
-33.2944724382
 10
12.2379664752
 20
-33.5344553341
 10
12.1110273624
 20
-33.752655939
 10
11.9656280407
 20
-33.950407174
 10
11.8017685102
 20
-34.1277090391
  0
LINE
  5
4FF
100
AcDbEntity
  8
0
100
AcDbLine
 62
7
  6
CONTINUOUS
 10
9.7785703436
 20
-8.9396143399
 11
9.7579467105
 21
-9.1709104445
  0
LINE
  5
500
100
AcDbEntity
  8
0
100
AcDbLine
 62
7
  6
CONTINUOUS
 10
9.8993680667
 20
-9.0892555259
 11
9.9199916998
 21
-8.8579594212
  0
LINE
  5
501
100
AcDbEntity
  8
0
100
AcDbLine
 62
7
  6
CONTINUOUS
 10
9.6548266569
 20
-9.0766268061
 11
9.675451234
 21
-8.8800746584
  0
LINE
  5
502
100
AcDbEntity
  8
0
100
AcDbLine
 62
7
  6
CONTINUOUS
 10
9.6342030238
 20
-8.5783111637
 11
9.6548266569
 21
-8.4859887553
  0
LINE
  5
503
100
AcDbEntity
  8
0
100
AcDbLine
 62
7
  6
CONTINUOUS
 10
9.6342030238
 20
-9.1689492145
 11
9.6548266569
 21
-9.0766268061
  0
LINE
  5
504
100
AcDbEntity
  8
0
100
AcDbLine
 62
7
  6
CONTINUOUS
 10
7.5688618884
 20
-12.1282853355
 11
7.5894859935
 21
-12.0359631996
  0
LINE
  5
505
100
AcDbEntity
  8
0
100
AcDbLine
 62
7
  6
CONTINUOUS
 10
9.1598523821
 20
-8.0264796557
 11
9.1392282769
 21
-8.1188018889
  0
LINE
  5
506
100
AcDbEntity
  8
0
100
AcDbLine
 62
7
  6
CONTINUOUS
 10
9.2806496332
 20
-8.0371469702
 11
9.3012737383
 21
-7.944824737
  0
LINE
  5
507
100
AcDbEntity
  8
0
100
AcDbLine
 62
7
  6
CONTINUOUS
 10
9.0361086954
 20
-8.024518523
 11
9.0773564336
 21
-7.8746172933
  0
LINE
  5
508
100
AcDbEntity
  8
0
100
AcDbLine
 62
7
  6
CONTINUOUS
 10
9.7579467105
 20
-9.1709104445
 11
9.7166985002
 21
-9.3208113287
  0
LINE
  5
509
100
AcDbEntity
  8
0
100
AcDbLine
 62
7
  6
CONTINUOUS
 10
9.8581198565
 20
-9.23915641
 11
9.8993680667
 21
-9.0892555259
  0
LINE
  5
50A
100
AcDbEntity
  8
0
100
AcDbLine
 62
7
  6
CONTINUOUS
 10
8.3348943133
 20
-8.8009222287
 11
8.7473731117
 21
-7.5798588232
  0
LINE
  5
50B
100
AcDbEntity
  8
0
100
AcDbLine
 62
7
  6
CONTINUOUS
 10
8.8711167984
 20
-7.651306877
 11
8.4586380001
 21
-8.8723702826
  0
LINE
  5
50C
100
AcDbEntity
  8
0
100
AcDbLine
 62
7
  6
CONTINUOUS
 10
8.6000593563
 20
-8.7907153639
 11
9.0125381546
 21
-7.5696519584
  0
LINE
  5
50D
100
AcDbEntity
  8
0
100
AcDbLine
 62
7
  6
CONTINUOUS
 10
6.9295195857
 20
-10.8210648357
 11
6.970767442
 21
-10.7059071833
  0
LINE
  5
50E
100
AcDbEntity
  8
0
100
AcDbLine
 62
7
  6
CONTINUOUS
 10
7.0945111287
 20
-10.846842061
 11
7.0532632724
 21
-10.9272563987
  0
LINE
  5
50F
100
AcDbEntity
  8
0
100
AcDbLine
 62
7
  6
CONTINUOUS
 10
7.1946846287
 20
-10.8456014801
 11
7.1999133806
 21
-10.83540782
  0
LINE
  5
510
100
AcDbEntity
  8
0
100
AcDbLine
 62
7
  6
CONTINUOUS
 10
9.2011001203
 20
-7.9460653471
 11
9.1598523821
 21
-8.0264796557
  0
LINE
  5
511
100
AcDbEntity
  8
0
100
AcDbLine
 62
7
  6
CONTINUOUS
 10
9.3012737383
 20
-7.944824737
 11
9.3189922666
 21
-7.9102816745
  0
LINE
  5
512
100
AcDbEntity
  8
0
100
AcDbLine
 62
7
  6
CONTINUOUS
 10
9.5929548135
 20
-8.6587251997
 11
9.6342030238
 21
-8.5783111637
  0
LINE
  5
513
100
AcDbEntity
  8
0
100
AcDbLine
 62
7
  6
CONTINUOUS
 10
9.5929548135
 20
-9.2493632748
 11
9.6342030238
 21
-9.1689492145
  0
LINE
  5
514
100
AcDbEntity
  8
0
100
AcDbLine
 62
7
  6
CONTINUOUS
 10
8.3113240086
 20
-12.2790263633
 11
8.2700762704
 21
-12.3594406719
  0
LINE
  5
515
100
AcDbEntity
  8
0
100
AcDbLine
 62
7
  6
CONTINUOUS
 10
8.4114976267
 20
-12.2777857532
 11
8.4527453649
 21
-12.1973714446
  0
LINE
  5
516
100
AcDbEntity
  8
0
100
AcDbLine
 62
7
  6
CONTINUOUS
 10
6.7232800686
 20
-10.9451887038
 11
6.6614082252
 21
-11.0484383245
  0
LINE
  5
517
100
AcDbEntity
  8
0
100
AcDbLine
 62
7
  6
CONTINUOUS
 10
6.8028295814
 20
-10.9667834058
 11
6.8647014248
 21
-10.8635337852
  0
LINE
  5
518
100
AcDbEntity
  8
0
100
AcDbLine
 62
7
  6
CONTINUOUS
 10
9.0773564336
 20
-7.8746172933
 11
9.1392282769
 21
-7.7713676726
  0
LINE
  5
519
100
AcDbEntity
  8
0
100
AcDbLine
 62
7
  6
CONTINUOUS
 10
9.7166985002
 20
-9.3208113287
 11
9.6548266569
 21
-9.4240609615
  0
LINE
  5
51A
100
AcDbEntity
  8
0
100
AcDbLine
 62
7
  6
CONTINUOUS
 10
9.7962480131
 20
-9.3424060428
 11
9.8581198565
 21
-9.23915641
  0
LINE
  5
51B
100
AcDbEntity
  8
0
100
AcDbLine
 62
7
  6
CONTINUOUS
 10
7.1387051845
 20
-7.4153892823
 11
7.6336799313
 21
-6.7631092792
  0
LINE
  5
51C
100
AcDbEntity
  8
0
100
AcDbLine
 62
7
  6
CONTINUOUS
 10
9.9435622405
 20
-9.0348785934
 11
10.4385369874
 21
-8.3825985903
  0
LINE
  5
51D
100
AcDbEntity
  8
0
100
AcDbLine
 62
7
  6
CONTINUOUS
 10
7.6336799313
 20
-7.0410565744
 11
7.2830729763
 21
-7.498745436
  0
LINE
  5
51E
100
AcDbEntity
  8
0
100
AcDbLine
 62
7
  6
CONTINUOUS
 10
7.4244943326
 20
-7.4170905173
 11
7.6336799313
 21
-7.1440157332
  0
LINE
  5
51F
100
AcDbEntity
  8
0
100
AcDbLine
 62
7
  6
CONTINUOUS
 10
10.4385369874
 20
-8.6605458854
 11
10.0879295603
 21
-9.1182344745
  0
LINE
  5
520
100
AcDbEntity
  8
0
100
AcDbLine
 62
7
  6
CONTINUOUS
 10
10.2293509166
 20
-9.0365795558
 11
10.4385369874
 21
-8.7635046857
  0
LINE
  5
521
100
AcDbEntity
  8
0
100
AcDbLine
 62
7
  6
CONTINUOUS
 10
6.5582885256
 20
-10.8846680666
 11
6.5995363819
 21
-10.8389972381
  0
LINE
  5
522
100
AcDbEntity
  8
0
100
AcDbLine
 62
7
  6
CONTINUOUS
 10
6.970767442
 20
-10.7059071833
 11
7.0532632724
 21
-10.6145655944
  0
LINE
  5
523
100
AcDbEntity
  8
0
100
AcDbLine
 62
7
  6
CONTINUOUS
 10
7.6926055751
 20
-12.2692202374
 11
7.6101098626
 21
-12.3605619067
  0
LINE
  5
524
100
AcDbEntity
  8
0
100
AcDbLine
 62
7
  6
CONTINUOUS
 10
7.7515312189
 20
-12.278906988
 11
7.8340269313
 21
-12.1875653187
  0
LWPOLYLINE
  5
525
100
AcDbEntity
  8
0
100
AcDbPolyline
 62
7
  6
CONTINUOUS
 90
36
 70
0
 10
12.4996197383
 20
-1.8148745546
 10
12.233973889
 20
-2.0895426225
 10
11.9921225252
 20
-2.399489229
 10
11.7750526492
 20
-2.7431810315
 10
11.5857252687
 20
-3.1160180019
 10
11.4245792325
 20
-3.5186366582
 10
11.2911756916
 20
-3.9504004825
 10
11.1871591065
 20
-4.4047998933
 10
11.1129381187
 20
-4.8810675109
 10
11.0681040866
 20
-5.379970715
 10
11.0530755459
 20
-5.8973020627
 10
11.0680979949
 20
-6.4343293953
 10
11.1129259352
 20
-6.9897848716
 10
11.1872414081
 20
-7.5556575258
 10
11.2915704735
 20
-8.1319732873
 10
11.4253870714
 20
-8.7187062268
 10
11.586795063
 20
-9.3077675901
 10
11.7761610649
 20
-9.8990189267
 10
11.9931184604
 20
-10.4925986873
 10
12.2346712608
 20
-11.080833469
 10
12.5010530754
 20
-11.6635042699
 10
12.792030295
 20
-12.240830092
 10
13.1039061027
 20
-12.805794539
 10
13.4368909039
 20
-13.3582398944
 10
13.7907742933
 20
-13.8983238747
 10
14.1612282379
 20
-14.4195032334
 10
14.5484546342
 20
-14.9215991624
 10
14.9522515858
 20
-15.4047904698
 10
15.3676853708
 20
-15.8630703338
 10
15.7949764567
 20
-16.2962164874
 10
16.233904376
 20
-16.7044511977
 10
16.6788740048
 20
-17.0824344435
 10
17.1301931019
 20
-17.4298501657
 10
17.5875539085
 20
-17.7470144235
 10
18.0444380237
 20
-18.0295353742
 10
18.248850198
 20
-18.1404173342
  0
LINE
  5
526
100
AcDbEntity
  8
0
100
AcDbLine
 62
7
  6
CONTINUOUS
 10
6.6614082252
 20
-11.0484383245
 11
6.5789125127
 21
-11.1050365697
  0
LINE
  5
527
100
AcDbEntity
  8
0
100
AcDbLine
 62
7
  6
CONTINUOUS
 10
6.720333869
 20
-11.023381651
 11
6.8028295814
 21
-10.9667834058
  0
LWPOLYLINE
  5
528
100
AcDbEntity
  8
0
100
AcDbPolyline
 62
7
  6
CONTINUOUS
 90
9
 70
0
 10
3.8043513449
 20
-14.2843132402
 10
3.7182070752
 20
-14.3423861743
 10
3.6467345175
 20
-14.4108785204
 10
3.5851586426
 20
-14.4929549193
 10
3.5332343364
 20
-14.5882560442
 10
3.4925277535
 20
-14.6942025146
 10
3.4635609455
 20
-14.8099345371
 10
3.4458118608
 20
-14.9363119052
 10
3.4392804994
 20
-15.0733346189
  0
LWPOLYLINE
  5
529
100
AcDbEntity
  8
0
100
AcDbPolyline
 62
7
  6
CONTINUOUS
 90
38
 70
0
 10
14.6710748671
 20
-2.609134492
 10
14.3982821773
 20
-2.7900667751
 10
14.1486216212
 20
-3.0019160497
 10
13.9220931991
 20
-3.2446823157
 10
13.7177731404
 20
-3.5199255538
 10
13.5365852155
 20
-3.8260857834
 10
13.3813007357
 20
-4.1584830623
 10
13.2523876483
 20
-4.517700252
 10
13.149378006
 20
-4.9031544911
 10
13.0736392781
 20
-5.3084172527
 10
13.0255471934
 20
-5.7328668663
 10
13.004726023
 20
-6.1771250024
 10
13.0114160503
 20
-6.636628146
 10
13.0459406153
 20
-7.1125075693
 10
13.107976378
 20
-7.603632
 10
13.1967936009
 20
-8.1020441062
 10
13.3129111959
 20
-8.607743594
 10
13.4558102512
 20
-9.1207307573
 10
13.6232042932
 20
-9.6330491452
 10
13.8154243452
 20
-10.1444874938
 10
14.0321393841
 20
-10.655257067
 10
14.2700698663
 20
-11.1580352063
 10
14.5294323004
 20
-11.6525985765
 10
14.8100101778
 20
-12.1391705127
 10
15.1078744294
 20
-12.6110983609
 10
15.4232499789
 20
-13.068227183
 10
15.7559119025
 20
-13.510711917
 10
16.10125636
 20
-13.9323647236
 10
16.4595184493
 20
-14.3329803968
 10
16.8304630726
 20
-14.7127641426
 10
17.208781096
 20
-15.0661437393
 10
17.5947828343
 20
-15.3928246941
 10
17.9881579728
 20
-15.6931014999
 10
18.3826664338
 20
-15.9622854133
 10
18.7776519906
 20
-16.1996428338
 10
19.1737708698
 20
-16.4059073619
 10
19.5667516732
 20
-16.5785910552
 10
19.8591601373
 20
-16.6826802744
  0
LWPOLYLINE
  5
52A
100
AcDbEntity
  8
0
100
AcDbPolyline
 62
253
  6
CONTINUOUS
 90
3
 70
0
 10
-9.2831198861
 20
-19.6802917075
 10
-9.3618929671
 20
-19.7318981275
 10
-9.4503157673
 20
-19.7758006193
  0
LINE
  5
52B
100
AcDbEntity
  8
0
100
AcDbLine
 62
7
  6
CONTINUOUS
 10
6.519986751
 20
-7.2666095332
 11
6.6614081072
 21
-7.1849546145
  0
LINE
  5
52C
100
AcDbEntity
  8
0
100
AcDbLine
 62
7
  6
CONTINUOUS
 10
7.6336799313
 20
-6.7631092792
 11
7.7751012876
 21
-6.6814543606
  0
LINE
  5
52D
100
AcDbEntity
  8
0
100
AcDbLine
 62
7
  6
CONTINUOUS
 10
6.9737137596
 20
-7.2506384776
 11
7.1151351158
 21
-7.1689835589
  0
LINE
  5
52E
100
AcDbEntity
  8
0
100
AcDbLine
 62
7
  6
CONTINUOUS
 10
6.3137475878
 20
-7.6339374403
 11
6.455168944
 21
-7.5522825216
  0
LINE
  5
52F
100
AcDbEntity
  8
0
100
AcDbLine
 62
7
  6
CONTINUOUS
 10
7.757423618
 20
-6.8345573331
 11
7.8988449743
 21
-6.7529024144
  0
LINE
  5
530
100
AcDbEntity
  8
0
100
AcDbLine
 62
7
  6
CONTINUOUS
 10
6.9737137596
 20
-7.4243555857
 11
7.1151351158
 21
-7.3427006671
  0
LINE
  5
531
100
AcDbEntity
  8
0
100
AcDbLine
 62
7
  6
CONTINUOUS
 10
7.2830729763
 20
-7.498745436
 11
7.4244943326
 21
-7.4170905173
  0
LINE
  5
532
100
AcDbEntity
  8
0
100
AcDbLine
 62
7
  6
CONTINUOUS
 10
8.1286546782
 20
-7.0489014946
 11
8.2700760344
 21
-6.9672465759
  0
LINE
  5
533
100
AcDbEntity
  8
0
100
AcDbLine
 62
7
  6
CONTINUOUS
 10
7.757423618
 20
-7.7726295515
 11
7.8988449743
 21
-7.6909746328
  0
LINE
  5
534
100
AcDbEntity
  8
0
100
AcDbLine
 62
7
  6
CONTINUOUS
 10
7.9636632532
 20
-7.8917097321
 11
8.1050846095
 21
-7.8100548134
  0
LINE
  5
535
100
AcDbEntity
  8
0
100
AcDbLine
 62
7
  6
CONTINUOUS
 10
8.8711167984
 20
-7.4775898176
 11
9.0125381546
 21
-7.3959348989
  0
LINE
  5
536
100
AcDbEntity
  8
0
100
AcDbLine
 62
7
  6
CONTINUOUS
 10
7.9636632532
 20
-8.1001702521
 11
8.1050846095
 21
-8.0185153334
  0
LINE
  5
537
100
AcDbEntity
  8
0
100
AcDbLine
 62
7
  6
CONTINUOUS
 10
8.8711167984
 20
-7.651306877
 11
9.0125381546
 21
-7.5696519583
  0
LINE
  5
538
100
AcDbEntity
  8
0
100
AcDbLine
 62
7
  6
CONTINUOUS
 10
7.757423618
 20
-8.4674978867
 11
7.8988449743
 21
-8.385842968
  0
LINE
  5
539
100
AcDbEntity
  8
0
100
AcDbLine
 62
7
  6
CONTINUOUS
 10
9.2359177907
 20
-7.7155403592
 11
9.2806496332
 21
-7.6897127539
  0
LINE
  5
53A
100
AcDbEntity
  8
0
100
AcDbLine
 62
7
  6
CONTINUOUS
 10
9.2423483306
 20
-7.7266776635
 11
9.3837696868
 21
-7.6450227448
  0
LINE
  5
53B
100
AcDbEntity
  8
0
100
AcDbLine
 62
7
  6
CONTINUOUS
 10
9.3454674401
 20
-7.7514739331
 11
9.4868887963
 21
-7.6698190144
  0
LINE
  5
53C
100
AcDbEntity
  8
0
100
AcDbLine
 62
7
  6
CONTINUOUS
 10
5.4239713987
 20
-10.0212671025
 11
5.5653927549
 21
-9.9396121839
  0
LINE
  5
53D
100
AcDbEntity
  8
0
100
AcDbLine
 62
7
  6
CONTINUOUS
 10
9.4485874937
 20
-7.8110141596
 11
9.59000885
 21
-7.729359241
  0
LINE
  5
53E
100
AcDbEntity
  8
0
100
AcDbLine
 62
7
  6
CONTINUOUS
 10
9.1598523821
 20
-8.0264796557
 11
9.3012737383
 21
-7.944824737
  0
LINE
  5
53F
100
AcDbEntity
  8
0
100
AcDbLine
 62
7
  6
CONTINUOUS
 10
5.9808180073
 20
-9.8911189035
 11
6.1222393636
 21
-9.8094639848
  0
LINE
  5
540
100
AcDbEntity
  8
0
100
AcDbLine
 62
7
  6
CONTINUOUS
 10
9.1392282769
 20
-8.1188018889
 11
9.2806496332
 21
-8.0371469702
  0
LINE
  5
541
100
AcDbEntity
  8
0
100
AcDbLine
 62
7
  6
CONTINUOUS
 10
9.5517075473
 20
-7.9052977981
 11
9.6931289036
 21
-7.8236428794
  0
LINE
  5
542
100
AcDbEntity
  8
0
100
AcDbLine
 62
7
  6
CONTINUOUS
 10
9.1392282769
 20
-8.1882887127
 11
9.2806496332
 21
-8.106633794
  0
LINE
  5
543
100
AcDbEntity
  8
0
100
AcDbLine
 62
7
  6
CONTINUOUS
 10
9.1598523821
 20
-8.3044270481
 11
9.3012737383
 21
-8.2227721295
  0
LINE
  5
544
100
AcDbEntity
  8
0
100
AcDbLine
 62
7
  6
CONTINUOUS
 10
9.6548266569
 20
-8.0690677152
 11
9.7962480131
 21
-7.9874127965
  0
LINE
  5
545
100
AcDbEntity
  8
0
100
AcDbLine
 62
7
  6
CONTINUOUS
 10
5.3827235019
 20
-10.5880891347
 11
5.5241448581
 21
-10.506434216
  0
LINE
  5
546
100
AcDbEntity
  8
0
100
AcDbLine
 62
7
  6
CONTINUOUS
 10
9.2011001203
 20
-8.4324732109
 11
9.3425214765
 21
-8.3508182923
  0
LINE
  5
547
100
AcDbEntity
  8
0
100
AcDbLine
 62
7
  6
CONTINUOUS
 10
8.4586380001
 20
-8.8723702826
 11
8.6000593563
 21
-8.7907153639
  0
LINE
  5
548
100
AcDbEntity
  8
0
100
AcDbLine
 62
7
  6
CONTINUOUS
 10
9.7166985002
 20
-8.2437653897
 11
9.8581198565
 21
-8.162110471
  0
LINE
  5
549
100
AcDbEntity
  8
0
100
AcDbLine
 62
7
  6
CONTINUOUS
 10
9.2629719637
 20
-8.5376840616
 11
9.4043933199
 21
-8.4560291429
  0
LINE
  5
54A
100
AcDbEntity
  8
0
100
AcDbLine
 62
7
  6
CONTINUOUS
 10
6.4757926951
 20
-10.1769110848
 11
6.6172140514
 21
-10.0952561661
  0
LINE
  5
54B
100
AcDbEntity
  8
0
100
AcDbLine
 62
7
  6
CONTINUOUS
 10
5.8158264054
 20
-10.5949533912
 11
5.9572477616
 21
-10.5132984725
  0
LINE
  5
54C
100
AcDbEntity
  8
0
100
AcDbLine
 62
7
  6
CONTINUOUS
 10
9.324843807
 20
-8.6081515004
 11
9.4662651632
 21
-8.5264965818
  0
LINE
  5
54D
100
AcDbEntity
  8
0
100
AcDbLine
 62
7
  6
CONTINUOUS
 10
6.5789125127
 20
-10.2711945869
 11
6.720333869
 21
-10.1895396683
  0
LINE
  5
54E
100
AcDbEntity
  8
0
100
AcDbLine
 62
7
  6
CONTINUOUS
 10
9.7579467105
 20
-8.4412987461
 11
9.8993680667
 21
-8.3596438275
  0
LINE
  5
54F
100
AcDbEntity
  8
0
100
AcDbLine
 62
7
  6
CONTINUOUS
 10
9.0773564336
 20
-8.8474329722
 11
9.2187777898
 21
-8.7657780536
  0
LINE
  5
550
100
AcDbEntity
  8
0
100
AcDbLine
 62
7
  6
CONTINUOUS
 10
9.4692111268
 20
-8.6915073815
 11
9.610632483
 21
-8.6098524629
  0
LINE
  5
551
100
AcDbEntity
  8
0
100
AcDbLine
 62
7
  6
CONTINUOUS
 10
6.104561694
 20
-10.6574352925
 11
6.2459830503
 21
-10.5757803738
  0
LINE
  5
552
100
AcDbEntity
  8
0
100
AcDbLine
 62
7
  6
CONTINUOUS
 10
9.1804760152
 20
-8.9069729262
 11
9.3218973714
 21
-8.8253180076
  0
LINE
  5
553
100
AcDbEntity
  8
0
100
AcDbLine
 62
7
  6
CONTINUOUS
 10
6.6614082252
 20
-10.4230568131
 11
6.8028295814
 21
-10.3414018944
  0
LINE
  5
554
100
AcDbEntity
  8
0
100
AcDbLine
 62
7
  6
CONTINUOUS
 10
9.7785703436
 20
-8.6964104566
 11
9.9199916998
 21
-8.614755538
  0
LINE
  5
555
100
AcDbEntity
  8
0
100
AcDbLine
 62
7
  6
CONTINUOUS
 10
9.2217237534
 20
-9.0350191133
 11
9.3631451096
 21
-8.9533641947
  0
LINE
  5
556
100
AcDbEntity
  8
0
100
AcDbLine
 62
7
  6
CONTINUOUS
 10
10.4385369874
 20
-8.3825985903
 11
10.5799583436
 21
-8.3009436716
  0
LINE
  5
557
100
AcDbEntity
  8
0
100
AcDbLine
 62
7
  6
CONTINUOUS
 10
6.7232800686
 20
-10.5977544876
 11
6.8647014248
 21
-10.5160995689
  0
LINE
  5
558
100
AcDbEntity
  8
0
100
AcDbLine
 62
7
  6
CONTINUOUS
 10
9.2835955967
 20
-9.140229964
 11
9.425016953
 21
-9.0585750454
  0
LINE
  5
559
100
AcDbEntity
  8
0
100
AcDbLine
 62
7
  6
CONTINUOUS
 10
10.5622806741
 20
-8.4540466441
 11
10.7037020303
 21
-8.3723917255
  0
LINE
  5
55A
100
AcDbEntity
  8
0
100
AcDbLine
 62
7
  6
CONTINUOUS
 10
9.7785703436
 20
-8.9396143399
 11
9.9199916998
 21
-8.8579594212
  0
LINE
  5
55B
100
AcDbEntity
  8
0
100
AcDbLine
 62
7
  6
CONTINUOUS
 10
9.3454674401
 20
-9.2106974029
 11
9.4868887963
 21
-9.1290424842
  0
LINE
  5
55C
100
AcDbEntity
  8
0
100
AcDbLine
 62
7
  6
CONTINUOUS
 10
6.7439040557
 20
-10.7138927549
 11
6.8853254119
 21
-10.6322378363
  0
LINE
  5
55D
100
AcDbEntity
  8
0
100
AcDbLine
 62
7
  6
CONTINUOUS
 10
6.4964166823
 20
-10.8836874516
 11
6.593106019
 21
-10.8278602404
  0
LINE
  5
55E
100
AcDbEntity
  8
0
100
AcDbLine
 62
7
  6
CONTINUOUS
 10
7.0532632724
 20
-10.6145655944
 11
7.1946846287
 21
-10.5329106757
  0
LINE
  5
55F
100
AcDbEntity
  8
0
100
AcDbLine
 62
7
  6
CONTINUOUS
 10
7.1357591029
 20
-10.5927108292
 11
7.2771804592
 21
-10.5110559105
  0
LINE
  5
560
100
AcDbEntity
  8
0
100
AcDbLine
 62
7
  6
CONTINUOUS
 10
6.7439040557
 20
-10.8528664998
 11
6.8853254119
 21
-10.7712115812
  0
LINE
  5
561
100
AcDbEntity
  8
0
100
AcDbLine
 62
7
  6
CONTINUOUS
 10
9.4692111268
 20
-9.2821454567
 11
9.610632483
 21
-9.200490538
  0
LINE
  5
562
100
AcDbEntity
  8
0
100
AcDbLine
 62
7
  6
CONTINUOUS
 10
7.2388788025
 20
-10.6175074394
 11
7.3803001587
 21
-10.5358525208
  0
LINE
  5
563
100
AcDbEntity
  8
0
100
AcDbLine
 62
7
  6
CONTINUOUS
 10
9.7579467105
 20
-9.1709104445
 11
9.8993680667
 21
-9.0892555259
  0
LINE
  5
564
100
AcDbEntity
  8
0
100
AcDbLine
 62
7
  6
CONTINUOUS
 10
6.7232800686
 20
-10.9451887038
 11
6.8647014248
 21
-10.8635337851
  0
LINE
  5
565
100
AcDbEntity
  8
0
100
AcDbLine
 62
7
  6
CONTINUOUS
 10
6.6614082252
 20
-11.0484383245
 11
6.8028295814
 21
-10.9667834058
  0
LINE
  5
566
100
AcDbEntity
  8
0
100
AcDbLine
 62
7
  6
CONTINUOUS
 10
6.6652908525
 20
-11.0551627989
 11
6.720333869
 21
-11.023381651
  0
LINE
  5
567
100
AcDbEntity
  8
0
100
AcDbLine
 62
7
  6
CONTINUOUS
 10
9.7166985002
 20
-9.3208113287
 11
9.8581198565
 21
-9.23915641
  0
LINE
  5
568
100
AcDbEntity
  8
0
100
AcDbLine
 62
7
  6
CONTINUOUS
 10
10.0879295603
 20
-9.1182344745
 11
10.2293509166
 21
-9.0365795558
  0
LINE
  5
569
100
AcDbEntity
  8
0
100
AcDbLine
 62
7
  6
CONTINUOUS
 10
9.6548266569
 20
-9.4240609615
 11
9.7962480131
 21
-9.3424060428
  0
LINE
  5
56A
100
AcDbEntity
  8
0
100
AcDbLine
 62
7
  6
CONTINUOUS
 10
7.0532632724
 20
-10.9272563987
 11
7.1946846287
 21
-10.8456014801
  0
LINE
  5
56B
100
AcDbEntity
  8
0
100
AcDbLine
 62
7
  6
CONTINUOUS
 10
7.4244943326
 20
-10.7246795202
 11
7.5659156888
 21
-10.6430246015
  0
LINE
  5
56C
100
AcDbEntity
  8
0
100
AcDbLine
 62
7
  6
CONTINUOUS
 10
7.0326392853
 20
-11.0543220146
 11
7.1740606416
 21
-10.9726670959
  0
LINE
  5
56D
100
AcDbEntity
  8
0
100
AcDbLine
 62
7
  6
CONTINUOUS
 10
6.104561694
 20
-11.5955075109
 11
6.2459830503
 21
-11.5138525923
  0
LINE
  5
56E
100
AcDbEntity
  8
0
100
AcDbLine
 62
7
  6
CONTINUOUS
 10
7.5276141502
 20
-10.8189630224
 11
7.6690355064
 21
-10.7373081037
  0
LINE
  5
56F
100
AcDbEntity
  8
0
100
AcDbLine
 62
7
  6
CONTINUOUS
 10
7.6101098626
 20
-10.9360818366
 11
7.7515312189
 21
-10.8544269179
  0
LINE
  5
570
100
AcDbEntity
  8
0
100
AcDbLine
 62
7
  6
CONTINUOUS
 10
10.5622806741
 20
-9.3921188625
 11
10.7037020303
 21
-9.3104639439
  0
LINE
  5
571
100
AcDbEntity
  8
0
100
AcDbLine
 62
7
  6
CONTINUOUS
 10
7.6926055751
 20
-11.1226874746
 11
7.8340269313
 21
-11.041032556
  0
LINE
  5
572
100
AcDbEntity
  8
0
100
AcDbLine
 62
7
  6
CONTINUOUS
 10
7.0326392853
 20
-11.5754732417
 11
7.1740606416
 21
-11.493818323
  0
LINE
  5
573
100
AcDbEntity
  8
0
100
AcDbLine
 62
7
  6
CONTINUOUS
 10
10.7685198372
 20
-9.5111987706
 11
10.9099411935
 21
-9.4295438519
  0
LINE
  5
574
100
AcDbEntity
  8
0
100
AcDbLine
 62
7
  6
CONTINUOUS
 10
7.7132296802
 20
-11.3083127313
 11
7.8546510365
 21
-11.2266578126
  0
LINE
  5
575
100
AcDbEntity
  8
0
100
AcDbLine
 62
7
  6
CONTINUOUS
 10
7.0532632724
 20
-11.7263549209
 11
7.1946846287
 21
-11.6447000022
  0
LINE
  5
576
100
AcDbEntity
  8
0
100
AcDbLine
 62
7
  6
CONTINUOUS
 10
10.7685198372
 20
-9.7196592906
 11
10.9099411935
 21
-9.6380043719
  0
LINE
  5
577
100
AcDbEntity
  8
0
100
AcDbLine
 62
7
  6
CONTINUOUS
 10
7.0945111287
 20
-11.8544011518
 11
7.2359324849
 21
-11.7727462332
  0
LINE
  5
578
100
AcDbEntity
  8
0
100
AcDbLine
 62
7
  6
CONTINUOUS
 10
7.156382972
 20
-11.9596120268
 11
7.2978043283
 21
-11.8779571082
  0
LINE
  5
579
100
AcDbEntity
  8
0
100
AcDbLine
 62
7
  6
CONTINUOUS
 10
10.5622806741
 20
-10.0869871977
 11
10.7037020303
 21
-10.005332279
  0
LWPOLYLINE
  5
57A
100
AcDbEntity
  8
0
100
AcDbPolyline
 62
7
  6
CONTINUOUS
 90
13
 70
0
 10
-14.7978546996
 20
-19.598301447
 10
-14.8486364467
 20
-19.626974559
 10
-14.898923286
 20
-19.6582195785
 10
-14.9487152177
 20
-19.6920365055
 10
-14.9986849398
 20
-19.7289855628
 10
-15.0481597541
 20
-19.7685065277
 10
-15.0951215664
 20
-19.8089187316
 10
-15.1395107827
 20
-19.8502558479
 10
-15.1813869968
 20
-19.8924842031
 10
-15.218910896
 20
-19.9338221093
 10
-15.2514693758
 20
-19.9736756703
 10
-15.2796755406
 20
-20.0126387822
 10
-15.3035293904
 20
-20.0507114451
  0
LINE
  5
57B
100
AcDbEntity
  8
0
100
AcDbLine
 62
7
  6
CONTINUOUS
 10
9.2629719637
 20
-7.9123025502
 11
9.2011001203
 21
-7.9460653471
  0
LINE
  5
57C
100
AcDbEntity
  8
0
100
AcDbLine
 62
7
  6
CONTINUOUS
 10
9.5310829702
 20
-8.6924879966
 11
9.5929548135
 21
-8.6587251997
  0
LINE
  5
57D
100
AcDbEntity
  8
0
100
AcDbLine
 62
7
  6
CONTINUOUS
 10
9.675451234
 20
-8.8105878346
 11
9.5517075473
 21
-8.8781134284
  0
LINE
  5
57E
100
AcDbEntity
  8
0
100
AcDbLine
 62
7
  6
CONTINUOUS
 10
9.5310829702
 20
-9.2831260717
 11
9.5929548135
 21
-9.2493632748
  0
LINE
  5
57F
100
AcDbEntity
  8
0
100
AcDbLine
 62
7
  6
CONTINUOUS
 10
7.156382972
 20
-10.8130792641
 11
7.0945111287
 21
-10.846842061
  0
LINE
  5
580
100
AcDbEntity
  8
0
100
AcDbLine
 62
253
  6
CONTINUOUS
 10
3.2746723541
 20
-10.0993124182
 11
-6.4334774806
 21
-15.2292457592
  0
LINE
  5
581
100
AcDbEntity
  8
0
100
AcDbLine
 62
7
  6
CONTINUOUS
 10
-13.5861759065
 20
-18.4092182322
 11
-14.421003729
 21
-18.8497381441
  0
LINE
  5
582
100
AcDbEntity
  8
0
100
AcDbLine
 62
7
  6
CONTINUOUS
 10
-14.7978546996
 20
-19.598301447
 11
-12.8861807299
 21
-18.5894744559
  0
LWPOLYLINE
  5
583
100
AcDbEntity
  8
0
100
AcDbPolyline
 62
7
  6
CONTINUOUS
 90
6
 70
0
 10
0.1516729013
 20
-15.4241413064
 10
0.1891409098
 20
-15.4050885893
 10
0.2720030882
 20
-15.3512680524
 10
0.3464616579
 20
-15.2852618251
 10
0.4131708071
 20
-15.2068149162
 10
0.4721305359
 20
-15.1159273255
  0
LINE
  5
584
100
AcDbEntity
  8
0
100
AcDbLine
 62
253
  6
CONTINUOUS
 10
0.4719667241
 20
-15.1162205524
 11
-8.8182431655
 21
-19.4980316905
  0
LINE
  5
585
100
AcDbEntity
  8
0
100
AcDbLine
 62
7
  6
CONTINUOUS
 10
-9.1856002499
 20
-19.8281727856
 11
0.1516748809
 21
-15.4241449687
  0
LINE
  5
586
100
AcDbEntity
  8
0
100
AcDbLine
 62
7
  6
CONTINUOUS
 10
-10.5780745241
 20
-18.2775480387
 11
-15.3040131254
 21
-20.504318293
  0
LINE
  5
587
100
AcDbEntity
  8
0
100
AcDbLine
 62
7
  6
CONTINUOUS
 10
-15.9802057039
 20
-21.6405448823
 11
-11.097846115
 21
-19.3400671716
  0
LWPOLYLINE
  5
588
100
AcDbEntity
  8
0
100
AcDbPolyline
 62
7
  6
CONTINUOUS
 90
10
 70
0
 10
-15.9802057039
 20
-21.6405448823
 10
-16.1257337537
 20
-21.7044666716
 10
-16.2598302651
 20
-21.755085273
 10
-16.3824952382
 20
-21.7924006865
 10
-16.4946444919
 20
-21.816468128
 10
-16.5953622073
 20
-21.8272323816
 10
-16.6819009274
 20
-21.8245277994
 10
-16.7539065753
 20
-21.8080072527
 10
-16.8117332279
 20
-21.7780178701
 10
-16.841766746
 20
-21.7507560534
  0
LINE
  5
589
100
AcDbEntity
  8
0
100
AcDbLine
 62
7
  6
CONTINUOUS
 10
9.3837696868
 20
-7.6450227448
 11
9.2806496332
 21
-7.6897127539
  0
LINE
  5
58A
100
AcDbEntity
  8
0
100
AcDbLine
 62
7
  6
CONTINUOUS
 10
9.1392282769
 20
-7.7713676726
 11
9.2423483306
 21
-7.7266776635
  0
LINE
  5
58B
100
AcDbEntity
  8
0
100
AcDbLine
 62
7
  6
CONTINUOUS
 10
9.6548266569
 20
-9.4240609615
 11
9.5517075473
 21
-9.4687515248
  0
LWPOLYLINE
  5
58C
100
AcDbEntity
  8
0
100
AcDbPolyline
 62
253
  6
CONTINUOUS
 90
10
 70
0
 10
-6.4334774798
 20
-15.2292457578
 10
-6.4605814422
 20
-15.2406614418
 10
-6.4898393882
 20
-15.2488839648
 10
-6.5208637995
 20
-15.2537759553
 10
-6.5532104855
 20
-15.2552449057
 10
-6.5864646647
 20
-15.2532503482
 10
-6.620251739
 20
-15.2477766311
 10
-6.6541265719
 20
-15.2388411488
 10
-6.6875749625
 20
-15.2265243613
 10
-6.7201047474
 20
-15.2109554038
  0
LINE
  5
58D
100
AcDbEntity
  8
0
100
AcDbLine
 62
7
  6
CONTINUOUS
 10
-13.5953961144
 20
-16.3002336647
 11
-14.663299707
 21
-16.6589572772
  0
LINE
  5
58E
100
AcDbEntity
  8
0
100
AcDbLine
 62
7
  6
CONTINUOUS
 10
-13.5771861616
 20
-18.3931263801
 11
-12.592696399
 21
-18.0641306912
  0
LINE
  5
58F
100
AcDbEntity
  8
0
100
AcDbLine
 62
7
  6
CONTINUOUS
 10
5.8158264054
 20
-10.5949533912
 11
5.4239713987
 21
-10.716135389
  0
LINE
  5
590
100
AcDbEntity
  8
0
100
AcDbLine
 62
7
  6
CONTINUOUS
 10
8.4114976267
 20
-11.5829174667
 11
8.0196424614
 21
-11.7040993243
  0
LINE
  5
591
100
AcDbEntity
  8
0
100
AcDbLine
 62
7
  6
CONTINUOUS
 10
7.8782211052
 20
-11.785754243
 11
8.2700762704
 21
-11.6645723854
  0
LINE
  5
592
100
AcDbEntity
  8
0
100
AcDbLine
 62
7
  6
CONTINUOUS
 10
3.4527577765
 20
13.9799876564
 11
3.1890268009
 21
13.9771897214
  0
LWPOLYLINE
  5
593
100
AcDbEntity
  8
0
100
AcDbPolyline
 62
7
  6
CONTINUOUS
 90
7
 70
0
 10
-27.3231980128
 20
20.3200175526
 10
-27.3491665668
 20
20.3266155985
 10
-27.3762779968
 20
20.3376197949
 10
-27.403364468
 20
20.352648215
 10
-27.4300367023
 20
20.3715735497
 10
-27.4566839778
 20
20.3945231081
 10
-27.4833062946
 20
20.42149689
  0
LWPOLYLINE
  5
594
100
AcDbEntity
  8
0
100
AcDbPolyline
 62
253
  6
CONTINUOUS
 90
7
 70
0
 10
-17.2113529959
 20
19.710969792
 10
-17.1803896207
 20
19.6984757212
 10
-17.1489266335
 20
19.690018341
 10
-17.1174279984
 20
19.6857224294
 10
-17.0863587576
 20
19.6856512499
 10
-17.0561769885
 20
19.6898054625
 10
-17.0273270772
 20
19.698123501
  0
LWPOLYLINE
  5
595
100
AcDbEntity
  8
0
100
AcDbPolyline
 62
253
  6
CONTINUOUS
 90
10
 70
0
 10
3.7716421316
 20
14.550798054
 10
4.4441407859
 20
13.7598732918
 10
5.1034685153
 20
12.9522954167
 10
5.74962532
 20
12.1280644285
 10
6.3832819782
 20
11.2862522804
 10
7.0037677116
 20
10.4277870192
 10
7.6090701853
 20
9.5554527859
 10
8.198518621
 20
8.6701776273
 10
8.7727837969
 20
7.7710334964
 10
9.331865713
 20
6.8580203934
  0
LINE
  5
596
100
AcDbEntity
  8
0
100
AcDbLine
 62
253
  6
CONTINUOUS
 10
4.1105931483
 20
13.2001606319
 11
3.4508444312
 21
13.9765627238
  0
LWPOLYLINE
  5
597
100
AcDbEntity
  8
0
100
AcDbPolyline
 62
7
  6
CONTINUOUS
 90
7
 70
0
 10
3.3475961691
 20
13.4902597856
 10
4.2473498916
 20
12.4226186232
 10
5.1691846556
 20
11.2606692736
 10
6.063710012
 20
10.0612956564
 10
6.9285022992
 20
8.827553181
 10
7.7610881549
 20
7.5628002316
 10
8.5589863571
 20
6.2706978499
  0
LINE
  5
598
100
AcDbEntity
  8
0
100
AcDbLine
 62
253
  6
CONTINUOUS
 10
-0.6630394773
 20
23.7217025337
 11
-1.0165928678
 21
24.2246492381
  0
LWPOLYLINE
  5
599
100
AcDbEntity
  8
0
100
AcDbPolyline
 62
253
  6
CONTINUOUS
 90
9
 70
0
 10
8.8976756649
 20
6.4196219992
 10
8.3510668666
 20
7.3169218902
 10
7.7893032221
 20
8.2005141009
 10
7.2123847314
 20
9.0703986312
 10
6.6196364903
 20
9.9275118441
 10
6.011733403
 20
10.7709173766
 10
5.3907001821
 20
11.5978061398
 10
4.757211732
 20
12.4072417705
 10
4.1105931483
 20
13.2001606319
  0
LWPOLYLINE
  5
59A
100
AcDbEntity
  8
0
100
AcDbPolyline
 62
253
  6
CONTINUOUS
 90
10
 70
0
 10
9.331865713
 20
6.8580203934
 10
9.8811858221
 20
5.9209626235
 10
10.4112441765
 20
4.9757503608
 10
10.9220407763
 20
4.0223836056
 10
11.4141010205
 20
3.0597836032
 10
11.8868995101
 20
2.0890291083
 10
12.338860048
 20
1.1133563838
 10
12.7694572354
 20
0.1338441841
 10
13.1792164711
 20
-0.850586245
 10
13.5681377551
 20
-1.8399349037
  0
LWPOLYLINE
  5
59B
100
AcDbEntity
  8
0
100
AcDbPolyline
 62
7
  6
CONTINUOUS
 90
7
 70
0
 10
8.5589863571
 20
6.2706978499
 10
9.320034498
 20
4.954694904
 10
10.0421690714
 20
3.6183373626
 10
10.7232830518
 20
2.2655726879
 10
11.3615410164
 20
0.900185328
 10
11.9553543627
 20
-0.4742370338
 10
12.4774031537
 20
-1.7861437767
  0
LINE
  5
59C
100
AcDbEntity
  8
0
100
AcDbLine
 62
253
  6
CONTINUOUS
 10
20.1179791824
 20
-12.3815033112
 11
19.8591601373
 21
-11.823789845
  0
LWPOLYLINE
  5
59D
100
AcDbEntity
  8
0
100
AcDbPolyline
 62
7
  6
CONTINUOUS
 90
8
 70
0
 10
12.4775089938
 20
-1.786108916
 10
12.4815652972
 20
-1.79503145
 10
12.5102225953
 20
-1.8267161501
 10
12.5580910012
 20
-1.8519832968
 10
12.6238718937
 20
-1.8700331799
 10
12.7071323988
 20
-1.8805992292
 10
12.8083053905
 20
-1.8839480149
 10
12.9273908686
 20
-1.880079537
  0
LWPOLYLINE
  5
59E
100
AcDbEntity
  8
0
100
AcDbPolyline
 62
253
  6
CONTINUOUS
 90
10
 70
0
 10
12.9280956518
 20
-1.8800353803
 10
12.5571877277
 20
-0.9365242396
 10
12.1666869637
 20
0.0024041259
 10
11.7565933598
 20
0.936749716
 10
11.3264219691
 20
1.8675111594
 10
10.8766577385
 20
2.7936898276
 10
10.4087555087
 20
3.7122898342
 10
9.9232002266
 20
4.6223125507
 10
9.4195069454
 20
5.5247566057
 10
8.8976756649
 20
6.4196219992
  0
LWPOLYLINE
  5
59F
100
AcDbEntity
  8
0
100
AcDbPolyline
 62
7
  6
CONTINUOUS
 90
4
 70
0
 10
17.3471268111
 20
-20.9771168412
 10
17.3525210087
 20
-21.005042318
 10
17.3607348097
 20
-21.0329068605
 10
17.3720308429
 20
-21.0607659481
  0
LWPOLYLINE
  5
5A0
100
AcDbEntity
  8
0
100
AcDbPolyline
 62
253
  6
CONTINUOUS
 90
10
 70
0
 10
17.3873697636
 20
-20.928623951
 10
17.3897595087
 20
-20.9433066636
 10
17.392813748
 20
-20.9579657075
 10
17.3965245003
 20
-20.9725627764
 10
17.4008820688
 20
-20.9870597259
 10
17.4058750666
 20
-21.0014186734
 10
17.4114904461
 20
-21.0156020968
 10
17.4177135337
 20
-21.0295729327
 10
17.4245280675
 20
-21.0432946733
 10
17.43191624
 20
-21.0567314617
  0
LWPOLYLINE
  5
5A1
100
AcDbEntity
  8
0
100
AcDbPolyline
 62
253
  6
CONTINUOUS
 90
10
 70
0
 10
17.5968125415
 20
-18.7397080812
 10
17.5938325877
 20
-18.7049513204
 10
17.5946793124
 20
-18.6707896635
 10
17.5993402435
 20
-18.6377265647
 10
17.6077467888
 20
-18.6062490161
 10
17.6197750366
 20
-18.5768212278
 10
17.6352472642
 20
-18.5498775879
 10
17.6539350152
 20
-18.525815152
 10
17.6755627904
 20
-18.504988007
 10
17.6998116836
 20
-18.4877027753
  0
LWPOLYLINE
  5
5A2
100
AcDbEntity
  8
0
100
AcDbPolyline
 62
253
  6
CONTINUOUS
 90
4
 70
0
 10
17.3471268111
 20
-20.9771168412
 10
17.3469269776
 20
-20.9733687574
 10
17.349785579
 20
-20.9627106001
 10
17.3575794858
 20
-20.9515750929
  0
LWPOLYLINE
  5
5A3
100
AcDbEntity
  8
0
100
AcDbPolyline
 62
7
  6
CONTINUOUS
 90
10
 70
0
 10
15.6346711833
 20
-22.1148003556
 10
15.6264894201
 20
-21.8966098352
 10
15.6034093964
 20
-21.674262872
 10
15.5654311124
 20
-21.447759466
 10
15.5120700676
 20
-21.215420991
 10
15.4438107625
 20
-20.9789260731
 10
15.362106698
 20
-20.7433105917
 10
15.2674423745
 20
-20.5102531729
 10
15.1593332916
 20
-20.2780751906
 10
15.0377794494
 20
-20.0467766445
  0
LINE
  5
5A4
100
AcDbEntity
  8
0
100
AcDbLine
 62
253
  6
CONTINUOUS
 10
-1.0165928678
 20
-47.8513847022
 11
-0.6630394773
 21
-46.9401634044
  0
LINE
  5
5A5
100
AcDbEntity
  8
0
100
AcDbLine
 62
253
  6
CONTINUOUS
 10
4.3976481613
 20
-16.9932114151
 11
6.4697616314
 21
-15.7647489544
  0
LINE
  5
5A6
100
AcDbEntity
  8
0
100
AcDbLine
 62
7
  6
CONTINUOUS
 10
7.2388788025
 20
-12.0419874973
 11
7.3803001587
 21
-11.9603325787
  0
LINE
  5
5A7
100
AcDbEntity
  8
0
100
AcDbLine
 62
7
  6
CONTINUOUS
 10
7.950398025
 20
-11.7440801941
 11
8.0196424614
 21
-11.7040993243
  0
LINE
  5
5A8
100
AcDbEntity
  8
0
100
AcDbLine
 62
7
  6
CONTINUOUS
 10
7.5894859935
 20
-12.0359631996
 11
7.7309073498
 21
-11.9543082809
  0
LINE
  5
5A9
100
AcDbEntity
  8
0
100
AcDbLine
 62
7
  6
CONTINUOUS
 10
7.4244943326
 20
-12.1491595781
 11
7.5659156888
 21
-12.0675046594
  0
LINE
  5
5AA
100
AcDbEntity
  8
0
100
AcDbLine
 62
7
  6
CONTINUOUS
 10
8.2700762704
 20
-11.6645723854
 11
8.4114976267
 21
-11.5829174667
  0
LINE
  5
5AB
100
AcDbEntity
  8
0
100
AcDbLine
 62
7
  6
CONTINUOUS
 10
7.7132296802
 20
-12.1074112534
 11
7.8546510365
 21
-12.0257563348
  0
LINE
  5
5AC
100
AcDbEntity
  8
0
100
AcDbLine
 62
7
  6
CONTINUOUS
 10
8.3113240086
 20
-11.7926185482
 11
8.4527453649
 21
-11.7109636295
  0
LINE
  5
5AD
100
AcDbEntity
  8
0
100
AcDbLine
 62
7
  6
CONTINUOUS
 10
7.6926055751
 20
-12.2692202374
 11
7.8340269313
 21
-12.1875653187
  0
LINE
  5
5AE
100
AcDbEntity
  8
0
100
AcDbLine
 62
7
  6
CONTINUOUS
 10
7.6101098626
 20
-12.3605619067
 11
7.7515312189
 21
-12.278906988
  0
LINE
  5
5AF
100
AcDbEntity
  8
0
100
AcDbLine
 62
7
  6
CONTINUOUS
 10
8.3113240086
 20
-12.2790263633
 11
8.4527453649
 21
-12.1973714446
  0
LINE
  5
5B0
100
AcDbEntity
  8
0
100
AcDbLine
 62
7
  6
CONTINUOUS
 10
8.2700762704
 20
-12.3594406719
 11
8.4114976267
 21
-12.2777857532
  0
LINE
  5
5B1
100
AcDbEntity
  8
0
100
AcDbLine
 62
7
  6
CONTINUOUS
 10
7.506990045
 20
-12.1620481567
 11
7.5688618884
 21
-12.1282853355
  0
LWPOLYLINE
  5
5B2
100
AcDbEntity
  8
0
100
AcDbPolyline
 62
253
  6
CONTINUOUS
 90
6
 70
0
 10
-9.4503157673
 20
-19.7758006193
 10
-9.5482144017
 20
-19.8115024113
 10
-9.6556581281
 20
-19.8393330051
 10
-9.7725776886
 20
-19.8589628992
 10
-9.8985914256
 20
-19.8689068174
 10
-10.0335721198
 20
-19.8686696677
  0
LWPOLYLINE
  5
5B3
100
AcDbEntity
  8
0
100
AcDbPolyline
 62
7
  6
CONTINUOUS
 90
36
 70
0
 10
3.4524408329
 20
14.5846974094
 10
3.1303280122
 20
14.5475190234
 10
2.7938951085
 20
14.5439239823
 10
2.448209099
 20
14.5739425465
 10
2.0929671846
 20
14.6382347278
 10
1.7284721644
 20
14.7361405143
 10
1.3606994119
 20
14.8657101308
 10
0.9903766928
 20
15.0269430977
 10
0.6167762414
 20
15.2198398945
 10
0.2436901342
 20
15.4424521847
 10
-0.1296361374
 20
15.6955390405
 10
-0.5024480649
 20
15.9783413898
 10
-0.8686900461
 20
16.2866336795
 10
-1.2281840247
 20
16.620891622
 10
-1.581108057
 20
16.980639505
 10
-1.9219407096
 20
17.3602246388
 10
-2.2503416853
 20
17.7598253285
 10
-2.5666512813
 20
18.1792632689
 10
-2.8663689558
 20
18.6123508554
 10
-3.149201777
 20
19.0591629815
 10
-3.4154426766
 20
19.5196247535
 10
-3.6614699078
 20
19.9873238857
 10
-3.8870431657
 20
20.4623726692
 10
-4.0924027551
 20
20.9446588128
 10
-4.2746478435
 20
21.4274331569
 10
-4.4334910081
 20
21.9107989195
 10
-4.5692196716
 20
22.3946528826
 10
-4.6797952705
 20
22.8719362334
 10
-4.7648209541
 20
23.3426944122
 10
-4.8246935729
 20
23.8068819785
 10
-4.8585651156
 20
24.2573037988
 10
-4.8661643528
 20
24.693111989
 10
-4.8477625139
 20
25.1151544331
 10
-4.8033252752
 20
25.518779649
 10
-4.7324326095
 20
25.9046135954
 10
-4.6942674218
 20
26.0492830257
  0
LWPOLYLINE
  5
5B4
100
AcDbEntity
  8
0
100
AcDbPolyline
 62
7
  6
CONTINUOUS
 90
33
 70
0
 10
3.1890268009
 20
13.9771897214
 10
2.8097471632
 20
14.0101634327
 10
2.4201085544
 20
14.080747122
 10
2.0203578906
 20
14.1882210398
 10
1.6169331287
 20
14.3304905914
 10
1.2105629776
 20
14.5075760508
 10
0.8005187285
 20
14.719457144
 10
0.391052211
 20
14.9639784538
 10
-0.018702707
 20
15.2420458052
 10
-0.4278798933
 20
15.5527533731
 10
-0.8296291212
 20
15.8912282646
 10
-1.2236320719
 20
16.2578972899
 10
-1.6102070642
 20
16.6523336388
 10
-1.9834588285
 20
17.068383988
 10
-2.3430398005
 20
17.5062382999
 10
-2.6892975444
 20
17.9657066122
 10
-3.0173794842
 20
18.4400657148
 10
-3.3269785151
 20
18.9293982733
 10
-3.6184017418
 20
19.4336216221
 10
-3.8877179021
 20
19.9457645554
 10
-4.1346708702
 20
20.4659441624
 10
-4.3595167719
 20
20.9940433538
 10
-4.5590927227
 20
21.5227396565
 10
-4.733095153
 20
22.0521232507
 10
-4.8818276324
 20
22.5821039561
 10
-5.0030379854
 20
23.1050887595
 10
-5.0963091087
 20
23.6212557759
 10
-5.1620581055
 20
24.1304268902
 10
-5.1992841108
 20
24.6244747436
 10
-5.2076569366
 20
25.1023993304
 10
-5.1875067707
 20
25.5652006564
 10
-5.138823312
 20
26.00775138
 10
-5.089317955
 20
26.2773802524
  0
LINE
  5
5B5
100
AcDbEntity
  8
0
100
AcDbLine
 62
253
  6
CONTINUOUS
 10
-41.3377823556
 20
23.5105577726
 11
-42.3037081819
 21
23.6599966455
  0
LWPOLYLINE
  5
5B6
100
AcDbEntity
  8
0
100
AcDbPolyline
 62
253
  6
CONTINUOUS
 90
10
 70
0
 10
5.6680217114
 20
16.5051908075
 10
6.3897361807
 20
15.6598323256
 10
7.0987356992
 20
14.7944010916
 10
7.7942395
 20
13.9098501383
 10
8.4754816784
 20
13.0071535537
 10
9.1417120346
 20
12.0873054082
 10
9.7921969004
 20
11.15131866
 10
10.4262199467
 20
10.2002240392
 10
11.0430829728
 20
9.2350689134
 10
11.6421066746
 20
8.2569161336
  0
LWPOLYLINE
  5
5B7
100
AcDbEntity
  8
0
100
AcDbPolyline
 62
253
  6
CONTINUOUS
 90
10
 70
0
 10
11.6421066746
 20
8.2569161336
 10
12.2304780585
 20
7.2531576541
 10
12.7991726664
 20
6.2382847533
 10
13.3475469079
 20
5.2134459609
 10
13.8749801888
 20
4.1798010848
 10
14.3808756139
 20
3.138519899
 10
14.8646606624
 20
2.0907808194
 10
15.3257878358
 20
1.0377695701
 10
15.7637352773
 20
-0.0193221581
 10
16.1780073626
 20
-1.0792980566
  0
LINE
  5
5B8
100
AcDbEntity
  8
0
100
AcDbLine
 62
7
  6
CONTINUOUS
 10
17.3471268111
 20
-20.9771168412
 11
17.0715291814
 21
-19.0682030955
  0
LINE
  5
5B9
100
AcDbEntity
  8
0
100
AcDbLine
 62
253
  6
CONTINUOUS
 10
17.1117721339
 20
-19.0197102053
 11
17.3873697636
 21
-20.928623951
  0
LINE
  5
5BA
100
AcDbEntity
  8
0
100
AcDbLine
 62
253
  6
CONTINUOUS
 10
17.8569172081
 20
-20.6575655406
 11
17.5968125415
 21
-18.7397080812
  0
LINE
  5
5BB
100
AcDbEntity
  8
0
100
AcDbLine
 62
253
  6
CONTINUOUS
 10
18.2598706587
 20
-20.5787500932
 11
17.9997659921
 21
-18.6608926337
  0
LWPOLYLINE
  5
5BC
100
AcDbEntity
  8
0
100
AcDbPolyline
 62
7
  6
CONTINUOUS
 90
33
 70
0
 10
20.1179791824
 20
-12.3815033112
 10
20.0934617567
 20
-11.2001567129
 10
20.0215821306
 20
-9.999616779
 10
19.9023403042
 20
-8.7798835097
 10
19.7352255786
 20
-7.5381205029
 10
19.5207486527
 20
-6.2771641605
 10
19.2604416228
 20
-5.0055236888
 10
18.9540053573
 20
-3.7231381399
 10
18.6017389879
 20
-2.4300684617
 10
18.2060720061
 20
-1.1350067045
 10
17.7667215934
 20
0.1620543318
 10
17.2839705684
 20
1.4611074471
 10
16.7610968781
 20
2.7534389913
 10
16.1978370459
 20
4.0390044835
 10
15.5944545484
 20
5.3178484044
 10
14.9550177625
 20
6.5813905461
 10
14.2792913682
 20
7.8295271738
 10
13.5675106853
 20
9.0623620222
 10
12.8244500501
 20
10.2716260875
 10
12.0499019853
 20
11.4571674183
 10
11.244073968
 20
12.6191379661
 10
10.412362766
 20
13.7497245812
 10
9.5545981453
 20
14.8487213064
 10
8.6709503398
 20
15.916334099
 10
7.767326819
 20
16.9453676808
 10
6.8435924385
 20
17.9355735123
 10
5.8998823426
 20
18.8872001331
 10
4.9425094341
 20
19.7937978839
 10
3.9713769619
 20
20.6550772325
 10
2.9865816771
 20
21.4713277112
 10
1.9947267361
 20
22.2369682574
 10
0.998013191
 20
22.9501385168
 10
-0.0057600103
 20
23.6126988438
  0
LWPOLYLINE
  5
5BD
100
AcDbEntity
  8
0
100
AcDbPolyline
 62
7
  6
CONTINUOUS
 90
34
 70
0
 10
21.2572707395
 20
-12.2227667909
 10
21.2322519524
 20
-11.0172626173
 10
21.1589024466
 20
-9.7921726202
 10
21.037222222
 20
-8.5474967995
 10
20.8666901364
 20
-7.280340751
 10
20.6478273322
 20
-5.993598879
 10
20.3821972357
 20
-4.695954396
 10
20.0694945982
 20
-3.3873451076
 10
19.7100246686
 20
-2.0678332082
 10
19.3062666194
 20
-0.7462884934
 10
18.8579318489
 20
0.5772963842
 10
18.3653089588
 20
1.9029140771
 10
17.8317429276
 20
3.2216727482
 10
17.2569648909
 20
4.5335270071
 10
16.641243713
 20
5.8385222441
 10
15.9887309658
 20
7.127902793
 10
15.2991865174
 20
8.4015627976
 10
14.5728504996
 20
9.659608114
 10
13.8145948799
 20
10.893600644
 10
13.0242079383
 20
12.1033853289
 10
12.2019013948
 20
13.2891172276
 10
11.3531823764
 20
14.4428234176
 10
10.4778771682
 20
15.5642937303
 10
9.5761594852
 20
16.6537383344
 10
8.6540575998
 20
17.7038148144
 10
7.7114336039
 20
18.7142695483
 10
6.7484254056
 20
19.685356158
 10
5.7714750014
 20
20.610493094
 10
4.7804836614
 20
21.4893849035
 10
3.7755501156
 20
22.3223270393
 10
2.7634125493
 20
23.1036243108
 10
1.7463170244
 20
23.8313783208
 10
0.7220174791
 20
24.5074874665
 10
-0.3094860867
 20
25.1319517478
  0
LWPOLYLINE
  5
5BE
100
AcDbEntity
  8
0
100
AcDbPolyline
 62
7
  6
CONTINUOUS
 90
34
 70
0
 10
19.8591601373
 20
-11.823789845
 10
19.8359154459
 20
-10.6828565577
 10
19.7662340285
 20
-9.5176654644
 10
19.6502737358
 20
-8.3308560976
 10
19.4882972552
 20
-7.1251169621
 10
19.2806715156
 20
-5.9031794451
 10
19.027866856
 20
-4.6678116279
 10
18.7304559603
 20
-3.4218120161
 10
18.3891125599
 20
-2.1680031994
 10
18.0046099072
 20
-0.9092254581
 10
17.5778190245
 20
0.3516696713
 10
17.1097067305
 20
1.6118258558
 10
16.60133345
 20
2.8683884363
 10
16.053850812
 20
4.1185108945
 10
15.4684990407
 20
5.3593613009
 10
14.8466041463
 20
6.5881287302
 10
14.1895749206
 20
7.802029629
 10
13.4988997462
 20
8.9983141213
 10
12.7761432245
 20
10.1742722381
 10
12.0229426315
 20
11.3272400558
 10
11.2410042088
 20
12.4546057316
 10
10.4320992984
 20
13.5538154196
 10
9.59806033
 20
14.6223790564
 10
8.7407766703
 20
15.6578760015
 10
7.8621903425
 20
16.6579605215
 10
6.9642916271
 20
17.6203671031
 10
6.0491145535
 20
18.5429155859
 10
5.1187322922
 20
19.423516101
 10
4.1752524582
 20
20.2601738048
 10
3.2208123368
 20
21.0509933987
 10
2.2575740419
 20
21.7941834218
 10
1.287719618
 20
22.4880603097
 10
0.3134460973
 20
23.1310522082
 10
-0.6630394773
 20
23.7217025337
  0
LINE
  5
5BF
100
AcDbEntity
  8
0
100
AcDbLine
 62
7
  6
CONTINUOUS
 10
19.8591601373
 20
-35.0931927336
 11
19.8591601373
 21
-11.823789845
  0
LINE
  5
5C0
100
AcDbEntity
  8
0
100
AcDbLine
 62
7
  6
CONTINUOUS
 10
20.1179791824
 20
-35.6509061998
 11
20.1179791824
 21
-12.3815033112
  0
LINE
  5
5C1
100
AcDbEntity
  8
0
100
AcDbLine
 62
7
  6
CONTINUOUS
 10
20.5131060622
 20
-35.8790475081
 11
20.5131060622
 21
-12.6096446195
  0
LINE
  5
5C2
100
AcDbEntity
  8
0
100
AcDbLine
 62
7
  6
CONTINUOUS
 10
21.2572707395
 20
-35.4921696795
 11
21.2572707395
 21
-12.2227667909
  0
LINE
  5
5C3
100
AcDbEntity
  8
0
100
AcDbLine
 62
7
  6
CONTINUOUS
 10
21.9643775207
 20
-35.9004442728
 11
21.9643775207
 21
-12.6310413842
  0
LWPOLYLINE
  5
5C4
100
AcDbEntity
  8
0
100
AcDbPolyline
 62
7
  6
CONTINUOUS
 90
19
 70
0
 10
20.5131060622
 20
-35.8790475081
 10
20.4881302646
 20
-37.0536388534
 10
20.4149067943
 20
-38.1920671652
 10
20.2934356514
 20
-39.2943324435
 10
20.123196589
 20
-40.3627233511
 10
19.9047098541
 20
-41.3949512252
 10
19.6395361865
 20
-42.3841500771
 10
19.3273708622
 20
-43.3300301062
 10
18.9685186054
 20
-44.2328811131
 10
18.5654543288
 20
-45.0867065103
 10
18.1178899264
 20
-45.8911809347
 10
17.6261135043
 20
-46.6466297494
 10
17.0934642931
 20
-47.3480324558
 10
16.5196738905
 20
-47.9950337971
 10
15.9050106988
 20
-48.58798903
 10
15.2536191564
 20
-49.1229434264
 10
14.5652595438
 20
-49.5995144902
 10
13.8401715804
 20
-50.0180847175
 10
13.633294633
 20
-50.1234849262
  0
LWPOLYLINE
  5
5C5
100
AcDbEntity
  8
0
100
AcDbPolyline
 62
7
  6
CONTINUOUS
 90
17
 70
0
 10
21.9643775207
 20
-35.9004442728
 10
21.9385384455
 20
-37.115634857
 10
21.8627840378
 20
-38.2934124482
 10
21.7371142977
 20
-39.4337770463
 10
21.5609909962
 20
-40.5390964208
 10
21.3349523623
 20
-41.6070028024
 10
21.0606130823
 20
-42.6303928822
 10
20.7376578994
 20
-43.6089668431
 10
20.3664020704
 20
-44.5430245023
 10
19.9494060524
 20
-45.4263620028
 10
19.4863717812
 20
-46.2586427357
 10
18.9775973209
 20
-47.0402033101
 10
18.4265373215
 20
-47.7658496958
 10
17.8329141032
 20
-48.435214357
 10
17.1970053458
 20
-49.0486648296
 10
16.523098738
 20
-49.602109692
 10
16.0139733265
 20
-49.9633058389
  0
LINE
  5
5C6
100
AcDbEntity
  8
0
100
AcDbLine
 62
253
  6
CONTINUOUS
 10
42.7358929578
 20
0.6887707169
 11
21.9643775207
 21
-12.6310413842
  0
LINE
  5
5C7
100
AcDbEntity
  8
0
100
AcDbLine
 62
253
  6
CONTINUOUS
 10
-0.4677592272
 20
-22.3244444247
 11
-20.8155827411
 21
-35.3043374946
  0
LWPOLYLINE
  5
5C8
100
AcDbEntity
  8
0
100
AcDbPolyline
 62
7
  6
CONTINUOUS
 90
6
 70
0
 10
11.9586584883
 20
-18.203601934
 10
11.8908546535
 20
-18.2442583154
 10
11.7757455137
 20
-18.3314957442
 10
11.6725969904
 20
-18.4351600227
 10
11.5805718918
 20
-18.5556703122
 10
11.4996702181
 20
-18.6930266128
  0
LINE
  5
5C9
100
AcDbEntity
  8
0
100
AcDbLine
 62
7
  6
CONTINUOUS
 10
11.4996702181
 20
-18.6930266128
 11
12.6281888145
 21
-18.0775290596
  0
LINE
  5
5CA
100
AcDbEntity
  8
0
100
AcDbLine
 62
253
  6
CONTINUOUS
 10
21.2572707395
 20
-12.2227667909
 11
20.5131060622
 21
-12.6096446195
  0
LWPOLYLINE
  5
5CB
100
AcDbEntity
  8
0
100
AcDbPolyline
 62
7
  6
CONTINUOUS
 90
11
 70
0
 10
-21.1691361317
 20
35.860475148
 10
-22.1799853592
 20
36.4158174504
 10
-23.1837736494
 20
36.9123954597
 10
-24.1805010024
 20
37.350209176
 10
-25.1723685194
 20
37.7299398023
 10
-26.1571750992
 20
38.0509061356
 10
-27.1283174377
 20
38.3110645664
 10
-28.085698739
 20
38.5100138095
 10
-29.0294157991
 20
38.6481551502
 10
-29.9531557024
 20
38.7246488349
 10
-30.8567832615
 20
38.7390902481
  0
LWPOLYLINE
  5
5CC
100
AcDbEntity
  8
0
100
AcDbPolyline
 62
7
  6
CONTINUOUS
 90
19
 70
0
 10
-20.4620293505
 20
36.7677776576
 10
-21.4935496209
 20
37.3344762575
 10
-22.5178645637
 20
37.8412088825
 10
-23.5349741789
 20
38.2879755325
 10
-24.5471245783
 20
38.6754713407
 10
-25.5520696501
 20
39.0030011739
 10
-26.5430710581
 20
39.2684796327
 10
-27.5200300269
 20
39.4714972257
 10
-28.4830453318
 20
39.6124634442
 10
-29.4256749634
 20
39.6905213625
 10
-30.3477809697
 20
39.7052580908
 10
-31.2495013027
 20
39.6570865188
 10
-32.124807808
 20
39.5463883898
 10
-32.97352673
 20
39.3727529315
 10
-33.7958318244
 20
39.1365909162
 10
-34.5862162039
 20
38.8395164039
 10
-35.344468114
 20
38.4811298586
 10
-36.0707993092
 20
38.0618308164
 10
-36.2672836361
 20
37.9342307181
  0
LWPOLYLINE
  5
5CD
100
AcDbEntity
  8
0
100
AcDbPolyline
 62
7
  6
CONTINUOUS
 90
17
 70
0
 10
-20.8155827411
 20
35.3575284435
 10
-21.7920683156
 20
35.8944991831
 10
-22.7663418363
 20
36.3765739253
 10
-23.7361962602
 20
36.8026606158
 10
-24.6994345551
 20
37.1717940312
 10
-25.6538746765
 20
37.4831379657
 10
-26.5973545105
 20
37.7359871249
 10
-27.5277367718
 20
37.9297687244
 10
-28.4429138454
 20
38.0640437864
 10
-29.3408125608
 20
38.1385081347
 10
-30.2193988886
 20
38.1529930836
 10
-31.0766825484
 20
38.1074658201
 10
-31.9107215167
 20
38.002029478
 10
-32.7196264271
 20
37.8369229046
 10
-33.5015648498
 20
37.6125201194
 10
-34.2547654428
 20
37.3293294669
 10
-34.7799938693
 20
37.0885551119
  0
LINE
  5
5CE
100
AcDbEntity
  8
0
100
AcDbLine
 62
7
  6
CONTINUOUS
 10
-0.6630394773
 20
23.7217025337
 11
-20.8155827411
 21
35.3575284435
  0
LINE
  5
5CF
100
AcDbEntity
  8
0
100
AcDbLine
 62
7
  6
CONTINUOUS
 10
-1.0165928678
 20
24.2246492381
 11
-21.1691361317
 21
35.860475148
  0
LINE
  5
5D0
100
AcDbEntity
  8
0
100
AcDbLine
 62
7
  6
CONTINUOUS
 10
-1.0165928678
 20
24.6808877604
 11
-21.1691361317
 21
36.3167136702
  0
LINE
  5
5D1
100
AcDbEntity
  8
0
100
AcDbLine
 62
7
  6
CONTINUOUS
 10
-0.3094860867
 20
25.1319517478
 11
-20.4620293505
 21
36.7677776576
  0
LINE
  5
5D2
100
AcDbEntity
  8
0
100
AcDbLine
 62
7
  6
CONTINUOUS
 10
-0.3094860867
 20
25.9484220246
 11
-20.4620293505
 21
37.5842479344
  0
LINE
  5
5D3
100
AcDbEntity
  8
0
100
AcDbLine
 62
7
  6
CONTINUOUS
 10
-0.0057600103
 20
23.6126988438
 11
-1.0165928678
 21
24.2246492381
  0
LWPOLYLINE
  5
5D4
100
AcDbEntity
  8
0
100
AcDbPolyline
 62
7
  6
CONTINUOUS
 90
34
 70
0
 10
-1.0165928678
 20
24.6808877604
 10
0.0131549539
 20
24.057485636
 10
1.0357098288
 20
23.3825268102
 10
2.0510717568
 20
22.656011283
 10
3.0614829905
 20
21.8760436959
 10
4.0647012774
 20
21.0445194075
 10
5.0539998598
 20
20.1671244926
 10
6.0292801318
 20
19.2435640311
 10
6.9906406992
 20
18.2741329431
 10
7.9316506217
 20
17.2654020642
 10
8.8521721845
 20
16.2171182435
 10
9.7523431024
 20
15.1295346318
 10
10.6261455792
 20
14.0099815165
 10
11.4734061578
 20
12.858249135
 10
12.2942982954
 20
11.67454725
 10
13.083324567
 20
10.4668354363
 10
13.8402735821
 20
9.2349589533
 10
14.5653567312
 20
7.9790725418
 10
15.2537107616
 20
6.7075999988
 10
15.9050959267
 20
5.4204357058
 10
16.519751973
 20
4.1176852815
 10
17.0935348875
 20
2.8080893783
 10
17.6261762489
 20
1.4916027417
 10
18.1179444786
 20
0.1682706263
 10
18.5655008275
 20
-1.1530305513
 10
18.9685571807
 20
-2.472293401
 10
19.3274016532
 20
-3.7895253128
 10
19.6395598408
 20
-5.0958720411
 10
19.9047270204
 20
-6.391271446
 10
20.1232079152
 20
-7.6757856674
 10
20.2934422902
 20
-8.9407468781
 10
20.4149100673
 20
-10.1832658025
 10
20.4881313246
 20
-11.4062317163
 10
20.5131060622
 20
-12.6096446195
  0
LWPOLYLINE
  5
5D5
100
AcDbEntity
  8
0
100
AcDbPolyline
 62
7
  6
CONTINUOUS
 90
34
 70
0
 10
-0.3094860867
 20
25.9484220246
 10
0.7558545206
 20
25.303472277
 10
1.8137535598
 20
24.605183793
 10
2.8642110312
 20
23.8535565726
 10
3.9095466897
 20
23.0466297452
 10
4.9474407802
 20
22.1863641815
 10
5.9709340377
 20
21.278642493
 10
6.979924448
 20
20.323159566
 10
7.9745140252
 20
19.3202205142
 10
8.9480495463
 20
18.2766232912
 10
9.9003885365
 20
17.1921059964
 10
10.8316734705
 20
16.0669305303
 10
11.7356785498
 20
14.9086805486
 10
12.6122243217
 20
13.7171390384
 10
13.4614902389
 20
12.4925230126
 10
14.2777888604
 20
11.2430671655
 10
15.0609014888
 20
9.9686114078
 10
15.8110468216
 20
8.6693158288
 10
16.5231935096
 20
7.3538953905
 10
17.1970935195
 20
6.0222408237
 10
17.8329948846
 20
4.6744613977
 10
18.426610356
 20
3.3195998819
 10
18.9776622344
 20
1.9576094574
 10
19.4864282189
 20
0.5885369431
 10
19.9494541584
 20
-0.7784344349
 10
20.3664419791
 20
-2.143297031
 10
20.7376897546
 20
-3.5060584909
 10
21.0606375542
 20
-4.8575585254
 10
21.334970122
 20
-6.1977328473
 10
21.5610027139
 20
-7.5266457439
 10
21.737121166
 20
-8.8353297885
 10
21.8627874239
 20
-10.120795839
 10
21.9385395422
 20
-11.3860330376
 10
21.9643775207
 20
-12.6310413842
  0
LWPOLYLINE
  5
5D6
100
AcDbEntity
  8
0
100
AcDbPolyline
 62
7
  6
CONTINUOUS
 90
10
 70
0
 10
14.9447160367
 20
-28.0353011878
 10
14.708766261
 20
-28.4318764908
 10
14.4706862698
 20
-28.8052889054
 10
14.2234839557
 20
-29.1673338045
 10
13.9670417851
 20
-29.5181614265
 10
13.7014772915
 20
-29.857621533
 10
13.427143076
 20
-30.185263409
 10
13.1441566721
 20
-30.5009368159
 10
12.8524005461
 20
-30.8047919923
 10
12.5518746981
 20
-31.0968289381
  0
LWPOLYLINE
  5
5D7
100
AcDbEntity
  8
0
100
AcDbPolyline
 62
7
  6
CONTINUOUS
 90
5
 70
0
 10
14.1921989573
 20
-27.0987333834
 10
14.182036421
 20
-27.112878916
 10
14.1725099374
 20
-27.1266901703
 10
14.163638956
 20
-27.1401380952
 10
14.155440207
 20
-27.1531944326
  0
LINE
  5
5D8
100
AcDbEntity
  8
0
100
AcDbLine
 62
7
  6
CONTINUOUS
 10
6.6649604906
 20
-32.7611531105
 11
7.993819247
 21
-31.2057871224
  0
LINE
  5
5D9
100
AcDbEntity
  8
0
100
AcDbLine
 62
253
  6
CONTINUOUS
 10
6.6796851687
 20
-32.7737334405
 11
8.0447959221
 21
-31.1759362137
  0
LINE
  5
5DA
100
AcDbEntity
  8
0
100
AcDbLine
 62
253
  6
CONTINUOUS
 10
8.1708128405
 20
-31.1468116237
 11
6.7578068605
 21
-32.755678228
  0
LINE
  5
5DB
100
AcDbEntity
  8
0
100
AcDbLine
 62
253
  6
CONTINUOUS
 10
7.618748145
 20
-32.35737797
 11
8.5179650566
 21
-31.3335181388
  0
LINE
  5
5DC
100
AcDbEntity
  8
0
100
AcDbLine
 62
7
  6
CONTINUOUS
 10
8.0128277198
 20
-31.1842943929
 11
7.9938192313
 21
-31.2057872434
  0
LINE
  5
5DD
100
AcDbEntity
  8
0
100
AcDbLine
 62
253
  6
CONTINUOUS
 10
8.0618293322
 20
-31.1567370669
 11
8.044795916
 21
-31.1759362151
  0
LINE
  5
5DE
100
AcDbEntity
  8
0
100
AcDbLine
 62
253
  6
CONTINUOUS
 10
8.1882532859
 20
-31.1275226285
 11
8.1708128344
 21
-31.1468116251
  0
LWPOLYLINE
  5
5DF
100
AcDbEntity
  8
0
100
AcDbPolyline
 62
253
  6
CONTINUOUS
 90
10
 70
0
 10
8.5179650566
 20
-31.3335181388
 10
8.5302555512
 20
-31.3199816158
 10
8.5428898384
 20
-31.3069577617
 10
8.5558679183
 20
-31.2944465766
 10
8.569202306
 20
-31.2824375414
 10
8.5828804864
 20
-31.2709411752
 10
8.5968649135
 20
-31.259989035
 10
8.6111430721
 20
-31.2495916396
 10
8.6257274773
 20
-31.2397384701
 10
8.6406181293
 20
-31.2304295265
  0
LWPOLYLINE
  5
5E0
100
AcDbEntity
  8
0
100
AcDbPolyline
 62
253
  6
CONTINUOUS
 90
3
 70
0
 10
17.3575794858
 20
-20.9515750929
 10
17.3701779804
 20
-20.9401489979
 10
17.3873697636
 20
-20.9286239509
  0
LWPOLYLINE
  5
5E1
100
AcDbEntity
  8
0
100
AcDbPolyline
 62
253
  6
CONTINUOUS
 90
10
 70
0
 10
17.2147712759
 20
-18.7677048994
 10
17.190520578
 20
-18.7849916304
 10
17.1688919679
 20
-18.8058202153
 10
17.1502041782
 20
-18.8298837112
 10
17.1347326037
 20
-18.8568275035
 10
17.1227052433
 20
-18.8862545317
 10
17.1142993394
 20
-18.9177311409
 10
17.1096387668
 20
-18.9507934722
 10
17.1087922065
 20
-18.9849542987
 10
17.1117721339
 20
-19.0197102053
  0
LWPOLYLINE
  5
5E2
100
AcDbEntity
  8
0
100
AcDbPolyline
 62
253
  6
CONTINUOUS
 90
6
 70
0
 10
17.1117721339
 20
-19.0197102053
 10
17.0945956057
 20
-19.0312235013
 10
17.0819980302
 20
-19.042643459
 10
17.0741969315
 20
-19.0537784918
 10
17.0713297714
 20
-19.0644431816
 10
17.0715291657
 20
-19.0682029866
  0
LWPOLYLINE
  5
5E3
100
AcDbEntity
  8
0
100
AcDbPolyline
 62
7
  6
CONTINUOUS
 90
45
 70
0
 10
17.2128561827
 20
-18.7688390157
 10
17.2096957463
 20
-18.770785946
 10
17.2060101878
 20
-18.7731211098
 10
17.2022681488
 20
-18.7755686909
 10
17.1985900827
 20
-18.7780563373
 10
17.1948995523
 20
-18.7806317264
 10
17.1911668736
 20
-18.783321982
 10
17.1873727754
 20
-18.7861475428
 10
17.1835461925
 20
-18.7890932103
 10
17.1797056365
 20
-18.7921501716
 10
17.1759647974
 20
-18.7952284106
 10
17.1722153263
 20
-18.7984175123
 10
17.1681546542
 20
-18.8019936353
 10
17.1634871439
 20
-18.8062692218
 10
17.1585614204
 20
-18.8109839599
 10
17.1540176666
 20
-18.8155294804
 10
17.150317715
 20
-18.8193789721
 10
17.1469511867
 20
-18.8230039516
 10
17.1431055684
 20
-18.8272959566
 10
17.13836728
 20
-18.832821325
 10
17.1332570106
 20
-18.8390990515
 10
17.1283639314
 20
-18.8454510138
 10
17.1238711711
 20
-18.8516088832
 10
17.1195792192
 20
-18.8578151495
 10
17.1154519119
 20
-18.8641161046
 10
17.1115969335
 20
-18.8703315606
 10
17.1079012931
 20
-18.8766274519
 10
17.1040449501
 20
-18.8835974508
 10
17.0998495844
 20
-18.8917184589
 10
17.0956261808
 20
-18.9005683077
 10
17.0917657387
 20
-18.9093807659
 10
17.0884154581
 20
-18.9177235622
 10
17.085377917
 20
-18.9259883158
 10
17.0824930371
 20
-18.9346256547
 10
17.0798224958
 20
-18.9435197426
 10
17.0773555413
 20
-18.9527843849
 10
17.0749455633
 20
-18.9632485663
 10
17.0725935142
 20
-18.9756507495
 10
17.0706247912
 20
-18.9892831397
 10
17.0692991001
 20
-19.0027886448
 10
17.0686104156
 20
-19.0155456996
 10
17.0684635413
 20
-19.0281170338
 10
17.0688546768
 20
-19.0408999145
 10
17.0698003658
 20
-19.0537608715
 10
17.0713277532
 20
-19.0667839489
  0
LINE
  5
5E4
100
AcDbEntity
  8
0
100
AcDbLine
 62
7
  6
CONTINUOUS
 10
17.2147712759
 20
-18.7677048994
 11
19.8591601373
 21
-17.1635795132
  0
LINE
  5
5E5
100
AcDbEntity
  8
0
100
AcDbLine
 62
253
  6
CONTINUOUS
 10
19.8591601373
 20
-17.1793739521
 11
17.6998116835
 21
-18.4877027753
  0
LINE
  5
5E6
100
AcDbEntity
  8
0
100
AcDbLine
 62
253
  6
CONTINUOUS
 10
17.9997659921
 20
-18.6608926337
 11
19.8591601373
 21
-17.5343032916
  0
LINE
  5
5E7
100
AcDbEntity
  8
0
100
AcDbLine
 62
253
  6
CONTINUOUS
 10
17.2128561827
 20
-18.7688390157
 11
17.2147712759
 21
-18.7677048994
  0
LINE
  5
5E8
100
AcDbEntity
  8
0
100
AcDbLine
 62
7
  6
CONTINUOUS
 10
14.3937367322
 20
-20.2110540331
 11
11.9025240667
 21
-21.6832912899
  0
LINE
  5
5E9
100
AcDbEntity
  8
0
100
AcDbLine
 62
253
  6
CONTINUOUS
 10
17.2147712759
 20
-18.7677048994
 11
17.6998116835
 21
-18.4877027753
  0
LINE
  5
5EA
100
AcDbEntity
  8
0
100
AcDbLine
 62
253
  6
CONTINUOUS
 10
17.5968125415
 20
-18.7397080812
 11
17.1117721339
 21
-19.0197102053
  0
LINE
  5
5EB
100
AcDbEntity
  8
0
100
AcDbLine
 62
253
  6
CONTINUOUS
 10
17.3873697636
 20
-20.928623951
 11
17.8569172081
 21
-20.6575655406
  0
LINE
  5
5EC
100
AcDbEntity
  8
0
100
AcDbLine
 62
253
  6
CONTINUOUS
 10
17.38424066
 20
-21.0842490828
 11
18.2598706587
 21
-20.5787500932
  0
LWPOLYLINE
  5
5ED
100
AcDbEntity
  8
0
100
AcDbPolyline
 62
253
  6
CONTINUOUS
 90
13
 70
0
 10
17.8569172081
 20
-20.6575655406
 10
17.8784944801
 20
-20.6467101475
 10
17.9040148152
 20
-20.6361311618
 10
17.9330501924
 20
-20.626006012
 10
17.9651136371
 20
-20.6165045147
 10
17.9996673886
 20
-20.6077860267
 10
18.0361319196
 20
-20.5999967725
 10
18.0738956553
 20
-20.5932673917
 10
18.1123252312
 20
-20.5877107479
 10
18.1507761154
 20
-20.5834200358
 10
18.1886034187
 20
-20.5804672183
 10
18.2251727103
 20
-20.5789018192
 10
18.2598706587
 20
-20.5787500932
  0
LWPOLYLINE
  5
5EE
100
AcDbEntity
  8
0
100
AcDbPolyline
 62
253
  6
CONTINUOUS
 90
13
 70
0
 10
17.6998116835
 20
-18.4877027753
 10
17.7202210621
 20
-18.4788966435
 10
17.7429098442
 20
-18.4746475501
 10
17.7674899687
 20
-18.4750281699
 10
17.7935410258
 20
-18.4800319932
 10
17.8206174474
 20
-18.4895734361
 10
17.8482561276
 20
-18.5034893053
 10
17.8759843441
 20
-18.5215415884
 10
17.9033278432
 20
-18.5434215256
 10
17.9298189512
 20
-18.56875489
 10
17.9550045734
 20
-18.5971083885
 10
17.9784539436
 20
-18.6279970729
 10
17.9997659921
 20
-18.6608926337
  0
LWPOLYLINE
  5
5EF
100
AcDbEntity
  8
0
100
AcDbPolyline
 62
7
  6
CONTINUOUS
 90
4
 70
0
 10
-16.6811265548
 20
26.4479406414
 10
-17.0175490106
 20
26.4471714946
 10
-17.3509991432
 20
26.4384899454
 10
-17.6814769527
 20
26.4218959938
  0
LWPOLYLINE
  5
5F0
100
AcDbEntity
  8
0
100
AcDbPolyline
 62
7
  6
CONTINUOUS
 90
13
 70
0
 10
-17.0571966586
 20
27.5724558877
 10
-17.030004455
 20
27.5692497316
 10
-17.0027527573
 20
27.5617564628
 10
-16.9754415653
 20
27.5499760812
 10
-16.9476499721
 20
27.5335618512
 10
-16.9197988847
 20
27.5128605085
 10
-16.8931510241
 20
27.4889122601
 10
-16.8677431064
 20
27.4616180684
 10
-16.8435384156
 20
27.431076971
 10
-16.8216895242
 20
27.3986262882
 10
-16.8025806228
 20
27.3647117936
 10
-16.7858275209
 20
27.3288877136
 10
-16.7714302182
 20
27.2911540482
  0
LWPOLYLINE
  5
5F1
100
AcDbEntity
  8
0
100
AcDbPolyline
 62
7
  6
CONTINUOUS
 90
9
 70
0
 10
14.9447160367
 20
-28.0353011878
 10
14.9523291858
 20
-28.0231611016
 10
14.9605509174
 20
-28.0106993216
 10
14.9693676978
 20
-27.9979392421
 10
14.9787638616
 20
-27.9849040322
 10
14.9887215835
 20
-27.9716166197
 10
14.9992230741
 20
-27.9581011514
 10
15.010250666
 20
-27.944382924
 10
15.0217852039
 20
-27.9304872173
  0
LWPOLYLINE
  5
5F2
100
AcDbEntity
  8
0
100
AcDbPolyline
 62
7
  6
CONTINUOUS
 90
13
 70
0
 10
15.0224533875
 20
-27.9297282879
 10
15.0470227238
 20
-27.8975610077
 10
15.0706329119
 20
-27.8605932668
 10
15.0932434209
 20
-27.8193838678
 10
15.115020588
 20
-27.7745277264
 10
15.1359314802
 20
-27.7266326035
 10
15.1556536902
 20
-27.6762702964
 10
15.174426222
 20
-27.6239698056
 10
15.1923242131
 20
-27.5704033121
 10
15.2087231119
 20
-27.5163459538
 10
15.223565294
 20
-27.462485106
 10
15.237428975
 20
-27.4094022292
 10
15.2506675535
 20
-27.3577249421
  0
LWPOLYLINE
  5
5F3
100
AcDbEntity
  8
0
100
AcDbPolyline
 62
7
  6
CONTINUOUS
 90
5
 70
0
 10
14.2387609041
 20
-27.0394130761
 10
14.2262793612
 20
-27.0545923084
 10
14.2143427467
 20
-27.069559515
 10
14.2029752035
 20
-27.0842834533
 10
14.1921989573
 20
-27.0987333834
  0
LWPOLYLINE
  5
5F4
100
AcDbEntity
  8
0
100
AcDbPolyline
 62
7
  6
CONTINUOUS
 90
3
 70
0
 10
8.0526142186
 20
-31.143735639
 10
8.0324342748
 20
-31.1636052116
 10
8.0128277198
 20
-31.1842943929
  0
LWPOLYLINE
  5
5F5
100
AcDbEntity
  8
0
100
AcDbPolyline
 62
7
  6
CONTINUOUS
 90
10
 70
0
 10
11.6158716351
 20
-30.3086929133
 10
11.9371887936
 20
-30.0130024444
 10
12.2486219294
 20
-29.7037959565
 10
12.5501710425
 20
-29.3810734496
 10
12.8419832279
 20
-29.0446523451
 10
13.1239113905
 20
-28.6947152216
 10
13.3955142449
 20
-28.331809815
 10
13.656644696
 20
-27.9561187038
 10
13.9074498388
 20
-27.5674593095
 10
14.155440207
 20
-27.1531944326
  0
LWPOLYLINE
  5
5F6
100
AcDbEntity
  8
0
100
AcDbPolyline
 62
7
  6
CONTINUOUS
 90
3
 70
0
 10
8.09459051
 20
-31.1065159196
 10
8.0733411271
 20
-31.1247016627
 10
8.0526142186
 20
-31.143735639
  0
LWPOLYLINE
  5
5F7
100
AcDbEntity
  8
0
100
AcDbPolyline
 62
7
  6
CONTINUOUS
 90
10
 70
0
 10
15.019517595
 20
-23.5048211701
 10
15.1160760805
 20
-23.438152548
 10
15.2339148098
 20
-23.3318029667
 10
15.3373828568
 20
-23.2072635196
 10
15.4261673775
 20
-23.0641205357
 10
15.5005812157
 20
-22.9027876859
 10
15.5588190478
 20
-22.7268324909
 10
15.6002790992
 20
-22.5374441243
 10
15.6255631443
 20
-22.3334334125
 10
15.6346711833
 20
-22.1148003556
  0
LWPOLYLINE
  5
5F8
100
AcDbEntity
  8
0
100
AcDbPolyline
 62
7
  6
CONTINUOUS
 90
4
 70
0
 10
14.3151817881
 20
-26.9761915763
 10
14.3006540788
 20
-26.9855853886
 10
14.2673379675
 20
-27.0114562739
 10
14.2394155184
 20
-27.0401236241
  0
LWPOLYLINE
  5
5F9
100
AcDbEntity
  8
0
100
AcDbPolyline
 62
7
  6
CONTINUOUS
 90
5
 70
0
 10
8.184315072
 20
-31.0424758513
 10
8.1612303353
 20
-31.057157189
 10
8.1385624743
 20
-31.0727315456
 10
8.1163395964
 20
-31.0891886116
 10
8.09459051
 20
-31.1065159196
  0
LWPOLYLINE
  5
5FA
100
AcDbEntity
  8
0
100
AcDbPolyline
 62
253
  6
CONTINUOUS
 90
9
 70
0
 10
8.2154146924
 20
-31.0297287515
 10
8.1946958163
 20
-31.0428824594
 10
8.1743749449
 20
-31.0568410368
 10
8.1544708492
 20
-31.071591844
 10
8.1350020839
 20
-31.0871214981
 10
8.1159864944
 20
-31.1034159417
 10
8.0974411926
 20
-31.1204604432
 10
8.0793831787
 20
-31.1382395403
 10
8.0618293322
 20
-31.1567370669
  0
LWPOLYLINE
  5
5FB
100
AcDbEntity
  8
0
100
AcDbPolyline
 62
253
  6
CONTINUOUS
 90
9
 70
0
 10
8.3452208329
 20
-30.9997284097
 10
8.3240691262
 20
-31.012984321
 10
8.3033181656
 20
-31.0270443569
 10
8.2829866633
 20
-31.0418957343
 10
8.2630925988
 20
-31.0575251224
 10
8.2436542608
 20
-31.0739181475
 10
8.2246901934
 20
-31.0910593456
 10
8.206217784
 20
-31.1089328824
 10
8.1882532859
 20
-31.1275226285
  0
LINE
  5
5FC
100
AcDbEntity
  8
0
100
AcDbLine
 62
7
  6
CONTINUOUS
 10
3.678898218
 20
-33.1168168898
 11
18.8266137387
 21
-23.8089857011
  0
LINE
  5
5FD
100
AcDbEntity
  8
0
100
AcDbLine
 62
7
  6
CONTINUOUS
 10
3.688116529
 20
-33.1321869462
 11
18.8868752957
 21
-23.793559249
  0
LINE
  5
5FE
100
AcDbEntity
  8
0
100
AcDbLine
 62
7
  6
CONTINUOUS
 10
14.3150848051
 20
-26.9762510502
 11
19.8591601373
 21
-23.5726354652
  0
LINE
  5
5FF
100
AcDbEntity
  8
0
100
AcDbLine
 62
7
  6
CONTINUOUS
 10
14.8345255944
 20
-26.8933870969
 11
19.8591601373
 21
-23.8091426575
  0
LINE
  5
600
100
AcDbEntity
  8
0
100
AcDbLine
 62
7
  6
CONTINUOUS
 10
8.1843147164
 20
-31.042476146
 11
13.9293121452
 21
-27.5309468619
  0
LINE
  5
601
100
AcDbEntity
  8
0
100
AcDbLine
 62
253
  6
CONTINUOUS
 10
8.2154179095
 20
-31.029726801
 11
13.9233983926
 21
-27.5408234769
  0
LINE
  5
602
100
AcDbEntity
  8
0
100
AcDbLine
 62
7
  6
CONTINUOUS
 10
7.8010626565
 20
-32.5108900916
 11
11.9378452612
 21
-30.0123506703
  0
LINE
  5
603
100
AcDbEntity
  8
0
100
AcDbLine
 62
253
  6
CONTINUOUS
 10
13.8098372937
 20
-27.7187242804
 11
8.3452240619
 21
-30.9997264565
  0
LINE
  5
604
100
AcDbEntity
  8
0
100
AcDbLine
 62
253
  6
CONTINUOUS
 10
8.6406181293
 20
-31.2304295265
 11
13.3360677067
 21
-28.4112400189
  0
LWPOLYLINE
  5
605
100
AcDbEntity
  8
0
100
AcDbPolyline
 62
7
  6
CONTINUOUS
 90
3
 70
0
 10
7.5063369082
 20
-32.4244360701
 10
7.5621433339
 20
-32.39138113
 10
12.5213484238
 20
-29.4119198602
  0
LWPOLYLINE
  5
606
100
AcDbEntity
  8
0
100
AcDbPolyline
 62
7
  6
CONTINUOUS
 90
3
 70
0
 10
7.3448876876
 20
-32.5184913766
 10
7.3976097599
 20
-32.4879506686
 10
7.5063369082
 20
-32.4244360701
  0
LWPOLYLINE
  5
607
100
AcDbEntity
  8
0
100
AcDbPolyline
 62
7
  6
CONTINUOUS
 90
3
 70
0
 10
7.1927284822
 20
-32.6050312851
 10
7.2423776631
 20
-32.5769932749
 10
7.3448876876
 20
-32.5184913766
  0
LINE
  5
608
100
AcDbEntity
  8
0
100
AcDbLine
 62
7
  6
CONTINUOUS
 10
19.8591601373
 20
-24.7753185626
 11
15.2506675737
 21
-27.3577249026
  0
LINE
  5
609
100
AcDbEntity
  8
0
100
AcDbLine
 62
7
  6
CONTINUOUS
 10
15.0224533875
 20
-27.9297282879
 11
19.8591601373
 21
-25.2194530623
  0
LWPOLYLINE
  5
60A
100
AcDbEntity
  8
0
100
AcDbPolyline
 62
253
  6
CONTINUOUS
 90
3
 70
0
 10
8.1843148742
 20
-31.0424760496
 10
8.1925455048
 20
-31.0379422324
 10
8.2154147309
 20
-31.0297287425
  0
LWPOLYLINE
  5
60B
100
AcDbEntity
  8
0
100
AcDbPolyline
 62
7
  6
CONTINUOUS
 90
4
 70
0
 10
3.6284457865
 20
-33.1471630911
 10
3.6414649556
 20
-33.1404526006
 10
3.6632703797
 20
-33.1338074162
 10
3.687785676
 20
-33.1312804833
  0
LWPOLYLINE
  5
60C
100
AcDbEntity
  8
0
100
AcDbPolyline
 62
7
  6
CONTINUOUS
 90
10
 70
0
 10
-21.0089245464
 20
27.0321804358
 10
-20.5939324166
 20
27.1494980777
 10
-20.1727634446
 20
27.2525150992
 10
-19.7454176304
 20
27.3412315002
 10
-19.3116887666
 20
27.4156754655
 10
-18.8717830605
 20
27.4758188103
 10
-18.4263191345
 20
27.5215769803
 10
-17.9755031959
 20
27.5529217909
 10
-17.5191290372
 20
27.5698814267
 10
-17.0571966586
 20
27.5724558877
  0
LWPOLYLINE
  5
60D
100
AcDbEntity
  8
0
100
AcDbPolyline
 62
7
  6
CONTINUOUS
 90
10
 70
0
 10
-19.8645022003
 20
26.0951779439
 10
-19.9695477285
 20
26.0691153281
 10
-20.0741649069
 20
26.0421335612
 10
-20.1783537357
 20
26.0142326433
 10
-20.282117469
 20
25.9854116377
 10
-20.3854528526
 20
25.9556714811
 10
-20.4883501238
 20
25.925014983
 10
-20.5908060284
 20
25.8934430803
 10
-20.6928238207
 20
25.8609548361
 10
-20.7944035006
 20
25.8275502506
  0
LINE
  5
60E
100
AcDbEntity
  8
0
100
AcDbLine
 62
7
  6
CONTINUOUS
 10
-19.6730260128
 20
26.0903935995
 11
-19.7511477046
 21
26.072338387
  0
LINE
  5
60F
100
AcDbEntity
  8
0
100
AcDbLine
 62
253
  6
CONTINUOUS
 10
-19.6730260128
 20
26.0903935995
 11
-17.8157316663
 21
26.405102573
  0
LWPOLYLINE
  5
610
100
AcDbEntity
  8
0
100
AcDbPolyline
 62
7
  6
CONTINUOUS
 90
6
 70
0
 10
-18.0090693092
 20
26.397380969
 10
-18.3336893426
 20
26.3649535418
 10
-18.6550764425
 20
26.3246397246
 10
-18.9731437386
 20
26.2764481884
 10
-19.2879781012
 20
26.2203702621
 10
-19.5995795302
 20
26.156405946
  0
LINE
  5
611
100
AcDbEntity
  8
0
100
AcDbLine
 62
7
  6
CONTINUOUS
 10
-17.6814769527
 20
26.4218959938
 11
-18.0090693092
 21
26.397380969
  0
LWPOLYLINE
  5
612
100
AcDbEntity
  8
0
100
AcDbPolyline
 62
7
  6
CONTINUOUS
 90
11
 70
0
 10
10.8472061776
 20
-33.3194281176
 10
11.0176540178
 20
-33.19903079
 10
11.1613838052
 20
-33.0645617114
 10
11.291193718
 20
-32.9086881687
 10
11.404803619
 20
-32.7340244017
 10
11.5019500815
 20
-32.5402513318
 10
11.5828965323
 20
-32.3276880374
 10
11.6461531141
 20
-32.0999059937
 10
11.6912232077
 20
-31.8580956922
 10
11.7186034323
 20
-31.6010666412
 10
11.7282937878
 20
-31.3288188409
  0
LINE
  5
613
100
AcDbEntity
  8
0
100
AcDbLine
 62
7
  6
CONTINUOUS
 10
12.5518746981
 20
-31.0968289381
 11
19.8591601373
 21
-27.0690916082
  0
LINE
  5
614
100
AcDbEntity
  8
0
100
AcDbLine
 62
7
  6
CONTINUOUS
 10
19.8591601373
 20
-29.6869159618
 11
11.8017685102
 21
-34.1277090391
  0
LWPOLYLINE
  5
615
100
AcDbEntity
  8
0
100
AcDbPolyline
 62
7
  6
CONTINUOUS
 90
4
 70
0
 10
7.0035596103
 20
-32.7090031944
 10
7.0494828654
 20
-32.6842711125
 10
7.0962204339
 20
-32.6586178087
 10
7.1927284822
 20
-32.6050312851
  0
LINE
  5
616
100
AcDbEntity
  8
0
100
AcDbLine
 62
7
  6
CONTINUOUS
 10
6.8711613562
 20
-32.7785177849
 11
7.0035596103
 21
-32.7090031944
  0
LWPOLYLINE
  5
617
100
AcDbEntity
  8
0
100
AcDbPolyline
 62
253
  6
CONTINUOUS
 90
4
 70
0
 10
8.0447971252
 20
-31.1759348055
 10
8.0235880554
 20
-31.1833709346
 10
8.0057103183
 20
-31.1943689467
 10
7.993819247
 20
-31.2057871224
  0
LWPOLYLINE
  5
618
100
AcDbEntity
  8
0
100
AcDbPolyline
 62
7
  6
CONTINUOUS
 90
13
 70
0
 10
-24.0089176152
 20
27.8982187196
 10
-23.7905312312
 20
27.9486117131
 10
-23.5645671294
 20
27.9763071232
 10
-23.3310253099
 20
27.9813049502
 10
-23.0888018058
 20
27.9634268422
 10
-22.839000584
 20
27.922851151
 10
-22.5849335445
 20
27.8601129314
 10
-22.3265434831
 20
27.7749149864
 10
-22.063887604
 20
27.6675545131
 10
-21.8004494195
 20
27.5394581568
 10
-21.5373901005
 20
27.3911014661
 10
-21.2735484761
 20
27.2220088924
 10
-21.0089245464
 20
27.0321804358
  0
LWPOLYLINE
  5
619
100
AcDbEntity
  8
0
100
AcDbPolyline
 62
7
  6
CONTINUOUS
 90
11
 70
0
 10
17.7667751444
 20
-45.4792014398
 10
18.2061176514
 20
-44.6894913457
 10
18.6017768553
 20
-43.8513377872
 10
18.9540355832
 20
-42.9650601118
 10
19.260464843
 20
-42.0365451271
 10
19.520765504
 20
-41.0655084037
 10
19.7352366969
 20
-40.0522343711
 10
19.9023468212
 20
-39.0034631248
 10
20.0215853435
 20
-37.9214413634
 10
20.0934627973
 20
-36.8039223884
 10
20.1179791824
 20
-35.6509061998
  0
LINE
  5
61A
100
AcDbEntity
  8
0
100
AcDbLine
 62
7
  6
CONTINUOUS
 10
17.2840321616
 20
-46.220787417
 11
17.7667751444
 21
-45.4792014398
  0
LINE
  5
61B
100
AcDbEntity
  8
0
100
AcDbLine
 62
253
  6
CONTINUOUS
 10
-0.6630394772
 20
-46.9401634044
 11
13.0868452594
 21
-38.1691008147
  0
LWPOLYLINE
  5
61C
100
AcDbEntity
  8
0
100
AcDbPolyline
 62
7
  6
CONTINUOUS
 90
24
 70
0
 10
-30.8567832615
 20
38.7390902481
 10
-31.7404336638
 20
38.6918840054
 10
-32.5981995556
 20
38.5834042
 10
-33.4299106633
 20
38.4132482914
 10
-34.2357372605
 20
38.1818188201
 10
-35.0102828146
 20
37.8906975015
 10
-35.7533398145
 20
37.5394928061
 10
-36.4651157714
 20
37.1285962633
 10
-37.140836686
 20
36.6607641767
 10
-37.7802672116
 20
36.1356210937
 10
-38.3836426949
 20
35.5535424668
 10
-38.9468951764
 20
34.918410957
 10
-39.4697611611
 20
34.2298778628
 10
-39.9525041439
 20
33.4882918856
 10
-40.3918466509
 20
32.6985817914
 10
-40.7875058548
 20
31.860428233
 10
-41.1397645827
 20
30.9741505576
 10
-41.4461938425
 20
30.0456355729
 10
-41.7064945035
 20
29.0745988495
 10
-41.9209656964
 20
28.0613248168
 10
-42.0880758207
 20
27.0125535705
 10
-42.207314343
 20
25.9305318091
 10
-42.2791917968
 20
24.8130128341
 10
-42.3037081819
 20
23.6599966455
  0
LWPOLYLINE
  5
61D
100
AcDbEntity
  8
0
100
AcDbPolyline
 62
7
  6
CONTINUOUS
 90
34
 70
0
 10
42.7358929578
 20
0.6887707169
 10
42.7113865565
 20
1.8695861192
 10
42.6395392513
 20
3.0695862267
 10
42.5203510423
 20
4.2887710394
 10
42.3533114603
 20
5.5299756839
 10
42.1389309746
 20
6.7903650335
 10
41.8787409926
 20
8.0614337083
 10
41.572442517
 20
9.3432426288
 10
41.2203345452
 20
10.6357308744
 10
40.8248454762
 20
11.9302103033
 10
40.3856926187
 20
13.2266881123
 10
39.9031586641
 20
14.5251571045
 10
39.3805200855
 20
15.816907548
 10
38.8175135248
 20
17.1018949819
 10
38.21440234
 20
18.3801638669
 10
37.5752530787
 20
19.6431378532
 10
36.8998305268
 20
20.8907132525
 10
36.1883698982
 20
22.1229937531
 10
35.4456433824
 20
23.3317140692
 10
34.6714435954
 20
24.5167223179
 10
33.865977921
 20
25.6781703823
 10
33.0346407004
 20
26.8082486258
 10
32.1772617761
 20
27.9067511839
 10
31.2940113055
 20
28.9738839211
 10
30.3907941016
 20
30.002454795
 10
29.467475081
 20
30.9922153775
 10
28.5241893271
 20
31.9434140966
 10
27.5672469042
 20
32.8496041931
 10
26.5965511046
 20
33.7104962649
 10
25.6121986359
 20
34.5263797142
 10
24.6207896854
 20
35.2916759878
 10
23.6245243154
 20
36.0045255682
 10
22.6212024637
 20
36.6667879729
 10
21.6108241301
 20
37.2784632019
  0
LINE
  5
61E
100
AcDbEntity
  8
0
100
AcDbLine
 62
7
  6
CONTINUOUS
 10
42.7358929578
 20
-22.5806321717
 11
42.7358929578
 21
0.6887707169
  0
LINE
  5
61F
100
AcDbEntity
  8
0
100
AcDbLine
 62
253
  6
CONTINUOUS
 10
21.9643775207
 20
-35.9004442728
 11
42.7358929578
 21
-22.5806321717
  0
LINE
  5
620
100
AcDbEntity
  8
0
100
AcDbLine
 62
7
  6
CONTINUOUS
 10
16.2604797458
 20
-41.8504234273
 11
19.3354551631
 21
-40.0866241492
  0
LINE
  5
621
100
AcDbEntity
  8
0
100
AcDbLine
 62
7
  6
CONTINUOUS
 10
16.4068899073
 20
-42.565878601
 11
19.099653607
 21
-41.0213151411
  0
LINE
  5
622
100
AcDbEntity
  8
0
100
AcDbLine
 62
253
  6
CONTINUOUS
 10
20.5131060622
 20
-35.8790475081
 11
21.2572707395
 21
-35.4921696795
  0
LWPOLYLINE
  5
623
100
AcDbEntity
  8
0
100
AcDbPolyline
 62
7
  6
CONTINUOUS
 90
17
 70
0
 10
1.4582808663
 20
48.9142891118
 10
0.4478861701
 20
49.4693817029
 10
-0.5554507637
 20
49.9657364245
 10
-1.5517299353
 20
50.4033532765
 10
-2.5431514562
 20
50.7829131558
 10
-3.5275152148
 20
51.1037351656
 10
-4.4982208763
 20
51.3637766155
 10
-5.4551716883
 20
51.5626364005
 10
-6.3984644033
 20
51.7007156255
 10
-7.3217889442
 20
51.7771749146
 10
-8.2250101845
 20
51.7916098342
 10
-9.1082632508
 20
51.7444248179
 10
-9.9656434457
 20
51.6359937907
 10
-10.796980572
 20
51.4659143932
 10
-11.6024448268
 20
51.2345889849
 10
-12.3766421042
 20
50.9435985699
 10
-12.9162760695
 20
50.6960235399
  0
LINE
  5
624
100
AcDbEntity
  8
0
100
AcDbLine
 62
7
  6
CONTINUOUS
 10
21.6108241301
 20
37.2784632019
 11
1.4582808663
 21
48.9142891118
  0
LWPOLYLINE
  5
625
100
AcDbEntity
  8
0
100
AcDbPolyline
 62
7
  6
CONTINUOUS
 90
17
 70
0
 10
14.3767906171
 20
-48.0502566399
 10
14.8466041463
 20
-47.7167372944
 10
15.4684990407
 20
-47.2061185009
 10
16.053850812
 20
-46.6412176475
 10
16.60133345
 20
-46.0233144166
 10
17.1097067305
 20
-45.3538085576
 10
17.5778190245
 20
-44.6342167166
 10
18.0046099072
 20
-43.8661690006
 10
18.3891125599
 20
-43.0514052847
 10
18.7304559603
 20
-42.1917712708
 10
19.027866856
 20
-41.2892143065
 10
19.2806715156
 20
-40.3457789734
 10
19.4882972552
 20
-39.3636024562
 10
19.6502737358
 20
-38.3449097004
 10
19.7662340285
 20
-37.2920083729
 10
19.8359154459
 20
-36.2072836338
 10
19.8591601373
 20
-35.0931927336
  0
LWPOLYLINE
  5
626
100
AcDbEntity
  8
0
100
AcDbPolyline
 62
7
  6
CONTINUOUS
 90
17
 70
0
 10
37.0923862081
 20
-35.9181887506
 10
37.5753429623
 20
-35.5755538695
 10
38.2144859661
 20
-35.0506469186
 10
38.8175901398
 20
-34.4688300251
 10
39.3805893532
 20
-33.8339841041
 10
39.9032202296
 20
-33.1457606107
 10
40.3857461457
 20
-32.4045080899
 10
40.824891101
 20
-31.6151530912
 10
41.2203723955
 20
-30.777376411
 10
41.5724727293
 20
-29.8914972529
 10
41.8787642023
 20
-28.9633997777
 10
42.1389478183
 20
-27.9927996838
 10
42.3533225736
 20
-26.9799812728
 10
42.5203575564
 20
-25.9316816096
 10
42.6395424627
 20
-24.8501463825
 10
42.7113875966
 20
-23.7331299032
 10
42.7358929578
 20
-22.5806321717
  0
LINE
  5
627
100
AcDbEntity
  8
0
100
AcDbLine
 62
7
  6
CONTINUOUS
 10
37.0924709257
 20
-35.9183285184
 11
16.0140625822
 21
-49.9634530936
  0
LWPOLYLINE
  5
628
100
AcDbEntity
  8
0
100
AcDbPolyline
 62
7
  6
CONTINUOUS
 90
19
 70
0
 10
16.0139733265
 20
-49.9633058389
 10
15.8109462749
 20
-50.0951532273
 10
15.0607959615
 20
-50.5281911524
 10
14.2776795018
 20
-50.8983191957
 10
13.4613782342
 20
-51.2051247099
 10
12.6121108204
 20
-51.4490203424
 10
11.735564949
 20
-51.628339764
 10
10.8315612094
 20
-51.7426587363
 10
9.9002790122
 20
-51.7924014977
 10
8.9479442781
 20
-51.7771744349
 10
7.9744145774
 20
-51.6965511362
 10
6.9798323398
 20
-51.5509580132
 10
5.9708507747
 20
-51.3412806875
 10
4.9473679155
 20
-51.0670962705
 10
3.9094857288
 20
-50.7288276508
 10
2.8641633242
 20
-50.3286291154
 10
1.8137204051
 20
-49.86721876
 10
0.7558372681
 20
-49.3438784888
 10
-0.3094860867
 20
-48.758608302
  0
LWPOLYLINE
  5
629
100
AcDbEntity
  8
0
100
AcDbPolyline
 62
7
  6
CONTINUOUS
 90
19
 70
0
 10
14.3656175282
 20
-49.7611253834
 10
14.5729526769
 20
-49.6554902262
 10
15.2992838721
 20
-49.236191184
 10
15.9888227287
 20
-48.7587923124
 10
16.6413290875
 20
-48.2229104813
 10
17.2570431077
 20
-47.6289288208
 10
17.8318136435
 20
-46.9808093893
 10
18.3653718115
 20
-46.2781963543
 10
18.857986495
 20
-45.5214455482
 10
19.3063131982
 20
-44.7155865261
 10
19.7100633103
 20
-43.8602934104
 10
20.0695254422
 20
-42.9558920788
 10
20.3822209306
 20
-42.0083897193
 10
20.6478445281
 20
-41.0174960862
 10
20.8667014821
 20
-39.9835014253
 10
21.0372288723
 20
-38.9132836616
 10
21.1589057252
 20
-37.809135437
 10
21.2322530143
 20
-36.6687641096
 10
21.2572707395
 20
-35.4921696795
  0
LWPOLYLINE
  5
62A
100
AcDbEntity
  8
0
100
AcDbPolyline
 62
7
  6
CONTINUOUS
 90
16
 70
0
 10
13.633294633
 20
-50.1234849262
 10
13.0832188621
 20
-50.3758468677
 10
12.2941900328
 20
-50.67240208
 10
11.4732964486
 20
-50.9081492153
 10
10.6260357738
 20
-51.0814776162
 10
9.7522345919
 20
-51.1919772178
 10
8.8520663194
 20
-51.2400580849
 10
7.9315488705
 20
-51.2253397548
 10
6.9905445739
 20
-51.147410062
 10
6.0291911009
 20
-51.0066811719
 10
5.0539193786
 20
-50.8040091176
 10
4.0646308471
 20
-50.5389851392
 10
3.0614240663
 20
-50.2120179965
 10
2.0510256437
 20
-49.8251900024
 10
1.0356777817
 20
-49.3791952612
 10
0.0131382779
 20
-48.8733396685
  0
ELLIPSE
  5
62B
100
AcDbEntity
  8
0
100
AcDbEllipse
 62
7
  6
CONTINUOUS
 10
-19.8772269821
 20
26.3551690069
 30
0.0
 11
-0.1520186387
 21
0.2728962327
 31
0.0
 40
0.5556151127
 41
-3.868986269
 42
-3.3006780962
  0
ELLIPSE
  5
62C
100
AcDbEntity
  8
0
100
AcDbEllipse
 62
7
  6
CONTINUOUS
 10
6.8838861381
 20
-33.0385088479
 30
0.0
 11
-0.1520186387
 21
0.2728962327
 31
0.0
 40
0.5556151127
 41
-0.7273936154
 42
-0.1590854426
  0
ELLIPSE
  5
62D
100
AcDbEntity
  8
0
100
AcDbEllipse
 62
7
  6
CONTINUOUS
 10
-19.8008350696
 20
26.3728244389
 30
0.0
 11
-0.1543218667
 21
0.2721667561
 31
0.0
 40
0.5538671507
 41
-3.3046191719
 42
-2.7363109992
  0
ELLIPSE
  5
62E
100
AcDbEntity
  8
0
100
AcDbEllipse
 62
7
  6
CONTINUOUS
 10
-7.7403669343
 20
25.155145344
 30
0.0
 11
-0.1500986357
 21
0.2598034402
 31
0.0
 40
0.5773315988
 41
-3.1418015256
 42
-1.571293241
  0
ELLIPSE
  5
62F
100
AcDbEntity
  8
0
100
AcDbEllipse
 62
7
  6
CONTINUOUS
 10
6.8074942255
 20
-33.0561642799
 30
0.0
 11
-0.1543218667
 21
0.2721667561
 31
0.0
 40
0.5538671507
 41
-0.1630265183
 42
0.4052816544
  0
ENDSEC
  0
SECTION
  2
OBJECTS
  0
DICTIONARY
  5
C
100
AcDbDictionary
280
0
281
1
  3
ACAD_GROUP
350
D
  3
ACAD_MLINESTYLE
350
17
  3
ACAD_LAYOUT
350
1A
  3
ACAD_PLOTSETTINGS
350
19
  3
ACAD_PLOTSTYLENAME
350
E
  0
DICTIONARY
  5
D
102
{ACAD_REACTORS
330
C
102
}
100
AcDbDictionary
280
0
281
1
  0
ACDBDICTIONARYWDFLT
  5
E
102
{ACAD_REACTORS
330
C
102
}
100
AcDbDictionary
281
1
  3
Normal
350
F
100
AcDbDictionaryWithDefault
340
F
  0
DICTIONARY
  5
17
102
{ACAD_REACTORS
330
C
102
}
100
AcDbDictionary
280
0
281
1
  3
Standard
350
18
  0
DICTIONARY
  5
19
102
{ACAD_REACTORS
330
C
102
}
100
AcDbDictionary
281
1
  0
DICTIONARY
  5
1A
102
{ACAD_REACTORS
330
C
102
}
100
AcDbDictionary
281
1
  3
Model
350
630
  3
Layout1
350
631
  0
ACDBPLACEHOLDER
  5
F
102
{ACAD_REACTORS
330
E
102
}
  0
MLINESTYLE
  5
18
102
{ACAD_REACTORS
330
17
102
}
100
AcDbMlineStyle
  2
STANDARD
 70
0
  3

 62
256
 51
90.0
 52
90.0
 71
2
 49
0.5
 62
256
  6
BYLAYER
 49
-0.5
 62
256
  6
BYLAYER
  0
LAYOUT
  5
630
102
{ACAD_REACTORS
330
1A
102
}
100
AcDbPlotSettings
  1

  2
none_device
  4
ISO_A4_(297.00_x_210.00_MM)
  6

 40
0.0
 41
0.0
 42
0.0
 43
0.0
 44
297.0
 45
210.0
 46
0.0
 47
0.0
 48
0.0
 49
0.0
140
0.0
141
0.0
142
1.0
143
1.0
 70
1024
 72
1
 73
0
 74
0
  7

 75
0
147
1.0
148
0.0
149
0.0
100
AcDbLayout
  1
Model
 70
0
 71
0
 10
0.0
 20
0.0
 11
297.0
 21
210.0
 12
0.0
 22
0.0
 32
0.0
 14
0.0
 24
0.0
 34
0.0
 15
0.0
 25
0.0
 35
0.0
146
0.0
 13
0.0
 23
0.0
 33
0.0
 16
1.0
 26
0.0
 36
0.0
 17
0.0
 27
1.0
 37
0.0
 76
0
330
20C
345
0
346
0
  0
LAYOUT
  5
631
102
{ACAD_REACTORS
330
1A
102
}
100
AcDbPlotSettings
  1

  2
none_device
  4
ISO_A4_(297.00_x_210.00_MM)
  6

 40
0.0
 41
0.0
 42
0.0
 43
0.0
 44
297.0
 45
210.0
 46
0.0
 47
0.0
 48
0.0
 49
0.0
140
0.0
141
0.0
142
1.0
143
1.0
 70
0
 72
1
 73
0
 74
0
  7

 75
0
147
1.0
148
0.0
149
0.0
100
AcDbLayout
  1
Layout1
 70
0
 71
1
 10
0.0
 20
0.0
 11
297.0
 21
210.0
 12
0.0
 22
0.0
 32
0.0
 14
0.0
 24
0.0
 34
0.0
 15
0.0
 25
0.0
 35
0.0
146
0.0
 13
0.0
 23
0.0
 33
0.0
 16
1.0
 26
0.0
 36
0.0
 17
0.0
 27
1.0
 37
0.0
 76
0
330
20D
345
0
346
0
  0
ENDSEC
  0
EOF
