  0
SECTION
  2
HEADER
  9
$ACADVER
  1
AC1015
  9
$DWGCODEPAGE
  3
ANSI_1252
  9
$EXTMAX
 10
297.0
 20
210.0
 30
0.0
  9
$EXTMIN
 10
0.0
 20
0.0
 30
0.0
  9
$LIMMIN
 10
0.0
 20
0.0
  9
$LIMMAX
 10
297.0
 20
210.0
  9
$VIEWCTR
 10
148.5
 20
105.0
  9
$VIEWSIZE
 40
210.0
  9
$CLAYER
  8
0
  9
$LTSCALE
 40
16.335
  9
$CELTYPE
  6
BYLAYER
  9
$DIMSCALE
 40
1.0
  9
$DIMASZ
 40
3.0
  9
$DIMEXO
 40
1.85625
  9
$DIMDLI
 40
11.286
  9
$DIMEXE
 40
5.346
  9
$DIMCEN
 40
2.673
  9
$DIMLFAC
 40
1.0
  9
$DIMBLK
  1
_FILLED
  9
$DIMTXT
 40
3.0
  9
$DIMTOL
 70
1
  9
$DIMLIM
 70
0
  9
$DIMTFAC
 40
1.0
  9
$DIMTP
 40
0.01
  9
$DIMTM
 40
0.01
  9
$PDMODE
 70
3
  9
$PDSIZE
 40
3.0
  9
$HANDSEED
  5
2DC
  9
$TILEMODE
 70
1
  9
$MEASUREMENT
 70
1
  9
$INSUNITS
 70
4
  0
ENDSEC
  0
SECTION
  2
CLASSES
  0
CLASS
  1
ACDBDICTIONARYWDFLT
  2
AcDbDictionaryWithDefault
  3
AutoCAD 2000
 90
0
280
0
281
0
  0
CLASS
  1
ACDBPLACEHOLDER
  2
AcDbPlaceHolder
  3
AutoCAD 2000
 90
0
280
0
281
0
  0
CLASS
  1
LAYOUT
  2
AcDbLayout
  3
AutoCAD 2000
 90
0
280
0
281
0
  0
ENDSEC
  0
SECTION
  2
TABLES
  0
TABLE
  2
VPORT
  5
8
100
AcDbSymbolTable
 70
2
  0
VPORT
  5
1F4
100
AcDbSymbolTableRecord
100
AcDbViewportTableRecord
  2
*ACTIVE
 70
0
 10
0.0
 20
0.0
 11
1.0
 21
1.0
 12
148.5
 22
105.0
 13
0.0
 23
0.0
 14
1.0
 24
1.0
 15
0.0
 25
0.0
 16
0.0
 26
0.0
 36
1.0
 17
0.0
 27
0.0
 37
0.0
 40
210.0
 41
1.4142857143
 42
50.0
 43
0.0
 44
0.0
 50
0.0
 51
0.0
 71
0
 72
100
 73
1
 74
1
 75
0
 76
0
 77
0
 78
0
  0
ENDTAB
  0
TABLE
  2
LTYPE
  5
5
100
AcDbSymbolTable
 70
6
  0
LTYPE
  5
14
100
AcDbSymbolTableRecord
100
AcDbLinetypeTableRecord
  2
BYBLOCK
 70
0
  3

 72
65
 73
0
 40
0.0
  0
LTYPE
  5
15
100
AcDbSymbolTableRecord
100
AcDbLinetypeTableRecord
  2
BYLAYER
 70
0
  3

 72
65
 73
0
 40
0.0
  0
LTYPE
  5
16
100
AcDbSymbolTableRecord
100
AcDbLinetypeTableRecord
  2
CONTINUOUS
 70
64
  3
Solid line
 72
65
 73
0
 40
0.0
  0
LTYPE
  5
1F5
100
AcDbSymbolTableRecord
100
AcDbLinetypeTableRecord
  2
CENTER
 70
64
  3
____ _ ____ _ ____ _ ____ _ ____ _ ____ _ ____
 72
65
 73
4
 40
0.6
 49
0.375
 74
0
 49
-0.075
 74
0
 49
0.075
 74
0
 49
-0.075
 74
0
  0
LTYPE
  5
1F6
100
AcDbSymbolTableRecord
100
AcDbLinetypeTableRecord
  2
HIDDEN
 70
64
  3
- - - - - - - - - - - - - - - - - - - -
 72
65
 73
2
 40
0.2
 49
0.1
 74
0
 49
-0.1
 74
0
  0
LTYPE
  5
1F7
100
AcDbSymbolTableRecord
100
AcDbLinetypeTableRecord
  2
PHANTOM
 70
64
  3
_____ _ _ _____ _ _ _____ _ _ _____
 72
65
 73
6
 40
0.8
 49
0.45
 74
0
 49
-0.05
 74
0
 49
0.1
 74
0
 49
-0.05
 74
0
 49
0.1
 74
0
 49
-0.05
 74
0
  0
LTYPE
  5
1F8
100
AcDbSymbolTableRecord
100
AcDbLinetypeTableRecord
  2
DOT
 70
64
  3
. . . . . . . . . . . . . . . . . . . .
 72
65
 73
2
 40
0.2
 49
0.1
 74
0
 49
-0.1
 74
0
  0
LTYPE
  5
1F9
100
AcDbSymbolTableRecord
100
AcDbLinetypeTableRecord
  2
DASHED
 70
64
  3
- - - - - - - - - - - - - - - - - - - -
 72
65
 73
2
 40
0.2
 49
0.1
 74
0
 49
-0.1
 74
0
  0
ENDTAB
  0
TABLE
  2
LAYER
  5
2
100
AcDbSymbolTable
 70
36
  0
LAYER
  5
10
100
AcDbSymbolTableRecord
100
AcDbLayerTableRecord
  2
0
 70
0
 62
7
  6
CONTINUOUS
370
-3
390
F
  0
LAYER
  5
1FA
100
AcDbSymbolTableRecord
100
AcDbLayerTableRecord
  2
DEFAULT_1
 70
0
 62
7
  6
CENTER
370
-3
390
F
  0
LAYER
  5
1FB
100
AcDbSymbolTableRecord
100
AcDbLayerTableRecord
  2
DEFAULT_2
 70
0
 62
7
  6
HIDDEN
370
-3
390
F
  0
LAYER
  5
1FC
100
AcDbSymbolTableRecord
100
AcDbLayerTableRecord
  2
DEFAULT_3
 70
0
 62
7
  6
PHANTOM
370
-3
390
F
  0
LAYER
  5
1FD
100
AcDbSymbolTableRecord
100
AcDbLayerTableRecord
  2
ASSI
 70
0
 62
7
  6
CONTINUOUS
370
-3
390
F
  0
LAYER
  5
1FE
100
AcDbSymbolTableRecord
100
AcDbLayerTableRecord
  2
COORDINATE
 70
0
 62
7
  6
CONTINUOUS
370
-3
390
F
  0
LAYER
  5
1FF
100
AcDbSymbolTableRecord
100
AcDbLayerTableRecord
  2
COPY_PUBLISH
 70
0
 62
7
  6
CONTINUOUS
370
-3
390
F
  0
LAYER
  5
200
100
AcDbSymbolTableRecord
100
AcDbLayerTableRecord
  2
COSMETIC
 70
0
 62
7
  6
CONTINUOUS
370
-3
390
F
  0
LAYER
  5
201
100
AcDbSymbolTableRecord
100
AcDbLayerTableRecord
  2
CURVE
 70
0
 62
7
  6
CONTINUOUS
370
-3
390
F
  0
LAYER
  5
202
100
AcDbSymbolTableRecord
100
AcDbLayerTableRecord
  2
IMPORT_IGES
 70
0
 62
7
  6
CONTINUOUS
370
-3
390
F
  0
LAYER
  5
203
100
AcDbSymbolTableRecord
100
AcDbLayerTableRecord
  2
INTFCLR_3
 70
0
 62
7
  6
CONTINUOUS
370
-3
390
F
  0
LAYER
  5
204
100
AcDbSymbolTableRecord
100
AcDbLayerTableRecord
  2
INTF_BLUE
 70
0
 62
7
  6
CONTINUOUS
370
-3
390
F
  0
LAYER
  5
205
100
AcDbSymbolTableRecord
100
AcDbLayerTableRecord
  2
INTF_YELLOW
 70
0
 62
7
  6
CONTINUOUS
370
-3
390
F
  0
LAYER
  5
206
100
AcDbSymbolTableRecord
100
AcDbLayerTableRecord
  2
PIANI
 70
0
 62
7
  6
CONTINUOUS
370
-3
390
F
  0
LAYER
  5
207
100
AcDbSymbolTableRecord
100
AcDbLayerTableRecord
  2
RACCORDO
 70
0
 62
7
  6
CONTINUOUS
370
-3
390
F
  0
LAYER
  5
208
100
AcDbSymbolTableRecord
100
AcDbLayerTableRecord
  2
SNAPLINE
 70
0
 62
7
  6
CONTINUOUS
370
-3
390
F
  0
LAYER
  5
209
100
AcDbSymbolTableRecord
100
AcDbLayerTableRecord
  2
TRASH
 70
0
 62
7
  6
CONTINUOUS
370
-3
390
F
  0
ENDTAB
  0
TABLE
  2
STYLE
  5
3
100
AcDbSymbolTable
 70
1
  0
STYLE
  5
11
100
AcDbSymbolTableRecord
100
AcDbTextStyleTableRecord
  2
STANDARD
 70
0
 40
0.0
 41
0.8
 50
0.0
 71
0
 42
0.2
  3
txt
  4

  0
STYLE
  5
20A
100
AcDbSymbolTableRecord
100
AcDbTextStyleTableRecord
  2
TEXTSTYLE_1
 70
0
 40
0.0
 41
0.8
 50
0.0
 71
0
 42
0.2
  3
gdt
  4

  0
ENDTAB
  0
TABLE
  2
VIEW
  5
6
100
AcDbSymbolTable
 70
0
  0
ENDTAB
  0
TABLE
  2
UCS
  5
7
100
AcDbSymbolTable
 70
0
  0
ENDTAB
  0
TABLE
  2
APPID
  5
9
100
AcDbSymbolTable
 70
1
  0
APPID
  5
20B
100
AcDbSymbolTableRecord
100
AcDbRegAppTableRecord
  2
ACAD
 70
0
  0
ENDTAB
  0
TABLE
  2
BLOCK_RECORD
  5
1
100
AcDbSymbolTable
 70
0
  0
BLOCK_RECORD
  5
20C
100
AcDbSymbolTableRecord
100
AcDbBlockTableRecord
  2
*Model_Space
  0
BLOCK_RECORD
  5
20D
100
AcDbSymbolTableRecord
100
AcDbBlockTableRecord
  2
*Paper_Space
  0
ENDTAB
  0
TABLE
  2
DIMSTYLE
  5
A
100
AcDbSymbolTable
 70
1
100
AcDbDimStyleTable
 71
0
  0
DIMSTYLE
105
20E
100
AcDbSymbolTableRecord
100
AcDbDimStyleTableRecord
  2
STANDARD
 70
0
  3

  4

 40
1.0
 41
3.0
 42
0.0625
 43
0.38
 44
0.18
 45
0.0
 46
0.0
 47
0.01
 48
0.01
140
3.0
141
0.09
142
0.0
143
25.4
144
1.0
145
0.0
146
1.0
147
0.09
 71
1.0
 72
0.0
 73
0
 74
0
 75
0
 76
0
 77
1
 78
8
170
0
171
2
172
0
173
0
174
0
175
0
176
0
177
0
178
0
270
2
271
2
272
2
273
2
274
2
275
0
280
0
281
0
282
0
283
1
284
8
285
0
286
0
287
3
288
0
340
11
  0
ENDTAB
  0
ENDSEC
  0
SECTION
  2
BLOCKS
  0
BLOCK
  5
20
100
AcDbEntity
  8
0
100
AcDbBlockBegin
  2
*Model_Space
 70
0
 10
0.0
 20
0.0
 30
0.0
  3
*Model_Space
  1

  0
ENDBLK
  5
21
100
AcDbEntity
  8
0
100
AcDbBlockEnd
  0
BLOCK
  5
1C
100
AcDbEntity
  8
0
100
AcDbBlockBegin
  2
*Paper_Space
 70
0
 10
0.0
 20
0.0
 30
0.0
  3
*Paper_Space
  1

  0
ENDBLK
  5
1D
100
AcDbEntity
  8
0
100
AcDbBlockEnd
  0
ENDSEC
  0
SECTION
  2
ENTITIES
  0
LINE
  5
20F
100
AcDbEntity
  8
RACCORDO
100
AcDbLine
 62
7
  6
CONTINUOUS
 10
-25.3591852673
 20
12.0839001039
 11
-25.3591852673
 21
7.9472757915
  0
LINE
  5
210
100
AcDbEntity
  8
RACCORDO
100
AcDbLine
 62
7
  6
CONTINUOUS
 10
-25.3591852673
 20
6.6482376858
 11
-25.3591852673
 21
3.1841360707
  0
LINE
  5
211
100
AcDbEntity
  8
RACCORDO
100
AcDbLine
 62
7
  6
CONTINUOUS
 10
-25.3591852673
 20
1.885097965
 11
-25.3591852673
 21
-0.5194755398
  0
LINE
  5
212
100
AcDbEntity
  8
0
100
AcDbLine
 62
7
  6
CONTINUOUS
 10
-5.9655440207
 20
27.4360935823
 11
-18.8702427773
 21
20.983744204
  0
LINE
  5
213
100
AcDbEntity
  8
RACCORDO
100
AcDbLine
 62
253
  6
CONTINUOUS
 10
-25.2127386579
 20
11.8654275995
 11
-25.2127386579
 21
7.7704990962
  0
LINE
  5
214
100
AcDbEntity
  8
RACCORDO
100
AcDbLine
 62
253
  6
CONTINUOUS
 10
-25.2127386579
 20
6.4714609905
 11
-25.2127386579
 21
3.0073593754
  0
LINE
  5
215
100
AcDbEntity
  8
RACCORDO
100
AcDbLine
 62
253
  6
CONTINUOUS
 10
-25.2127386579
 20
1.7083212697
 11
-25.2127386579
 21
-0.654556426
  0
LINE
  5
216
100
AcDbEntity
  8
0
100
AcDbLine
 62
7
  6
CONTINUOUS
 10
-24.0636901385
 20
10.2270637497
 11
-24.0636901385
 21
7.1959748365
  0
LINE
  5
217
100
AcDbEntity
  8
0
100
AcDbLine
 62
7
  6
CONTINUOUS
 10
-24.0636901385
 20
5.8969367308
 11
-24.0636901385
 21
2.4328351157
  0
LINE
  5
218
100
AcDbEntity
  8
0
100
AcDbLine
 62
7
  6
CONTINUOUS
 10
-24.0636901385
 20
1.13379701
 11
-24.0636901385
 21
-0.1652410957
  0
LINE
  5
219
100
AcDbEntity
  8
0
100
AcDbLine
 62
7
  6
CONTINUOUS
 10
-23.5333600526
 20
9.9618987068
 11
-23.5333600526
 21
5.3358060256
  0
LINE
  5
21A
100
AcDbEntity
  8
0
100
AcDbLine
 62
7
  6
CONTINUOUS
 10
-23.5333600526
 20
4.9027933237
 11
-23.5333600526
 21
0.1396536029
  0
LINE
  5
21B
100
AcDbEntity
  8
ASSI
100
AcDbLine
 62
253
  6
CONTINUOUS
 10
-20.6165445802
 20
16.2977196047
 11
-18.3894363133
 21
17.4112737381
  0
LINE
  5
21C
100
AcDbEntity
  8
ASSI
100
AcDbLine
 62
7
  6
CONTINUOUS
 10
-20.6165445802
 20
16.2977196047
 11
-20.6165445802
 21
11.9675925857
  0
LINE
  5
21D
100
AcDbEntity
  8
ASSI
100
AcDbLine
 62
7
  6
CONTINUOUS
 10
-18.141670846
 20
17.2027304989
 11
-18.141670846
 21
13.2050294528
  0
LINE
  5
21E
100
AcDbEntity
  8
ASSI
100
AcDbLine
 62
253
  6
CONTINUOUS
 10
-20.6165445802
 20
11.9675925857
 11
-18.141670846
 21
13.2050294528
  0
LINE
  5
21F
100
AcDbEntity
  8
ASSI
100
AcDbLine
 62
7
  6
CONTINUOUS
 10
-16.9042339789
 20
10.1114372851
 11
-16.9042339789
 21
14.441564304
  0
LINE
  5
220
100
AcDbEntity
  8
0
100
AcDbLine
 62
7
  6
CONTINUOUS
 10
-15.5784087642
 20
-4.4078817828
 11
-15.5784087642
 21
5.9844230626
  0
LINE
  5
221
100
AcDbEntity
  8
0
100
AcDbLine
 62
253
  6
CONTINUOUS
 10
-12.511336567
 20
12.7566600717
 11
-12.1171833555
 21
14.249461755
  0
LINE
  5
222
100
AcDbEntity
  8
0
100
AcDbLine
 62
253
  6
CONTINUOUS
 10
-11.6991568346
 20
14.0404484946
 11
-12.3442234007
 21
11.907526566
  0
LINE
  5
223
100
AcDbEntity
  8
RACCORDO
100
AcDbLine
 62
7
  6
CONTINUOUS
 10
-25.2127386579
 20
6.8250143811
 11
-24.2672539428
 21
7.2977567387
  0
LINE
  5
224
100
AcDbEntity
  8
0
100
AcDbLine
 62
7
  6
CONTINUOUS
 10
-24.0636901385
 20
7.1959748365
 11
-23.5333600526
 21
7.4611398794
  0
LINE
  5
225
100
AcDbEntity
  8
0
100
AcDbLine
 62
7
  6
CONTINUOUS
 10
-24.0636901385
 20
5.8969367308
 11
-23.5333600526
 21
6.1621017738
  0
LINE
  5
226
100
AcDbEntity
  8
0
100
AcDbLine
 62
253
  6
CONTINUOUS
 10
-13.1566467382
 20
-4.0399514996
 11
-13.1566467382
 21
2.0220094955
  0
LINE
  5
227
100
AcDbEntity
  8
0
100
AcDbLine
 62
253
  6
CONTINUOUS
 10
-9.8648096888
 20
11.7591994384
 11
-9.4462959575
 21
12.914018056
  0
LINE
  5
228
100
AcDbEntity
  8
0
100
AcDbLine
 62
253
  6
CONTINUOUS
 10
-9.3400840909
 20
12.0022486842
 11
-9.8370386962
 21
10.6539342137
  0
LINE
  5
229
100
AcDbEntity
  8
0
100
AcDbLine
 62
7
  6
CONTINUOUS
 10
-23.1003473507
 20
5.1192996747
 11
-23.5333600526
 21
4.9027933237
  0
LINE
  5
22A
100
AcDbEntity
  8
RACCORDO
100
AcDbLine
 62
7
  6
CONTINUOUS
 10
-25.2127386579
 20
2.0618746603
 11
-24.2672539428
 21
2.5346170179
  0
LINE
  5
22B
100
AcDbEntity
  8
0
100
AcDbLine
 62
7
  6
CONTINUOUS
 10
-24.0636901385
 20
2.4328351157
 11
-23.5333600526
 21
2.6980001586
  0
LINE
  5
22C
100
AcDbEntity
  8
0
100
AcDbLine
 62
253
  6
CONTINUOUS
 10
-12.5330174296
 20
1.0687332732
 11
-12.5330174296
 21
-0.2398483256
  0
LINE
  5
22D
100
AcDbEntity
  8
0
100
AcDbLine
 62
253
  6
CONTINUOUS
 10
-12.3546984242
 20
-0.3290078283
 11
-12.3546984242
 21
0.6328861695
  0
LINE
  5
22E
100
AcDbEntity
  8
0
100
AcDbLine
 62
253
  6
CONTINUOUS
 10
-11.8441019278
 20
0.7242755223
 11
-11.8441019278
 21
-0.2400053093
  0
LINE
  5
22F
100
AcDbEntity
  8
0
100
AcDbLine
 62
253
  6
CONTINUOUS
 10
-11.6662701328
 20
-0.673221974
 11
-11.6662701328
 21
0.6353596248
  0
LINE
  5
230
100
AcDbEntity
  8
0
100
AcDbLine
 62
253
  6
CONTINUOUS
 10
-11.5437367179
 20
11.5072832246
 11
-11.5437367179
 21
13.9627384362
  0
LINE
  5
231
100
AcDbEntity
  8
0
100
AcDbLine
 62
253
  6
CONTINUOUS
 10
-11.1252229866
 20
13.7534815706
 11
-11.1252229866
 21
11.298026359
  0
LINE
  5
232
100
AcDbEntity
  8
0
100
AcDbLine
 62
253
  6
CONTINUOUS
 10
-10.5676106869
 20
-0.9755144047
 11
-10.5676106869
 21
-1.222551697
  0
LINE
  5
233
100
AcDbEntity
  8
0
100
AcDbLine
 62
253
  6
CONTINUOUS
 10
-10.3595718473
 20
-1.3265711168
 11
-10.3595718473
 21
-1.0795338246
  0
LINE
  5
234
100
AcDbEntity
  8
0
100
AcDbLine
 62
253
  6
CONTINUOUS
 10
-10.3870992347
 20
12.5323200489
 11
-10.4777203686
 21
10.97427505
  0
LINE
  5
235
100
AcDbEntity
  8
0
100
AcDbLine
 62
253
  6
CONTINUOUS
 10
-10.8782073152
 20
11.1745185233
 11
-10.6974522578
 21
13.5395962062
  0
LINE
  5
236
100
AcDbEntity
  8
0
100
AcDbLine
 62
253
  6
CONTINUOUS
 10
-7.9203529932
 20
11.4761693334
 11
-8.1288790432
 21
10.6686618692
  0
LINE
  5
237
100
AcDbEntity
  8
0
100
AcDbLine
 62
253
  6
CONTINUOUS
 10
-8.2141408628
 20
10.3323829225
 11
-8.3305841477
 21
9.9007069395
  0
LINE
  5
238
100
AcDbEntity
  8
0
100
AcDbLine
 62
253
  6
CONTINUOUS
 10
-8.744225775
 20
10.1075277532
 11
-8.1152371521
 21
12.2484886533
  0
LINE
  5
239
100
AcDbEntity
  8
0
100
AcDbLine
 62
7
  6
CONTINUOUS
 10
-24.0636901385
 20
1.13379701
 11
-23.5333600526
 21
1.3989620529
  0
LINE
  5
23A
100
AcDbEntity
  8
0
100
AcDbLine
 62
7
  6
CONTINUOUS
 10
-24.0636901385
 20
-0.1652410957
 11
-23.4936303969
 21
0.1197887751
  0
LINE
  5
23B
100
AcDbEntity
  8
0
100
AcDbLine
 62
7
  6
CONTINUOUS
 10
-24.0636901385
 20
-0.1652410957
 11
-15.5784087642
 21
-4.4078817828
  0
LINE
  5
23C
100
AcDbEntity
  8
0
100
AcDbLine
 62
7
  6
CONTINUOUS
 10
-23.5333600526
 20
0.1396536029
 11
-15.5784087642
 21
-3.8378220413
  0
LINE
  5
23D
100
AcDbEntity
  8
0
100
AcDbLine
 62
253
  6
CONTINUOUS
 10
-12.3503135306
 20
0.6306937227
 11
-11.8635903437
 21
-0.5745618686
  0
LINE
  5
23E
100
AcDbEntity
  8
0
100
AcDbLine
 62
253
  6
CONTINUOUS
 10
-11.8475124006
 20
-0.2383000729
 11
-12.3352100083
 21
0.9698295625
  0
LINE
  5
23F
100
AcDbEntity
  8
0
100
AcDbLine
 62
253
  6
CONTINUOUS
 10
-9.0321671198
 20
12.7069536372
 11
-8.8441039065
 21
10.1574668189
  0
LINE
  5
240
100
AcDbEntity
  8
0
100
AcDbLine
 62
253
  6
CONTINUOUS
 10
-9.2538478506
 20
10.362338791
 11
-9.3400840909
 21
12.0022486842
  0
LINE
  5
241
100
AcDbEntity
  8
RACCORDO
100
AcDbLine
 62
7
  6
CONTINUOUS
 10
-25.2127386579
 20
1.7083212697
 11
-24.0636901385
 21
1.13379701
  0
LINE
  5
242
100
AcDbEntity
  8
0
100
AcDbLine
 62
253
  6
CONTINUOUS
 10
2.3999812476
 20
-11.8182654925
 11
-13.1566467382
 21
-4.0399514996
  0
LINE
  5
243
100
AcDbEntity
  8
RACCORDO
100
AcDbLine
 62
7
  6
CONTINUOUS
 10
-25.2127386579
 20
3.0073593754
 11
-24.0636901385
 21
2.4328351157
  0
LINE
  5
244
100
AcDbEntity
  8
0
100
AcDbLine
 62
253
  6
CONTINUOUS
 10
-12.7130416714
 20
12.0919357014
 11
-13.3483640295
 21
14.865052092
  0
LINE
  5
245
100
AcDbEntity
  8
0
100
AcDbLine
 62
253
  6
CONTINUOUS
 10
-12.8933095184
 20
14.6375248365
 11
-12.511336567
 21
12.7566600717
  0
LINE
  5
246
100
AcDbEntity
  8
0
100
AcDbLine
 62
253
  6
CONTINUOUS
 10
-6.9737031912
 20
9.2222664613
 11
-6.9737031912
 21
11.6484829595
  0
LINE
  5
247
100
AcDbEntity
  8
0
100
AcDbLine
 62
253
  6
CONTINUOUS
 10
-6.5707801927
 20
11.0579675604
 11
-6.5707801927
 21
10.3836870284
  0
LINE
  5
248
100
AcDbEntity
  8
0
100
AcDbLine
 62
253
  6
CONTINUOUS
 10
-6.5566510911
 20
9.9744409922
 11
-6.5566510911
 21
9.0137404112
  0
LINE
  5
249
100
AcDbEntity
  8
0
100
AcDbLine
 62
7
  6
CONTINUOUS
 10
-15.5784087642
 20
0.9253176796
 11
-23.5333600526
 21
4.9027933237
  0
LINE
  5
24A
100
AcDbEntity
  8
0
100
AcDbLine
 62
253
  6
CONTINUOUS
 10
-12.5330174296
 20
-0.2398483256
 11
-12.3546984242
 21
-0.3290078283
  0
LINE
  5
24B
100
AcDbEntity
  8
0
100
AcDbLine
 62
253
  6
CONTINUOUS
 10
-11.8635903437
 20
-0.5745618686
 11
-11.6662701328
 21
-0.673221974
  0
LINE
  5
24C
100
AcDbEntity
  8
0
100
AcDbLine
 62
253
  6
CONTINUOUS
 10
-10.5676106869
 20
-1.222551697
 11
-10.3595718473
 21
-1.3265711168
  0
LINE
  5
24D
100
AcDbEntity
  8
0
100
AcDbLine
 62
7
  6
CONTINUOUS
 10
-23.5333600526
 20
5.3358060256
 11
-15.5784087642
 21
1.3583303815
  0
LINE
  5
24E
100
AcDbEntity
  8
0
100
AcDbLine
 62
253
  6
CONTINUOUS
 10
-10.3595718473
 20
-1.0795338246
 11
-10.5676106869
 21
-0.9755144047
  0
LINE
  5
24F
100
AcDbEntity
  8
0
100
AcDbLine
 62
253
  6
CONTINUOUS
 10
-11.8441019278
 20
-0.2400053093
 11
-11.8475124006
 21
-0.2383000729
  0
LINE
  5
250
100
AcDbEntity
  8
RACCORDO
100
AcDbLine
 62
7
  6
CONTINUOUS
 10
-25.2127386579
 20
6.4714609905
 11
-24.0636901385
 21
5.8969367308
  0
LINE
  5
251
100
AcDbEntity
  8
0
100
AcDbLine
 62
253
  6
CONTINUOUS
 10
-12.3546984242
 20
0.6328861695
 11
-12.3503135306
 21
0.6306937227
  0
LINE
  5
252
100
AcDbEntity
  8
0
100
AcDbLine
 62
253
  6
CONTINUOUS
 10
-9.8964783646
 20
10.683654048
 11
-10.3870992347
 21
12.5323200489
  0
LINE
  5
253
100
AcDbEntity
  8
0
100
AcDbLine
 62
253
  6
CONTINUOUS
 10
-10.2784513161
 20
13.3300957353
 11
-9.8648096888
 21
11.7591994384
  0
LINE
  5
254
100
AcDbEntity
  8
0
100
AcDbLine
 62
253
  6
CONTINUOUS
 10
-7.5359439897
 20
9.5033868605
 11
-7.6445919083
 21
10.0476084453
  0
LINE
  5
255
100
AcDbEntity
  8
0
100
AcDbLine
 62
253
  6
CONTINUOUS
 10
-7.7283920966
 20
10.4684183959
 11
-7.9203529932
 21
11.4761693334
  0
LINE
  5
256
100
AcDbEntity
  8
0
100
AcDbLine
 62
253
  6
CONTINUOUS
 10
-4.4458120448
 20
2.8464688993
 11
-4.4458120448
 21
11.4666681339
  0
LINE
  5
257
100
AcDbEntity
  8
0
100
AcDbLine
 62
253
  6
CONTINUOUS
 10
-3.9508062812
 20
11.2191652521
 11
-3.9508062812
 21
2.5989660174
  0
LINE
  5
258
100
AcDbEntity
  8
0
100
AcDbLine
 62
253
  6
CONTINUOUS
 10
-11.6662701328
 20
0.6353596248
 11
-11.8441019278
 21
0.7242755223
  0
LINE
  5
259
100
AcDbEntity
  8
0
100
AcDbLine
 62
253
  6
CONTINUOUS
 10
-12.3352100083
 20
0.9698295625
 11
-12.5330174296
 21
1.0687332732
  0
LINE
  5
25A
100
AcDbEntity
  8
RACCORDO
100
AcDbLine
 62
7
  6
CONTINUOUS
 10
-25.2127386579
 20
7.7704990962
 11
-24.0636901385
 21
7.1959748365
  0
LINE
  5
25B
100
AcDbEntity
  8
0
100
AcDbLine
 62
253
  6
CONTINUOUS
 10
-13.1566467382
 20
2.0220094955
 11
2.3999812476
 21
-5.7563044974
  0
LINE
  5
25C
100
AcDbEntity
  8
0
100
AcDbLine
 62
253
  6
CONTINUOUS
 10
-7.7103653119
 20
12.0460527332
 11
-7.0945313698
 21
9.2826805505
  0
LINE
  5
25D
100
AcDbEntity
  8
0
100
AcDbLine
 62
253
  6
CONTINUOUS
 10
-1.4696873329
 20
7.5362781519
 11
-1.4696873329
 21
7.8786396167
  0
LINE
  5
25E
100
AcDbEntity
  8
0
100
AcDbLine
 62
253
  6
CONTINUOUS
 10
-1.0718800435
 20
6.2015400005
 11
-1.0718800435
 21
7.6233470249
  0
LINE
  5
25F
100
AcDbEntity
  8
0
100
AcDbLine
 62
253
  6
CONTINUOUS
 10
-0.7637194672
 20
8.0237580503
 11
-0.7637194672
 21
6.0474597123
  0
LINE
  5
260
100
AcDbEntity
  8
0
100
AcDbLine
 62
253
  6
CONTINUOUS
 10
0.1295807962
 20
7.1890982585
 11
0.0813469669
 21
6.8789092722
  0
LINE
  5
261
100
AcDbEntity
  8
0
100
AcDbLine
 62
253
  6
CONTINUOUS
 10
-0.2616491528
 20
6.7134162432
 11
-0.1037929841
 21
7.6588873653
  0
LINE
  5
262
100
AcDbEntity
  8
0
100
AcDbLine
 62
7
  6
CONTINUOUS
 10
-15.5784087642
 20
5.9844230626
 11
-24.0636901385
 21
10.2270637497
  0
LINE
  5
263
100
AcDbEntity
  8
0
100
AcDbLine
 62
253
  6
CONTINUOUS
 10
0.7108228002
 20
7.2515794731
 11
0.7108228002
 21
6.8984772565
  0
LINE
  5
264
100
AcDbEntity
  8
0
100
AcDbLine
 62
253
  6
CONTINUOUS
 10
2.3999812476
 20
-5.7563044974
 11
2.3999812476
 21
-11.8182654925
  0
LINE
  5
265
100
AcDbEntity
  8
0
100
AcDbLine
 62
253
  6
CONTINUOUS
 10
1.3300672152
 20
5.8880209917
 11
1.364171943
 21
6.1784226491
  0
LINE
  5
266
100
AcDbEntity
  8
0
100
AcDbLine
 62
253
  6
CONTINUOUS
 10
-3.9508062812
 20
2.5989660174
 11
-4.4458120448
 21
2.8464688993
  0
LINE
  5
267
100
AcDbEntity
  8
0
100
AcDbLine
 62
253
  6
CONTINUOUS
 10
-0.7637194672
 20
6.0474597123
 11
-1.0718800435
 21
6.2015400005
  0
LINE
  5
268
100
AcDbEntity
  8
0
100
AcDbLine
 62
253
  6
CONTINUOUS
 10
-5.5135336305
 20
8.4921816809
 11
-5.9159694187
 21
8.693399575
  0
LINE
  5
269
100
AcDbEntity
  8
0
100
AcDbLine
 62
253
  6
CONTINUOUS
 10
-6.5566510911
 20
9.0137404112
 11
-6.9737031912
 21
9.2222664613
  0
LINE
  5
26A
100
AcDbEntity
  8
0
100
AcDbLine
 62
253
  6
CONTINUOUS
 10
-7.0945313698
 20
9.2826805505
 11
-7.5359439897
 21
9.5033868605
  0
LINE
  5
26B
100
AcDbEntity
  8
0
100
AcDbLine
 62
253
  6
CONTINUOUS
 10
-8.3305841477
 20
9.9007069395
 11
-8.744225775
 21
10.1075277532
  0
LINE
  5
26C
100
AcDbEntity
  8
0
100
AcDbLine
 62
253
  6
CONTINUOUS
 10
-8.8441039065
 20
10.1574668189
 11
-9.2538478506
 21
10.362338791
  0
LINE
  5
26D
100
AcDbEntity
  8
0
100
AcDbLine
 62
253
  6
CONTINUOUS
 10
-9.8370386962
 20
10.6539342137
 11
-9.8964783646
 21
10.683654048
  0
LINE
  5
26E
100
AcDbEntity
  8
0
100
AcDbLine
 62
253
  6
CONTINUOUS
 10
-10.4777203686
 20
10.97427505
 11
-10.8782073152
 21
11.1745185233
  0
LINE
  5
26F
100
AcDbEntity
  8
0
100
AcDbLine
 62
253
  6
CONTINUOUS
 10
-11.1252229866
 20
11.298026359
 11
-11.5437367179
 21
11.5072832246
  0
LINE
  5
270
100
AcDbEntity
  8
0
100
AcDbLine
 62
253
  6
CONTINUOUS
 10
-12.3442234007
 20
11.907526566
 11
-12.7130416714
 21
12.0919357014
  0
LINE
  5
271
100
AcDbEntity
  8
0
100
AcDbLine
 62
253
  6
CONTINUOUS
 10
0.9344523726
 20
5.7206428505
 11
1.2326251357
 21
5.6158620703
  0
LINE
  5
272
100
AcDbEntity
  8
0
100
AcDbLine
 62
253
  6
CONTINUOUS
 10
-0.2989207482
 20
6.3212182831
 11
0.0080218021
 21
6.2066822334
  0
LINE
  5
273
100
AcDbEntity
  8
0
100
AcDbLine
 62
253
  6
CONTINUOUS
 10
-7.6445919083
 20
10.0476084453
 11
-8.2141408628
 21
10.3323829225
  0
LINE
  5
274
100
AcDbEntity
  8
0
100
AcDbLine
 62
253
  6
CONTINUOUS
 10
-8.1288790432
 20
10.6686618692
 11
-7.7283920966
 21
10.4684183959
  0
LINE
  5
275
100
AcDbEntity
  8
0
100
AcDbLine
 62
253
  6
CONTINUOUS
 10
-6.3325343084
 20
9.8623826008
 11
-6.5566510911
 21
9.9744409922
  0
LINE
  5
276
100
AcDbEntity
  8
0
100
AcDbLine
 62
253
  6
CONTINUOUS
 10
-6.5707801927
 20
10.3836870284
 11
-6.3315598876
 21
10.2640768759
  0
LINE
  5
277
100
AcDbEntity
  8
0
100
AcDbLine
 62
253
  6
CONTINUOUS
 10
0.7108228002
 20
6.8984772565
 11
0.1295807962
 21
7.1890982585
  0
LINE
  5
278
100
AcDbEntity
  8
0
100
AcDbLine
 62
253
  6
CONTINUOUS
 10
-0.1037929841
 20
7.6588873653
 11
0.7108228002
 21
7.2515794731
  0
LINE
  5
279
100
AcDbEntity
  8
0
100
AcDbLine
 62
253
  6
CONTINUOUS
 10
-1.013658401
 20
8.1487275172
 11
-0.7637194672
 21
8.0237580503
  0
LINE
  5
27A
100
AcDbEntity
  8
0
100
AcDbLine
 62
253
  6
CONTINUOUS
 10
-13.3483640295
 20
14.865052092
 11
-12.8933095184
 21
14.6375248365
  0
LINE
  5
27B
100
AcDbEntity
  8
0
100
AcDbLine
 62
253
  6
CONTINUOUS
 10
-12.1171833555
 20
14.249461755
 11
-11.6991568346
 21
14.0404484946
  0
LINE
  5
27C
100
AcDbEntity
  8
0
100
AcDbLine
 62
253
  6
CONTINUOUS
 10
-11.5437367179
 20
13.9627384362
 11
-11.1252229866
 21
13.7534815706
  0
LINE
  5
27D
100
AcDbEntity
  8
0
100
AcDbLine
 62
253
  6
CONTINUOUS
 10
-10.6974522578
 20
13.5395962062
 11
-10.2784513161
 21
13.3300957353
  0
LINE
  5
27E
100
AcDbEntity
  8
0
100
AcDbLine
 62
253
  6
CONTINUOUS
 10
-9.4462959575
 20
12.914018056
 11
-9.0321671198
 21
12.7069536372
  0
LINE
  5
27F
100
AcDbEntity
  8
0
100
AcDbLine
 62
253
  6
CONTINUOUS
 10
-8.1152371521
 20
12.2484886533
 11
-7.7103653119
 21
12.0460527332
  0
LINE
  5
280
100
AcDbEntity
  8
0
100
AcDbLine
 62
253
  6
CONTINUOUS
 10
-0.011710219
 20
6.544141175
 11
-0.2616491528
 21
6.7134162432
  0
LINE
  5
281
100
AcDbEntity
  8
0
100
AcDbLine
 62
253
  6
CONTINUOUS
 10
1.2413949229
 20
6.447913226
 11
0.9573512612
 21
6.6490091919
  0
LINE
  5
282
100
AcDbEntity
  8
0
100
AcDbLine
 62
253
  6
CONTINUOUS
 10
-4.4458120448
 20
11.4666681339
 11
-3.9508062812
 21
11.2191652521
  0
LINE
  5
283
100
AcDbEntity
  8
RACCORDO
100
AcDbLine
 62
253
  6
CONTINUOUS
 10
11.0264838779
 20
-18.7741676939
 11
11.0264838779
 21
-6.2541836684
  0
LINE
  5
284
100
AcDbEntity
  8
RACCORDO
100
AcDbLine
 62
253
  6
CONTINUOUS
 10
11.7335906591
 20
-18.833788011
 11
11.7335906591
 21
-6.1945633513
  0
LINE
  5
285
100
AcDbEntity
  8
RACCORDO
100
AcDbLine
 62
7
  6
CONTINUOUS
 10
24.6382894158
 20
0.2577860271
 11
11.7335906591
 21
-6.1945633513
  0
LINE
  5
286
100
AcDbEntity
  8
RACCORDO
100
AcDbLine
 62
7
  6
CONTINUOUS
 10
24.6382894158
 20
-12.3814386327
 11
11.7335906591
 21
-18.833788011
  0
LINE
  5
287
100
AcDbEntity
  8
RACCORDO
100
AcDbLine
 62
253
  6
CONTINUOUS
 10
24.6382894158
 20
0.2577860271
 11
24.6382894158
 21
-12.3814386327
  0
LINE
  5
288
100
AcDbEntity
  8
RACCORDO
100
AcDbLine
 62
7
  6
CONTINUOUS
 10
24.7847360252
 20
0.4166382143
 11
24.7847360252
 21
-12.1867374294
  0
LINE
  5
289
100
AcDbEntity
  8
0
100
AcDbLine
 62
7
  6
CONTINUOUS
 10
18.2957935352
 20
-21.0865815295
 11
5.3910947786
 21
-27.5389309078
  0
ARC
  5
28A
100
AcDbEntity
  8
RACCORDO
100
AcDbCircle
 62
7
  6
CONTINUOUS
 10
11.5163483205
 20
7.035196587
 40
37.6432934381
100
AcDbArc
 50
191.6049722583
 51
191.8255419286
  0
ARC
  5
28B
100
AcDbEntity
  8
RACCORDO
100
AcDbCircle
 62
7
  6
CONTINUOUS
 10
5.7535086466
 20
-7.3213183901
 40
19.648751816
100
AcDbArc
 50
344.9944636737
 51
345.5347967328
  0
ARC
  5
28C
100
AcDbEntity
  8
RACCORDO
100
AcDbCircle
 62
253
  6
CONTINUOUS
 10
13.7278091795
 20
-11.9540681596
 40
10.2112576787
100
AcDbArc
 50
299.9554332243
 51
300.2403394237
  0
ARC
  5
28D
100
AcDbEntity
  8
RACCORDO
100
AcDbCircle
 62
253
  6
CONTINUOUS
 10
13.7385287617
 20
-11.9728635118
 40
10.1896205532
100
AcDbArc
 50
296.5670930541
 51
299.955980987
  0
ARC
  5
28E
100
AcDbEntity
  8
ASSI
100
AcDbCircle
 62
7
  6
CONTINUOUS
 10
-14.4932998901
 20
17.503201044
 40
3.2285862557
100
AcDbArc
 50
197.9509864885
 51
215.1718502052
  0
ARC
  5
28F
100
AcDbEntity
  8
RACCORDO
100
AcDbCircle
 62
7
  6
CONTINUOUS
 10
-25.1894236636
 20
12.084386715
 40
0.1697384062
100
AcDbArc
 50
165.6060365968
 51
180.0000336146
  0
ARC
  5
290
100
AcDbEntity
  8
RACCORDO
100
AcDbCircle
 62
7
  6
CONTINUOUS
 10
24.6149744215
 20
-12.1872240405
 40
0.1697384062
100
AcDbArc
 50
345.6060365968
 51
0.0000336146
  0
ARC
  5
291
100
AcDbEntity
  8
RACCORDO
100
AcDbCircle
 62
7
  6
CONTINUOUS
 10
-25.2696882965
 20
-0.5191890815
 40
0.0895676878
100
AcDbArc
 50
191.6246074989
 51
201.83476544
  0
ARC
  5
292
100
AcDbEntity
  8
RACCORDO
100
AcDbCircle
 62
7
  6
CONTINUOUS
 10
-25.2728097323
 20
-0.5199734059
 40
0.0863523485
100
AcDbArc
 50
180.028870528
 51
191.5321989106
  0
ARC
  5
293
100
AcDbEntity
  8
RACCORDO
100
AcDbCircle
 62
7
  6
CONTINUOUS
 10
24.6983604902
 20
0.4171360804
 40
0.0863523485
100
AcDbArc
 50
0.028870528
 51
11.5321989106
  0
SPLINE
  5
294
100
AcDbEntity
  8
ASSI
100
AcDbSpline
 62
7
  6
CONTINUOUS
 70
0
 71
3
 72
17
 73
13
 74
11
 42
0.0000001
 43
0.0000001
 44
0.0000000001
 12
0.0
 22
5.07761817
 32
0.0
 13
-4.5415704488
 23
-2.2707584943
 33
0.0
 40
0.0
 40
0.0
 40
0.0
 40
0.0
 40
0.1325729272
 40
0.2747649711
 40
0.4200191094
 40
0.5612169537
 40
0.6919617589
 40
0.8079410516
 40
0.860207104
 40
0.9090259249
 40
0.955225033
 40
1.0
 40
1.0
 40
1.0
 40
1.0
 10
-16.9042339789
 20
14.441564304
 30
0.0
 10
-16.9042339789
 20
14.6659492054
 30
0.0
 10
-16.9596908411
 20
15.1317024309
 30
0.0
 10
-17.1743208874
 20
15.8129459223
 30
0.0
 10
-17.5081186327
 20
16.4610815187
 30
0.0
 10
-17.9364239963
 20
17.027334509
 30
0.0
 10
-18.4273806365
 20
17.4696676035
 30
0.0
 10
-18.8773279377
 20
17.7162706377
 30
0.0
 10
-19.2336361491
 20
17.812290296
 30
0.0
 10
-19.4836207061
 20
17.8331867925
 30
0.0
 10
-19.7202225341
 20
17.8043263747
 30
0.0
 10
-19.8665256632
 20
17.7514005558
 30
0.0
 10
-19.9343085522
 20
17.7175095103
 30
0.0
 11
-16.9042339789
 21
14.441564304
 31
0.0
 11
-16.9775255057
 21
15.1107172073
 31
0.0
 11
-17.1915878399
 21
15.8002509981
 31
0.0
 11
-17.529536382
 21
16.4558144856
 31
0.0
 11
-17.9646756237
 21
17.0256121132
 31
0.0
 11
-18.4626466376
 21
17.4646464684
 31
0.0
 11
-18.9841303453
 21
17.7382451913
 31
0.0
 11
-19.2408029156
 21
17.805695038
 31
0.0
 11
-19.487947254
 21
17.8248215188
 31
0.0
 11
-19.7206543908
 21
17.7952269881
 31
0.0
 11
-19.9343085522
 21
17.7175095103
 31
0.0
  0
SPLINE
  5
295
100
AcDbEntity
  8
ASSI
100
AcDbSpline
 62
7
  6
CONTINUOUS
 70
0
 71
3
 72
9
 73
5
 74
3
 42
0.0000001
 43
0.0000001
 44
0.0000000001
 12
-0.2865787063
 22
-0.0274678615
 32
0.0
 13
-0.2574837285
 23
-0.1287787556
 33
0.0
 40
0.0
 40
0.0
 40
0.0
 40
0.0
 40
0.5053872214
 40
1.0
 40
1.0
 40
1.0
 40
1.0
 10
-16.9042758503
 20
14.1437913225
 30
0.0
 10
-16.952553589
 20
14.1391640204
 30
0.0
 10
-17.047521547
 20
14.1217579318
 30
0.0
 10
-17.1376494032
 20
14.0869527303
 30
0.0
 10
-17.180100984
 20
14.0657208576
 30
0.0
 11
-16.9042758503
 21
14.1437913225
 31
0.0
 11
-17.0473085332
 21
14.1171263748
 31
0.0
 11
-17.180100984
 21
14.0657208576
 31
0.0
  0
SPLINE
  5
296
100
AcDbEntity
  8
RACCORDO
100
AcDbSpline
 62
7
  6
CONTINUOUS
 70
0
 71
3
 72
11
 73
7
 74
5
 42
0.0000001
 43
0.0000001
 44
0.0000000001
 12
-0.2152380197
 22
0.1076190098
 32
0.0
 13
0.0
 23
0.2406434217
 33
0.0
 40
0.0
 40
0.0
 40
0.0
 40
0.0
 40
0.3024673256
 40
0.5655230414
 40
0.7934184043
 40
1.0
 40
1.0
 40
1.0
 40
1.0
 10
-25.2127386579
 20
7.7704990962
 30
0.0
 10
-25.2344394806
 20
7.7813495076
 30
0.0
 10
-25.2736705499
 20
7.8046404529
 30
0.0
 10
-25.3213090566
 20
7.8476643434
 30
0.0
 10
-25.3518575868
 20
7.8955886026
 30
0.0
 10
-25.3591852673
 20
7.9307049575
 30
0.0
 10
-25.3591852673
 20
7.9472757915
 30
0.0
 11
-25.2127386579
 21
7.7704990962
 31
0.0
 11
-25.2748953695
 21
7.8083733276
 31
0.0
 11
-25.321130188
 21
7.8516117851
 31
0.0
 11
-25.3495719281
 21
7.8985016532
 31
0.0
 11
-25.3591852673
 21
7.9472757915
 31
0.0
  0
SPLINE
  5
297
100
AcDbEntity
  8
RACCORDO
100
AcDbSpline
 62
7
  6
CONTINUOUS
 70
0
 71
3
 72
11
 73
7
 74
5
 42
0.0000001
 43
0.0000001
 44
0.0000000001
 12
-0.2152380197
 22
-0.1076190098
 32
0.0
 13
0.0
 23
-0.2406434217
 33
0.0
 40
0.0
 40
0.0
 40
0.0
 40
0.0
 40
0.3024673256
 40
0.5655230414
 40
0.7934184043
 40
1.0
 40
1.0
 40
1.0
 40
1.0
 10
-25.2127386579
 20
6.8250143811
 30
0.0
 10
-25.2344394806
 20
6.8141639698
 30
0.0
 10
-25.2736705499
 20
6.7908730244
 30
0.0
 10
-25.3213090566
 20
6.7478491339
 30
0.0
 10
-25.3518575868
 20
6.6999248748
 30
0.0
 10
-25.3591852673
 20
6.6648085198
 30
0.0
 10
-25.3591852673
 20
6.6482376858
 30
0.0
 11
-25.2127386579
 21
6.8250143811
 31
0.0
 11
-25.2748953695
 21
6.7871401498
 31
0.0
 11
-25.321130188
 21
6.7439016922
 31
0.0
 11
-25.3495719281
 21
6.6970118241
 31
0.0
 11
-25.3591852673
 21
6.6482376858
 31
0.0
  0
SPLINE
  5
298
100
AcDbEntity
  8
RACCORDO
100
AcDbSpline
 62
7
  6
CONTINUOUS
 70
0
 71
3
 72
11
 73
7
 74
5
 42
0.0000001
 43
0.0000001
 44
0.0000000001
 12
-0.2152380197
 22
0.1076190098
 32
0.0
 13
0.0
 23
0.2406434217
 33
0.0
 40
0.0
 40
0.0
 40
0.0
 40
0.0
 40
0.3024673256
 40
0.5655230414
 40
0.7934184043
 40
1.0
 40
1.0
 40
1.0
 40
1.0
 10
-25.2127386579
 20
3.0073593754
 30
0.0
 10
-25.2344394806
 20
3.0182097868
 30
0.0
 10
-25.2736705499
 20
3.0415007321
 30
0.0
 10
-25.3213090566
 20
3.0845246226
 30
0.0
 10
-25.3518575868
 20
3.1324488818
 30
0.0
 10
-25.3591852673
 20
3.1675652367
 30
0.0
 10
-25.3591852673
 20
3.1841360707
 30
0.0
 11
-25.2127386579
 21
3.0073593754
 31
0.0
 11
-25.2748953695
 21
3.0452336068
 31
0.0
 11
-25.321130188
 21
3.0884720643
 31
0.0
 11
-25.3495719281
 21
3.1353619324
 31
0.0
 11
-25.3591852673
 21
3.1841360707
 31
0.0
  0
SPLINE
  5
299
100
AcDbEntity
  8
RACCORDO
100
AcDbSpline
 62
7
  6
CONTINUOUS
 70
0
 71
3
 72
11
 73
7
 74
5
 42
0.0000001
 43
0.0000001
 44
0.0000000001
 12
-0.2152380197
 22
-0.1076190098
 32
0.0
 13
0.0
 23
-0.2406434217
 33
0.0
 40
0.0
 40
0.0
 40
0.0
 40
0.0
 40
0.3024673256
 40
0.5655230414
 40
0.7934184043
 40
1.0
 40
1.0
 40
1.0
 40
1.0
 10
-25.2127386579
 20
2.0618746603
 30
0.0
 10
-25.2344394806
 20
2.0510242489
 30
0.0
 10
-25.2736705499
 20
2.0277333036
 30
0.0
 10
-25.3213090566
 20
1.9847094131
 30
0.0
 10
-25.3518575868
 20
1.9367851539
 30
0.0
 10
-25.3591852673
 20
1.901668799
 30
0.0
 10
-25.3591852673
 20
1.885097965
 30
0.0
 11
-25.2127386579
 21
2.0618746603
 31
0.0
 11
-25.2748953695
 21
2.0240004289
 31
0.0
 11
-25.321130188
 21
1.9807619714
 31
0.0
 11
-25.3495719281
 21
1.9338721033
 31
0.0
 11
-25.3591852673
 21
1.885097965
 31
0.0
  0
SPLINE
  5
29A
100
AcDbEntity
  8
ASSI
100
AcDbSpline
 62
7
  6
CONTINUOUS
 70
0
 71
3
 72
12
 73
8
 74
6
 42
0.0000001
 43
0.0000001
 44
0.0000000001
 12
1.4797795764
 22
0.7398810787
 32
0.0
 13
-0.0
 23
1.6544399673
 33
0.0
 40
0.0
 40
0.0
 40
0.0
 40
0.0
 40
0.1078349883
 40
0.2178206196
 40
0.4508866469
 40
0.7104931224
 40
1.0
 40
1.0
 40
1.0
 40
1.0
 10
-17.5864700069
 20
8.6916473795
 30
0.0
 10
-17.5332793358
 20
8.718242402
 30
0.0
 10
-17.4305042227
 20
8.7819270569
 30
0.0
 10
-17.2449225058
 20
8.9491079115
 30
0.0
 10
-17.059658834
 20
9.2321780792
 30
0.0
 10
-16.9300843313
 20
9.6477637192
 30
0.0
 10
-16.9042339789
 20
9.9517800354
 30
0.0
 10
-16.9042339789
 20
10.1114372851
 30
0.0
 11
-17.5864700069
 21
8.6916473795
 31
0.0
 11
-17.4347349363
 21
8.7854842208
 31
0.0
 11
-17.2992552261
 21
8.9069600315
 31
0.0
 11
-17.0834466367
 21
9.2265053228
 31
0.0
 11
-16.9495917341
 21
9.6346180212
 31
0.0
 11
-16.9042339789
 21
10.1114372851
 31
0.0
  0
SPLINE
  5
29B
100
AcDbEntity
  8
RACCORDO
100
AcDbSpline
 62
7
  6
CONTINUOUS
 70
0
 71
3
 72
13
 73
9
 74
7
 42
0.0000001
 43
0.0000001
 44
0.0000000001
 12
-10.1182628651
 22
-5.0591314326
 32
0.0
 13
-2.8258942311
 23
-10.9539205792
 33
0.0
 40
0.0
 40
0.0
 40
0.0
 40
0.0
 40
0.1159168016
 40
0.2328177421
 40
0.3516422571
 40
0.4732547971
 40
0.727386834
 40
1.0
 40
1.0
 40
1.0
 40
1.0
 10
-18.8702427773
 20
20.983744204
 30
0.0
 10
-19.2612016669
 20
20.7882647592
 30
0.0
 10
-20.0226302999
 20
20.3458493019
 30
0.0
 10
-21.0802440794
 20
19.5408171402
 30
0.0
 10
-22.0486890681
 20
18.5992606357
 30
0.0
 10
-23.2296485758
 20
17.1512368974
 30
0.0
 10
-24.4504244926
 20
15.011801161
 30
0.0
 10
-25.097042889
 20
13.1219761037
 30
0.0
 10
-25.35383488
 20
12.1265817807
 30
0.0
 11
-18.8702427773
 21
20.983744204
 31
0.0
 11
-20.0042416551
 21
20.3252640254
 31
0.0
 11
-21.057212924
 21
19.5251870513
 31
0.0
 11
-22.0222059596
 21
18.5894049865
 31
0.0
 11
-22.8933346918
 21
17.5245946426
 31
0.0
 11
-24.3352818669
 21
15.0374781415
 31
0.0
 11
-25.35383488
 21
12.1265817807
 31
0.0
  0
SPLINE
  5
29C
100
AcDbEntity
  8
RACCORDO
100
AcDbSpline
 62
7
  6
CONTINUOUS
 70
0
 71
3
 72
25
 73
21
 74
19
 42
0.0000001
 43
0.0000001
 44
0.0000000001
 12
9.3697580839
 22
-44.751173691
 32
0.0
 13
40.8945953717
 23
20.4472976859
 33
0.0
 40
0.0
 40
0.0
 40
0.0
 40
0.0
 40
0.0703269958
 40
0.142155206
 40
0.2148479804
 40
0.2877291768
 40
0.3601192615
 40
0.4313551514
 40
0.5008158088
 40
0.567947634
 40
0.6322918151
 40
0.6935142284
 40
0.7514374159
 40
0.8060738719
 40
0.8576559037
 40
0.9066538171
 40
0.9304205552
 40
0.9538219695
 40
0.9769744904
 40
1.0
 40
1.0
 40
1.0
 40
1.0
 10
-25.3280087156
 20
-0.679133939
 30
0.0
 10
-25.1083597364
 20
-1.7282058076
 30
0.0
 10
-24.5741673369
 20
-3.8307829582
 30
0.0
 10
-23.5178057247
 20
-6.9333909136
 30
0.0
 10
-22.2114542346
 20
-9.9818399032
 30
0.0
 10
-20.6746669273
 20
-12.9304254865
 30
0.0
 10
-18.9303819474
 20
-15.7351933765
 30
0.0
 10
-17.0044673184
 20
-18.3542545075
 30
0.0
 10
-14.9252890735
 20
-20.7485694792
 30
0.0
 10
-12.7231377161
 20
-22.8824939154
 30
0.0
 10
-10.4296309127
 20
-24.7242399855
 30
0.0
 10
-8.0770643909
 20
-26.2461254751
 30
0.0
 10
-5.69795651
 20
-27.4245905219
 30
0.0
 10
-3.3245124798
 20
-28.2398189136
 30
0.0
 10
-0.9900449805
 20
-28.6755645383
 30
0.0
 10
0.9154442195
 20
-28.7114997306
 30
0.0
 10
2.3723785361
 20
-28.5357480678
 30
0.0
 10
3.4210882625
 20
-28.3065277282
 30
0.0
 10
4.4314247043
 20
-27.979098029
 30
0.0
 10
5.0772218119
 20
-27.6958673911
 30
0.0
 10
5.3910947786
 20
-27.5389309078
 30
0.0
 11
-25.3280087156
 21
-0.679133939
 31
0.0
 11
-24.539485365
 21
-3.7964096826
 31
0.0
 11
-23.4830683769
 21
-6.9059555957
 31
0.0
 11
-22.1747723543
 21
-9.9612546438
 31
0.0
 11
-20.6344272745
 21
-12.9161095801
 31
0.0
 11
-18.885264986
 21
-15.7259350759
 31
0.0
 11
-16.9535767946
 21
-18.3482867428
 31
0.0
 11
-14.8682533192
 21
-20.7435824037
 31
0.0
 11
-12.6602758809
 21
-22.8756878402
 31
0.0
 11
-10.3621680954
 21
-24.7124152659
 31
0.0
 11
-8.0074283227
 21
-26.2258976071
 31
0.0
 11
-5.6300224677
 21
-27.3927884985
 31
0.0
 11
-3.2640361772
 21
-28.1943053392
 31
0.0
 11
-0.9436688462
 21
-28.6161994927
 31
0.0
 11
1.2963520787
 21
-28.6489570364
 31
0.0
 11
2.3750757821
 21
-28.5179309214
 31
0.0
 11
3.4201814297
 21
-28.2887044431
 31
0.0
 11
4.4270508286
 21
-27.9619284889
 31
0.0
 11
5.3910947786
 21
-27.5389309078
 31
0.0
  0
SPLINE
  5
29D
100
AcDbEntity
  8
RACCORDO
100
AcDbSpline
 62
7
  6
CONTINUOUS
 70
0
 71
3
 72
13
 73
9
 74
7
 42
0.0000001
 43
0.0000001
 44
0.0000000001
 12
9.9529084063
 22
4.9764542032
 32
0.0
 13
2.881202178
 23
10.748216419
 33
0.0
 40
0.0
 40
0.0
 40
0.0
 40
0.0
 40
0.1161306815
 40
0.2332192854
 40
0.3521811341
 40
0.4738606846
 40
0.7278725211
 40
1.0
 40
1.0
 40
1.0
 40
1.0
 10
18.2957935352
 20
-21.0865815295
 30
0.0
 10
18.6810728807
 20
-20.8939418567
 30
0.0
 10
19.4316818766
 20
-20.4587305597
 30
0.0
 10
20.4756732071
 20
-19.6685074693
 30
0.0
 10
21.4332846796
 20
-18.745516701
 30
0.0
 10
22.6032608909
 20
-17.3276873335
 30
0.0
 10
23.818855285
 20
-15.2344414819
 30
0.0
 10
24.4709025687
 20
-13.3835851367
 30
0.0
 10
24.732253997
 20
-12.4086234579
 30
0.0
 11
18.2957935352
 21
-21.0865815295
 31
0.0
 11
19.4139044678
 21
-20.4386772924
 31
0.0
 11
20.4534253534
 21
-19.6531764097
 31
0.0
 11
21.4076808128
 21
-18.7356988807
 31
0.0
 11
22.2709989474
 21
-17.6926115808
 31
0.0
 11
23.7067284226
 21
-15.257832277
 31
0.0
 11
24.732253997
 21
-12.4086234579
 31
0.0
  0
SPLINE
  5
29E
100
AcDbEntity
  8
RACCORDO
100
AcDbSpline
 62
7
  6
CONTINUOUS
 70
0
 71
3
 72
25
 73
21
 74
19
 42
0.0000001
 43
0.0000001
 44
0.0000000001
 12
-9.2265339126
 22
44.9287229497
 32
0.0
 13
-41.024081454
 23
-20.512040727
 33
0.0
 40
0.0
 40
0.0
 40
0.0
 40
0.0
 40
0.0702227194
 40
0.1419789326
 40
0.2146281811
 40
0.2874917102
 40
0.3598861224
 40
0.4311437941
 40
0.5006387156
 40
0.5678121098
 40
0.6322000333
 40
0.6934635475
 40
0.7514210188
 40
0.8060817726
 40
0.8576763841
 40
0.9066752833
 40
0.930438903
 40
0.9538353097
 40
0.9769814983
 40
1.0
 40
1.0
 40
1.0
 40
1.0
 10
24.7829839884
 20
0.4344012964
 30
0.0
 10
24.5670132213
 20
1.486073664
 30
0.0
 10
24.0393486176
 20
3.5946292227
 30
0.0
 10
22.9907453423
 20
6.7072970113
 30
0.0
 10
21.6900036481
 20
9.7673666766
 30
0.0
 10
20.1567287306
 20
12.7286792643
 30
0.0
 10
18.4139343604
 20
15.5468456056
 30
0.0
 10
16.4876184301
 20
18.1795375819
 30
0.0
 10
14.4063199247
 20
20.5872892227
 30
0.0
 10
12.2005405133
 20
22.7340530676
 30
0.0
 10
9.902139122
 20
24.5876718488
 30
0.0
 10
7.5436730075
 20
26.1201361708
 30
0.0
 10
5.1579323908
 20
27.3076076014
 30
0.0
 10
2.7773899123
 20
28.1300372585
 30
0.0
 10
0.4356264525
 20
28.5709854956
 30
0.0
 10
-1.4760558227
 20
28.6094735508
 30
0.0
 10
-2.9376698322
 20
28.4345522726
 30
0.0
 10
-3.989652356
 20
28.2053827606
 30
0.0
 10
-5.00307002
 20
27.8774343546
 30
0.0
 10
-5.650773058
 20
27.5934790636
 30
0.0
 10
-5.9655440207
 20
27.4360935823
 30
0.0
 11
24.7829839884
 21
0.4344012964
 31
0.0
 11
24.0044399302
 21
3.5597480641
 31
0.0
 11
22.955847119
 21
6.6794285181
 31
0.0
 11
21.6532168038
 21
9.7464141983
 31
0.0
 11
20.1164065311
 21
12.7140826833
 31
0.0
 11
18.3687305086
 21
15.5373993376
 31
0.0
 11
16.4366116244
 21
18.1734717814
 31
0.0
 11
14.3491169633
 21
20.582282716
 31
0.0
 11
12.1374437064
 21
22.7272860058
 31
0.0
 11
9.8343635864
 21
24.5759153279
 31
0.0
 11
7.4736472778
 21
26.099967547
 31
0.0
 11
5.0895477681
 21
27.2758102063
 31
0.0
 11
2.7164430322
 21
28.0844272711
 31
0.0
 11
0.3888235501
 21
28.5113886329
 31
0.0
 11
-1.8582925879
 21
28.5470485158
 31
0.0
 11
-2.9404121586
 21
28.4166351909
 31
0.0
 11
-3.988760996
 21
28.1874553893
 31
0.0
 11
-4.9986812281
 21
27.8601630085
 31
0.0
 11
-5.9655440207
 21
27.4360935823
 31
0.0
  0
SPLINE
  5
29F
100
AcDbEntity
  8
ASSI
100
AcDbSpline
 62
7
  6
CONTINUOUS
 70
0
 71
3
 72
12
 73
8
 74
6
 42
0.0000001
 43
0.0000001
 44
0.0000000001
 12
-1.1272166698
 22
-0.5637698386
 32
0.0
 13
0.0
 23
-1.2603387845
 33
0.0
 40
0.0
 40
0.0
 40
0.0
 40
0.0
 40
0.10783289
 40
0.2178189047
 40
0.4508880742
 40
0.7105018152
 40
1.0
 40
1.0
 40
1.0
 40
1.0
 10
-17.180100984
 20
14.0657208576
 30
0.0
 10
-17.2206179944
 20
14.0454565473
 30
0.0
 10
-17.2988863186
 20
13.9969032374
 30
0.0
 10
-17.4402546782
 20
13.8695426852
 30
0.0
 10
-17.5813515373
 20
13.6538694429
 30
0.0
 10
-17.6800391669
 20
13.3372773343
 30
0.0
 10
-17.6997291078
 20
13.1056805138
 30
0.0
 10
-17.6997291078
 20
12.9840585837
 30
0.0
 11
-17.180100984
 21
14.0657208576
 31
0.0
 11
-17.2956679794
 21
13.9942037044
 31
0.0
 11
-17.3988637368
 21
13.9016507991
 31
0.0
 11
-17.5632347642
 21
13.6581986587
 31
0.0
 11
-17.6651835439
 21
13.3472853021
 31
0.0
 11
-17.6997291078
 21
12.9840585837
 31
0.0
  0
SPLINE
  5
2A0
100
AcDbEntity
  8
ASSI
100
AcDbSpline
 62
7
  6
CONTINUOUS
 70
0
 71
3
 72
17
 73
13
 74
11
 42
0.0000001
 43
0.0000001
 44
0.0000000001
 12
0.0
 22
-5.07761817
 32
0.0
 13
4.5415704488
 23
2.2707584943
 33
0.0
 40
0.0
 40
0.0
 40
0.0
 40
0.0
 40
0.1325729272
 40
0.2747649711
 40
0.4200191094
 40
0.5612169537
 40
0.6919617589
 40
0.8079410516
 40
0.860207104
 40
0.9090259249
 40
0.955225033
 40
1.0
 40
1.0
 40
1.0
 40
1.0
 10
-20.6165445802
 20
11.9675925857
 30
0.0
 10
-20.6165445802
 20
11.7432076843
 30
0.0
 10
-20.5610877181
 20
11.2774544589
 30
0.0
 10
-20.3464576718
 20
10.5962109675
 30
0.0
 10
-20.0126599265
 20
9.9480753711
 30
0.0
 10
-19.5843545628
 20
9.3818223808
 30
0.0
 10
-19.0933979226
 20
8.9394892863
 30
0.0
 10
-18.6434506214
 20
8.6928862521
 30
0.0
 10
-18.28714241
 20
8.5968665938
 30
0.0
 10
-18.037157853
 20
8.5759700973
 30
0.0
 10
-17.800556025
 20
8.6048305151
 30
0.0
 10
-17.6542528959
 20
8.6577563339
 30
0.0
 10
-17.5864700069
 20
8.6916473795
 30
0.0
 11
-20.6165445802
 21
11.9675925857
 31
0.0
 11
-20.5432530535
 21
11.2984396825
 31
0.0
 11
-20.3291907192
 21
10.6089058917
 31
0.0
 11
-19.9912421771
 21
9.9533424042
 31
0.0
 11
-19.5561029354
 21
9.3835447766
 31
0.0
 11
-19.0581319215
 21
8.9445104213
 31
0.0
 11
-18.5366482138
 21
8.6709116985
 31
0.0
 11
-18.2799756435
 21
8.6034618517
 31
0.0
 11
-18.0328313051
 21
8.5843353709
 31
0.0
 11
-17.8001241684
 21
8.6139299016
 31
0.0
 11
-17.5864700069
 21
8.6916473795
 31
0.0
  0
SPLINE
  5
2A1
100
AcDbEntity
  8
RACCORDO
100
AcDbSpline
 62
7
  6
CONTINUOUS
 70
0
 71
3
 72
11
 73
7
 74
5
 42
0.0000001
 43
0.0000001
 44
0.0000000001
 12
0.000061826
 22
-0.2733534498
 32
0.0
 13
0.2271532021
 23
-0.1520642467
 33
0.0
 40
0.0
 40
0.0
 40
0.0
 40
0.0
 40
0.2147561364
 40
0.448583511
 40
0.7098665139
 40
1.0
 40
1.0
 40
1.0
 40
1.0
 10
-25.3591620698
 20
12.0843866155
 30
0.0
 10
-25.3591576439
 20
12.0648185052
 30
0.0
 10
-25.3519204487
 20
12.0237298271
 30
0.0
 10
-25.3218499643
 20
11.965619354
 30
0.0
 10
-25.2744786092
 20
11.9112944167
 30
0.0
 10
-25.234706908
 20
11.8801339095
 30
0.0
 10
-25.2127386579
 20
11.8654275995
 30
0.0
 11
-25.3591620698
 21
12.0843866155
 31
0.0
 11
-25.3495316251
 21
12.0264776079
 31
0.0
 11
-25.3210289935
 21
11.9692670363
 31
0.0
 11
-25.2747582194
 21
11.9148592705
 31
0.0
 11
-25.2127386579
 21
11.8654275995
 31
0.0
  0
SPLINE
  5
2A2
100
AcDbEntity
  8
RACCORDO
100
AcDbSpline
 62
253
  6
CONTINUOUS
 70
0
 71
3
 72
25
 73
21
 74
19
 42
0.0000001
 43
0.0000001
 44
0.0000000001
 12
40.9807269535
 22
20.4910243552
 32
0.0
 13
9.1892995091
 23
-44.8871789635
 33
0.0
 40
0.0
 40
0.0
 40
0.0
 40
0.0
 40
0.0224816317
 40
0.0451060477
 40
0.0680111717
 40
0.0913257075
 40
0.1395857867
 40
0.1906771945
 40
0.2450652406
 40
0.3029527154
 40
0.3643124229
 40
0.4289259633
 40
0.4964210678
 40
0.5663050979
 40
0.6379947429
 40
0.7108428725
 40
0.7841630593
 40
0.8572541627
 40
0.9294197069
 40
1.0
 40
1.0
 40
1.0
 40
1.0
 10
-18.870239457
 20
20.9837375635
 30
0.0
 10
-18.5631349206
 20
21.1372947842
 30
0.0
 10
-17.930865294
 20
21.4142943787
 30
0.0
 10
-16.9407714329
 20
21.7337377478
 30
0.0
 10
-15.9114348857
 20
21.9565268241
 30
0.0
 10
-14.476529462
 20
22.1256702102
 30
0.0
 10
-12.5928580009
 20
22.0830936377
 30
0.0
 10
-10.2775783236
 20
21.6405317672
 30
0.0
 10
-7.9140438298
 20
20.8167205509
 30
0.0
 10
-5.5372612348
 20
19.6260736022
 30
0.0
 10
-3.1816411004
 20
18.0876386073
 30
0.0
 10
-0.8818642057
 20
16.2250336952
 30
0.0
 10
1.3279199131
 20
14.0665255693
 30
0.0
 10
3.4146010493
 20
11.644779047
 30
0.0
 10
5.3467406624
 20
8.9964687323
 30
0.0
 10
7.0951136073
 20
6.1617361995
 30
0.0
 10
8.6332263565
 20
3.1836111604
 30
0.0
 10
9.9377244356
 20
0.1072218879
 30
0.0
 10
10.9887866769
 20
-3.0204646641
 30
0.0
 10
11.5173961748
 20
-5.1385132684
 30
0.0
 10
11.7335906591
 20
-6.1945633513
 30
0.0
 11
-18.870239457
 21
20.9837375635
 31
0.0
 11
-17.9268113438
 21
21.3972354988
 31
0.0
 11
-16.9404295635
 21
21.7159964629
 31
0.0
 11
-15.9148804674
 21
21.9387895683
 31
0.0
 11
-14.8541075656
 21
22.0647792147
 31
0.0
 11
-12.6432831481
 21
22.0247307309
 31
0.0
 11
-10.3418780439
 21
21.5964670333
 31
0.0
 11
-7.985203497
 21
20.7865623527
 31
0.0
 11
-5.6094176817
 21
19.6074446938
 31
0.0
 11
-3.2509715656
 21
18.0772051877
 31
0.0
 11
-0.9460503172
 21
16.2193208097
 31
0.0
 11
1.2699812717
 21
14.0622946967
 31
0.0
 11
3.3631212394
 21
11.6392202849
 31
0.0
 11
5.3012547046
 21
8.9872771158
 31
0.0
 11
7.0546465614
 21
6.1471542103
 31
0.0
 11
8.5963941809
 21
3.1624353264
 31
0.0
 11
9.9028494528
 21
0.0788828694
 31
0.0
 11
10.953946451
 21
-3.0560937558
 31
0.0
 11
11.7335906591
 21
-6.1945633513
 31
0.0
  0
SPLINE
  5
2A3
100
AcDbEntity
  8
RACCORDO
100
AcDbSpline
 62
7
  6
CONTINUOUS
 70
0
 71
3
 72
10
 73
6
 74
4
 42
0.0000001
 43
0.0000001
 44
0.0000000001
 12
0.0658179142
 22
-0.1647134983
 32
0.0
 13
0.1684137533
 23
-0.0556717347
 33
0.0
 40
0.0
 40
0.0
 40
0.0
 40
0.0
 40
0.4241147443
 40
0.6923560467
 40
1.0
 40
1.0
 40
1.0
 40
1.0
 10
-25.3528304271
 20
-0.5525020943
 30
0.0
 10
-25.3435256445
 20
-0.575787902
 30
0.0
 10
-25.3130639543
 20
-0.607157162
 30
0.0
 10
-25.2618817608
 20
-0.6362864865
 30
0.0
 10
-25.2300091488
 20
-0.6488474018
 30
0.0
 10
-25.2127386579
 20
-0.654556426
 30
0.0
 11
-25.3528304271
 21
-0.5525020943
 31
0.0
 11
-25.3043393005
 21
-0.6100162755
 31
0.0
 11
-25.2633783047
 21
-0.6342243945
 31
0.0
 11
-25.2127386579
 21
-0.654556426
 31
0.0
  0
SPLINE
  5
2A4
100
AcDbEntity
  8
RACCORDO
100
AcDbSpline
 62
7
  6
CONTINUOUS
 70
0
 71
3
 72
11
 73
7
 74
5
 42
0.0000001
 43
0.0000001
 44
0.0000000001
 12
0.0
 22
-0.2406434217
 32
0.0
 13
0.2152380197
 23
-0.1076190098
 33
0.0
 40
0.0
 40
0.0
 40
0.0
 40
0.0
 40
0.2065815957
 40
0.4344769586
 40
0.6975326744
 40
1.0
 40
1.0
 40
1.0
 40
1.0
 10
-25.3591852673
 20
1.885097965
 30
0.0
 10
-25.3591852673
 20
1.868527131
 30
0.0
 10
-25.3518575868
 20
1.8334107761
 30
0.0
 10
-25.3213090566
 20
1.7854865169
 30
0.0
 10
-25.2736705499
 20
1.7424626264
 30
0.0
 10
-25.2344394806
 20
1.7191716811
 30
0.0
 10
-25.2127386579
 20
1.7083212697
 30
0.0
 11
-25.3591852673
 21
1.885097965
 31
0.0
 11
-25.3495719281
 21
1.8363238267
 31
0.0
 11
-25.321130188
 21
1.7894339586
 31
0.0
 11
-25.2748953695
 21
1.7461955011
 31
0.0
 11
-25.2127386579
 21
1.7083212697
 31
0.0
  0
SPLINE
  5
2A5
100
AcDbEntity
  8
ASSI
100
AcDbSpline
 62
7
  6
CONTINUOUS
 70
0
 71
3
 72
11
 73
7
 74
5
 42
0.0000001
 43
0.0000001
 44
0.0000000001
 12
0.0
 22
-3.0989329051
 32
0.0
 13
2.2654370199
 23
-2.1145165545
 33
0.0
 40
0.0
 40
0.0
 40
0.0
 40
0.0
 40
0.2379160947
 40
0.4935032397
 40
0.7525291626
 40
1.0
 40
1.0
 40
1.0
 40
1.0
 10
-18.141670846
 20
13.2050294528
 30
0.0
 10
-18.141670846
 20
12.959267448
 30
0.0
 10
-18.0752640014
 20
12.448679639
 30
0.0
 10
-17.8221032124
 20
11.7091594577
 30
0.0
 10
-17.433107487
 20
11.0198767525
 30
0.0
 10
-17.0914691768
 20
10.6177714867
 30
0.0
 10
-16.9045926447
 20
10.4433444259
 30
0.0
 11
-18.141670846
 21
13.2050294528
 31
0.0
 11
-18.0544898385
 21
12.4729159787
 31
0.0
 11
-17.8011695711
 21
11.7224708121
 31
0.0
 11
-17.4054746572
 21
11.024073235
 31
0.0
 11
-16.9045926447
 21
10.4433444259
 31
0.0
  0
SPLINE
  5
2A6
100
AcDbEntity
  8
RACCORDO
100
AcDbSpline
 62
7
  6
CONTINUOUS
 70
0
 71
3
 72
11
 73
7
 74
5
 42
0.0000001
 43
0.0000001
 44
0.0000000001
 12
0.0
 22
-0.2406434217
 32
0.0
 13
0.2152380197
 23
-0.1076190098
 33
0.0
 40
0.0
 40
0.0
 40
0.0
 40
0.0
 40
0.2065815957
 40
0.4344769586
 40
0.6975326744
 40
1.0
 40
1.0
 40
1.0
 40
1.0
 10
-25.3591852673
 20
6.6482376858
 30
0.0
 10
-25.3591852673
 20
6.6316668518
 30
0.0
 10
-25.3518575868
 20
6.5965504969
 30
0.0
 10
-25.3213090566
 20
6.5486262377
 30
0.0
 10
-25.2736705499
 20
6.5056023472
 30
0.0
 10
-25.2344394806
 20
6.4823114019
 30
0.0
 10
-25.2127386579
 20
6.4714609905
 30
0.0
 11
-25.3591852673
 21
6.6482376858
 31
0.0
 11
-25.3495719281
 21
6.5994635475
 31
0.0
 11
-25.321130188
 21
6.5525736794
 31
0.0
 11
-25.2748953695
 21
6.5093352219
 31
0.0
 11
-25.2127386579
 21
6.4714609905
 31
0.0
  0
SPLINE
  5
2A7
100
AcDbEntity
  8
RACCORDO
100
AcDbSpline
 62
253
  6
CONTINUOUS
 70
0
 71
3
 72
31
 73
27
 74
25
 42
0.0000001
 43
0.0000001
 44
0.0000000001
 12
-11.2772274805
 22
54.6016901409
 32
0.0
 13
-14.0446301872
 23
-53.956174705
 33
0.0
 40
0.0
 40
0.0
 40
0.0
 40
0.0
 40
0.0747099157
 40
0.1513092299
 40
0.2285775153
 40
0.3052526322
 40
0.3801067459
 40
0.4520187111
 40
0.5200520064
 40
0.5524139905
 40
0.5835870786
 40
0.6422522313
 40
0.669849799
 40
0.6963675945
 40
0.7219264951
 40
0.746687991
 40
0.7708512968
 40
0.7946467179
 40
0.8183250644
 40
0.8421439374
 40
0.8663527394
 40
0.8911794739
 40
0.9168202343
 40
0.9434313922
 40
0.9711347026
 40
1.0
 40
1.0
 40
1.0
 40
1.0
 10
11.0264838779
 20
-6.2541836684
 30
0.0
 10
10.74564364
 20
-4.8944211134
 30
0.0
 10
10.0226988651
 20
-2.170414196
 30
0.0
 10
8.5168388096
 20
1.8089257418
 30
0.0
 10
6.6088251817
 20
5.6530939653
 30
0.0
 10
4.3479015761
 20
9.2626441865
 30
0.0
 10
1.7918137602
 20
12.5451252103
 30
0.0
 10
-0.9937969409
 20
15.4160138192
 30
0.0
 10
-3.4893950082
 20
17.4379402109
 30
0.0
 10
-5.5399866695
 20
18.7736450462
 30
0.0
 10
-7.529695156
 20
19.8710863042
 30
0.0
 10
-9.5619845074
 20
20.7017333945
 30
0.0
 10
-11.597864725
 20
21.2121465918
 30
0.0
 10
-13.065984035
 20
21.4254911884
 30
0.0
 10
-14.496189378
 20
21.475166278
 30
0.0
 10
-15.8790834881
 20
21.3603647445
 30
0.0
 10
-17.2051908857
 20
21.0813557291
 30
0.0
 10
-18.4652091335
 20
20.639657262
 30
0.0
 10
-19.6501311586
 20
20.038150795
 30
0.0
 10
-20.7515299848
 20
19.2811482696
 30
0.0
 10
-21.7617787893
 20
18.3742235123
 30
0.0
 10
-22.6741542281
 20
17.3239802223
 30
0.0
 10
-23.4828107127
 20
16.1378988742
 30
0.0
 10
-24.1829019052
 20
14.8241117596
 30
0.0
 10
-24.7700599494
 20
13.39159508
 30
0.0
 10
-25.0776045155
 20
12.3845812761
 30
0.0
 10
-25.2127386579
 20
11.8654275995
 30
0.0
 11
11.0264838779
 21
-6.2541836684
 31
0.0
 11
9.9649568566
 21
-2.2263319594
 31
0.0
 11
8.4568688213
 21
1.7692623676
 31
0.0
 11
6.5416466458
 21
5.6281478067
 31
0.0
 11
4.2694638633
 21
9.2492533843
 31
0.0
 11
1.69979165
 21
12.537756801
 31
0.0
 11
-1.1000798712
 21
15.4075837457
 31
0.0
 11
-4.0568583725
 21
17.7835758883
 31
0.0
 11
-5.569999331
 21
18.7664043122
 31
0.0
 11
-7.0931267825
 21
19.6035560248
 31
0.0
 11
-10.1293953031
 21
20.8198445721
 31
0.0
 11
-11.6226316671
 21
21.191024222
 31
0.0
 11
-13.0861740207
 21
21.4006311856
 31
0.0
 11
-14.5104239455
 21
21.4472800284
 31
0.0
 11
-15.8860459219
 21
21.3306759105
 31
0.0
 11
-17.2040247988
 21
21.0515898141
 31
0.0
 11
-18.4557184888
 21
20.6118447035
 31
0.0
 11
-19.6329150288
 21
20.0143130423
 31
0.0
 11
-20.7279014324
 21
19.2629218369
 31
0.0
 11
-21.7335021831
 21
18.3626076923
 31
0.0
 11
-22.6431236293
 21
17.319258543
 31
0.0
 11
-23.4507962324
 21
16.1397004251
 31
0.0
 11
-24.1512116699
 21
14.831752213
 31
0.0
 11
-24.7398484622
 21
13.4037418878
 31
0.0
 11
-25.2127386579
 21
11.8654275995
 31
0.0
  0
SPLINE
  5
2A8
100
AcDbEntity
  8
RACCORDO
100
AcDbSpline
 62
7
  6
CONTINUOUS
 70
0
 71
3
 72
11
 73
7
 74
5
 42
0.0000001
 43
0.0000001
 44
0.0000000001
 12
-0.6467087342
 22
-0.3233543671
 32
0.0
 13
-0.6865061566
 23
0.2269350804
 33
0.0
 40
0.0
 40
0.0
 40
0.0
 40
0.0
 40
0.2397432396
 40
0.5085486158
 40
0.7725787299
 40
1.0
 40
1.0
 40
1.0
 40
1.0
 10
11.7335906591
 20
-6.1945633513
 30
0.0
 10
11.6819093101
 20
-6.2204040258
 30
0.0
 10
11.5648461597
 20
-6.2602458606
 30
0.0
 10
11.3803838023
 20
-6.2901176819
 30
0.0
 10
11.1965351554
 20
-6.2913682637
 30
0.0
 10
11.0785259119
 20
-6.2713869565
 30
0.0
 10
11.0264838779
 20
-6.2541836684
 30
0.0
 11
11.7335906591
 21
-6.1945633513
 31
0.0
 11
11.5705672631
 21
-6.2534844257
 31
0.0
 11
11.3788283511
 21
-6.2852821206
 31
0.0
 11
11.1879234537
 21
-6.2854278869
 31
0.0
 11
11.0264838779
 21
-6.2541836684
 31
0.0
  0
SPLINE
  5
2A9
100
AcDbEntity
  8
RACCORDO
100
AcDbSpline
 62
253
  6
CONTINUOUS
 70
0
 71
3
 72
31
 73
27
 74
25
 42
0.0000001
 43
0.0000001
 44
0.0000000001
 12
11.2772274805
 22
-54.6016901409
 32
0.0
 13
14.0446301872
 23
53.956174705
 33
0.0
 40
0.0
 40
0.0
 40
0.0
 40
0.0
 40
0.0747099157
 40
0.1513092299
 40
0.2285775153
 40
0.3052526322
 40
0.3801067459
 40
0.4520187111
 40
0.5200520064
 40
0.5524139905
 40
0.5835870786
 40
0.6422522313
 40
0.669849799
 40
0.6963675945
 40
0.7219264951
 40
0.746687991
 40
0.7708512968
 40
0.7946467179
 40
0.8183250644
 40
0.8421439374
 40
0.8663527394
 40
0.8911794739
 40
0.9168202343
 40
0.9434313922
 40
0.9711347026
 40
1.0
 40
1.0
 40
1.0
 40
1.0
 10
-25.2127386579
 20
-0.654556426
 30
0.0
 10
-24.9318984199
 20
-2.014318981
 30
0.0
 10
-24.208953645
 20
-4.7383258984
 30
0.0
 10
-22.7030935895
 20
-8.7176658362
 30
0.0
 10
-20.7950799616
 20
-12.5618340598
 30
0.0
 10
-18.5341563561
 20
-16.1713842809
 30
0.0
 10
-15.9780685402
 20
-19.4538653047
 30
0.0
 10
-13.1924578391
 20
-22.3247539136
 30
0.0
 10
-10.6968597717
 20
-24.3466803053
 30
0.0
 10
-8.6462681105
 20
-25.6823851406
 30
0.0
 10
-6.656559624
 20
-26.7798263986
 30
0.0
 10
-4.6242702725
 20
-27.6104734889
 30
0.0
 10
-2.5883900549
 20
-28.1208866862
 30
0.0
 10
-1.120270745
 20
-28.3342312828
 30
0.0
 10
0.3099345981
 20
-28.3839063724
 30
0.0
 10
1.6928287082
 20
-28.2691048389
 30
0.0
 10
3.0189361058
 20
-27.9900958235
 30
0.0
 10
4.2789543536
 20
-27.5483973564
 30
0.0
 10
5.4638763787
 20
-26.9468908894
 30
0.0
 10
6.5652752048
 20
-26.189888364
 30
0.0
 10
7.5755240094
 20
-25.2829636067
 30
0.0
 10
8.4878994481
 20
-24.2327203167
 30
0.0
 10
9.2965559328
 20
-23.0466389686
 30
0.0
 10
9.9966471252
 20
-21.732851854
 30
0.0
 10
10.5838051695
 20
-20.3003351745
 30
0.0
 10
10.8913497355
 20
-19.2933213705
 30
0.0
 10
11.0264838779
 20
-18.7741676939
 30
0.0
 11
-25.2127386579
 21
-0.654556426
 31
0.0
 11
-24.1512116366
 21
-4.682408135
 31
0.0
 11
-22.6431236013
 21
-8.678002462
 31
0.0
 11
-20.7279014258
 21
-12.5368879011
 31
0.0
 11
-18.4557186432
 21
-16.1579934787
 31
0.0
 11
-15.8860464299
 21
-19.4464968954
 31
0.0
 11
-13.0861749087
 21
-22.3163238401
 31
0.0
 11
-10.1293964074
 21
-24.6923159827
 31
0.0
 11
-8.6162554489
 21
-25.6751444066
 31
0.0
 11
-7.0931279975
 21
-26.5122961192
 31
0.0
 11
-4.0568594768
 21
-27.7285846666
 31
0.0
 11
-2.5636231129
 21
-28.0997643164
 31
0.0
 11
-1.1000807593
 21
-28.30937128
 31
0.0
 11
0.3241691655
 21
-28.3560201228
 31
0.0
 11
1.699791142
 21
-28.2394160049
 31
0.0
 11
3.0177700188
 21
-27.9603299085
 31
0.0
 11
4.2694637089
 21
-27.5205847979
 31
0.0
 11
5.4466602488
 21
-26.9230531367
 31
0.0
 11
6.5416466525
 21
-26.1716619313
 31
0.0
 11
7.5472474031
 21
-25.2713477867
 31
0.0
 11
8.4568688493
 21
-24.2279986374
 31
0.0
 11
9.2645414525
 21
-23.0484405195
 31
0.0
 11
9.9649568899
 21
-21.7404923074
 31
0.0
 11
10.5535936822
 21
-20.3124819822
 31
0.0
 11
11.0264838779
 21
-18.7741676939
 31
0.0
  0
SPLINE
  5
2AA
100
AcDbEntity
  8
RACCORDO
100
AcDbSpline
 62
7
  6
CONTINUOUS
 70
0
 71
3
 72
11
 73
7
 74
5
 42
0.0000001
 43
0.0000001
 44
0.0000000001
 12
-0.6581431493
 22
-0.3290715747
 32
0.0
 13
-0.6114622704
 23
0.4093340911
 33
0.0
 40
0.0
 40
0.0
 40
0.0
 40
0.0
 40
0.2316599866
 40
0.4923595419
 40
0.7570252041
 40
1.0
 40
1.0
 40
1.0
 40
1.0
 10
11.7335906591
 20
-18.833788011
 30
0.0
 10
11.6827688481
 20
-18.8591989166
 30
0.0
 10
11.5642742101
 20
-18.892267655
 30
0.0
 10
11.3772507095
 20
-18.8964084368
 30
0.0
 10
11.1909824592
 20
-18.8596563769
 30
0.0
 10
11.0760071847
 20
-18.8073203163
 30
0.0
 10
11.0264838779
 20
-18.7741676939
 30
0.0
 11
11.7335906591
 21
-18.833788011
 31
0.0
 11
11.5705672631
 21
-18.8835927071
 31
0.0
 11
11.3788283511
 21
-18.8894911773
 31
0.0
 11
11.1879234537
 21
-18.8509931581
 31
0.0
 11
11.0264838779
 21
-18.7741676939
 31
0.0
  0
SPLINE
  5
2AB
100
AcDbEntity
  8
RACCORDO
100
AcDbSpline
 62
253
  6
CONTINUOUS
 70
0
 71
3
 72
13
 73
9
 74
7
 42
0.0000001
 43
0.0000001
 44
0.0000000001
 12
-2.7672397497
 22
-10.7499587871
 32
0.0
 13
-9.9284495973
 23
-4.9643849923
 33
0.0
 40
0.0
 40
0.0
 40
0.0
 40
0.0
 40
0.2748648594
 40
0.5295834485
 40
0.6508911942
 40
0.7690781016
 40
0.8850957828
 40
1.0
 40
1.0
 40
1.0
 40
1.0
 10
11.7335906591
 20
-18.833788011
 30
0.0
 10
11.4800516709
 20
-19.818716648
 30
0.0
 10
10.843866002
 20
-21.6836301573
 30
0.0
 10
9.6438172718
 20
-23.7925837012
 30
0.0
 10
8.4870781428
 20
-25.2134598341
 30
0.0
 10
7.5423137501
 20
-26.1333324192
 30
0.0
 10
6.5123832598
 20
-26.9180923807
 30
0.0
 10
5.7713650946
 20
-27.3487813135
 30
0.0
 10
5.3910915183
 20
-27.5389242373
 30
0.0
 11
11.7335906591
 21
-18.833788011
 31
0.0
 11
10.7280183033
 21
-21.714434151
 31
0.0
 11
9.3121157217
 21
-24.1618564037
 31
0.0
 11
8.4603015579
 21
-25.2047627882
 31
0.0
 11
7.5190923776
 21
-26.1186935063
 31
0.0
 11
6.4940141298
 21
-26.8982818788
 31
0.0
 11
5.3910915183
 21
-27.5389242373
 31
0.0
  0
SPLINE
  5
2AC
100
AcDbEntity
  8
RACCORDO
100
AcDbSpline
 62
7
  6
CONTINUOUS
 70
0
 71
3
 72
9
 73
5
 74
3
 42
0.0000001
 43
0.0000001
 44
0.0000000001
 12
0.1898129239
 22
0.094906462
 32
0.0
 13
0.0529135766
 23
0.2055148073
 33
0.0
 40
0.0
 40
0.0
 40
0.0
 40
0.0
 40
0.5424391164
 40
1.0
 40
1.0
 40
1.0
 40
1.0
 10
24.6382894158
 20
-12.3814386327
 30
0.0
 10
24.6726100673
 20
-12.3642783069
 30
0.0
 10
24.7327537297
 20
-12.3241443808
 30
0.0
 10
24.7713142357
 20
-12.2607641228
 30
0.0
 10
24.77938463
 20
-12.2294189438
 30
0.0
 11
24.6382894158
 21
-12.3814386327
 31
0.0
 11
24.7315079854
 21
-12.3138978788
 31
0.0
 11
24.77938463
 21
-12.2294189438
 31
0.0
  0
SPLINE
  5
2AD
100
AcDbEntity
  8
RACCORDO
100
AcDbSpline
 62
7
  6
CONTINUOUS
 70
0
 71
3
 72
11
 73
7
 74
5
 42
0.0000001
 43
0.0000001
 44
0.0000000001
 12
0.2021152035
 22
0.1010576017
 32
0.0
 13
-0.0000717972
 23
0.2259716557
 33
0.0
 40
0.0
 40
0.0
 40
0.0
 40
0.0
 40
0.3198210607
 40
0.5903656787
 40
0.8124803012
 40
1.0
 40
1.0
 40
1.0
 40
1.0
 10
24.6382894158
 20
0.2577860271
 30
0.0
 10
24.6598363154
 20
0.2685594768
 30
0.0
 10
24.6985148383
 20
0.2908681398
 30
0.0
 10
24.7459047532
 20
0.3302033659
 30
0.0
 10
24.7767177323
 20
0.3720619652
 30
0.0
 10
24.7847173155
 20
0.4030548799
 30
0.0
 10
24.7847128277
 20
0.4171795921
 30
0.0
 11
24.6382894158
 21
0.2577860271
 31
0.0
 11
24.7004977367
 21
0.2945712105
 31
0.0
 11
24.7467942523
 21
0.3344982944
 31
0.0
 11
24.7751809556
 21
0.3758914453
 31
0.0
 11
24.7847128277
 21
0.4171795921
 31
0.0
  0
SPLINE
  5
2AE
100
AcDbEntity
  8
RACCORDO
100
AcDbSpline
 62
253
  6
CONTINUOUS
 70
0
 71
3
 72
25
 73
21
 74
19
 42
0.0000001
 43
0.0000001
 44
0.0000000001
 12
-9.1892995091
 22
44.8871789635
 32
0.0
 13
-40.9807269504
 23
-20.4910243615
 33
0.0
 40
0.0
 40
0.0
 40
0.0
 40
0.0
 40
0.0705802932
 40
0.1427458373
 40
0.2158369408
 40
0.2891571276
 40
0.3620052572
 40
0.4336949021
 40
0.5035789321
 40
0.5710740365
 40
0.635687577
 40
0.6970472844
 40
0.7549347592
 40
0.8093228054
 40
0.8604142131
 40
0.9086742924
 40
0.9319888282
 40
0.9548939523
 40
0.9775183683
 40
1.0
 40
1.0
 40
1.0
 40
1.0
 10
24.6382894158
 20
0.2577860271
 30
0.0
 10
24.4220949313
 20
1.3138361106
 30
0.0
 10
23.8934854333
 20
3.4318847155
 30
0.0
 10
22.8424231917
 20
6.5595712676
 30
0.0
 10
21.5379251125
 20
9.6359605403
 30
0.0
 10
19.9998123627
 20
12.6140855798
 30
0.0
 10
18.2514394176
 20
15.4488181128
 30
0.0
 10
16.3192998059
 20
18.0971284253
 30
0.0
 10
14.2326186726
 20
20.518874944
 30
0.0
 10
12.0228345562
 20
22.6773830699
 30
0.0
 10
9.7230576611
 20
24.5399879792
 30
0.0
 10
7.3674375298
 20
26.0784229804
 30
0.0
 10
4.9906549319
 20
27.2690699229
 30
0.0
 10
2.6271204404
 20
28.0928811458
 30
0.0
 10
0.3118407615
 20
28.5354430147
 30
0.0
 10
-1.5718307001
 20
28.5780195891
 30
0.0
 10
-3.0067361264
 20
28.4088762026
 30
0.0
 10
-4.0360726753
 20
28.1860871266
 30
0.0
 10
-5.026166537
 20
27.866643757
 30
0.0
 10
-5.6584361639
 20
27.5896441626
 30
0.0
 10
-5.9655407004
 20
27.4360869418
 30
0.0
 11
24.6382894158
 21
0.2577860271
 31
0.0
 11
23.8586452071
 21
3.3962556247
 31
0.0
 11
22.8075482089
 21
6.5312322491
 31
0.0
 11
21.5010929372
 21
9.6147847056
 31
0.0
 11
19.9593453166
 21
12.5995035911
 31
0.0
 11
18.2059534594
 21
15.439626497
 31
0.0
 11
16.267819995
 21
18.0915696644
 31
0.0
 11
14.1746800317
 21
20.5146440714
 31
0.0
 11
11.9586484472
 21
22.6716701813
 31
0.0
 11
9.6537271937
 21
24.5295545632
 31
0.0
 11
7.2952810834
 21
26.0597940691
 31
0.0
 11
4.9194952667
 21
27.2389117263
 31
0.0
 11
2.5628207169
 21
28.0488164113
 31
0.0
 11
0.2614156171
 21
28.4770801083
 31
0.0
 11
-1.9494088042
 21
28.5171285933
 31
0.0
 11
-3.0101817084
 21
28.3911389468
 31
0.0
 11
-4.0357308062
 21
28.1683458415
 31
0.0
 11
-5.022112587
 21
27.8495848772
 31
0.0
 11
-5.9655407004
 21
27.4360869418
 31
0.0
  0
SPLINE
  5
2AF
100
AcDbEntity
  8
ASSI
100
AcDbSpline
 62
7
  6
CONTINUOUS
 70
0
 71
3
 72
11
 73
7
 74
5
 42
0.0000001
 43
0.0000001
 44
0.0000000001
 12
0.0
 22
-2.1527579461
 32
0.0
 13
1.4510983232
 23
-1.590182515
 33
0.0
 40
0.0
 40
0.0
 40
0.0
 40
0.0
 40
0.2360907138
 40
0.4892553292
 40
0.7480508342
 40
1.0
 40
1.0
 40
1.0
 40
1.0
 10
-17.6997291078
 20
12.9840585837
 30
0.0
 10
-17.6997291078
 20
12.814643197
 30
0.0
 10
-17.6582406025
 20
12.4630399984
 30
0.0
 10
-17.4973650007
 20
11.9482640615
 30
0.0
 10
-17.2470740429
 20
11.4577903018
 30
0.0
 10
-17.026143521
 20
11.1624209735
 30
0.0
 10
-16.9042758503
 20
11.0288725874
 30
0.0
 11
-17.6997291078
 21
12.9840585837
 31
0.0
 11
-17.6448484285
 21
12.4787841333
 31
0.0
 11
-17.4844814356
 21
11.9579101011
 31
0.0
 11
-17.2310723939
 21
11.461753777
 31
0.0
 11
-16.9042758503
 21
11.0288725874
 31
0.0
  0
SPLINE
  5
2B0
100
AcDbEntity
  8
RACCORDO
100
AcDbSpline
 62
253
  6
CONTINUOUS
 70
0
 71
3
 72
13
 73
9
 74
7
 42
0.0000001
 43
0.0000001
 44
0.0000000001
 12
9.0273137324
 22
5.2625316819
 32
0.0
 13
2.6049073391
 23
10.1193424036
 33
0.0
 40
0.0
 40
0.0
 40
0.0
 40
0.0
 40
0.1146429213
 40
0.2307724942
 40
0.3492755131
 40
0.4709407438
 40
0.7259961063
 40
1.0
 40
1.0
 40
1.0
 40
1.0
 10
18.8704877248
 20
-20.7757823218
 30
0.0
 10
19.215460264
 20
-20.5746783201
 30
0.0
 10
19.8866706917
 20
-20.1285472648
 30
0.0
 10
20.8175593112
 20
-19.3414860963
 30
0.0
 10
21.6720225474
 20
-18.437988646
 30
0.0
 10
22.7194760487
 20
-17.0640079064
 30
0.0
 10
23.8106674135
 20
-15.0609468311
 30
0.0
 10
24.4003711646
 20
-13.3056850394
 30
0.0
 10
24.6382894158
 20
-12.3814386327
 30
0.0
 11
18.8704877248
 21
-20.7757823218
 31
0.0
 11
19.868488034
 21
-20.113184983
 31
0.0
 11
20.7958855662
 21
-19.3306038469
 31
0.0
 11
21.6478881653
 21
-18.4320518511
 31
0.0
 11
22.4201218303
 21
-17.4221595405
 31
0.0
 11
23.7097572788
 21
-15.0898249975
 31
0.0
 11
24.6382894158
 21
-12.3814386327
 31
0.0
  0
SPLINE
  5
2B1
100
AcDbEntity
  8
ASSI
100
AcDbSpline
 62
7
  6
CONTINUOUS
 70
0
 71
3
 72
12
 73
8
 74
6
 42
0.0000001
 43
0.0000001
 44
0.0000000001
 12
-1.4797795764
 22
-0.7398810787
 32
0.0
 13
0.0
 23
-1.6544399673
 33
0.0
 40
0.0
 40
0.0
 40
0.0
 40
0.0
 40
0.1078349883
 40
0.2178206196
 40
0.4508866469
 40
0.7104931224
 40
1.0
 40
1.0
 40
1.0
 40
1.0
 10
-19.9343085522
 20
17.7175095103
 30
0.0
 10
-19.9874992233
 20
17.6909144878
 30
0.0
 10
-20.0902743364
 20
17.6272298329
 30
0.0
 10
-20.2758560533
 20
17.4600489783
 30
0.0
 10
-20.4611197251
 20
17.1769788106
 30
0.0
 10
-20.5906942278
 20
16.7613931706
 30
0.0
 10
-20.6165445802
 20
16.4573768543
 30
0.0
 10
-20.6165445802
 20
16.2977196047
 30
0.0
 11
-19.9343085522
 21
17.7175095103
 31
0.0
 11
-20.0860436228
 21
17.623672669
 31
0.0
 11
-20.2215233331
 21
17.5021968583
 31
0.0
 11
-20.4373319224
 21
17.182651567
 31
0.0
 11
-20.571186825
 21
16.7745388686
 31
0.0
 11
-20.6165445802
 21
16.2977196047
 31
0.0
  0
SPLINE
  5
2B2
100
AcDbEntity
  8
0
100
AcDbSpline
 62
253
  6
CONTINUOUS
 70
0
 71
3
 72
9
 73
5
 74
3
 42
0.0000001
 43
0.0000001
 44
0.0000000001
 12
-0.3266713135
 22
0.2087606105
 32
0.0
 13
-0.3241931362
 23
0.0951423843
 33
0.0
 40
0.0
 40
0.0
 40
0.0
 40
0.0
 40
0.7298020546
 40
1.0
 40
1.0
 40
1.0
 40
1.0
 10
-6.2428875953
 20
10.9083422641
 30
0.0
 10
-6.3223560605
 20
10.959126905
 30
0.0
 10
-6.4331764843
 20
11.0149781036
 30
0.0
 10
-6.5415814196
 20
11.0493984681
 30
0.0
 10
-6.5707801927
 20
11.0579675604
 30
0.0
 11
-6.2428875953
 21
10.9083422641
 31
0.0
 11
-6.4828234906
 21
11.0292332452
 31
0.0
 11
-6.5707801927
 21
11.0579675604
 31
0.0
  0
SPLINE
  5
2B3
100
AcDbEntity
  8
0
100
AcDbSpline
 62
253
  6
CONTINUOUS
 70
0
 71
3
 72
9
 73
5
 74
3
 42
0.0000001
 43
0.0000001
 44
0.0000000001
 12
-0.0052792834
 22
0.455243912
 32
0.0
 13
-0.3670560951
 23
0.2364162911
 33
0.0
 40
0.0
 40
0.0
 40
0.0
 40
0.0
 40
0.4985272191
 40
1.0
 40
1.0
 40
1.0
 40
1.0
 10
-6.0065905526
 20
10.4828888986
 30
0.0
 10
-6.0074678414
 20
10.5585393924
 30
0.0
 10
-6.0575616409
 20
10.7404870412
 30
0.0
 10
-6.1815313817
 20
10.8688234858
 30
0.0
 10
-6.2428875953
 20
10.9083422641
 30
0.0
 11
-6.0065905526
 21
10.4828888986
 31
0.0
 11
-6.075774429
 21
10.7266271434
 31
0.0
 11
-6.2428875953
 21
10.9083422641
 31
0.0
  0
SPLINE
  5
2B4
100
AcDbEntity
  8
0
100
AcDbSpline
 62
253
  6
CONTINUOUS
 70
0
 71
3
 72
17
 73
13
 74
11
 42
0.0000001
 43
0.0000001
 44
0.0000000001
 12
-0.7858073257
 22
0.3927066026
 32
0.0
 13
0.7857738902
 23
-0.3930824591
 33
0.0
 40
0.0
 40
0.0
 40
0.0
 40
0.0
 40
0.0686330914
 40
0.1310224254
 40
0.2495099063
 40
0.3723930179
 40
0.500809622
 40
0.6281287217
 40
0.75073546
 40
0.8690220732
 40
0.9313704281
 40
1.0
 40
1.0
 40
1.0
 40
1.0
 10
-11.1137735423
 20
-0.8104372038
 30
0.0
 10
-11.1317510043
 20
-0.8014529811
 30
0.0
 10
-11.1660700281
 20
-0.7797165222
 30
0.0
 10
-11.2276205399
 20
-0.7202010822
 30
0.0
 10
-11.2875331968
 20
-0.6207531506
 30
0.0
 10
-11.3260483349
 20
-0.4907239604
 30
0.0
 10
-11.3380765588
 20
-0.363279175
 30
0.0
 10
-11.3259301014
 20
-0.2480594872
 30
0.0
 10
-11.2875287999
 20
-0.1569668952
 30
0.0
 10
-11.2275917053
 20
-0.1177024092
 30
0.0
 10
-11.1660552305
 20
-0.1199237404
 30
0.0
 10
-11.1317493175
 20
-0.1325346875
 30
0.0
 10
-11.1137735423
 20
-0.1415270478
 30
0.0
 11
-11.1137735423
 21
-0.8104372038
 31
0.0
 11
-11.1671573198
 21
-0.7760694847
 31
0.0
 11
-11.2127178058
 21
-0.7316698787
 31
0.0
 11
-11.2812521164
 21
-0.6207821695
 31
0.0
 11
-11.3211224072
 21
-0.493572729
 31
0.0
 11
-11.3339926419
 21
-0.3649775134
 31
0.0
 11
-11.3210967917
 21
-0.2503309204
 31
0.0
 11
-11.2812521164
 21
-0.1632559767
 31
0.0
 11
-11.2127229289
 21
-0.121179185
 31
0.0
 11
-11.1671592409
 21
-0.1224608781
 31
0.0
 11
-11.1137735423
 21
-0.1415270478
 31
0.0
  0
SPLINE
  5
2B5
100
AcDbEntity
  8
0
100
AcDbSpline
 62
253
  6
CONTINUOUS
 70
0
 71
3
 72
20
 73
16
 74
14
 42
0.0000001
 43
0.0000001
 44
0.0000000001
 12
1.2894799115
 22
-0.6447394263
 32
0.0
 13
-1.2885597269
 23
0.5912669685
 33
0.0
 40
0.0
 40
0.0
 40
0.0
 40
0.0
 40
0.0687390006
 40
0.1316230564
 40
0.2473998329
 40
0.3639642967
 40
0.4266984185
 40
0.4935908563
 40
0.5602178618
 40
0.6227280921
 40
0.7389865573
 40
0.8546422604
 40
0.9175120958
 40
0.9862493151
 40
1.0
 40
1.0
 40
1.0
 40
1.0
 10
-11.1137735423
 20
-0.9757254404
 30
0.0
 10
-11.0842276888
 20
-0.9904983551
 30
0.0
 10
-11.0276524357
 20
-1.0130664053
 30
0.0
 10
-10.9249570474
 20
-1.0288684376
 30
0.0
 10
-10.8165079719
 20
-0.9925265321
 30
0.0
 10
-10.7524553013
 20
-0.8852821324
 30
0.0
 10
-10.7275481611
 20
-0.7716067395
 30
0.0
 10
-10.7214389474
 20
-0.6713942227
 30
0.0
 10
-10.7275463547
 20
-0.5651900726
 30
0.0
 10
-10.7524726681
 20
-0.4270276747
 30
0.0
 10
-10.816595018
 20
-0.2561334409
 30
0.0
 10
-10.9250054443
 20
-0.1117501911
 30
0.0
 10
-11.0276601278
 20
-0.0249912204
 30
0.0
 10
-11.090138895
 20
0.0125389555
 30
0.0
 10
-11.1255943536
 20
0.0295525512
 30
0.0
 10
-11.1315005466
 20
0.0322626598
 30
0.0
 11
-11.1137735423
 21
-0.9757254404
 31
0.0
 11
-11.0256645633
 21
-1.0102080876
 31
0.0
 11
-10.947969754
 21
-1.0213517045
 31
0.0
 11
-10.8254667897
 21
-0.9787572718
 31
0.0
 11
-10.7495533197
 21
-0.8582692701
 31
0.0
 11
-10.7300953544
 21
-0.7720424083
 31
0.0
 11
-10.7235180141
 21
-0.6702148273
 31
0.0
 11
-10.7300953544
 21
-0.5622294665
 31
0.0
 11
-10.7495533197
 21
-0.4569082587
 31
0.0
 11
-10.8254667897
 21
-0.2610662011
 31
0.0
 11
-10.947969754
 21
-0.0963044526
 31
0.0
 11
-11.025664587
 21
-0.0298336311
 31
0.0
 11
-11.1137735423
 21
0.0237611888
 31
0.0
 11
-11.1315005466
 21
0.0322626598
 31
0.0
  0
SPLINE
  5
2B6
100
AcDbEntity
  8
0
100
AcDbSpline
 62
253
  6
CONTINUOUS
 70
0
 71
3
 72
23
 73
19
 74
17
 42
0.0000001
 43
0.0000001
 44
0.0000000001
 12
2.1954094821
 22
-1.0977047411
 32
0.0
 13
-2.2007529475
 23
1.1068707237
 33
0.0
 40
0.0
 40
0.0
 40
0.0
 40
0.0
 40
0.0965602262
 40
0.1879851958
 40
0.2489394948
 40
0.3196849657
 40
0.4026953879
 40
0.4493235896
 40
0.4995416312
 40
0.5496583938
 40
0.5962333592
 40
0.6792866489
 40
0.750282668
 40
0.8116928549
 40
0.8579900021
 40
0.9030731832
 40
0.9495999467
 40
1.0
 40
1.0
 40
1.0
 40
1.0
 10
-2.2796746184
 20
8.7817356259
 30
0.0
 10
-2.2090115397
 20
8.7464040866
 30
0.0
 10
-2.0677355691
 20
8.6473172442
 30
0.0
 10
-1.9205130228
 20
8.42665473
 30
0.0
 10
-1.8384321358
 20
8.2107973405
 30
0.0
 10
-1.7907917637
 20
8.0023958831
 30
0.0
 10
-1.7685534119
 20
7.813252517
 30
0.0
 10
-1.7593299044
 20
7.647790238
 30
0.0
 10
-1.7571146612
 20
7.5149439189
 30
0.0
 10
-1.7593374245
 20
7.3843621323
 30
0.0
 10
-1.7686151883
 20
7.228261354
 30
0.0
 10
-1.7910312132
 20
7.0612122915
 30
0.0
 10
-1.8389616248
 20
6.9001601874
 30
0.0
 10
-1.9048736618
 20
6.7927485863
 30
0.0
 10
-1.9842712914
 20
6.7341802758
 30
0.0
 10
-2.0713913458
 20
6.7128723435
 30
0.0
 10
-2.171623626
 20
6.725165058
 30
0.0
 10
-2.2427019298
 20
6.7532769906
 30
0.0
 10
-2.2796746184
 20
6.7718724384
 30
0.0
 11
-2.2796746184
 21
8.7817356259
 31
0.0
 11
-2.0718184827
 21
8.6267889868
 31
0.0
 11
-1.9147540309
 21
8.3952010472
 31
0.0
 11
-1.8461525231
 21
8.2201796619
 31
0.0
 11
-1.7971231706
 21
8.0151700075
 31
0.0
 11
-1.7676888112
 21
7.780183503
 31
0.0
 11
-1.7603268908
 21
7.6514525004
 31
0.0
 11
-1.7578722829
 21
7.5152315674
 31
0.0
 11
-1.7603387856
 21
7.3817439041
 31
0.0
 11
-1.7677382935
 21
7.2605404619
 31
0.0
 11
-1.7973363251
 21
7.0549862408
 31
0.0
 11
-1.8466663778
 21
6.8985689042
 31
0.0
 11
-1.9157284516
 21
6.791288452
 31
0.0
 11
-1.9875310839
 21
6.7390820382
 31
0.0
 11
-2.0721229892
 21
6.7184438981
 31
0.0
 11
-2.1695041673
 21
6.7293740315
 31
0.0
 11
-2.2796746184
 21
6.7718724384
 31
0.0
  0
SPLINE
  5
2B7
100
AcDbEntity
  8
0
100
AcDbSpline
 62
253
  6
CONTINUOUS
 70
0
 71
3
 72
19
 73
15
 74
13
 42
0.0000001
 43
0.0000001
 44
0.0000000001
 12
-1.0989137503
 22
2.2378112442
 32
0.0
 13
1.7629440568
 23
-0.8814720284
 33
0.0
 40
0.0
 40
0.0
 40
0.0
 40
0.0
 40
0.0707429358
 40
0.1557918581
 40
0.2581196566
 40
0.3163433428
 40
0.3794570203
 40
0.4415764564
 40
0.4993247169
 40
0.6023682368
 40
0.6905590307
 40
0.7669669235
 40
0.8797795337
 40
1.0
 40
1.0
 40
1.0
 40
1.0
 10
-2.6579934919
 20
7.1819631734
 30
0.0
 10
-2.6839069536
 20
7.2347329525
 30
0.0
 10
-2.7288548819
 20
7.3567403845
 30
0.0
 10
-2.7717820011
 20
7.5572115199
 30
0.0
 10
-2.7918108448
 20
7.7427802823
 30
0.0
 10
-2.8001503501
 20
7.9076262452
 30
0.0
 10
-2.8021993487
 20
8.0407065425
 30
0.0
 10
-2.8000233646
 20
8.1713359558
 30
0.0
 10
-2.790718711
 20
8.3267561032
 30
0.0
 10
-2.7683394769
 20
8.4931880787
 30
0.0
 10
-2.720221964
 20
8.6536636902
 30
0.0
 10
-2.6385235627
 20
8.7875799444
 30
0.0
 10
-2.4909870024
 20
8.859868169
 30
0.0
 10
-2.3503219373
 20
8.8170592854
 30
0.0
 10
-2.2796746184
 20
8.7817356259
 30
0.0
 11
-2.6579934919
 21
7.1819631734
 31
0.0
 11
-2.7208017635
 21
7.3453284473
 31
0.0
 11
-2.7656365391
 21
7.5429776584
 31
0.0
 11
-2.7925206566
 21
7.7748942548
 31
0.0
 11
-2.7992383554
 21
7.9036976501
 31
0.0
 11
-2.8014769539
 21
8.0410616849
 31
0.0
 11
-2.7990104513
 21
8.1739200073
 31
0.0
 11
-2.7916109434
 21
8.2945780207
 31
0.0
 11
-2.7620129118
 21
8.4992931205
 31
0.0
 11
-2.712682859
 21
8.6552069844
 31
0.0
 11
-2.6436207852
 21
8.7623196124
 31
0.0
 11
-2.4875916555
 21
8.8353468702
 31
0.0
 11
-2.2796746184
 21
8.7817356259
 31
0.0
  0
SPLINE
  5
2B8
100
AcDbEntity
  8
0
100
AcDbSpline
 62
253
  6
CONTINUOUS
 70
0
 71
3
 72
20
 73
16
 74
14
 42
0.0000001
 43
0.0000001
 44
0.0000000001
 12
-1.0472927705
 22
0.5236463853
 32
0.0
 13
0.2724562354
 23
-1.3747290747
 33
0.0
 40
0.0
 40
0.0
 40
0.0
 40
0.0
 40
0.1012731629
 40
0.1615539418
 40
0.2409742425
 40
0.3090791031
 40
0.3958923834
 40
0.5018317869
 40
0.5620517279
 40
0.6271301034
 40
0.6920062349
 40
0.7516165466
 40
0.8550973971
 40
0.9377646391
 40
1.0
 40
1.0
 40
1.0
 40
1.0
 10
-2.2796746184
 20
8.4689112287
 30
0.0
 10
-2.3150288356
 20
8.4865883372
 30
0.0
 10
-2.3745373396
 20
8.4916468132
 30
0.0
 10
-2.425023245
 20
8.4316693954
 30
0.0
 10
-2.4482302459
 20
8.3582434998
 30
0.0
 10
-2.4635739422
 20
8.2674483024
 30
0.0
 10
-2.4727864141
 20
8.1609692178
 30
0.0
 10
-2.4772652483
 20
8.0551720764
 30
0.0
 10
-2.4791348323
 20
7.9572602248
 30
0.0
 10
-2.479577527
 20
7.8761709256
 30
0.0
 10
-2.4791630722
 20
7.7949121626
 30
0.0
 10
-2.4774746881
 20
7.6966219262
 30
0.0
 10
-2.4735322757
 20
7.5896407896
 30
0.0
 10
-2.4651662311
 20
7.4797359262
 30
0.0
 10
-2.4563376053
 20
7.4141329256
 30
0.0
 10
-2.4506854679
 20
7.3856140056
 30
0.0
 11
-2.2796746184
 21
8.4689112287
 31
0.0
 11
-2.3795527499
 21
8.4751414015
 31
0.0
 11
-2.4184686804
 21
8.4337164592
 31
0.0
 11
-2.4475186003
 21
8.3527867167
 31
0.0
 11
-2.4614459663
 21
8.2740761213
 31
0.0
 11
-2.4714223604
 21
8.1683842272
 31
0.0
 11
-2.4774249448
 21
8.0356996153
 31
0.0
 11
-2.4789289214
 21
7.9592314718
 31
0.0
 11
-2.4794308813
 21
7.8760108666
 31
0.0
 11
-2.4789750732
 21
7.7925703979
 31
0.0
 11
-2.477611455
 21
7.7154466836
 31
0.0
 11
-2.4721836267
 21
7.5801679302
 31
0.0
 11
-2.4631930723
 21
7.4702114298
 31
0.0
 11
-2.4506854679
 21
7.3856140056
 31
0.0
  0
SPLINE
  5
2B9
100
AcDbEntity
  8
0
100
AcDbSpline
 62
253
  6
CONTINUOUS
 70
0
 71
3
 72
25
 73
21
 74
19
 42
0.0000001
 43
0.0000001
 44
0.0000000001
 12
0.3419190325
 22
-1.725216655
 32
0.0
 13
-0.3413693189
 23
1.725123038
 33
0.0
 40
0.0
 40
0.0
 40
0.0
 40
0.0
 40
0.0713419314
 40
0.1214512505
 40
0.1620399815
 40
0.2029020276
 40
0.2435946031
 40
0.2846487036
 40
0.3327195944
 40
0.3960486306
 40
0.4499540802
 40
0.518864692
 40
0.6031223141
 40
0.6510686488
 40
0.702912892
 40
0.7546051627
 40
0.8020951724
 40
0.8845253205
 40
0.9503808095
 40
1.0
 40
1.0
 40
1.0
 40
1.0
 10
-2.4506854679
 20
7.3856140056
 30
0.0
 10
-2.4425544132
 20
7.3445872428
 30
0.0
 10
-2.4263679191
 20
7.2741129203
 30
0.0
 10
-2.3854056548
 20
7.1795838052
 30
0.0
 10
-2.3334565644
 20
7.1186388767
 30
0.0
 10
-2.2797562393
 20
7.0811641378
 30
0.0
 10
-2.2258087168
 20
7.0650141305
 30
0.0
 10
-2.1748821333
 20
7.0744218258
 30
0.0
 10
-2.1344663069
 20
7.1219567704
 30
0.0
 10
-2.111465897
 20
7.1953301403
 30
0.0
 10
-2.0960105876
 20
7.2857356895
 30
0.0
 10
-2.0869439714
 20
7.3918833964
 30
0.0
 10
-2.0825257268
 20
7.4974622423
 30
0.0
 10
-2.0806945118
 20
7.5952807004
 30
0.0
 10
-2.0802641727
 20
7.6763456916
 30
0.0
 10
-2.0806602142
 20
7.7575806426
 30
0.0
 10
-2.0822770861
 20
7.8558141013
 30
0.0
 10
-2.0860821937
 20
7.962703498
 30
0.0
 10
-2.0942687431
 20
8.0725282776
 30
0.0
 10
-2.1030176126
 20
8.1381183953
 30
0.0
 10
-2.108663769
 20
8.1666514648
 30
0.0
 11
-2.4506854679
 21
7.3856140056
 31
0.0
 11
-2.4185295817
 21
7.2616623657
 31
0.0
 11
-2.3790655395
 21
7.1773553036
 31
0.0
 11
-2.3326587491
 21
7.1219296529
 31
0.0
 11
-2.2796746184
 21
7.0846968357
 31
0.0
 11
-2.2269340929
 21
7.0691978548
 31
0.0
 11
-2.1800400922
 21
7.0784392884
 31
0.0
 11
-2.1411241617
 21
7.1199388192
 31
0.0
 11
-2.1120742418
 21
7.2009431503
 31
0.0
 11
-2.0981849391
 21
7.2790853925
 31
0.0
 11
-2.0882922842
 21
7.3843995956
 31
0.0
 11
-2.0823734392
 21
7.5168743408
 31
0.0
 11
-2.0808970585
 21
7.5932933482
 31
0.0
 11
-2.0804055659
 21
7.676498209
 31
0.0
 11
-2.0808404393
 21
7.7599220917
 31
0.0
 11
-2.0821488656
 21
7.8370033506
 31
0.0
 11
-2.0874092154
 21
7.9721634014
 31
0.0
 11
-2.0962322912
 21
8.0820291699
 31
0.0
 11
-2.108663769
 21
8.1666514648
 31
0.0
  0
SPLINE
  5
2BA
100
AcDbEntity
  8
0
100
AcDbSpline
 62
253
  6
CONTINUOUS
 70
0
 71
3
 72
11
 73
7
 74
5
 42
0.0000001
 43
0.0000001
 44
0.0000000001
 12
-0.0695987379
 22
0.3506270809
 32
0.0
 13
-0.2670993824
 23
0.1335496912
 33
0.0
 40
0.0
 40
0.0
 40
0.0
 40
0.0
 40
0.3514580511
 40
0.6000573051
 40
0.8004028285
 40
1.0
 40
1.0
 40
1.0
 40
1.0
 10
-2.108663769
 20
8.1666514648
 30
0.0
 10
-2.1168174479
 20
8.2077283683
 30
0.0
 10
-2.1331697939
 20
8.2785496288
 30
0.0
 10
-2.1744194894
 20
8.3732667801
 30
0.0
 10
-2.2260497807
 20
8.43481254
 30
0.0
 10
-2.261903858
 20
8.4600258485
 30
0.0
 10
-2.2796746184
 20
8.4689112287
 30
0.0
 11
-2.108663769
 21
8.1666514648
 31
0.0
 11
-2.1409719084
 21
8.2907538199
 31
0.0
 11
-2.1807709078
 21
8.3757504805
 31
0.0
 11
-2.2271167968
 21
8.4316864475
 31
0.0
 11
-2.2796746184
 21
8.4689112287
 31
0.0
  0
SPLINE
  5
2BB
100
AcDbEntity
  8
0
100
AcDbSpline
 62
253
  6
CONTINUOUS
 70
0
 71
3
 72
8
 73
4
 74
2
 42
0.0000001
 43
0.0000001
 44
0.0000000001
 12
-0.3369233487
 22
-0.2173883298
 32
0.0
 13
-0.4380173304
 23
0.0419000334
 33
0.0
 40
0.0
 40
0.0
 40
0.0
 40
0.0
 40
1.0
 40
1.0
 40
1.0
 40
1.0
 10
-1.0718800435
 20
7.6233470249
 30
0.0
 10
-1.1841878264
 20
7.5508842483
 30
0.0
 10
-1.3236815561
 20
7.5223114741
 30
0.0
 10
-1.4696873329
 20
7.5362781519
 30
0.0
 11
-1.0718800435
 21
7.6233470249
 31
0.0
 11
-1.4696873329
 21
7.5362781519
 31
0.0
  0
SPLINE
  5
2BC
100
AcDbEntity
  8
0
100
AcDbSpline
 62
253
  6
CONTINUOUS
 70
0
 71
3
 72
9
 73
5
 74
3
 42
0.0000001
 43
0.0000001
 44
0.0000000001
 12
0.2875323473
 22
-0.0285158497
 32
0.0
 13
0.2382771501
 23
0.109183375
 33
0.0
 40
0.0
 40
0.0
 40
0.0
 40
0.0
 40
0.2187191255
 40
1.0
 40
1.0
 40
1.0
 40
1.0
 10
-1.4696873329
 20
7.8786396167
 30
0.0
 10
-1.4487243917
 20
7.8765606295
 30
0.0
 10
-1.3548284549
 20
7.8753846052
 30
0.0
 10
-1.2698655378
 20
7.902606195
 30
0.0
 10
-1.2078117444
 20
7.9310404892
 30
0.0
 11
-1.4696873329
 21
7.8786396167
 31
0.0
 11
-1.4080780556
 21
7.8774046781
 31
0.0
 11
-1.2078117444
 21
7.9310404892
 31
0.0
  0
SPLINE
  5
2BD
100
AcDbEntity
  8
0
100
AcDbSpline
 62
253
  6
CONTINUOUS
 70
0
 71
3
 72
9
 73
5
 74
3
 42
0.0000001
 43
0.0000001
 44
0.0000000001
 12
0.2564194854
 22
0.1154206268
 32
0.0
 13
0.1094409732
 23
0.3194668939
 33
0.0
 40
0.0
 40
0.0
 40
0.0
 40
0.0
 40
0.2676847635
 40
1.0
 40
1.0
 40
1.0
 40
1.0
 10
-1.2078117444
 20
7.9310404892
 30
0.0
 10
-1.1849318813
 20
7.9413392703
 30
0.0
 10
-1.1032086049
 20
7.9872283247
 30
0.0
 10
-1.0403734984
 20
8.0707440259
 30
0.0
 10
-1.013658401
 20
8.1487275172
 30
0.0
 11
-1.2078117444
 21
7.9310404892
 31
0.0
 11
-1.1425331638
 21
7.968603014
 31
0.0
 11
-1.013658401
 21
8.1487275172
 31
0.0
  0
SPLINE
  5
2BE
100
AcDbEntity
  8
0
100
AcDbSpline
 62
253
  6
CONTINUOUS
 70
0
 71
3
 72
19
 73
15
 74
13
 42
0.0000001
 43
0.0000001
 44
0.0000000001
 12
0.108699659
 22
-1.1082905156
 32
0.0
 13
-0.1337996953
 23
1.1164609435
 33
0.0
 40
0.0
 40
0.0
 40
0.0
 40
0.0
 40
0.1117193016
 40
0.2134897689
 40
0.3096732718
 40
0.4027541888
 40
0.4565486132
 40
0.5086372034
 40
0.6179477027
 40
0.7450770791
 40
0.8203130116
 40
0.9057285619
 40
0.9858425439
 40
1.0
 40
1.0
 40
1.0
 40
1.0
 10
0.0080218021
 20
6.2066822334
 30
0.0
 10
0.0120697521
 20
6.1654097526
 30
0.0
 10
0.0275146665
 20
6.0827827647
 30
0.0
 10
0.0809216764
 20
5.9651022883
 30
0.0
 10
0.1525110025
 20
5.8704257329
 30
0.0
 10
0.2234901485
 20
5.8189529921
 30
0.0
 10
0.2811050274
 20
5.7973132435
 30
0.0
 10
0.3404451377
 20
5.7925757153
 30
0.0
 10
0.4076709676
 20
5.8255259534
 30
0.0
 10
0.4479611633
 20
5.9077397078
 30
0.0
 10
0.4628975505
 20
6.000774327
 30
0.0
 10
0.4665184834
 20
6.084296089
 30
0.0
 10
0.4638009337
 20
6.1493760362
 30
0.0
 10
0.4599913237
 20
6.1843360647
 30
0.0
 10
0.4593599026
 20
6.1896048136
 30
0.0
 11
0.0080218021
 21
6.2066822334
 31
0.0
 11
0.0340875584
 21
6.0793423956
 31
0.0
 11
0.0857318605
 21
5.9658413988
 31
0.0
 11
0.1555247499
 21
5.874966244
 31
0.0
 11
0.234818242
 21
5.8167096536
 31
0.0
 11
0.2812212261
 21
5.7994985549
 31
0.0
 11
0.3239472941
 21
5.7961253478
 31
0.0
 11
0.3982773303
 21
5.8310501676
 31
0.0
 11
0.4484904519
 21
5.9261803565
 31
0.0
 11
0.4610703766
 21
5.9983155974
 31
0.0
 11
0.46526876
 21
6.0868088668
 31
0.0
 11
0.4610817956
 21
6.1738540507
 31
0.0
 11
0.4593599026
 21
6.1896048136
 31
0.0
  0
SPLINE
  5
2BF
100
AcDbEntity
  8
0
100
AcDbSpline
 62
253
  6
CONTINUOUS
 70
0
 71
3
 72
8
 73
4
 74
2
 42
0.0000001
 43
0.0000001
 44
0.0000000001
 12
0.1938127921
 22
0.0217792155
 32
0.0
 13
0.216689289
 23
-0.1083446445
 33
0.0
 40
0.0
 40
0.0
 40
0.0
 40
0.0
 40
1.0
 40
1.0
 40
1.0
 40
1.0
 10
0.0813469669
 20
6.8789092722
 30
0.0
 10
0.1459512309
 20
6.8861690107
 30
0.0
 10
0.2195920955
 20
6.872888625
 30
0.0
 10
0.2918218585
 20
6.8367737435
 30
0.0
 11
0.0813469669
 21
6.8789092722
 31
0.0
 11
0.2918218585
 21
6.8367737435
 31
0.0
  0
SPLINE
  5
2C0
100
AcDbEntity
  8
0
100
AcDbSpline
 62
253
  6
CONTINUOUS
 70
0
 71
3
 72
13
 73
9
 74
7
 42
0.0000001
 43
0.0000001
 44
0.0000000001
 12
0.8093910163
 22
-0.4046955082
 32
0.0
 13
0.0
 23
-0.9912974962
 33
0.0
 40
0.0
 40
0.0
 40
0.0
 40
0.0
 40
0.2386423323
 40
0.3561908971
 40
0.4791277835
 40
0.604529773
 40
0.7299146194
 40
1.0
 40
1.0
 40
1.0
 40
1.0
 10
0.2918218585
 20
6.8367737435
 30
0.0
 10
0.3562068452
 20
6.8045812501
 30
0.0
 10
0.4542824222
 20
6.7337911039
 30
0.0
 10
0.5673939721
 20
6.5985280585
 30
0.0
 10
0.6421821021
 20
6.4810719362
 30
0.0
 10
0.7048670451
 20
6.3519219232
 30
0.0
 10
0.766684161
 20
6.1651553504
 30
0.0
 10
0.7819555182
 20
6.0244234448
 30
0.0
 10
0.7819555182
 20
5.9351784576
 30
0.0
 11
0.2918218585
 21
6.8367737435
 31
0.0
 11
0.4813467031
 21
6.6963631259
 31
0.0
 11
0.5643018859
 21
6.5978252903
 31
0.0
 11
0.639446477
 21
6.480368653
 31
0.0
 11
0.7017941825
 21
6.3511015276
 31
0.0
 11
0.7463282579
 21
6.2171474532
 31
0.0
 11
0.7819555182
 21
5.9351784576
 31
0.0
  0
SPLINE
  5
2C1
100
AcDbEntity
  8
0
100
AcDbSpline
 62
253
  6
CONTINUOUS
 70
0
 71
3
 72
20
 73
16
 74
14
 42
0.0000001
 43
0.0000001
 44
0.0000000001
 12
0.0
 22
-2.0082454715
 32
0.0
 13
-0.2207604391
 23
2.1003418063
 33
0.0
 40
0.0
 40
0.0
 40
0.0
 40
0.0
 40
0.1158276247
 40
0.1725854593
 40
0.2304562436
 40
0.3077693057
 40
0.3816184557
 40
0.4566499882
 40
0.5373156997
 40
0.6021872706
 40
0.6621935256
 40
0.7191100503
 40
0.7750029602
 40
0.8844202106
 40
1.0
 40
1.0
 40
1.0
 40
1.0
 10
0.7819555182
 20
5.9351784576
 30
0.0
 10
0.7819555182
 20
5.85764169
 30
0.0
 10
0.768195023
 20
5.7476475453
 30
0.0
 10
0.7191778492
 20
5.6294143084
 30
0.0
 10
0.6632945126
 20
5.5480486418
 30
0.0
 10
0.5857182786
 20
5.4823970174
 30
0.0
 10
0.4813764374
 20
5.450271267
 30
0.0
 10
0.3611981697
 20
5.4608511191
 30
0.0
 10
0.2402516109
 20
5.5082089774
 30
0.0
 10
0.1278212745
 20
5.5735311708
 30
0.0
 10
0.0304437793
 20
5.649286098
 30
0.0
 10
-0.0568250438
 20
5.7391481863
 30
0.0
 10
-0.1571048262
 20
5.8746067733
 30
0.0
 10
-0.2559842396
 20
6.074589339
 30
0.0
 10
-0.2904155999
 20
6.240299262
 30
0.0
 10
-0.2989207482
 20
6.3212182831
 30
0.0
 11
0.7819555182
 21
5.9351784576
 31
0.0
 11
0.7531492035
 21
5.719662396
 31
0.0
 11
0.717209824
 21
5.6324901947
 31
0.0
 11
0.6669738644
 21
5.5590114291
 31
0.0
 11
0.5808670394
 21
5.4881121776
 31
0.0
 11
0.4796414667
 21
5.4573302039
 31
0.0
 11
0.3632514704
 21
5.4666883461
 31
0.0
 11
0.2316513745
 21
5.516209442
 31
0.0
 11
0.1255422788
 21
5.5784104113
 31
0.0
 11
0.0297331154
 21
5.6537542575
 31
0.0
 11
-0.0557989536
 21
5.7422523994
 31
0.0
 11
-0.1310767663
 21
5.8439162562
 31
0.0
 11
-0.2432265097
 21
6.0715075087
 31
0.0
 11
-0.2989207482
 21
6.3212182831
 31
0.0
  0
SPLINE
  5
2C2
100
AcDbEntity
  8
0
100
AcDbSpline
 62
253
  6
CONTINUOUS
 70
0
 71
3
 72
19
 73
15
 74
13
 42
0.0000001
 43
0.0000001
 44
0.0000000001
 12
0.0971235167
 22
-1.0252164169
 32
0.0
 13
-0.1176866519
 23
1.0330457663
 33
0.0
 40
0.0
 40
0.0
 40
0.0
 40
0.0
 40
0.2369459995
 40
0.3398317338
 40
0.390951497
 40
0.4445094806
 40
0.5016364437
 40
0.5565413167
 40
0.6694244982
 40
0.7299540734
 40
0.7921728381
 40
0.8585870434
 40
0.9312582854
 40
1.0
 40
1.0
 40
1.0
 40
1.0
 10
1.2326251357
 20
5.6158620703
 30
0.0
 10
1.2402961453
 20
5.5348884274
 30
0.0
 10
1.2739869203
 20
5.4015007045
 30
0.0
 10
1.3644268319
 20
5.2841663736
 30
0.0
 10
1.4181777944
 20
5.2385996938
 30
0.0
 10
1.4615951391
 20
5.2124737691
 30
0.0
 10
1.5060417792
 20
5.1952551939
 30
0.0
 10
1.5638622095
 20
5.1890055679
 30
0.0
 10
1.6139062406
 20
5.2113492019
 30
0.0
 10
1.6512849317
 20
5.2553552285
 30
0.0
 10
1.671860849
 20
5.302293898
 30
0.0
 10
1.6838739191
 20
5.3609776353
 30
0.0
 10
1.6874195895
 20
5.4274545687
 30
0.0
 10
1.6850284122
 20
5.4750808169
 30
0.0
 10
1.6823317514
 20
5.4987519293
 30
0.0
 11
1.2326251357
 21
5.6158620703
 31
0.0
 11
1.3091171681
 21
5.3641436113
 31
0.0
 11
1.3783010445
 21
5.2741696715
 31
0.0
 11
1.417780312
 21
5.2405845373
 31
0.0
 11
1.4606396017
 21
5.2145397257
 31
0.0
 11
1.5063079637
 21
5.1972437448
 31
0.0
 11
1.5482765719
 21
5.1928740412
 31
0.0
 11
1.6209318224
 21
5.223004818
 31
0.0
 11
1.6495287889
 21
5.2568718937
 31
0.0
 11
1.6699269179
 21
5.3025583036
 31
0.0
 11
1.6821490475
 21
5.3600526286
 31
0.0
 11
1.6862180156
 21
5.4293434497
 31
0.0
 11
1.6823317514
 21
5.4987519293
 31
0.0
  0
SPLINE
  5
2C3
100
AcDbEntity
  8
0
100
AcDbSpline
 62
253
  6
CONTINUOUS
 70
0
 71
3
 72
17
 73
13
 74
11
 42
0.0000001
 43
0.0000001
 44
0.0000000001
 12
0.6426645224
 22
-0.3420454211
 32
0.0
 13
-0.6436794061
 23
0.3441747401
 33
0.0
 40
0.0
 40
0.0
 40
0.0
 40
0.0
 40
0.3081312368
 40
0.4374624432
 40
0.5034674525
 40
0.5742662355
 40
0.6343431626
 40
0.6896610765
 40
0.7939583075
 40
0.8978172331
 40
0.9525570283
 40
1.0
 40
1.0
 40
1.0
 40
1.0
 10
1.364171943
 20
6.1784226491
 30
0.0
 10
1.430180281
 20
6.1432910229
 30
0.0
 10
1.535164945
 20
6.113535724
 30
0.0
 10
1.6017004352
 20
6.1914086926
 30
0.0
 10
1.6180121054
 20
6.2506307677
 30
0.0
 10
1.6215196702
 20
6.3006908176
 30
0.0
 10
1.6186817832
 20
6.3510454938
 30
0.0
 10
1.6070502538
 20
6.4130582076
 30
0.0
 10
1.575821753
 20
6.4890171895
 30
0.0
 10
1.5267574469
 20
6.5519109567
 30
0.0
 10
1.4837593393
 20
6.5869147506
 30
0.0
 10
1.4618918475
 20
6.6003445664
 30
0.0
 10
1.4517124929
 20
6.6057874572
 30
0.0
 11
1.364171943
 21
6.1784226491
 31
0.0
 11
1.5546712083
 21
6.149706007
 31
0.0
 11
1.6040012611
 21
6.2070138019
 31
0.0
 11
1.6163337742
 21
6.2505748022
 31
0.0
 11
1.620444612
 21
6.3040365767
 31
0.0
 11
1.6174299976
 21
6.3527024974
 31
0.0
 11
1.6083861546
 21
6.3993483051
 31
0.0
 11
1.5722107826
 21
6.486579581
 31
0.0
 11
1.516090235
 21
6.5589454562
 31
0.0
 11
1.4820806655
 21
6.5870266412
 31
0.0
 11
1.4517124929
 21
6.6057874572
 31
0.0
  0
SPLINE
  5
2C4
100
AcDbEntity
  8
0
100
AcDbSpline
 62
253
  6
CONTINUOUS
 70
0
 71
3
 72
23
 73
19
 74
17
 42
0.0000001
 43
0.0000001
 44
0.0000000001
 12
0.2949633108
 22
1.6320327403
 32
0.0
 13
-0.28147551
 23
-1.6483056798
 33
0.0
 40
0.0
 40
0.0
 40
0.0
 40
0.0
 40
0.0919092227
 40
0.1690858178
 40
0.2403733267
 40
0.3158693996
 40
0.3965134994
 40
0.4384524978
 40
0.4821351561
 40
0.5551279832
 40
0.6228077352
 40
0.6879667447
 40
0.7537192802
 40
0.8067302789
 40
0.8565997001
 40
0.9051524208
 40
0.9543689664
 40
1.0
 40
1.0
 40
1.0
 40
1.0
 10
0.9573512612
 20
6.6490091919
 30
0.0
 10
0.9663878774
 20
6.6990088121
 30
0.0
 10
0.9881404475
 20
6.7873512281
 30
0.0
 10
1.0402554432
 20
6.8937190565
 30
0.0
 10
1.1166040029
 20
6.9564277938
 30
0.0
 10
1.213587834
 20
6.9802966931
 30
0.0
 10
1.3075209188
 20
6.9707574521
 30
0.0
 10
1.3889107678
 20
6.9450497736
 30
0.0
 10
1.4673151117
 20
6.9102671257
 30
0.0
 10
1.5586390249
 20
6.8561058261
 30
0.0
 10
1.6574184073
 20
6.7735404619
 30
0.0
 10
1.7450159555
 20
6.6732522924
 30
0.0
 10
1.8142574593
 20
6.5652275075
 30
0.0
 10
1.8672558288
 20
6.4594048327
 30
0.0
 10
1.9035656516
 20
6.3604333134
 30
0.0
 10
1.9252536592
 20
6.2635768946
 30
0.0
 10
1.9319924251
 20
6.1733300589
 30
0.0
 10
1.9277675696
 20
6.1177162822
 30
0.0
 10
1.9234862301
 20
6.0926449849
 30
0.0
 11
0.9573512612
 21
6.6490091919
 31
0.0
 11
0.9944401527
 21
6.7910539038
 31
0.0
 11
1.0465107639
 21
6.8898052498
 31
0.0
 11
1.1181306923
 21
6.9491889282
 31
0.0
 11
1.2131367198
 21
6.9741673422
 31
0.0
 11
1.326687193
 21
6.9632454194
 31
0.0
 11
1.3881556361
 21
6.9439908426
 31
0.0
 11
1.4528442353
 21
6.9154761991
 31
0.0
 11
1.5606852117
 21
6.8504793105
 31
0.0
 11
1.6572898983
 21
6.7689477663
 31
0.0
 11
1.7426582951
 21
6.6708815662
 31
0.0
 11
1.8167904021
 21
6.5562807104
 31
0.0
 11
1.8662080004
 21
6.4567222968
 31
0.0
 11
1.9015345606
 21
6.3595103235
 31
0.0
 11
1.9227472445
 21
6.2646562093
 31
0.0
 11
1.9298232143
 21
6.1721713733
 31
0.0
 11
1.9234862301
 21
6.0926449849
 31
0.0
  0
SPLINE
  5
2C5
100
AcDbEntity
  8
0
100
AcDbSpline
 62
253
  6
CONTINUOUS
 70
0
 71
3
 72
22
 73
18
 74
16
 42
0.0000001
 43
0.0000001
 44
0.0000000001
 12
1.4649895028
 22
-1.1169744043
 32
0.0
 13
-1.4628705159
 23
1.1390976279
 33
0.0
 40
0.0
 40
0.0
 40
0.0
 40
0.0
 40
0.0888867179
 40
0.174562708
 40
0.2610681016
 40
0.3055941137
 40
0.352593378
 40
0.420896839
 40
0.4865872934
 40
0.5525589286
 40
0.6216791482
 40
0.6916283897
 40
0.7601654387
 40
0.8300880026
 40
0.9040327981
 40
0.9738495334
 40
1.0
 40
1.0
 40
1.0
 40
1.0
 10
1.6983982755
 20
5.8743648969
 30
0.0
 10
1.7418043117
 20
5.8412701673
 30
0.0
 10
1.825510148
 20
5.7616953839
 30
0.0
 10
1.9252432981
 20
5.6038984035
 30
0.0
 10
1.9784357821
 20
5.4584684632
 30
0.0
 10
1.9987996883
 20
5.3417756251
 30
0.0
 10
2.0041572031
 20
5.241233434
 30
0.0
 10
1.9959325875
 20
5.1343786842
 30
0.0
 10
1.9666014042
 20
5.0311607659
 30
0.0
 10
1.9169756389
 20
4.9481787199
 30
0.0
 10
1.849336571
 20
4.8868754417
 30
0.0
 10
1.7680071854
 20
4.8475411261
 30
0.0
 10
1.6745687245
 20
4.8360311776
 30
0.0
 10
1.5715534423
 20
4.8531158324
 30
0.0
 10
1.4646431973
 20
4.8964804622
 30
0.0
 10
1.379680296
 20
4.9462525439
 30
0.0
 10
1.3325134709
 20
4.9808829863
 30
0.0
 10
1.3197618887
 20
4.9908122978
 30
0.0
 11
1.6983982755
 21
5.8743648969
 31
0.0
 11
1.8226369268
 21
5.7535070846
 31
0.0
 11
1.9191045855
 21
5.6015578704
 31
0.0
 11
1.9812543618
 21
5.4311888568
 31
0.0
 11
1.9967651616
 21
5.3439686758
 31
0.0
 11
2.0019303531
 21
5.2553761532
 31
0.0
 11
1.992288916
 21
5.1354195437
 31
0.0
 11
1.9633493797
 21
5.034677966
 31
0.0
 11
1.9150889061
 21
4.9531628391
 31
0.0
 11
1.8474846571
 21
4.8908855819
 31
0.0
 11
1.7654544128
 21
4.8520163623
 31
0.0
 11
1.6739464037
 21
4.8407101227
 31
0.0
 11
1.5729834679
 21
4.8569554441
 31
0.0
 11
1.4625884432
 21
4.9007409076
 31
0.0
 11
1.3582797422
 21
4.9624938727
 31
0.0
 11
1.3197618887
 21
4.9908122978
 31
0.0
  0
SPLINE
  5
2C6
100
AcDbEntity
  8
0
100
AcDbSpline
 62
253
  6
CONTINUOUS
 70
0
 71
3
 72
23
 73
19
 74
17
 42
0.0000001
 43
0.0000001
 44
0.0000000001
 12
2.1954094821
 22
-1.0977047411
 32
0.0
 13
-2.2007529475
 23
1.1068707237
 33
0.0
 40
0.0
 40
0.0
 40
0.0
 40
0.0
 40
0.0965602262
 40
0.1879851958
 40
0.2489394948
 40
0.3196849657
 40
0.4026953879
 40
0.4493235896
 40
0.4995416312
 40
0.5496583938
 40
0.5962333592
 40
0.6792866489
 40
0.750282668
 40
0.8116928549
 40
0.8579900021
 40
0.9030731832
 40
0.9495999467
 40
1.0
 40
1.0
 40
1.0
 40
1.0
 10
2.7147191643
 20
6.2845387346
 30
0.0
 10
2.785382243
 20
6.2492071952
 30
0.0
 10
2.9266582136
 20
6.1501203528
 30
0.0
 10
3.0738807599
 20
5.9294578386
 30
0.0
 10
3.1559616469
 20
5.7136004492
 30
0.0
 10
3.203602019
 20
5.5051989917
 30
0.0
 10
3.2258403709
 20
5.3160556256
 30
0.0
 10
3.2350638784
 20
5.1505933467
 30
0.0
 10
3.2372791216
 20
5.0177470276
 30
0.0
 10
3.2350563582
 20
4.8871652409
 30
0.0
 10
3.2257785944
 20
4.7310644626
 30
0.0
 10
3.2033625696
 20
4.5640154001
 30
0.0
 10
3.155432158
 20
4.402963296
 30
0.0
 10
3.0895201209
 20
4.2955516949
 30
0.0
 10
3.0101224913
 20
4.2369833845
 30
0.0
 10
2.9230024369
 20
4.2156754521
 30
0.0
 10
2.8227701568
 20
4.2279681667
 30
0.0
 10
2.7516918529
 20
4.2560800993
 30
0.0
 10
2.7147191643
 20
4.2746755471
 30
0.0
 11
2.7147191643
 21
6.2845387346
 31
0.0
 11
2.9225753001
 21
6.1295920955
 31
0.0
 11
3.0796397519
 21
5.8980041559
 31
0.0
 11
3.1482412596
 21
5.7229827705
 31
0.0
 11
3.1972706122
 21
5.5179731161
 31
0.0
 11
3.2267049716
 21
5.2829866116
 31
0.0
 11
3.234066892
 21
5.154255609
 31
0.0
 11
3.2365214998
 21
5.0180346761
 31
0.0
 11
3.2340549972
 21
4.8845470128
 31
0.0
 11
3.2266554893
 21
4.7633435705
 31
0.0
 11
3.1970574576
 21
4.5577893495
 31
0.0
 11
3.1477274049
 21
4.4013720128
 31
0.0
 11
3.0786653311
 21
4.2940915606
 31
0.0
 11
3.0068626988
 21
4.2418851469
 31
0.0
 11
2.9222707936
 21
4.2212470067
 31
0.0
 11
2.8248896154
 21
4.2321771401
 31
0.0
 11
2.7147191643
 21
4.2746755471
 31
0.0
  0
SPLINE
  5
2C7
100
AcDbEntity
  8
0
100
AcDbSpline
 62
253
  6
CONTINUOUS
 70
0
 71
3
 72
19
 73
15
 74
13
 42
0.0000001
 43
0.0000001
 44
0.0000000001
 12
-1.0989137503
 22
2.2378112442
 32
0.0
 13
1.7629440568
 23
-0.8814720284
 33
0.0
 40
0.0
 40
0.0
 40
0.0
 40
0.0
 40
0.0707429358
 40
0.1557918581
 40
0.2581196566
 40
0.3163433428
 40
0.3794570203
 40
0.4415764564
 40
0.4993247169
 40
0.6023682368
 40
0.6905590307
 40
0.7669669235
 40
0.8797795337
 40
1.0
 40
1.0
 40
1.0
 40
1.0
 10
2.3364002908
 20
4.684766282
 30
0.0
 10
2.3104868292
 20
4.7375360611
 30
0.0
 10
2.2655389008
 20
4.8595434932
 30
0.0
 10
2.2226117817
 20
5.0600146285
 30
0.0
 10
2.2025829379
 20
5.2455833909
 30
0.0
 10
2.1942434326
 20
5.4104293538
 30
0.0
 10
2.1921944341
 20
5.5435096511
 30
0.0
 10
2.1943704181
 20
5.6741390645
 30
0.0
 10
2.2036750718
 20
5.8295592118
 30
0.0
 10
2.2260543059
 20
5.9959911874
 30
0.0
 10
2.2741718187
 20
6.1564667989
 30
0.0
 10
2.35587022
 20
6.290383053
 30
0.0
 10
2.5034067803
 20
6.3626712776
 30
0.0
 10
2.6440718454
 20
6.319862394
 30
0.0
 10
2.7147191643
 20
6.2845387346
 30
0.0
 11
2.3364002908
 21
4.684766282
 31
0.0
 11
2.2735920192
 21
4.848131556
 31
0.0
 11
2.2287572436
 21
5.045780767
 31
0.0
 11
2.2018731262
 21
5.2776973634
 31
0.0
 11
2.1951554273
 21
5.4065007587
 31
0.0
 11
2.1929168288
 21
5.5438647935
 31
0.0
 11
2.1953833314
 21
5.6767231159
 31
0.0
 11
2.2027828393
 21
5.7973811293
 31
0.0
 11
2.232380871
 21
6.0020962292
 31
0.0
 11
2.2817109237
 21
6.1580100931
 31
0.0
 11
2.3507729975
 21
6.265122721
 31
0.0
 11
2.5068021273
 21
6.3381499789
 31
0.0
 11
2.7147191643
 21
6.2845387346
 31
0.0
  0
SPLINE
  5
2C8
100
AcDbEntity
  8
0
100
AcDbSpline
 62
253
  6
CONTINUOUS
 70
0
 71
3
 72
20
 73
16
 74
14
 42
0.0000001
 43
0.0000001
 44
0.0000000001
 12
-1.0472927705
 22
0.5236463853
 32
0.0
 13
0.2724562354
 23
-1.3747290747
 33
0.0
 40
0.0
 40
0.0
 40
0.0
 40
0.0
 40
0.1012731629
 40
0.1615539418
 40
0.2409742425
 40
0.3090791031
 40
0.3958923834
 40
0.5018317869
 40
0.5620517279
 40
0.6271301034
 40
0.6920062349
 40
0.7516165466
 40
0.8550973971
 40
0.9377646391
 40
1.0
 40
1.0
 40
1.0
 40
1.0
 10
2.7147191643
 20
5.9717143373
 30
0.0
 10
2.6793649472
 20
5.9893914459
 30
0.0
 10
2.6198564432
 20
5.9944499218
 30
0.0
 10
2.5693705378
 20
5.9344725041
 30
0.0
 10
2.5461635369
 20
5.8610466084
 30
0.0
 10
2.5308198405
 20
5.770251411
 30
0.0
 10
2.5216073686
 20
5.6637723264
 30
0.0
 10
2.5171285344
 20
5.5579751851
 30
0.0
 10
2.5152589504
 20
5.4600633334
 30
0.0
 10
2.5148162557
 20
5.3789740342
 30
0.0
 10
2.5152307105
 20
5.2977152712
 30
0.0
 10
2.5169190947
 20
5.1994250348
 30
0.0
 10
2.5208615071
 20
5.0924438982
 30
0.0
 10
2.5292275517
 20
4.9825390348
 30
0.0
 10
2.5380561775
 20
4.9169360343
 30
0.0
 10
2.5437083149
 20
4.8884171142
 30
0.0
 11
2.7147191643
 21
5.9717143373
 31
0.0
 11
2.6148410329
 21
5.9779445101
 31
0.0
 11
2.5759251024
 21
5.9365195678
 31
0.0
 11
2.5468751824
 21
5.8555898253
 31
0.0
 11
2.5329478165
 21
5.7768792299
 31
0.0
 11
2.5229714223
 21
5.6711873358
 31
0.0
 11
2.516968838
 21
5.5385027239
 31
0.0
 11
2.5154648613
 21
5.4620345804
 31
0.0
 11
2.5149629014
 21
5.3788139753
 31
0.0
 11
2.5154187096
 21
5.2953735065
 31
0.0
 11
2.5167823277
 21
5.2182497923
 31
0.0
 11
2.5222101561
 21
5.0829710389
 31
0.0
 11
2.5312007104
 21
4.9730145384
 31
0.0
 11
2.5437083149
 21
4.8884171142
 31
0.0
  0
SPLINE
  5
2C9
100
AcDbEntity
  8
0
100
AcDbSpline
 62
253
  6
CONTINUOUS
 70
0
 71
3
 72
25
 73
21
 74
19
 42
0.0000001
 43
0.0000001
 44
0.0000000001
 12
0.3419190325
 22
-1.725216655
 32
0.0
 13
-0.3413693189
 23
1.725123038
 33
0.0
 40
0.0
 40
0.0
 40
0.0
 40
0.0
 40
0.0713419314
 40
0.1214512505
 40
0.1620399815
 40
0.2029020276
 40
0.2435946031
 40
0.2846487036
 40
0.3327195944
 40
0.3960486306
 40
0.4499540802
 40
0.518864692
 40
0.6031223141
 40
0.6510686488
 40
0.702912892
 40
0.7546051627
 40
0.8020951724
 40
0.8845253205
 40
0.9503808095
 40
1.0
 40
1.0
 40
1.0
 40
1.0
 10
2.5437083149
 20
4.8884171142
 30
0.0
 10
2.5518393696
 20
4.8473903515
 30
0.0
 10
2.5680258637
 20
4.776916029
 30
0.0
 10
2.6089881279
 20
4.6823869138
 30
0.0
 10
2.6609372183
 20
4.6214419854
 30
0.0
 10
2.7146375435
 20
4.5839672465
 30
0.0
 10
2.7685850659
 20
4.5678172391
 30
0.0
 10
2.8195116495
 20
4.5772249344
 30
0.0
 10
2.8599274759
 20
4.624759879
 30
0.0
 10
2.8829278857
 20
4.6981332489
 30
0.0
 10
2.8983831951
 20
4.7885387981
 30
0.0
 10
2.9074498113
 20
4.894686505
 30
0.0
 10
2.911868056
 20
5.0002653509
 30
0.0
 10
2.9136992709
 20
5.098083809
 30
0.0
 10
2.91412961
 20
5.1791488002
 30
0.0
 10
2.9137335685
 20
5.2603837512
 30
0.0
 10
2.9121166966
 20
5.3586172099
 30
0.0
 10
2.9083115891
 20
5.4655066066
 30
0.0
 10
2.9001250396
 20
5.5753313863
 30
0.0
 10
2.8913761702
 20
5.6409215039
 30
0.0
 10
2.8857300138
 20
5.6694545734
 30
0.0
 11
2.5437083149
 21
4.8884171142
 31
0.0
 11
2.5758642011
 21
4.7644654743
 31
0.0
 11
2.6153282433
 21
4.6801584122
 31
0.0
 11
2.6617350336
 21
4.6247327615
 31
0.0
 11
2.7147191643
 21
4.5874999443
 31
0.0
 11
2.7674596898
 21
4.5720009634
 31
0.0
 11
2.8143536906
 21
4.581242397
 31
0.0
 11
2.853269621
 21
4.6227419279
 31
0.0
 11
2.882319541
 21
4.703746259
 31
0.0
 11
2.8962088436
 21
4.7818885011
 31
0.0
 11
2.9061014985
 21
4.8872027042
 31
0.0
 11
2.9120203436
 21
5.0196774494
 31
0.0
 11
2.9134967243
 21
5.0960964568
 31
0.0
 11
2.9139882168
 21
5.1793013176
 31
0.0
 11
2.9135533435
 21
5.2627252003
 31
0.0
 11
2.9122449171
 21
5.3398064593
 31
0.0
 11
2.9069845673
 21
5.47496651
 31
0.0
 11
2.8981614915
 21
5.5848322785
 31
0.0
 11
2.8857300138
 21
5.6694545734
 31
0.0
  0
SPLINE
  5
2CA
100
AcDbEntity
  8
0
100
AcDbSpline
 62
253
  6
CONTINUOUS
 70
0
 71
3
 72
11
 73
7
 74
5
 42
0.0000001
 43
0.0000001
 44
0.0000000001
 12
-0.0695987379
 22
0.3506270809
 32
0.0
 13
-0.2670993824
 23
0.1335496912
 33
0.0
 40
0.0
 40
0.0
 40
0.0
 40
0.0
 40
0.3514580511
 40
0.6000573051
 40
0.8004028285
 40
1.0
 40
1.0
 40
1.0
 40
1.0
 10
2.8857300138
 20
5.6694545734
 30
0.0
 10
2.8775763348
 20
5.7105314769
 30
0.0
 10
2.8612239888
 20
5.7813527374
 30
0.0
 10
2.8199742934
 20
5.8760698887
 30
0.0
 10
2.768344002
 20
5.9376156486
 30
0.0
 10
2.7324899247
 20
5.9628289571
 30
0.0
 10
2.7147191643
 20
5.9717143373
 30
0.0
 11
2.8857300138
 21
5.6694545734
 31
0.0
 11
2.8534218743
 21
5.7935569286
 31
0.0
 11
2.813622875
 21
5.8785535891
 31
0.0
 11
2.7672769859
 21
5.9344895561
 31
0.0
 11
2.7147191643
 21
5.9717143373
 31
0.0
  0
SPLINE
  5
2CB
100
AcDbEntity
  8
0
100
AcDbSpline
 62
253
  6
CONTINUOUS
 70
0
 71
3
 72
9
 73
5
 74
3
 42
0.0000001
 43
0.0000001
 44
0.0000000001
 12
0.4369241775
 22
-0.4718525502
 32
0.0
 13
0.1271995703
 23
-0.6348188633
 33
0.0
 40
0.0
 40
0.0
 40
0.0
 40
0.0
 40
0.2570580211
 40
1.0
 40
1.0
 40
1.0
 40
1.0
 10
-5.8974554236
 20
9.8447404843
 30
0.0
 10
-5.8600171354
 20
9.8043093233
 30
0.0
 10
-5.7298877297
 20
9.6108933105
 30
0.0
 10
-5.6877869104
 20
9.3849056869
 30
0.0
 10
-5.6562862769
 20
9.2276944927
 30
0.0
 11
-5.8974554236
 21
9.8447404843
 31
0.0
 11
-5.7989323461
 21
9.7027187545
 31
0.0
 11
-5.6562862769
 21
9.2276944927
 31
0.0
  0
SPLINE
  5
2CC
100
AcDbEntity
  8
0
100
AcDbSpline
 62
253
  6
CONTINUOUS
 70
0
 71
3
 72
9
 73
5
 74
3
 42
0.0000001
 43
0.0000001
 44
0.0000000001
 12
0.1468306276
 22
-0.7362175281
 32
0.0
 13
0.1463719346
 23
-0.7361403475
 33
0.0
 40
0.0
 40
0.0
 40
0.0
 40
0.0
 40
0.22943003
 40
1.0
 40
1.0
 40
1.0
 40
1.0
 10
-5.6562862769
 20
9.2276944927
 30
0.0
 10
-5.6450571585
 20
9.1713910229
 30
0.0
 10
-5.5972932703
 20
8.9261857768
 30
0.0
 10
-5.5511302363
 20
8.6812642294
 30
0.0
 10
-5.5135336305
 20
8.4921816809
 30
0.0
 11
-5.6562862769
 21
9.2276944927
 31
0.0
 11
-5.6232244839
 21
9.0588910623
 31
0.0
 11
-5.5135336305
 21
8.4921816809
 31
0.0
  0
SPLINE
  5
2CD
100
AcDbEntity
  8
0
100
AcDbSpline
 62
253
  6
CONTINUOUS
 70
0
 71
3
 72
21
 73
17
 74
15
 42
0.0000001
 43
0.0000001
 44
0.0000000001
 12
-0.2626270225
 22
1.2460280742
 32
0.0
 13
-0.9472936843
 23
0.4736468421
 33
0.0
 40
0.0
 40
0.0
 40
0.0
 40
0.0
 40
0.090026035
 40
0.2958490082
 40
0.4120663708
 40
0.5210936143
 40
0.6108901336
 40
0.6448187343
 40
0.6694368581
 40
0.7039020108
 40
0.7355626544
 40
0.7918179772
 40
0.8407159476
 40
0.8838909188
 40
0.954681105
 40
1.0
 40
1.0
 40
1.0
 40
1.0
 10
-5.9159694187
 20
8.693399575
 30
0.0
 10
-5.9238505085
 20
8.7307912307
 30
0.0
 10
-5.9499105196
 20
8.8536934239
 30
0.0
 10
-5.9864791182
 20
9.0249138455
 30
0.0
 10
-6.0252644347
 20
9.2041034592
 30
0.0
 10
-6.054055875
 20
9.3351207154
 30
0.0
 10
-6.0758334103
 20
9.4319831629
 30
0.0
 10
-6.0903884331
 20
9.4937912327
 30
0.0
 10
-6.0999907632
 20
9.5325893106
 30
0.0
 10
-6.1110074959
 20
9.5705477275
 30
0.0
 10
-6.1291013849
 20
9.6214714886
 30
0.0
 10
-6.1544793007
 20
9.6774214203
 30
0.0
 10
-6.1890485614
 20
9.733973123
 30
0.0
 10
-6.2329417849
 20
9.789330039
 30
0.0
 10
-6.2815149387
 20
9.8330333827
 30
0.0
 10
-6.3182242074
 20
9.8552275503
 30
0.0
 10
-6.3325343084
 20
9.8623826008
 30
0.0
 11
-5.9159694187
 21
8.693399575
 31
0.0
 11
-5.9397285382
 21
8.8055914169
 31
0.0
 11
-5.9945929966
 21
9.0621690088
 31
0.0
 11
-6.0259961808
 21
9.2071034296
 31
0.0
 11
-6.0559434433
 21
9.3431354501
 31
0.0
 11
-6.0813573653
 21
9.4552654579
 31
0.0
 11
-6.0914026303
 21
9.497679828
 31
0.0
 11
-6.0991605281
 21
9.5284938402
 31
0.0
 11
-6.1118230026
 21
9.5716814383
 31
0.0
 11
-6.1258942955
 21
9.6111558218
 31
0.0
 11
-6.1572755933
 21
9.679596895
 31
0.0
 11
-6.1913289356
 21
9.7350809586
 31
0.0
 11
-6.2260788366
 21
9.7788719118
 31
0.0
 11
-6.2897663707
 21
9.836430083
 31
0.0
 11
-6.3325343084
 21
9.8623826008
 31
0.0
  0
SPLINE
  5
2CE
100
AcDbEntity
  8
0
100
AcDbSpline
 62
253
  6
CONTINUOUS
 70
0
 71
3
 72
9
 73
5
 74
3
 42
0.0000001
 43
0.0000001
 44
0.0000000001
 12
1.0288321216
 22
-0.3288974845
 32
0.0
 13
0.9783239856
 23
-0.9209995925
 33
0.0
 40
0.0
 40
0.0
 40
0.0
 40
0.0
 40
0.7040723023
 40
1.0
 40
1.0
 40
1.0
 40
1.0
 10
-6.9737031912
 20
11.6484829595
 30
0.0
 10
-6.732245791
 20
11.5712937565
 30
0.0
 10
-6.3838578792
 20
11.4400688401
 30
0.0
 10
-6.0373215372
 20
11.1972312387
 30
0.0
 10
-5.9408171489
 20
11.1063814757
 30
0.0
 11
-6.9737031912
 21
11.6484829595
 31
0.0
 11
-6.2425830888
 21
11.331181703
 31
0.0
 11
-5.9408171489
 21
11.1063814757
 31
0.0
  0
SPLINE
  5
2CF
100
AcDbEntity
  8
0
100
AcDbSpline
 62
253
  6
CONTINUOUS
 70
0
 71
3
 72
20
 73
16
 74
14
 42
0.0000001
 43
0.0000001
 44
0.0000000001
 12
1.1755529239
 22
-1.1093194285
 32
0.0
 13
-1.2412200621
 23
0.4363460425
 33
0.0
 40
0.0
 40
0.0
 40
0.0
 40
0.0
 40
0.0798093524
 40
0.1893976882
 40
0.2530253742
 40
0.3224166954
 40
0.3985539926
 40
0.4832689163
 40
0.5373502016
 40
0.5876890799
 40
0.6789149956
 40
0.7598630854
 40
0.8316459625
 40
0.9442834527
 40
1.0
 40
1.0
 40
1.0
 40
1.0
 10
-5.9408171489
 20
11.1063814757
 30
0.0
 10
-5.9095437764
 20
11.0768701206
 30
0.0
 10
-5.8396544136
 20
10.9947666239
 30
0.0
 10
-5.7596464686
 20
10.8686036355
 30
0.0
 10
-5.6985865744
 20
10.7388143184
 30
0.0
 10
-5.6575271621
 20
10.6235594864
 30
0.0
 10
-5.6273216994
 20
10.4962839044
 30
0.0
 10
-5.6144919316
 20
10.3807331707
 30
0.0
 10
-5.6130683402
 20
10.2833629851
 30
0.0
 10
-5.6194239096
 20
10.1868643157
 30
0.0
 10
-5.6399924322
 20
10.0854942318
 30
0.0
 10
-5.6811994586
 20
9.9918231624
 30
0.0
 10
-5.7426350506
 20
9.9080235346
 30
0.0
 10
-5.8157415092
 20
9.8642649906
 30
0.0
 10
-5.8744032582
 20
9.836636586
 30
0.0
 10
-5.8974554236
 20
9.8447404843
 30
0.0
 11
-5.9408171489
 21
11.1063814757
 31
0.0
 11
-5.8524189125
 21
11.0054857325
 31
0.0
 11
-5.749587068
 21
10.8431659534
 31
0.0
 11
-5.7017224528
 21
10.7414086474
 31
0.0
 11
-5.6610061276
 21
10.6272192488
 31
0.0
 11
-5.6310236566
 21
10.5015723964
 31
0.0
 11
-5.6153606036
 21
10.3654427291
 31
0.0
 11
-5.6141608955
 21
10.2820409845
 31
0.0
 11
-5.6191688379
 21
10.2077051964
 31
0.0
 11
-5.6446389034
 21
10.0842729957
 31
0.0
 11
-5.6854332583
 21
9.9912291401
 31
0.0
 11
-5.7352143613
 21
9.9246566421
 31
0.0
 11
-5.8363866454
 21
9.8552577708
 31
0.0
 11
-5.8974554236
 21
9.8447404843
 31
0.0
  0
SPLINE
  5
2D0
100
AcDbEntity
  8
0
100
AcDbSpline
 62
253
  6
CONTINUOUS
 70
0
 71
3
 72
9
 73
5
 74
3
 42
0.0000001
 43
0.0000001
 44
0.0000000001
 12
0.4990616008
 22
-0.235795449
 32
0.0
 13
-0.0073094948
 23
0.6149666473
 33
0.0
 40
0.0
 40
0.0
 40
0.0
 40
0.0
 40
0.4792065318
 40
1.0
 40
1.0
 40
1.0
 40
1.0
 10
-6.3315598876
 20
10.2640768759
 30
0.0
 10
-6.251842028
 20
10.2264119694
 30
0.0
 10
-6.0665662935
 20
10.1750406219
 30
0.0
 10
-6.0053216402
 20
10.3761320275
 30
0.0
 10
-6.0065905526
 20
10.4828888986
 30
0.0
 11
-6.3315598876
 21
10.2640768759
 31
0.0
 11
-6.1027537048
 21
10.2351522678
 31
0.0
 11
-6.0065905526
 21
10.4828888986
 31
0.0
  0
SPLINE
  5
2D1
100
AcDbEntity
  8
0
100
AcDbSpline
 62
253
  6
CONTINUOUS
 70
0
 71
3
 72
17
 73
13
 74
11
 42
0.0000001
 43
0.0000001
 44
0.0000000001
 12
0.7849664816
 22
-0.392678554
 32
0.0
 13
-0.7849998828
 23
0.3923030836
 33
0.0
 40
0.0
 40
0.0
 40
0.0
 40
0.0
 40
0.0684959953
 40
0.1307643627
 40
0.249035943
 40
0.3717405446
 40
0.4991893454
 40
0.6277367474
 40
0.7507180891
 40
0.8691909698
 40
0.931500463
 40
1.0
 40
1.0
 40
1.0
 40
1.0
 10
-11.1137735423
 20
-0.1415270478
 30
0.0
 10
-11.0958511888
 20
-0.1504926839
 30
0.0
 10
-11.0616355453
 20
-0.1721339887
 30
0.0
 10
-11.0002394864
 20
-0.231406146
 30
0.0
 10
-10.9404404018
 20
-0.3305594094
 30
0.0
 10
-10.9021037028
 20
-0.4599835063
 30
0.0
 10
-10.8899575197
 20
-0.5873386901
 30
0.0
 10
-10.9019855784
 20
-0.7027444808
 30
0.0
 10
-10.9404361145
 20
-0.7942534321
 30
0.0
 10
-11.0002107214
 20
-0.8338781875
 30
0.0
 10
-11.0616207073
 20
-0.8319407515
 30
0.0
 10
-11.0958494995
 20
-0.8193947304
 30
0.0
 10
-11.1137735423
 20
-0.8104372038
 30
0.0
 11
-11.1137735423
 21
-0.1415270478
 31
0.0
 11
-11.0605486611
 21
-0.1757661681
 31
0.0
 11
-11.0151058242
 21
-0.2199877373
 31
0.0
 11
-10.9467212773
 21
-0.3305213962
 31
0.0
 11
-10.9069298907
 21
-0.4574143709
 31
0.0
 11
-10.8940416531
 21
-0.5849530078
 31
0.0
 11
-10.9069042866
 21
-0.7006817439
 31
0.0
 11
-10.9467212773
 21
-0.7880475891
 31
0.0
 11
-11.015110945
 21
-0.8304733182
 31
0.0
 11
-11.0605505814
 21
-0.8293728573
 31
0.0
 11
-11.1137735423
 21
-0.8104372038
 31
0.0
  0
SPLINE
  5
2D2
100
AcDbEntity
  8
0
100
AcDbSpline
 62
253
  6
CONTINUOUS
 70
0
 71
3
 72
19
 73
15
 74
13
 42
0.0000001
 43
0.0000001
 44
0.0000000001
 12
-1.253746523
 22
0.5752926236
 32
0.0
 13
1.2546418469
 23
-0.6273204083
 33
0.0
 40
0.0
 40
0.0
 40
0.0
 40
0.0
 40
0.0565300194
 40
0.1211879172
 40
0.2401651978
 40
0.3597197819
 40
0.4239764322
 40
0.492454777
 40
0.5612059193
 40
0.6256926399
 40
0.745561541
 40
0.8646631418
 40
0.9293356452
 40
1.0
 40
1.0
 40
1.0
 40
1.0
 10
-11.1315005466
 20
0.0322626598
 30
0.0
 10
-11.1551253183
 20
0.0431030942
 30
0.0
 10
-11.2056271863
 20
0.0620191005
 30
0.0
 10
-11.3026433461
 20
0.0770587064
 30
0.0
 10
-11.4111717396
 20
0.0411800421
 30
0.0
 10
-11.4754673964
 20
-0.0655003525
 30
0.0
 10
-11.5004732855
 20
-0.1787193545
 30
0.0
 10
-11.5066027626
 20
-0.2788123143
 30
0.0
 10
-11.500471473
 20
-0.3851523088
 30
0.0
 10
-11.4754848757
 20
-0.52379726
 30
0.0
 10
-11.4112588868
 20
-0.6951764103
 30
0.0
 10
-11.3026916794
 20
-0.839991083
 30
0.0
 10
-11.1999259656
 20
-0.9269258685
 30
0.0
 10
-11.1433263611
 20
-0.9609490432
 30
0.0
 10
-11.1137735423
 20
-0.9757254404
 30
0.0
 11
-11.1315005466
 21
0.0322626598
 31
0.0
 11
-11.2019034324
 21
0.0582857916
 31
0.0
 11
-11.2796534572
 21
0.0695373991
 31
0.0
 11
-11.4023239001
 21
0.0273623541
 31
0.0
 11
-11.4784048487
 21
-0.0924824942
 31
0.0
 11
-11.4979180057
 21
-0.1783181408
 31
0.0
 11
-11.5045162809
 21
-0.2797156938
 31
0.0
 11
-11.4979180057
 21
-0.3881310826
 31
0.0
 11
-11.4784048487
 21
-0.4938435055
 31
0.0
 11
-11.4023239001
 21
-0.6903287166
 31
0.0
 11
-11.2796534572
 21
-0.8555098529
 31
0.0
 11
-11.2019034562
 21
-0.9220886412
 31
0.0
 11
-11.1137735423
 21
-0.9757254404
 31
0.0
  0
SPLINE
  5
2D3
100
AcDbEntity
  8
0
100
AcDbSpline
 62
253
  6
CONTINUOUS
 70
0
 71
3
 72
10
 73
6
 74
4
 42
0.0000001
 43
0.0000001
 44
0.0000000001
 12
-0.4335587842
 22
0.2180587902
 32
0.0
 13
-0.2692643109
 23
0.5491648817
 33
0.0
 40
0.0
 40
0.0
 40
0.0
 40
0.0
 40
0.2594068271
 40
0.5040791021
 40
1.0
 40
1.0
 40
1.0
 40
1.0
 10
-2.2796746184
 20
6.7718724384
 30
0.0
 10
-2.317163988
 20
6.7907277514
 30
0.0
 10
-2.3900399826
 20
6.8353145662
 30
0.0
 10
-2.5281156352
 20
6.9601944678
 30
0.0
 10
-2.6134822256
 20
7.091182393
 30
0.0
 10
-2.6579934919
 20
7.1819631734
 30
0.0
 11
-2.2796746184
 21
6.7718724384
 31
0.0
 11
-2.3913028944
 21
6.8414807972
 31
0.0
 11
-2.4915806906
 21
6.9330210048
 31
0.0
 11
-2.6579934919
 21
7.1819631734
 31
0.0
  0
SPLINE
  5
2D4
100
AcDbEntity
  8
0
100
AcDbSpline
 62
253
  6
CONTINUOUS
 70
0
 71
3
 72
15
 73
11
 74
9
 42
0.0000001
 43
0.0000001
 44
0.0000000001
 12
-0.0955995384
 22
0.7977084748
 32
0.0
 13
-0.4138682599
 23
-0.3580292458
 33
0.0
 40
0.0
 40
0.0
 40
0.0
 40
0.0
 40
0.0792582618
 40
0.2486979448
 40
0.4010352079
 40
0.4781480655
 40
0.5604570585
 40
0.6651822121
 40
0.7700442965
 40
1.0
 40
1.0
 40
1.0
 40
1.0
 10
0.4593599026
 20
6.1896048136
 30
0.0
 10
0.4568342182
 20
6.2106798093
 30
0.0
 10
0.445931765
 20
6.2777399254
 30
0.0
 10
0.4076580389
 20
6.3907137438
 30
0.0
 10
0.3382149557
 20
6.4867983816
 30
0.0
 10
0.2761047857
 20
6.5405081858
 30
0.0
 10
0.2214106098
 20
6.57350448
 30
0.0
 10
0.1609413859
 20
6.5955831495
 30
0.0
 10
0.0748569407
 20
6.6003666911
 30
0.0
 10
0.02001357
 20
6.5715847973
 30
0.0
 10
-0.011710219
 20
6.544141175
 30
0.0
 11
0.4593599026
 21
6.1896048136
 31
0.0
 11
0.4485818039
 21
6.2537276116
 31
0.0
 11
0.3990081459
 21
6.3918890433
 31
0.0
 11
0.3225770149
 21
6.4979801933
 31
0.0
 11
0.2768477515
 21
6.5378463536
 31
0.0
 11
0.2260484549
 21
6.5689193938
 31
0.0
 11
0.1615615912
 21
6.5921842284
 31
0.0
 11
0.1004090737
 21
6.5958246955
 31
0.0
 11
-0.011710219
 21
6.544141175
 31
0.0
  0
SPLINE
  5
2D5
100
AcDbEntity
  8
0
100
AcDbSpline
 62
253
  6
CONTINUOUS
 70
0
 71
3
 72
12
 73
8
 74
6
 42
0.0000001
 43
0.0000001
 44
0.0000000001
 12
-0.0669809901
 22
0.5879547693
 32
0.0
 13
-0.4402783343
 23
0.0691551502
 33
0.0
 40
0.0
 40
0.0
 40
0.0
 40
0.0
 40
0.1102901141
 40
0.313053701
 40
0.5013834297
 40
0.6868974466
 40
1.0
 40
1.0
 40
1.0
 40
1.0
 10
1.6823317514
 20
5.4987519293
 30
0.0
 10
1.6798693044
 20
5.5203671288
 30
0.0
 10
1.6692483714
 20
5.5829509608
 30
0.0
 10
1.6299406754
 20
5.6858401936
 30
0.0
 10
1.5575626102
 20
5.7892387649
 30
0.0
 10
1.4514145907
 20
5.8651145498
 30
0.0
 10
1.3760179721
 20
5.8808034403
 30
0.0
 10
1.3300672152
 20
5.8880209917
 30
0.0
 11
1.6823317514
 21
5.4987519293
 31
0.0
 11
1.6706577335
 21
5.5646700188
 31
0.0
 11
1.6238550847
 21
5.6860807037
 31
0.0
 11
1.5544580538
 21
5.7832098392
 31
0.0
 11
1.4713582304
 21
5.8455699576
 31
0.0
 11
1.3300672152
 21
5.8880209917
 31
0.0
  0
SPLINE
  5
2D6
100
AcDbEntity
  8
0
100
AcDbSpline
 62
253
  6
CONTINUOUS
 70
0
 71
3
 72
12
 73
8
 74
6
 42
0.0000001
 43
0.0000001
 44
0.0000000001
 12
-0.3308239357
 22
0.1768912303
 32
0.0
 13
-0.0364884181
 23
-0.3839568177
 33
0.0
 40
0.0
 40
0.0
 40
0.0
 40
0.0
 40
0.0230772781
 40
0.138580176
 40
0.2493637407
 40
0.4740373608
 40
1.0
 40
1.0
 40
1.0
 40
1.0
 10
1.4517124929
 20
6.6057874572
 30
0.0
 10
1.4491676543
 20
6.6071481799
 30
0.0
 10
1.4338758728
 20
6.615021945
 30
0.0
 10
1.4063445669
 20
6.6260314943
 30
0.0
 10
1.3583984531
 20
6.6328726218
 30
0.0
 10
1.2768126455
 20
6.607462902
 30
0.0
 10
1.2477921044
 20
6.5152288731
 30
0.0
 10
1.2413949229
 20
6.447913226
 30
0.0
 11
1.4517124929
 21
6.6057874572
 31
0.0
 11
1.4440744481
 21
6.6097218834
 31
0.0
 11
1.4060644245
 21
6.624531289
 31
0.0
 11
1.3709319872
 21
6.6295106891
 31
0.0
 11
1.3091171681
 21
6.6100708244
 31
0.0
 11
1.2413949229
 21
6.447913226
 31
0.0
  0
SPLINE
  5
2D7
100
AcDbEntity
  8
0
100
AcDbSpline
 62
253
  6
CONTINUOUS
 70
0
 71
3
 72
10
 73
6
 74
4
 42
0.0000001
 43
0.0000001
 44
0.0000000001
 12
-0.0685827228
 22
-0.4016167924
 32
0.0
 13
-0.3171911632
 23
-0.0531342705
 33
0.0
 40
0.0
 40
0.0
 40
0.0
 40
0.0
 40
0.0936388783
 40
0.3696316321
 40
1.0
 40
1.0
 40
1.0
 40
1.0
 10
1.9234862301
 20
6.0926449849
 30
0.0
 10
1.9213455603
 20
6.0801093363
 30
0.0
 10
1.9106762403
 20
6.0322881801
 30
0.0
 10
1.856851069
 20
5.9245681797
 30
0.0
 10
1.7650473675
 20
5.885529618
 30
0.0
 10
1.6983982755
 20
5.8743648969
 30
0.0
 11
1.9234862301
 21
6.0926449849
 31
0.0
 11
1.9153477366
 21
6.0563939387
 31
0.0
 11
1.8719365289
 21
5.9681746605
 31
0.0
 11
1.6983982755
 21
5.8743648969
 31
0.0
  0
SPLINE
  5
2D8
100
AcDbEntity
  8
0
100
AcDbSpline
 62
253
  6
CONTINUOUS
 70
0
 71
3
 72
13
 73
9
 74
7
 42
0.0000001
 43
0.0000001
 44
0.0000000001
 12
-0.6083615497
 22
0.4737146526
 32
0.0
 13
-0.0691743145
 23
0.7929757417
 33
0.0
 40
0.0
 40
0.0
 40
0.0
 40
0.0
 40
0.0943223974
 40
0.2456923375
 40
0.396696623
 40
0.5464632977
 40
0.6934678806
 40
1.0
 40
1.0
 40
1.0
 40
1.0
 10
1.3197618887
 20
4.9908122978
 30
0.0
 10
1.3006345155
 20
5.0057062651
 30
0.0
 10
1.2514036992
 20
5.0473900988
 30
0.0
 10
1.1758913259
 20
5.1271596111
 30
0.0
 10
1.0994410793
 20
5.2333337485
 30
0.0
 10
1.0346350504
 20
5.348365222
 30
0.0
 10
0.966795701
 20
5.5123635358
 30
0.0
 10
0.9415204223
 20
5.6396186723
 30
0.0
 10
0.9344523726
 20
5.7206428505
 30
0.0
 11
1.3197618887
 21
4.9908122978
 31
0.0
 11
1.2631975881
 21
5.0388494407
 31
0.0
 11
1.1774333329
 21
5.1297899063
 31
0.0
 11
1.1010783284
 21
5.2352975642
 31
0.0
 11
1.036675204
 21
5.3502038479
 31
0.0
 11
0.9874365033
 21
5.4694154707
 31
0.0
 11
0.9344523726
 21
5.7206428505
 31
0.0
  0
SPLINE
  5
2D9
100
AcDbEntity
  8
0
100
AcDbSpline
 62
253
  6
CONTINUOUS
 70
0
 71
3
 72
10
 73
6
 74
4
 42
0.0000001
 43
0.0000001
 44
0.0000000001
 12
-0.4335587842
 22
0.2180587902
 32
0.0
 13
-0.2692643109
 23
0.5491648817
 33
0.0
 40
0.0
 40
0.0
 40
0.0
 40
0.0
 40
0.2594068271
 40
0.5040791021
 40
1.0
 40
1.0
 40
1.0
 40
1.0
 10
2.7147191643
 20
4.2746755471
 30
0.0
 10
2.6772297948
 20
4.29353086
 30
0.0
 10
2.6043538001
 20
4.3381176748
 30
0.0
 10
2.4662781475
 20
4.4629975765
 30
0.0
 10
2.3809115571
 20
4.5939855016
 30
0.0
 10
2.3364002908
 20
4.684766282
 30
0.0
 11
2.7147191643
 21
4.2746755471
 31
0.0
 11
2.6030908884
 21
4.3442839058
 31
0.0
 11
2.5028130921
 21
4.4358241134
 31
0.0
 11
2.3364002908
 21
4.684766282
 31
0.0
  0
ENDSEC
  0
SECTION
  2
OBJECTS
  0
DICTIONARY
  5
C
100
AcDbDictionary
280
0
281
1
  3
ACAD_GROUP
350
D
  3
ACAD_MLINESTYLE
350
17
  3
ACAD_LAYOUT
350
1A
  3
ACAD_PLOTSETTINGS
350
19
  3
ACAD_PLOTSTYLENAME
350
E
  0
DICTIONARY
  5
D
102
{ACAD_REACTORS
330
C
102
}
100
AcDbDictionary
280
0
281
1
  0
ACDBDICTIONARYWDFLT
  5
E
102
{ACAD_REACTORS
330
C
102
}
100
AcDbDictionary
281
1
  3
Normal
350
F
100
AcDbDictionaryWithDefault
340
F
  0
DICTIONARY
  5
17
102
{ACAD_REACTORS
330
C
102
}
100
AcDbDictionary
280
0
281
1
  3
Standard
350
18
  0
DICTIONARY
  5
19
102
{ACAD_REACTORS
330
C
102
}
100
AcDbDictionary
281
1
  0
DICTIONARY
  5
1A
102
{ACAD_REACTORS
330
C
102
}
100
AcDbDictionary
281
1
  3
Model
350
2DA
  3
Layout1
350
2DB
  0
ACDBPLACEHOLDER
  5
F
102
{ACAD_REACTORS
330
E
102
}
  0
MLINESTYLE
  5
18
102
{ACAD_REACTORS
330
17
102
}
100
AcDbMlineStyle
  2
STANDARD
 70
0
  3

 62
256
 51
90.0
 52
90.0
 71
2
 49
0.5
 62
256
  6
BYLAYER
 49
-0.5
 62
256
  6
BYLAYER
  0
LAYOUT
  5
2DA
102
{ACAD_REACTORS
330
1A
102
}
100
AcDbPlotSettings
  1

  2
none_device
  4
ISO_A4_(297.00_x_210.00_MM)
  6

 40
0.0
 41
0.0
 42
0.0
 43
0.0
 44
297.0
 45
210.0
 46
0.0
 47
0.0
 48
0.0
 49
0.0
140
0.0
141
0.0
142
1.0
143
1.0
 70
1024
 72
1
 73
0
 74
0
  7

 75
0
147
1.0
148
0.0
149
0.0
100
AcDbLayout
  1
Model
 70
0
 71
0
 10
0.0
 20
0.0
 11
297.0
 21
210.0
 12
0.0
 22
0.0
 32
0.0
 14
0.0
 24
0.0
 34
0.0
 15
0.0
 25
0.0
 35
0.0
146
0.0
 13
0.0
 23
0.0
 33
0.0
 16
1.0
 26
0.0
 36
0.0
 17
0.0
 27
1.0
 37
0.0
 76
0
330
20C
345
0
346
0
  0
LAYOUT
  5
2DB
102
{ACAD_REACTORS
330
1A
102
}
100
AcDbPlotSettings
  1

  2
none_device
  4
ISO_A4_(297.00_x_210.00_MM)
  6

 40
0.0
 41
0.0
 42
0.0
 43
0.0
 44
297.0
 45
210.0
 46
0.0
 47
0.0
 48
0.0
 49
0.0
140
0.0
141
0.0
142
1.0
143
1.0
 70
0
 72
1
 73
0
 74
0
  7

 75
0
147
1.0
148
0.0
149
0.0
100
AcDbLayout
  1
Layout1
 70
0
 71
1
 10
0.0
 20
0.0
 11
297.0
 21
210.0
 12
0.0
 22
0.0
 32
0.0
 14
0.0
 24
0.0
 34
0.0
 15
0.0
 25
0.0
 35
0.0
146
0.0
 13
0.0
 23
0.0
 33
0.0
 16
1.0
 26
0.0
 36
0.0
 17
0.0
 27
1.0
 37
0.0
 76
0
330
20D
345
0
346
0
  0
ENDSEC
  0
EOF
