  0
SECTION
  2
HEADER
  9
$ACADVER
  1
AC1021
  9
$DWGCODEPAGE
  3
ANSI_1252
  9
$EXTMAX
 10
297.0
 20
210.0
 30
0.0
  9
$EXTMIN
 10
0.0
 20
0.0
 30
0.0
  9
$LIMMIN
 10
0.0
 20
0.0
  9
$LIMMAX
 10
297.0
 20
210.0
  9
$VIEWCTR
 10
148.5
 20
105.0
  9
$VIEWSIZE
 40
210.0
  9
$CLAYER
  8
0
  9
$LTSCALE
 40
16.335
  9
$CELTYPE
  6
BYLAYER
  9
$DIMSCALE
 40
1.0
  9
$DIMASZ
 40
3.0
  9
$DIMEXO
 40
0.5
  9
$DIMDLI
 40
11.286
  9
$DIMEXE
 40
1.5
  9
$DIMCEN
 40
2.673
  9
$DIMLFAC
 40
1.0
  9
$DIMBLK
  1
_FILLED
  9
$DIMALT
 70
0
  9
$DIMALTF
 40
0.0393700787
  9
$DIMTXT
 40
3.0
  9
$DIMTOL
 70
1
  9
$DIMLIM
 70
0
  9
$DIMTFAC
 40
1.0
  9
$DIMTP
 40
0.01
  9
$DIMTM
 40
0.01
  9
$DIMGAP
 40
0.625
  9
$DIMDSEP
 70
44
  9
$AUNITS
 70
0
  9
$PDMODE
 70
3
  9
$PDSIZE
 40
3.0
  9
$HANDSEED
  5
298
  9
$TILEMODE
 70
1
  9
$MEASUREMENT
 70
1
  9
$INSUNITS
 70
4
  0
ENDSEC
  0
SECTION
  2
CLASSES
  0
CLASS
  1
ACDBDICTIONARYWDFLT
  2
AcDbDictionaryWithDefault
  3
AutoCAD 2000
 90
0
 91
1
280
0
281
0
  0
CLASS
  1
ACDBPLACEHOLDER
  2
AcDbPlaceHolder
  3
AutoCAD 2000
 90
0
 91
1
280
0
281
0
  0
CLASS
  1
LAYOUT
  2
AcDbLayout
  3
AutoCAD 2000
 90
0
 91
0
280
0
281
0
  0
ENDSEC
  0
SECTION
  2
TABLES
  0
TABLE
  2
VPORT
  5
8
100
AcDbSymbolTable
 70
2
  0
VPORT
  5
1F4
100
AcDbSymbolTableRecord
100
AcDbViewportTableRecord
  2
*ACTIVE
 70
0
 10
0.0
 20
0.0
 11
1.0
 21
1.0
 12
148.5
 22
105.0
 13
0.0
 23
0.0
 14
1.0
 24
1.0
 15
0.0
 25
0.0
 16
0.0
 26
0.0
 36
1.0
 17
0.0
 27
0.0
 37
0.0
 40
210.0
 41
1.4142857143
 42
50.0
 43
0.0
 44
0.0
 50
0.0
 51
0.0
 71
0
 72
100
 73
1
 74
1
 75
0
 76
0
 77
0
 78
0
  0
ENDTAB
  0
TABLE
  2
LTYPE
  5
5
100
AcDbSymbolTable
 70
6
  0
LTYPE
  5
14
100
AcDbSymbolTableRecord
100
AcDbLinetypeTableRecord
  2
BYBLOCK
 70
0
  3

 72
65
 73
0
 40
0.0
  0
LTYPE
  5
15
100
AcDbSymbolTableRecord
100
AcDbLinetypeTableRecord
  2
BYLAYER
 70
0
  3

 72
65
 73
0
 40
0.0
  0
LTYPE
  5
16
100
AcDbSymbolTableRecord
100
AcDbLinetypeTableRecord
  2
CONTINUOUS
 70
64
  3
Solid line
 72
65
 73
0
 40
0.0
  0
LTYPE
  5
1F5
100
AcDbSymbolTableRecord
100
AcDbLinetypeTableRecord
  2
CENTER
 70
64
  3
____ _ ____ _ ____ _ ____ _ ____ _ ____ _ ____
 72
65
 73
4
 40
0.6
 49
0.375
 74
0
 49
-0.075
 74
0
 49
0.075
 74
0
 49
-0.075
 74
0
  0
LTYPE
  5
1F6
100
AcDbSymbolTableRecord
100
AcDbLinetypeTableRecord
  2
HIDDEN
 70
64
  3
- - - - - - - - - - - - - - - - - - - -
 72
65
 73
2
 40
0.2
 49
0.1
 74
0
 49
-0.1
 74
0
  0
LTYPE
  5
1F7
100
AcDbSymbolTableRecord
100
AcDbLinetypeTableRecord
  2
PHANTOM
 70
64
  3
_____ _ _ _____ _ _ _____ _ _ _____
 72
65
 73
6
 40
0.8
 49
0.45
 74
0
 49
-0.05
 74
0
 49
0.1
 74
0
 49
-0.05
 74
0
 49
0.1
 74
0
 49
-0.05
 74
0
  0
LTYPE
  5
1F8
100
AcDbSymbolTableRecord
100
AcDbLinetypeTableRecord
  2
DOT
 70
64
  3
. . . . . . . . . . . . . . . . . . . .
 72
65
 73
2
 40
0.2
 49
0.1
 74
0
 49
-0.1
 74
0
  0
LTYPE
  5
1F9
100
AcDbSymbolTableRecord
100
AcDbLinetypeTableRecord
  2
DASHED
 70
64
  3
- - - - - - - - - - - - - - - - - - - -
 72
65
 73
2
 40
0.2
 49
0.1
 74
0
 49
-0.1
 74
0
  0
ENDTAB
  0
TABLE
  2
LAYER
  5
2
100
AcDbSymbolTable
 70
36
  0
LAYER
  5
10
100
AcDbSymbolTableRecord
100
AcDbLayerTableRecord
  2
0
 70
0
 62
7
  6
CONTINUOUS
370
-3
390
F
  0
LAYER
  5
1FA
100
AcDbSymbolTableRecord
100
AcDbLayerTableRecord
  2
DEFAULT_1
 70
0
 62
7
  6
CENTER
370
-3
390
F
  0
LAYER
  5
1FB
100
AcDbSymbolTableRecord
100
AcDbLayerTableRecord
  2
DEFAULT_2
 70
0
 62
7
  6
HIDDEN
370
-3
390
F
  0
LAYER
  5
1FC
100
AcDbSymbolTableRecord
100
AcDbLayerTableRecord
  2
DEFAULT_3
 70
0
 62
7
  6
PHANTOM
370
-3
390
F
  0
LAYER
  5
1FD
100
AcDbSymbolTableRecord
100
AcDbLayerTableRecord
  2
ASSI
 70
0
 62
7
  6
CONTINUOUS
370
-3
390
F
  0
LAYER
  5
1FE
100
AcDbSymbolTableRecord
100
AcDbLayerTableRecord
  2
COORDINATE
 70
0
 62
7
  6
CONTINUOUS
370
-3
390
F
  0
LAYER
  5
1FF
100
AcDbSymbolTableRecord
100
AcDbLayerTableRecord
  2
COPY_PUBLISH
 70
0
 62
7
  6
CONTINUOUS
370
-3
390
F
  0
LAYER
  5
200
100
AcDbSymbolTableRecord
100
AcDbLayerTableRecord
  2
COSMETICI
 70
0
 62
7
  6
CONTINUOUS
370
-3
390
F
  0
LAYER
  5
201
100
AcDbSymbolTableRecord
100
AcDbLayerTableRecord
  2
CURVE
 70
0
 62
7
  6
CONTINUOUS
370
-3
390
F
  0
LAYER
  5
202
100
AcDbSymbolTableRecord
100
AcDbLayerTableRecord
  2
DRAFT
 70
0
 62
7
  6
CONTINUOUS
370
-3
390
F
  0
LAYER
  5
203
100
AcDbSymbolTableRecord
100
AcDbLayerTableRecord
  2
IMPORT_IGES
 70
0
 62
7
  6
CONTINUOUS
370
-3
390
F
  0
LAYER
  5
204
100
AcDbSymbolTableRecord
100
AcDbLayerTableRecord
  2
NOTE
 70
0
 62
7
  6
CONTINUOUS
370
-3
390
F
  0
LAYER
  5
205
100
AcDbSymbolTableRecord
100
AcDbLayerTableRecord
  2
PIANI
 70
0
 62
7
  6
CONTINUOUS
370
-3
390
F
  0
LAYER
  5
206
100
AcDbSymbolTableRecord
100
AcDbLayerTableRecord
  2
PUNTI
 70
0
 62
7
  6
CONTINUOUS
370
-3
390
F
  0
LAYER
  5
207
100
AcDbSymbolTableRecord
100
AcDbLayerTableRecord
  2
RACCORDO
 70
0
 62
7
  6
CONTINUOUS
370
-3
390
F
  0
LAYER
  5
208
100
AcDbSymbolTableRecord
100
AcDbLayerTableRecord
  2
SIMBOLI
 70
0
 62
7
  6
CONTINUOUS
370
-3
390
F
  0
LAYER
  5
209
100
AcDbSymbolTableRecord
100
AcDbLayerTableRecord
  2
SMUSSO
 70
0
 62
7
  6
CONTINUOUS
370
-3
390
F
  0
LAYER
  5
20A
100
AcDbSymbolTableRecord
100
AcDbLayerTableRecord
  2
SNAPLINE
 70
0
 62
7
  6
CONTINUOUS
370
-3
390
F
  0
LAYER
  5
20B
100
AcDbSymbolTableRecord
100
AcDbLayerTableRecord
  2
SUPERFICI
 70
0
 62
7
  6
CONTINUOUS
370
-3
390
F
  0
LAYER
  5
20C
100
AcDbSymbolTableRecord
100
AcDbLayerTableRecord
  2
TRASH
 70
0
 62
7
  6
CONTINUOUS
370
-3
390
F
  0
ENDTAB
  0
TABLE
  2
STYLE
  5
3
100
AcDbSymbolTable
 70
1
  0
STYLE
  5
11
100
AcDbSymbolTableRecord
100
AcDbTextStyleTableRecord
  2
STANDARD
 70
0
 40
0.0
 41
0.8
 50
0.0
 71
0
 42
0.2
  3
txt
  4

  0
STYLE
  5
20D
100
AcDbSymbolTableRecord
100
AcDbTextStyleTableRecord
  2
TEXTSTYLE_1
 70
0
 40
0.0
 41
0.8
 50
0.0
 71
0
 42
0.2
  3
gdt
  4

  0
ENDTAB
  0
TABLE
  2
VIEW
  5
6
100
AcDbSymbolTable
 70
0
  0
ENDTAB
  0
TABLE
  2
UCS
  5
7
100
AcDbSymbolTable
 70
0
  0
ENDTAB
  0
TABLE
  2
APPID
  5
9
100
AcDbSymbolTable
 70
1
  0
APPID
  5
20E
100
AcDbSymbolTableRecord
100
AcDbRegAppTableRecord
  2
ACAD
 70
0
  0
ENDTAB
  0
TABLE
  2
BLOCK_RECORD
  5
1
100
AcDbSymbolTable
 70
0
  0
BLOCK_RECORD
  5
20F
100
AcDbSymbolTableRecord
100
AcDbBlockTableRecord
  2
*Model_Space
  0
BLOCK_RECORD
  5
210
100
AcDbSymbolTableRecord
100
AcDbBlockTableRecord
  2
*Paper_Space
  0
ENDTAB
  0
TABLE
  2
DIMSTYLE
  5
A
100
AcDbSymbolTable
 70
1
100
AcDbDimStyleTable
 71
0
  0
DIMSTYLE
105
211
100
AcDbSymbolTableRecord
100
AcDbDimStyleTableRecord
  2
STANDARD
 70
0
  3

  4

 40
1.0
 41
3.0
 42
0.5
 43
0.38
 44
1.5
 45
0.0
 46
0.0
 47
0.01
 48
0.01
140
3.0
141
0.09
142
0.0
143
25.4
144
1.0
145
0.0
146
1.0
147
0.625
 71
1.0
 72
0.0
 73
0
 74
0
 75
0
 76
0
 77
1
 78
8
170
0
171
2
172
0
173
0
174
0
175
0
176
0
177
0
178
0
270
2
271
2
272
2
273
2
274
2
275
0
280
0
281
0
282
0
283
1
284
8
285
0
286
0
287
3
288
0
340
11
278
44
  0
ENDTAB
  0
ENDSEC
  0
SECTION
  2
BLOCKS
  0
BLOCK
  5
20
100
AcDbEntity
  8
0
100
AcDbBlockBegin
  2
*Model_Space
 70
0
 10
0.0
 20
0.0
 30
0.0
  3
*Model_Space
  1

  0
ENDBLK
  5
21
100
AcDbEntity
  8
0
100
AcDbBlockEnd
  0
BLOCK
  5
1C
100
AcDbEntity
  8
0
100
AcDbBlockBegin
  2
*Paper_Space
 70
0
 10
0.0
 20
0.0
 30
0.0
  3
*Paper_Space
  1

  0
ENDBLK
  5
1D
100
AcDbEntity
  8
0
100
AcDbBlockEnd
  0
ENDSEC
  0
SECTION
  2
ENTITIES
  0
LWPOLYLINE
  5
212
100
AcDbEntity
  8
RACCORDO
100
AcDbPolyline
 62
253
  6
CONTINUOUS
 90
40
 70
0
 10
-134.5851973723
 20
105.9180670782
 10
-134.6689155174
 20
105.8677397833
 10
-134.7488661722
 20
105.8156438106
 10
-134.8250493368
 20
105.7617791602
 10
-134.8975987093
 20
105.7060386018
 10
-134.9663805916
 20
105.6485293658
 10
-135.0309938894
 20
105.5895731424
 10
-135.0913926469
 20
105.5291802009
 10
-135.14762282
 20
105.4673402722
 10
-135.1994211822
 20
105.4043442384
 10
-135.246770685
 20
105.3401819197
 10
-135.2896883768
 20
105.2748634961
 10
-135.3279621772
 20
105.2087103897
 10
-135.3615680085
 20
105.1417203646
 10
-135.3905299483
 20
105.0738956567
 10
-135.4147081488
 20
105.0055643966
 10
-135.4340796437
 20
104.936723632
 10
-135.4486673994
 20
104.8673763152
 10
-135.4584004672
 20
104.7978594332
 10
-135.4632551975
 20
104.7281722716
 10
-135.4632552399
 20
104.6583155448
 10
-135.4584005951
 20
104.5886283837
 10
-135.4486676127
 20
104.5191115017
 10
-135.434079943
 20
104.4497641852
 10
-135.4147085378
 20
104.380923425
 10
-135.3905304363
 20
104.3125921821
 10
-135.3615685992
 20
104.2447674954
 10
-135.3279628605
 20
104.1777774725
 10
-135.2896891337
 20
104.1116243337
 10
-135.2467715053
 20
104.0463058587
 10
-135.1994220685
 20
103.9821434947
 10
-135.1476237302
 20
103.9191473955
 10
-135.0913935836
 20
103.8573074074
 10
-135.0309950018
 20
103.7969145163
 10
-134.966382285
 20
103.7379586311
 10
-134.8976011329
 20
103.680449843
 10
-134.8250520184
 20
103.6247094118
 10
-134.7488684322
 20
103.5708444238
 10
-134.6689168835
 20
103.5187477926
 10
-134.5851973723
 20
103.4684195183
  0
LINE
  5
213
100
AcDbEntity
  8
RACCORDO
100
AcDbLine
 62
7
  6
CONTINUOUS
 10
-107.3009744452
 20
122.3481331667
 11
-135.5852456926
 21
106.0171494336
  0
LINE
  5
214
100
AcDbEntity
  8
RACCORDO
100
AcDbLine
 62
253
  6
CONTINUOUS
 10
-106.3009261249
 20
122.2490508113
 11
-134.5851973723
 21
105.9180670782
  0
LWPOLYLINE
  5
215
100
AcDbEntity
  8
RACCORDO
100
AcDbPolyline
 62
7
  6
CONTINUOUS
 90
37
 70
0
 10
-107.3009744452
 20
122.3481331667
 10
-107.1481844051
 20
122.4327486752
 10
-106.9909899425
 20
122.5127375214
 10
-106.8295013853
 20
122.5880841975
 10
-106.6632887596
 20
122.65898349
 10
-106.4929477828
 20
122.7251609426
 10
-106.3202357834
 20
122.786018197
 10
-106.145759805
 20
122.8415163631
 10
-105.969278301
 20
122.8918862728
 10
-105.7914248048
 20
122.9370829711
 10
-105.6125550508
 20
122.9771633439
 10
-105.4326769451
 20
123.0122559386
 10
-105.2519639178
 20
123.0424343072
 10
-105.0706133207
 20
123.0677599971
 10
-104.8887659284
 20
123.0882948916
 10
-104.7065413796
 20
123.1040920803
 10
-104.5241296496
 20
123.1151896827
 10
-104.3416635656
 20
123.1216234527
 10
-104.159191711
 20
123.1234199221
 10
-103.9768652775
 20
123.1205914091
 10
-103.7948467203
 20
123.1131443578
 10
-103.6132018257
 20
123.10107228
 10
-103.4320616139
 20
123.0843602282
 10
-103.2516075157
 20
123.0629909349
 10
-103.0719669835
 20
123.036934557
 10
-102.8932433059
 20
123.0061464376
 10
-102.7156500642
 20
122.970591667
 10
-102.5394487796
 20
122.9302446972
 10
-102.3646885663
 20
122.8850247522
 10
-102.1916418757
 20
122.8348954919
 10
-102.0208478407
 20
122.7799136007
 10
-101.8523349749
 20
122.7199847766
 10
-101.6863820508
 20
122.6550873063
 10
-101.5238105934
 20
122.5854468243
 10
-101.3649487731
 20
122.5111409295
 10
-101.2097077526
 20
122.4320478725
 10
-101.0582371175
 20
122.3481331667
  0
LWPOLYLINE
  5
216
100
AcDbEntity
  8
RACCORDO
100
AcDbPolyline
 62
253
  6
CONTINUOUS
 90
37
 70
0
 10
-134.5851973723
 20
103.4684195183
 10
-134.6468845015
 20
103.4312479454
 10
-134.7084542058
 20
103.3910387356
 10
-134.7697892836
 20
103.3478684294
 10
-134.8307729803
 20
103.3018192038
 10
-134.8912892098
 20
103.2529787163
 10
-134.9512227761
 20
103.2014399374
 10
-135.0104595923
 20
103.1473009742
 10
-135.0688868976
 20
103.0906648832
 10
-135.1263934725
 20
103.0316394745
 10
-135.1828698498
 20
102.9703371063
 10
-135.2382085236
 20
102.9068744711
 10
-135.2923041535
 20
102.8413723736
 10
-135.3450537655
 20
102.7739555009
 10
-135.3963569477
 20
102.7047521848
 10
-135.4461160415
 20
102.6338941576
 10
-135.4942363277
 20
102.5615163018
 10
-135.5406262066
 20
102.4877563927
 10
-135.5851973723
 20
102.4127548363
 10
-135.6278649813
 20
102.3366544026
 10
-135.6685478132
 20
102.2595999529
 10
-135.7071684259
 20
102.1817381648
 10
-135.743653303
 20
102.1032172527
 10
-135.7779329934
 20
102.0241866855
 10
-135.8099422437
 20
101.9447969024
 10
-135.8396201226
 20
101.8651990264
 10
-135.8669101365
 20
101.7855445766
 10
-135.8917603372
 20
101.7059851797
 10
-135.9141234211
 20
101.6266722816
 10
-135.9339568188
 20
101.547756859
 10
-135.9512227761
 20
101.4693891316
 10
-135.9658884265
 20
101.3917182771
 10
-135.977925853
 20
101.3148921463
 10
-135.9873121416
 20
101.2390569821
 10
-135.9940294252
 20
101.164357141
 10
-135.9980649168
 20
101.0909348185
 10
-135.9994109347
 20
101.018929778
  0
LWPOLYLINE
  5
217
100
AcDbEntity
  8
RACCORDO
100
AcDbPolyline
 62
253
  6
CONTINUOUS
 90
19
 70
0
 10
-102.0582854378
 20
122.2490508113
 10
-101.9965983086
 20
122.283113989
 10
-101.9350286043
 20
122.3140039304
 10
-101.8736935265
 20
122.3416618346
 10
-101.8127098298
 20
122.3660350534
 10
-101.7521936003
 20
122.3870771908
 10
-101.692260034
 20
122.404748192
 10
-101.6330232178
 20
122.4190144193
 10
-101.5745959125
 20
122.429848716
 10
-101.5170893376
 20
122.4372304585
 10
-101.4606129603
 20
122.4411455951
 10
-101.4052742865
 20
122.4415866733
 10
-101.3511786566
 20
122.4385528534
 10
-101.2984290446
 20
122.4320499104
 10
-101.2471258624
 20
122.422090223
 10
-101.1973667686
 20
122.4086927502
 10
-101.1492464824
 20
122.3918829947
 10
-101.1028566036
 20
122.3716929548
 10
-101.0582371175
 20
122.3481331667
  0
LWPOLYLINE
  5
218
100
AcDbEntity
  8
RACCORDO
100
AcDbPolyline
 62
253
  6
CONTINUOUS
 90
22
 70
0
 10
-137.4638770288
 20
103.0603027447
 10
-137.4603805527
 20
102.9523567096
 10
-137.4498960147
 20
102.8445616471
 10
-137.4324380781
 20
102.7370683178
 10
-137.4080311596
 20
102.6300270609
 10
-137.3767093944
 20
102.5235875833
 10
-137.3385165889
 20
102.4178987505
 10
-137.2935061592
 20
102.313108378
 10
-137.2417410565
 20
102.2093630246
 10
-137.1832936789
 20
102.1068077873
 10
-137.1182457706
 20
102.0055860993
 10
-137.0466883069
 20
101.9058395279
 10
-136.9687213668
 20
101.8077075772
 10
-136.8844539938
 20
101.7113274933
 10
-136.7940040436
 20
101.6168340729
 10
-136.6974980196
 20
101.5243594745
 10
-136.5950708951
 20
101.4340330328
 10
-136.4868659231
 20
101.3459810769
 10
-136.3730344375
 20
101.2603267549
 10
-136.2537356419
 20
101.1771898619
 10
-136.1291363865
 20
101.0966866727
 10
-135.9994109347
 20
101.018929778
  0
LINE
  5
219
100
AcDbEntity
  8
RACCORDO
100
AcDbLine
 62
7
  6
CONTINUOUS
 10
-137.4638770288
 20
103.0603027447
 11
-137.4638770288
 21
101.4273621911
  0
LINE
  5
21A
100
AcDbEntity
  8
RACCORDO
100
AcDbLine
 62
253
  6
CONTINUOUS
 10
-135.9994109347
 20
101.018929778
 11
-135.9994109347
 21
99.3859892244
  0
LWPOLYLINE
  5
21B
100
AcDbEntity
  8
RACCORDO
100
AcDbPolyline
 62
7
  6
CONTINUOUS
 90
25
 70
0
 10
-137.4638770288
 20
103.0603027447
 10
-137.4608357158
 20
103.1953631433
 10
-137.4516649241
 20
103.3307833179
 10
-137.4363068406
 20
103.4663048723
 10
-137.414741411
 20
103.6015536025
 10
-137.3869352352
 20
103.7363805209
 10
-137.3527888154
 20
103.8708611859
 10
-137.3122632123
 20
104.0047383694
 10
-137.2653418485
 20
104.1377368233
 10
-137.2118894852
 20
104.2699031529
 10
-137.151872749
 20
104.4009738775
 10
-137.0852767205
 20
104.5306819948
 10
-137.0119184846
 20
104.6590710462
 10
-136.9317872564
 20
104.7858399139
 10
-136.8448373432
 20
104.9107711418
 10
-136.7507252926
 20
105.0340277339
 10
-136.6491590245
 20
105.1555923193
 10
-136.540273136
 20
105.2749283263
 10
-136.4243276168
 20
105.3914705674
 10
-136.3012400741
 20
105.5050659652
 10
-136.1710510097
 20
105.6154478873
 10
-136.0342747242
 20
105.7220163622
 10
-135.8911175811
 20
105.8245133468
 10
-135.741433695
 20
105.9229386512
 10
-135.5852456926
 20
106.0171494336
  0
LWPOLYLINE
  5
21C
100
AcDbEntity
  8
RACCORDO
100
AcDbPolyline
 62
7
  6
CONTINUOUS
 90
13
 70
0
 10
8.8850713443
 20
-95.9139292232
 10
9.4161281512
 20
-95.7789474826
 10
10.1864143732
 20
-95.565847334
 10
10.9436219839
 20
-95.338759349
 10
11.6885113462
 20
-95.0974184573
 10
12.4203220971
 20
-94.8420897293
 10
13.1367731484
 20
-94.5735683765
 10
13.8378136333
 20
-94.2918147629
 10
14.5234944184
 20
-93.9968685245
 10
15.1916870157
 20
-93.6896437808
 10
15.841681929
 20
-93.3704452382
 10
16.4741886545
 20
-93.0389681903
 10
17.0892071922
 20
-92.6952126371
  0
LWPOLYLINE
  5
21D
100
AcDbEntity
  8
RACCORDO
100
AcDbPolyline
 62
253
  6
CONTINUOUS
 90
93
 70
0
 10
9.3940306116
 20
-96.4176059893
 10
8.7710091288
 20
-96.5700919234
 10
8.1422054488
 20
-96.7135662871
 10
7.5076195716
 20
-96.8480290804
 10
6.8667708648
 20
-96.9735718738
 10
6.2201399608
 20
-97.0901030967
 10
5.5691687565
 20
-97.1973480381
 10
4.9139558128
 20
-97.2952661749
 10
4.2544025688
 20
-97.3838980301
 10
3.5916552399
 20
-97.4630904619
 10
2.9256823178
 20
-97.5328299912
 10
2.2565153107
 20
-97.5931300972
 10
1.5853949581
 20
-97.643878075
 10
0.9123288214
 20
-97.6850552898
 10
0.2373093392
 20
-97.7166803765
 10
-0.4384454323
 20
-97.7386965346
 10
-1.1149403022
 20
-97.7510865458
 10
-1.7921704615
 20
-97.7538676283
 10
-2.468903427
 20
-97.7470346371
 10
-3.1451371955
 20
-97.7305700703
 10
-3.8208737702
 20
-97.7044914298
 10
-4.4948866783
 20
-97.6688460755
 10
-5.1671731297
 20
-97.6236166173
 10
-5.8377359146
 20
-97.5688204454
 10
-6.5053569307
 20
-97.5045570911
 10
-7.1700307258
 20
-97.4308093562
 10
-7.8317627521
 20
-97.347594439
 10
-8.4893512644
 20
-97.2550634652
 10
-9.1427887675
 20
-97.1531995013
 10
-9.7920827565
 20
-97.0420194808
 10
-10.4360539722
 20
-96.9217253299
 10
-11.0746927309
 20
-96.7923004871
 10
-11.7080087162
 20
-96.6537615139
 10
-12.3348517195
 20
-96.5063600207
 10
-12.9552099801
 20
-96.3500799013
 10
-13.5690952586
 20
-96.1849372619
 10
-14.1753926283
 20
-96.0112320315
 10
-14.7740882989
 20
-95.8289486496
 10
-15.3651960606
 20
-95.6381026766
 10
-15.9476423571
 20
-95.4390407226
 10
-16.5214114484
 20
-95.2317478568
 10
-17.0865190746
 20
-95.01623901
 10
-17.6419388987
 20
-94.7929055848
 10
-18.1876533153
 20
-94.561733362
 10
-18.72367993
 20
-94.3227365608
 10
-19.2490452226
 20
-94.0763492421
 10
-19.7637298186
 20
-93.8225579754
 10
-20.2677530924
 20
-93.5613761913
 10
-20.7601996479
 20
-93.2932782425
 10
-21.2410484468
 20
-93.0182515605
 10
-21.7103205273
 20
-92.7363087139
 10
-22.1671636076
 20
-92.4479617611
 10
-22.6115551007
 20
-92.1531990642
 10
-23.0435175936
 20
-91.8520322611
 10
-23.4622665652
 20
-91.5450083247
 10
-23.8677780029
 20
-91.2321166107
 10
-24.2600759193
 20
-90.9133677633
 10
-24.6384478313
 20
-90.5893406874
 10
-25.0028684315
 20
-90.2600257909
 10
-25.3533630273
 20
-89.9254326658
 10
-25.6892950578
 20
-89.5861689931
 10
-26.0106380588
 20
-89.2422262852
 10
-26.3174184945
 20
-88.8936130297
 10
-26.6090791969
 20
-88.5409623705
 10
-26.8855926892
 20
-88.1842669707
 10
-27.1469864482
 20
-87.8235341672
 10
-27.3927857364
 20
-87.4594191149
 10
-27.6229622143
 20
-87.0919156672
 10
-27.8375442213
 20
-86.7210299707
 10
-28.0361420382
 20
-86.3474356201
 10
-28.2187266172
 20
-85.9711276926
 10
-28.385327006
 20
-85.5921111109
 10
-28.5356406282
 20
-85.2110742378
 10
-28.669637886
 20
-84.8280134022
 10
-28.7873483771
 20
-84.4429322752
 10
-28.8885583186
 20
-84.0565302335
 10
-28.9732377241
 20
-83.6688048779
 10
-29.04141658
 20
-83.2797586076
 10
-29.0929710617
 20
-82.8900979971
 10
-29.1278709585
 20
-82.4998219299
 10
-29.146146481
 20
-82.1089315224
 10
-29.1477644366
 20
-81.7181366992
 10
-29.1326945535
 20
-81.3274376307
 10
-29.1009671034
 20
-80.9368341464
 10
-29.0526397096
 20
-80.5470356593
 10
-28.9876822037
 20
-80.1580436315
 10
-28.906124754
 20
-79.7698566009
 10
-28.8081154886
 20
-79.3831795943
 10
-28.6936245131
 20
-78.9980153647
 10
-28.5626817219
 20
-78.614361159
 10
-28.4155249263
 20
-78.2329137445
 10
-28.2521246657
 20
-77.8536771337
 10
-28.1387571362
 20
-77.6157063957
  0
LWPOLYLINE
  5
21E
100
AcDbEntity
  8
RACCORDO
100
AcDbPolyline
 62
7
  6
CONTINUOUS
 90
43
 70
0
 10
-4.1239962434
 20
-115.9668644568
 10
-3.9889905812
 20
-116.0419267805
 10
-3.849628949
 20
-116.1138352905
 10
-3.7059113468
 20
-116.1825899868
 10
-3.5576247868
 20
-116.2482781259
 10
-3.4049822568
 20
-116.3108124513
 10
-3.2486227201
 20
-116.3699311936
 10
-3.0885305955
 20
-116.4256200352
 10
-2.9247214642
 20
-116.4778932938
 10
-2.7578810331
 20
-116.5265321529
 10
-2.5879965953
 20
-116.5715213775
 10
-2.4150808576
 20
-116.6128762027
 10
-2.2398576473
 20
-116.6504235166
 10
-2.0623172916
 20
-116.6841473587
 10
-1.8824694633
 20
-116.7140636896
 10
-1.7010670073
 20
-116.7400472791
 10
-1.5181034068
 20
-116.7620816417
 10
-1.3335851786
 20
-116.7801832631
 10
-1.148284718
 20
-116.7942763694
 10
-0.9621987461
 20
-116.8043441578
 10
-0.7753305418
 20
-116.8104034312
 10
-0.5884623375
 20
-116.8124288255
 10
-0.4015941332
 20
-116.8104034312
 10
-0.2147259289
 20
-116.8043441578
 10
-0.028639957
 20
-116.7942763694
 10
0.1566605036
 20
-116.7801832631
 10
0.3411787318
 20
-116.7620816417
 10
0.5241423323
 20
-116.7400472791
 10
0.7055447883
 20
-116.7140636896
 10
0.8853926166
 20
-116.6841473587
 10
1.0629329723
 20
-116.6504235166
 10
1.2381561826
 20
-116.6128762027
 10
1.4110719203
 20
-116.5715213775
 10
1.5809563581
 20
-116.5265321529
 10
1.7477967892
 20
-116.4778932938
 10
1.9116059205
 20
-116.4256200352
 10
2.0716980451
 20
-116.3699311936
 10
2.2280575818
 20
-116.3108124513
 10
2.3807001118
 20
-116.2482781259
 10
2.5289866718
 20
-116.1825899868
 10
2.672704274
 20
-116.1138352905
 10
2.8120659062
 20
-116.0419267805
 10
2.9470715684
 20
-115.9668644568
  0
LINE
  5
21F
100
AcDbEntity
  8
RACCORDO
100
AcDbLine
 62
7
  6
CONTINUOUS
 10
-60.6925387384
 20
-87.3872483746
 11
-4.1239962434
 21
-120.0492158408
  0
LINE
  5
220
100
AcDbEntity
  8
RACCORDO
100
AcDbLine
 62
7
  6
CONTINUOUS
 10
-60.6925387384
 20
-83.3048969906
 11
-4.1239962434
 21
-115.9668644568
  0
LWPOLYLINE
  5
221
100
AcDbEntity
  8
RACCORDO
100
AcDbPolyline
 62
7
  6
CONTINUOUS
 90
22
 70
0
 10
-60.6925387384
 20
-87.3872483746
 10
-60.8225421208
 20
-87.3092977972
 10
-60.9470832896
 20
-87.2288321374
 10
-61.0661622448
 20
-87.1458513951
 10
-61.1799301092
 20
-87.0602325938
 10
-61.28823576
 20
-86.97209871
 10
-61.3906258286
 20
-86.8818186732
 10
-61.4870755175
 20
-86.7893834869
 10
-61.5776096243
 20
-86.6948021475
 10
-61.6618491719
 20
-86.5984705736
 10
-61.7397677747
 20
-86.5003814283
 10
-61.8113918183
 20
-86.4005420485
 10
-61.876421484
 20
-86.2993703629
 10
-61.9348291288
 20
-86.1968607867
 10
-61.9866423956
 20
-86.0930189046
 10
-62.0316443933
 20
-85.9882794
 10
-62.0698065702
 20
-85.8826385102
 10
-62.1011574782
 20
-85.7760999978
 10
-62.1255658819
 20
-85.6691098342
 10
-62.1430026794
 20
-85.5616661262
 10
-62.1534969726
 20
-85.4537707671
 10
-62.1570048324
 20
-85.3458754079
  0
LWPOLYLINE
  5
222
100
AcDbEntity
  8
0
100
AcDbPolyline
 62
7
  6
CONTINUOUS
 90
29
 70
0
 10
-1.3412553414
 20
-103.7181766454
 10
-1.362248101
 20
-103.7082641419
 10
-1.5430788207
 20
-103.6312065044
 10
-1.7298518991
 20
-103.5596093412
 10
-1.9226115838
 20
-103.4935133117
 10
-2.1213136271
 20
-103.4328777566
 10
-2.324482134
 20
-103.3781530574
 10
-2.5321503622
 20
-103.3293832269
 10
-2.7442850539
 20
-103.2865242524
 10
-2.9593105405
 20
-103.2498944764
 10
-3.1772483471
 20
-103.2195402824
 10
-3.3980769487
 20
-103.195415287
 10
-3.620156101
 20
-103.177698683
 10
-3.8434951157
 20
-103.1664381879
 10
-4.068084681
 20
-103.1615860843
 10
-4.2922566177
 20
-103.1631784119
 10
-4.5160078159
 20
-103.1712631567
 10
-4.7393413853
 20
-103.1857923327
 10
-4.9605984757
 20
-103.2066580219
 10
-5.1797636253
 20
-103.2339074067
 10
-5.3968522959
 20
-103.2674933047
 10
-5.6102520222
 20
-103.3071662505
 10
-5.819935336
 20
-103.3529715691
 10
-6.0259297056
 20
-103.4048639355
 10
-6.2267050707
 20
-103.4624579099
 10
-6.4222225699
 20
-103.5257959471
 10
-6.6125210646
 20
-103.5948355923
 10
-6.7961870785
 20
-103.669064041
 10
-6.9067371454
 20
-103.7186821193
  0
LWPOLYLINE
  5
223
100
AcDbEntity
  8
0
100
AcDbPolyline
 62
7
  6
CONTINUOUS
 90
29
 70
0
 10
-33.1610604948
 20
-85.3458199456
 10
-33.1820532543
 20
-85.3359074422
 10
-33.3628839741
 20
-85.2588498046
 10
-33.5496570525
 20
-85.1872526415
 10
-33.7424167372
 20
-85.121156612
 10
-33.9411187805
 20
-85.0605210569
 10
-34.1442872874
 20
-85.0057963576
 10
-34.3519555156
 20
-84.9570265272
 10
-34.5640902073
 20
-84.9141675526
 10
-34.7791156939
 20
-84.8775377766
 10
-34.9970535005
 20
-84.8471835826
 10
-35.2178821021
 20
-84.8230585872
 10
-35.4399612544
 20
-84.8053419832
 10
-35.6633002691
 20
-84.7940814882
 10
-35.8878898344
 20
-84.7892293845
 10
-36.1120617711
 20
-84.7908217121
 10
-36.3358129692
 20
-84.7989064569
 10
-36.5591465387
 20
-84.813435633
 10
-36.7804036291
 20
-84.8343013222
 10
-36.9995687787
 20
-84.861550707
 10
-37.2166574493
 20
-84.895136605
 10
-37.4300571756
 20
-84.9348095508
 10
-37.6397404894
 20
-84.9806148694
 10
-37.845734859
 20
-85.0325072358
 10
-38.0465102241
 20
-85.0901012102
 10
-38.2420277233
 20
-85.1534392474
 10
-38.432326218
 20
-85.2224788926
 10
-38.6159922319
 20
-85.2967073413
 10
-38.7265422988
 20
-85.3463254196
  0
LINE
  5
224
100
AcDbEntity
  8
RACCORDO
100
AcDbLine
 62
7
  6
CONTINUOUS
 10
19.5640809263
 20
-102.2896655803
 11
9.3940306116
 21
-96.4176059893
  0
LWPOLYLINE
  5
225
100
AcDbEntity
  8
RACCORDO
100
AcDbPolyline
 62
7
  6
CONTINUOUS
 90
22
 70
0
 10
-62.1570048324
 20
-81.263524024
 10
-62.1534969726
 20
-81.3714193831
 10
-62.1430026794
 20
-81.4793147423
 10
-62.1255658819
 20
-81.5867584503
 10
-62.1011574782
 20
-81.6937486138
 10
-62.0698065702
 20
-81.8002871262
 10
-62.0316443933
 20
-81.9059280161
 10
-61.9866423956
 20
-82.0106675207
 10
-61.9348291288
 20
-82.1145094027
 10
-61.876421484
 20
-82.217018979
 10
-61.8113918183
 20
-82.3181906646
 10
-61.7397677747
 20
-82.4180300444
 10
-61.6618491719
 20
-82.5161191896
 10
-61.5776096243
 20
-82.6124507635
 10
-61.4870755175
 20
-82.7070321029
 10
-61.3906258286
 20
-82.7994672892
 10
-61.28823576
 20
-82.8897473261
 10
-61.1799301092
 20
-82.9778812098
 10
-61.0661622448
 20
-83.0635000111
 10
-60.9470832896
 20
-83.1464807534
 10
-60.8225421208
 20
-83.2269464133
 10
-60.6925387384
 20
-83.3048969906
  0
LINE
  5
226
100
AcDbEntity
  8
RACCORDO
100
AcDbLine
 62
7
  6
CONTINUOUS
 10
-62.1570048324
 20
-81.263524024
 11
-62.1570048324
 21
-85.3458754079
  0
LWPOLYLINE
  5
227
100
AcDbEntity
  8
0
100
AcDbPolyline
 62
7
  6
CONTINUOUS
 90
29
 70
0
 10
35.4282972803
 20
-82.4878977923
 10
35.4073045207
 20
-82.4779852889
 10
35.226473801
 20
-82.4009276513
 10
35.0397007226
 20
-82.3293304882
 10
34.8469410379
 20
-82.2632344587
 10
34.6482389946
 20
-82.2025989036
 10
34.4450704877
 20
-82.1478742043
 10
34.2374022595
 20
-82.0991043739
 10
34.0252675678
 20
-82.0562453993
 10
33.8102420812
 20
-82.0196156233
 10
33.5923042746
 20
-81.9892614293
 10
33.371475673
 20
-81.965136434
 10
33.1493965207
 20
-81.9474198299
 10
32.926057506
 20
-81.9361593349
 10
32.7014679407
 20
-81.9313072312
 10
32.477296004
 20
-81.9328995588
 10
32.2535448058
 20
-81.9409843036
 10
32.0302112364
 20
-81.9555134797
 10
31.808954146
 20
-81.9763791689
 10
31.5897889964
 20
-82.0036285537
 10
31.3727003258
 20
-82.0372144517
 10
31.1593005995
 20
-82.0768873975
 10
30.9496172857
 20
-82.1226927161
 10
30.7436229161
 20
-82.1745850825
 10
30.542847551
 20
-82.2321790569
 10
30.3473300518
 20
-82.2955170941
 10
30.1570315571
 20
-82.3645567393
 10
29.9733655432
 20
-82.438785188
 10
29.8628154763
 20
-82.4884032663
  0
LWPOLYLINE
  5
228
100
AcDbEntity
  8
RACCORDO
100
AcDbPolyline
 62
7
  6
CONTINUOUS
 90
43
 70
0
 10
33.70621655
 20
-94.1241737138
 10
33.8412222123
 20
-94.1992360375
 10
33.9805838445
 20
-94.2711445475
 10
34.1243014467
 20
-94.3398992438
 10
34.2725880067
 20
-94.4055873829
 10
34.4252305367
 20
-94.4681217083
 10
34.5815900734
 20
-94.5272404506
 10
34.741682198
 20
-94.5829292922
 10
34.9054913293
 20
-94.6352025508
 10
35.0723317604
 20
-94.6838414098
 10
35.2422161982
 20
-94.7288306345
 10
35.4151319359
 20
-94.7701854597
 10
35.5903551462
 20
-94.8077327736
 10
35.7678955018
 20
-94.8414566157
 10
35.9477433302
 20
-94.8713729465
 10
36.1291457862
 20
-94.897356536
 10
36.3121093867
 20
-94.9193908987
 10
36.4966276149
 20
-94.93749252
 10
36.6819280755
 20
-94.9515856264
 10
36.8680140474
 20
-94.9616534147
 10
37.0548822517
 20
-94.9677126881
 10
37.241750456
 20
-94.9697380824
 10
37.4286186603
 20
-94.9677126881
 10
37.6154868646
 20
-94.9616534147
 10
37.8015728365
 20
-94.9515856264
 10
37.9868732971
 20
-94.93749252
 10
38.1713915253
 20
-94.9193908987
 10
38.3543551258
 20
-94.897356536
 10
38.5357575818
 20
-94.8713729465
 10
38.7156054101
 20
-94.8414566157
 10
38.8931457658
 20
-94.8077327736
 10
39.0683689761
 20
-94.7701854597
 10
39.2412847138
 20
-94.7288306345
 10
39.4111691516
 20
-94.6838414098
 10
39.5780095827
 20
-94.6352025508
 10
39.741818714
 20
-94.5829292922
 10
39.9019108386
 20
-94.5272404506
 10
40.0582703753
 20
-94.4681217083
 10
40.2109129053
 20
-94.4055873829
 10
40.3591994653
 20
-94.3398992438
 10
40.5029170675
 20
-94.2711445475
 10
40.6422786997
 20
-94.1992360375
 10
40.7772843619
 20
-94.1241737138
  0
LINE
  5
229
100
AcDbEntity
  8
RACCORDO
100
AcDbLine
 62
7
  6
CONTINUOUS
 10
33.70621655
 20
-98.2065250978
 11
20.3239933632
 21
-90.4797971483
  0
LINE
  5
22A
100
AcDbEntity
  8
RACCORDO
100
AcDbLine
 62
7
  6
CONTINUOUS
 10
33.70621655
 20
-94.1241737138
 11
23.5361662353
 21
-88.2521141227
  0
LWPOLYLINE
  5
22B
100
AcDbEntity
  8
RACCORDO
100
AcDbPolyline
 62
7
  6
CONTINUOUS
 90
34
 70
0
 10
23.5361662353
 20
-88.2521141227
 10
23.4986564782
 20
-88.229456163
 10
23.4613753569
 20
-88.2049625272
 10
23.4243228715
 20
-88.1786332154
 10
23.3873610045
 20
-88.1503479105
 10
23.3506277734
 20
-88.1202269295
 10
23.3145372301
 20
-88.088631224
 10
23.2791340392
 20
-88.0555629617
 10
23.244373536
 20
-88.0210199747
 10
23.2105357794
 20
-87.9853567108
 10
23.1777027644
 20
-87.9486636973
 10
23.1457924959
 20
-87.9108504068
 10
23.1148390469
 20
-87.8719997057
 10
23.0847652172
 20
-87.8320103411
 10
23.055648207
 20
-87.7909835658
 10
23.0277536894
 20
-87.7493060054
 10
23.0010935149
 20
-87.7069474489
 10
22.9756558331
 20
-87.6639381072
 10
22.9516707649
 20
-87.6207552388
 10
22.9291940002
 20
-87.5774644872
 10
22.9081698493
 20
-87.5340002089
 10
22.8886613637
 20
-87.4906427321
 10
22.8706924438
 20
-87.4474618133
 10
22.8542391893
 20
-87.4043876959
 10
22.8392929513
 20
-87.3614914389
 10
22.8258241235
 20
-87.318684694
 10
22.8138623123
 20
-87.2760558095
 10
22.8034876867
 20
-87.233940889
 10
22.794720756
 20
-87.1923267511
 10
22.7875410111
 20
-87.1512265772
 10
22.7819670931
 20
-87.1110160154
 10
22.7780052157
 20
-87.0718202819
 10
22.7756491652
 20
-87.0335141606
 10
22.7748989417
 20
-86.9960976515
  0
LINE
  5
22C
100
AcDbEntity
  8
RACCORDO
100
AcDbLine
 62
253
  6
CONTINUOUS
 10
-60.6925387384
 20
-83.3048969906
 11
-60.6925387384
 21
-87.3872483746
  0
LINE
  5
22D
100
AcDbEntity
  8
0
100
AcDbLine
 62
7
  6
CONTINUOUS
 10
-4.477549634
 20
53.8629380642
 11
-14.02349118
 21
48.3512310542
  0
LWPOLYLINE
  5
22E
100
AcDbEntity
  8
RACCORDO
100
AcDbPolyline
 62
7
  6
CONTINUOUS
 90
47
 70
0
 10
9.8522165655
 20
-62.3338912048
 10
10.2761755639
 20
-62.4649979606
 10
10.8636113226
 20
-62.658536076
 10
11.4431555362
 20
-62.8615187939
 10
12.0163301585
 20
-63.0745694758
 10
12.5838272022
 20
-63.2981385951
 10
13.1441881789
 20
-63.5318554931
 10
13.695722302
 20
-63.7751452622
 10
14.2380344188
 20
-64.0279211977
 10
14.7709195498
 20
-64.2901843334
 10
15.2931231145
 20
-64.5613876395
 10
15.8037718185
 20
-64.8410895631
 10
16.30329033
 20
-65.12954243
 10
16.7923927952
 20
-65.4272600665
 10
17.2721873693
 20
-65.7351463359
 10
17.7408927311
 20
-66.0523037878
 10
18.1950886399
 20
-66.3764310087
 10
18.6335282041
 20
-66.7064093912
 10
19.0574258081
 20
-67.042925401
 10
19.467271805
 20
-67.3862523197
 10
19.8630389028
 20
-67.7362969604
 10
20.244559549
 20
-68.0928461016
 10
20.612033207
 20
-68.4560456002
 10
20.9664903149
 20
-68.8270082049
 10
21.306538715
 20
-69.2043829812
 10
21.6290824814
 20
-69.5844290106
 10
21.9328855734
 20
-69.9648867644
 10
22.2198137573
 20
-70.3472626462
 10
22.4915785889
 20
-70.7333559147
 10
22.7484365431
 20
-71.123269891
 10
22.9901706009
 20
-71.5164024059
 10
23.2174325112
 20
-71.9136047831
 10
23.4305839043
 20
-72.315505266
 10
23.6290470667
 20
-72.7210104273
 10
23.8120982097
 20
-73.1283429549
 10
23.9795797295
 20
-73.5365459638
 10
24.1318844366
 20
-73.9459156943
 10
24.2692379747
 20
-74.3564832023
 10
24.3916195912
 20
-74.7675429654
 10
24.4992559459
 20
-75.1791291468
 10
24.5925662562
 20
-75.5923924886
 10
24.6716069666
 20
-76.0075143897
 10
24.7362398029
 20
-76.4236670132
 10
24.7864598403
 20
-76.8404896721
 10
24.8222818226
 20
-77.2576312554
 10
24.8437385051
 20
-77.6747582532
 10
24.8508774907
 20
-78.0915281944
  0
LWPOLYLINE
  5
22F
100
AcDbEntity
  8
RACCORDO
100
AcDbPolyline
 62
253
  6
CONTINUOUS
 90
73
 70
0
 10
9.8753417153
 20
-62.8145687397
 10
10.101180302
 20
-62.8909673995
 10
10.5948551531
 20
-63.0679023495
 10
11.0805428636
 20
-63.2520591471
 10
11.5579265469
 20
-63.4433176342
 10
12.026694858
 20
-63.6415530689
 10
12.4865421027
 20
-63.8466361776
 10
12.9371683702
 20
-64.0584332117
 10
13.3782796351
 20
-64.2768059833
 10
13.8095880504
 20
-64.5016119934
 10
14.2308122026
 20
-64.7327045574
 10
14.6416773842
 20
-64.9699329582
 10
15.0419156694
 20
-65.2131424989
 10
15.4312660249
 20
-65.4621745664
 10
15.8094744026
 20
-65.7168666765
 10
16.1762940033
 20
-65.9770526303
 10
16.5314854951
 20
-66.2425626621
 10
16.8748172324
 20
-66.5132236065
 10
17.2060653197
 20
-66.7888589582
 10
17.5250137103
 20
-67.0692889494
 10
17.8314542993
 20
-67.3543306147
 10
18.1251871333
 20
-67.643797964
 10
18.4060205762
 20
-67.9375021373
 10
18.6737714673
 20
-68.2352515724
 10
18.9282651835
 20
-68.5368520813
 10
19.1693357285
 20
-68.8421069479
 10
19.3968258209
 20
-69.1508170214
 10
19.6105870373
 20
-69.4627808882
 10
19.8104799254
 20
-69.7777950254
 10
19.9963741049
 20
-70.0956539591
 10
20.1681483266
 20
-70.4161503659
 10
20.3256905426
 20
-70.7390751911
 10
20.4688979745
 20
-71.0642177683
 10
20.5976771963
 20
-71.3913659807
 10
20.7119441995
 20
-71.7203064105
 10
20.8116244495
 20
-72.0508244901
 10
20.8966529256
 20
-72.3827046252
 10
20.9669741622
 20
-72.7157303285
 10
21.0225422841
 20
-73.0496843507
 10
21.0633210409
 20
-73.3843488342
 10
21.0892838318
 20
-73.7195054608
 10
21.1004137223
 20
-74.0549356055
 10
21.0967034521
 20
-74.3904204693
 10
21.0781554402
 20
-74.7257412144
 10
21.0447817851
 20
-75.0606790932
 10
20.9966042587
 20
-75.3950156017
 10
20.933654292
 20
-75.7285326325
 10
20.8559729489
 20
-76.0610126335
 10
20.763610899
 20
-76.3922387354
 10
20.6566283883
 20
-76.7219948796
 10
20.5350952059
 20
-77.050065947
 10
20.3990906356
 20
-77.3762379151
 10
20.2487033987
 20
-77.7002980107
 10
20.0840315967
 20
-78.0220348423
 10
19.9051826535
 20
-78.3412385266
 10
19.7122732505
 20
-78.6577008194
 10
19.505429219
 20
-78.9712153028
 10
19.2847854542
 20
-79.2815775122
 10
19.0504858365
 20
-79.5885850468
 10
18.8026832421
 20
-79.8920375757
 10
18.5415394258
 20
-80.1917370231
 10
18.2672248542
 20
-80.4874877813
 10
17.9799183875
 20
-80.7790970389
 10
17.6798072428
 20
-81.0663747719
 10
17.3670870739
 20
-81.349133665
 10
17.0419619555
 20
-81.6271891688
 10
16.7046440527
 20
-81.9003598217
 10
16.3553531772
 20
-82.1684675931
 10
15.9943173874
 20
-82.4313374111
 10
15.6217730146
 20
-82.6887972422
 10
15.237963431
 20
-82.9406789917
 10
14.8431388074
 20
-83.1868185737
 10
14.4375567627
 20
-83.4270554617
  0
LWPOLYLINE
  5
230
100
AcDbEntity
  8
0
100
AcDbPolyline
 62
7
  6
CONTINUOUS
 90
49
 70
0
 10
-40.4437716962
 20
-83.3048969866
 10
-40.443412383
 20
-83.337179626
 10
-40.4350088343
 20
-83.4668548263
 10
-40.4155063413
 20
-83.5958079743
 10
-40.38482226
 20
-83.7240336935
 10
-40.3430392343
 20
-83.8515373604
 10
-40.2904676151
 20
-83.9773719186
 10
-40.2270270695
 20
-84.1015249396
 10
-40.1527979304
 20
-84.2240088519
 10
-40.0683315482
 20
-84.3439138842
 10
-39.9735516953
 20
-84.4612208338
 10
-39.8685345992
 20
-84.5759489033
 10
-39.7540602934
 20
-84.6872459293
 10
-39.6300583583
 20
-84.795086364
 10
-39.4965992136
 20
-84.8994957552
 10
-39.354674151
 20
-84.9996985835
 10
-39.2042201323
 20
-85.0956635261
 10
-39.0453001956
 20
-85.1874219058
 10
-38.8790947476
 20
-85.2742921706
 10
-38.7055495393
 20
-85.356237923
 10
-38.5247188196
 20
-85.4332955605
 10
-38.3379457411
 20
-85.5048927237
 10
-38.1451860565
 20
-85.5709887532
 10
-37.9464840131
 20
-85.6316243083
 10
-37.7433155063
 20
-85.6863490075
 10
-37.5356472781
 20
-85.735118838
 10
-37.3235125864
 20
-85.7779778126
 10
-37.1084870998
 20
-85.8146075885
 10
-36.8905492931
 20
-85.8449617825
 10
-36.6697206915
 20
-85.8690867779
 10
-36.4476415393
 20
-85.8868033819
 10
-36.2243025246
 20
-85.898063877
 10
-35.9997129592
 20
-85.9029159806
 10
-35.7755410226
 20
-85.901323653
 10
-35.5517898244
 20
-85.8932389082
 10
-35.328456255
 20
-85.8787097322
 10
-35.1071991646
 20
-85.857844043
 10
-34.888034015
 20
-85.8305946582
 10
-34.6709453444
 20
-85.7970087602
 10
-34.457545618
 20
-85.7573358144
 10
-34.2478623042
 20
-85.7115304958
 10
-34.0418679347
 20
-85.6596381294
 10
-33.8410925696
 20
-85.602044155
 10
-33.6455750704
 20
-85.5387061178
 10
-33.4552765756
 20
-85.4696664726
 10
-33.2716105617
 20
-85.3954380239
 10
-33.0950481875
 20
-85.3161917063
 10
-32.9251182941
 20
-85.2317565852
 10
-32.7618208815
 20
-85.1421326606
  0
LINE
  5
231
100
AcDbEntity
  8
RACCORDO
100
AcDbLine
 62
7
  6
CONTINUOUS
 10
57.3942937198
 20
-80.4469748373
 11
9.8508774907
 21
-52.9960021656
  0
LWPOLYLINE
  5
232
100
AcDbEntity
  8
RACCORDO
100
AcDbPolyline
 62
7
  6
CONTINUOUS
 90
25
 70
0
 10
10.7113338068
 20
-65.2547012303
 10
10.7139816343
 20
-65.2575268668
 10
10.7157655664
 20
-65.2594578579
 10
10.710716378
 20
-65.2536034402
 10
10.6992619896
 20
-65.2397490223
 10
10.6818800546
 20
-65.2177381926
 10
10.6588563221
 20
-65.1871565998
 10
10.6310085404
 20
-65.1482977159
 10
10.5984113712
 20
-65.1004306554
 10
10.560151426
 20
-65.0411155835
 10
10.5166521541
 20
-64.9696093319
 10
10.4685399688
 20
-64.885369923
 10
10.4153651883
 20
-64.7856412735
 10
10.3571848885
 20
-64.6678670513
 10
10.2959835569
 20
-64.5330021474
 10
10.2343565552
 20
-64.3839488591
 10
10.1744296675
 20
-64.2235935601
 10
10.1161748024
 20
-64.0493881845
 10
10.0592729127
 20
-63.8561843374
 10
10.0051017444
 20
-63.6423587021
 10
9.9559578116
 20
-63.4093018007
 10
9.913652418
 20
-63.1560420002
 10
9.8804053151
 20
-62.8826448093
 10
9.8586680802
 20
-62.5904049871
 10
9.8508774907
 20
-62.2806492709
  0
LWPOLYLINE
  5
233
100
AcDbEntity
  8
0
100
AcDbPolyline
 62
7
  6
CONTINUOUS
 90
49
 70
0
 10
-31.4438310975
 20
-83.3048969946
 10
-31.4441904107
 20
-83.2726143552
 10
-31.4525939593
 20
-83.1429391549
 10
-31.4720964523
 20
-83.0139860069
 10
-31.5027805337
 20
-82.8857602877
 10
-31.5445635594
 20
-82.7582566208
 10
-31.5971351785
 20
-82.6324220627
 10
-31.6605757242
 20
-82.5082690416
 10
-31.7348048632
 20
-82.3857851293
 10
-31.8192712454
 20
-82.265880097
 10
-31.9140510984
 20
-82.1485731475
 10
-32.0190681945
 20
-82.0338450779
 10
-32.1335425003
 20
-81.9225480519
 10
-32.2575444353
 20
-81.8147076172
 10
-32.39100358
 20
-81.710298226
 10
-32.5329286427
 20
-81.6100953977
 10
-32.6833826614
 20
-81.5141304551
 10
-32.842302598
 20
-81.4223720754
 10
-33.0085080461
 20
-81.3355018106
 10
-33.1820532543
 20
-81.2535560582
 10
-33.3628839741
 20
-81.1764984207
 10
-33.5496570525
 20
-81.1049012575
 10
-33.7424167372
 20
-81.038805228
 10
-33.9411187805
 20
-80.9781696729
 10
-34.1442872874
 20
-80.9234449737
 10
-34.3519555156
 20
-80.8746751432
 10
-34.5640902073
 20
-80.8318161686
 10
-34.7791156939
 20
-80.7951863927
 10
-34.9970535005
 20
-80.7648321987
 10
-35.2178821021
 20
-80.7407072033
 10
-35.4399612544
 20
-80.7229905993
 10
-35.6633002691
 20
-80.7117301042
 10
-35.8878898344
 20
-80.7068780006
 10
-36.1120617711
 20
-80.7084703282
 10
-36.3358129692
 20
-80.716555073
 10
-36.5591465387
 20
-80.731084249
 10
-36.7804036291
 20
-80.7519499382
 10
-36.9995687787
 20
-80.779199323
 10
-37.2166574493
 20
-80.812785221
 10
-37.4300571756
 20
-80.8524581668
 10
-37.6397404894
 20
-80.8982634854
 10
-37.845734859
 20
-80.9501558518
 10
-38.0465102241
 20
-81.0077498262
 10
-38.2420277233
 20
-81.0710878634
 10
-38.432326218
 20
-81.1401275086
 10
-38.6159922319
 20
-81.2143559573
 10
-38.7925546062
 20
-81.2936022749
 10
-38.9624844996
 20
-81.378037396
 10
-39.1257819122
 20
-81.4676613206
  0
LWPOLYLINE
  5
234
100
AcDbEntity
  8
RACCORDO
100
AcDbPolyline
 62
253
  6
CONTINUOUS
 90
83
 70
0
 10
-28.1491225093
 20
-81.0594656372
 10
-28.1471504195
 20
-81.2461296305
 10
-28.1316058232
 20
-81.6157021332
 10
-28.1006014273
 20
-81.9849554409
 10
-28.0541553828
 20
-82.3536689156
 10
-27.9922949279
 20
-82.7216263628
 10
-27.9150560196
 20
-83.0886139285
 10
-27.8224842942
 20
-83.4544151809
 10
-27.7146343778
 20
-83.8188154465
 10
-27.5915691795
 20
-84.1816031847
 10
-27.4533602496
 20
-84.5425678979
 10
-27.300088292
 20
-84.9014989587
 10
-27.1318428668
 20
-85.2581867715
 10
-26.9487217056
 20
-85.612424131
 10
-26.7508313775
 20
-85.964004684
 10
-26.538287557
 20
-86.3127227316
 10
-26.3112144774
 20
-86.6583743626
 10
-26.0697446803
 20
-87.0007577815
 10
-25.8140190917
 20
-87.3396731299
 10
-25.5441872016
 20
-87.6749222789
 10
-25.2604066155
 20
-88.0063094402
 10
-24.9628429331
 20
-88.3336412589
 10
-24.6516698815
 20
-88.6567266462
 10
-24.3270691727
 20
-88.9753769556
 10
-23.9892302598
 20
-89.2894062283
 10
-23.6383502186
 20
-89.5986312833
 10
-23.274633821
 20
-89.9028716503
 10
-22.8982934314
 20
-90.2019496831
 10
-22.5095487332
 20
-90.4956907947
 10
-22.1086266399
 20
-90.7839235204
 10
-21.6957611999
 20
-91.0664795919
 10
-21.271193461
 20
-91.3431940389
 10
-20.8351712657
 20
-91.6139053279
 10
-20.3879491429
 20
-91.8784554303
 10
-19.9297882016
 20
-92.1366898907
 10
-19.4609558989
 20
-92.3884579643
 10
-18.9817259181
 20
-92.6336126833
 10
-18.4923780536
 20
-92.8720109202
 10
-17.9931980471
 20
-93.1035134771
 10
-17.4844772253
 20
-93.3279852548
 10
-16.9665123571
 20
-93.5452953034
 10
-16.4396057579
 20
-93.755316779
 10
-15.9040650454
 20
-93.9579270584
 10
-15.3602027553
 20
-94.1530078908
 10
-14.8083362221
 20
-94.3404454338
 10
-14.2487877253
 20
-94.5201302119
 10
-13.6818842346
 20
-94.6919572246
 10
-13.1079565395
 20
-94.8558262131
 10
-12.5273398214
 20
-95.0116414782
 10
-11.9403738263
 20
-95.1593118718
 10
-11.3474018566
 20
-95.2987510864
 10
-10.7487694693
 20
-95.4298779242
 10
-10.1448250432
 20
-95.5526160942
 10
-9.5359216296
 20
-95.6668938517
 10
-8.9224141753
 20
-95.7726445861
 10
-8.3046581575
 20
-95.8698069572
 10
-7.6830126657
 20
-95.9583243283
 10
-7.0578419959
 20
-96.0381446694
 10
-6.429512822
 20
-96.109221079
 10
-5.7983895185
 20
-96.1715122406
 10
-5.1648428931
 20
-96.2249814576
 10
-4.5292518414
 20
-96.2695968987
 10
-3.8919909807
 20
-96.30533268
 10
-3.2534288674
 20
-96.3321685449
 10
-2.6139368237
 20
-96.3500891939
 10
-1.9738960484
 20
-96.3590843844
 10
-1.3336722559
 20
-96.3591494159
 10
-0.6936139914
 20
-96.3502840009
 10
-0.0540890237
 20
-96.3324923315
 10
0.5845233745
 20
-96.3057840565
 10
1.2218577531
 20
-96.2701735219
 10
1.8575639883
 20
-96.225678723
 10
2.4912483736
 20
-96.1723256445
 10
3.1224820002
 20
-96.1101505534
 10
3.7508927591
 20
-96.0391916066
 10
4.3761181897
 20
-95.9594912442
 10
4.9977478331
 20
-95.8711042402
 10
5.6153708179
 20
-95.7740936106
 10
6.2286784595
 20
-95.6685124652
 10
6.8374159145
 20
-95.5544058773
 10
7.4412609772
 20
-95.4318323233
 10
8.0398267445
 20
-95.3008684038
 10
8.6327633179
 20
-95.1615895181
  0
LINE
  5
235
100
AcDbEntity
  8
0
100
AcDbLine
 62
7
  6
CONTINUOUS
 10
-28.1491225093
 20
-78.0915281944
 11
-28.1491225093
 21
-81.0594656372
  0
LWPOLYLINE
  5
236
100
AcDbEntity
  8
RACCORDO
100
AcDbPolyline
 62
7
  6
CONTINUOUS
 90
37
 70
0
 10
-28.1491225093
 20
-78.0915281944
 10
-28.1427741003
 20
-77.6985079166
 10
-28.1236793124
 20
-77.3049078191
 10
-28.0917732941
 20
-76.9110165446
 10
-28.0470274099
 20
-76.5173040092
 10
-27.9893908207
 20
-76.1238797812
 10
-27.9187311355
 20
-75.7304930445
 10
-27.8349797318
 20
-75.3374293891
 10
-27.7380822193
 20
-74.94498411
 10
-27.6278388582
 20
-74.5529212301
 10
-27.5041568695
 20
-74.1615078907
 10
-27.3669682554
 20
-73.7710558632
 10
-27.2160244699
 20
-73.3813948601
 10
-27.0512071609
 20
-72.9927750052
 10
-26.8724377684
 20
-72.6055194284
 10
-26.6794519528
 20
-72.2195627027
 10
-26.4720857384
 20
-71.8350992829
 10
-26.250274703
 20
-71.4524988937
 10
-26.013857739
 20
-71.0719447357
 10
-25.7626195095
 20
-70.6935523069
 10
-25.4965508366
 20
-70.3177478426
 10
-25.2158199598
 20
-69.9451416028
 10
-24.9203108911
 20
-69.5759116421
 10
-24.6100077858
 20
-69.2103591511
 10
-24.2853094444
 20
-68.8492156083
 10
-23.9461384378
 20
-68.4926139754
 10
-23.5925487477
 20
-68.1408268389
 10
-23.225254876
 20
-67.7947167247
 10
-22.8442915682
 20
-67.4544164277
 10
-22.4497455287
 20
-67.1201063581
 10
-22.0425573601
 20
-66.7926317477
 10
-21.6228916112
 20
-66.4721224568
 10
-21.1908567033
 20
-66.1586659097
 10
-20.7474591868
 20
-65.8529589425
 10
-20.2932009766
 20
-65.555261761
 10
-19.8279964629
 20
-65.2654418945
 10
-19.3520391054
 20
-64.9835671654
  0
LINE
  5
237
100
AcDbEntity
  8
0
100
AcDbLine
 62
7
  6
CONTINUOUS
 10
1.1793046155
 20
39.5733272977
 11
10.7252461615
 21
45.0850343076
  0
LINE
  5
238
100
AcDbEntity
  8
0
100
AcDbLine
 62
7
  6
CONTINUOUS
 10
1.1793046155
 20
38.3486218825
 11
10.7252461615
 21
43.8603288924
  0
LWPOLYLINE
  5
239
100
AcDbEntity
  8
RACCORDO
100
AcDbPolyline
 62
253
  6
CONTINUOUS
 90
80
 70
0
 10
-13.1491225093
 20
-62.2806492709
 10
-13.1462272085
 20
-62.4296370961
 10
-13.1333621531
 20
-62.6281577753
 10
-13.1102171484
 20
-62.8263673872
 10
-13.076812912
 20
-63.0240885078
 10
-13.0331793454
 20
-63.2211441503
 10
-12.9793555063
 20
-63.4173579228
 10
-12.9153895743
 20
-63.6125541875
 10
-12.8413388075
 20
-63.8065582174
 10
-12.7572694915
 20
-63.9991963524
 10
-12.6632568797
 20
-64.1902961548
 10
-12.5593851266
 20
-64.3796865641
 10
-12.4457472113
 20
-64.5671980504
 10
-12.3224448549
 20
-64.752662766
 10
-12.1895884295
 20
-64.9359146951
 10
-12.0472968598
 20
-65.1167898022
 10
-11.8956975161
 20
-65.2951261793
 10
-11.7349261005
 20
-65.4707641912
 10
-11.565126525
 20
-65.6435466182
 10
-11.3864507831
 20
-65.8133187969
 10
-11.1990588136
 20
-65.9799287583
 10
-11.0031183577
 20
-66.1432273637
 10
-10.7988048091
 20
-66.3030684385
 10
-10.5863010562
 20
-66.4593089033
 10
-10.3657973185
 20
-66.6118089018
 10
-10.1374909764
 20
-66.760431926
 10
-9.9015863947
 20
-66.9050449384
 10
-9.6582947403
 20
-67.0455184905
 10
-9.4078337923
 20
-67.1817268394
 10
-9.1504277475
 20
-67.31354806
 10
-8.8863070189
 20
-67.4408641546
 10
-8.6157080301
 20
-67.5635611582
 10
-8.3388730033
 20
-67.6815292405
 10
-8.0560497439
 20
-67.794662804
 10
-7.7674914172
 20
-67.9028605787
 10
-7.4734563223
 20
-68.0060257127
 10
-7.1742076602
 20
-68.1040658595
 10
-6.8700132987
 20
-68.19689326
 10
-6.5611455325
 20
-68.2844248211
 10
-6.2478808405
 20
-68.3665821901
 10
-5.9304996372
 20
-68.443291825
 10
-5.6092860221
 20
-68.5144850603
 10
-5.2845275244
 20
-68.5800981684
 10
-4.9565148466
 20
-68.6400724168
 10
-4.6255416036
 20
-68.6943541206
 10
-4.291904062
 20
-68.7428946901
 10
-3.9559008735
 20
-68.7856506747
 10
-3.617832807
 20
-68.8225838022
 10
-3.2780024787
 20
-68.8536610123
 10
-2.9367140829
 20
-68.8788544868
 10
-2.5942731192
 20
-68.8981416742
 10
-2.2509861184
 20
-68.9115053099
 10
-1.9071603679
 20
-68.9189334317
 10
-1.5631036388
 20
-68.9204193903
 10
-1.2191239078
 20
-68.9159618556
 10
-0.8755290808
 20
-68.9055648176
 10
-0.5326267188
 20
-68.8892375828
 10
-0.1907237687
 20
-68.8669947661
 10
0.149873715
 20
-68.8388562782
 10
0.4888608508
 20
-68.804847307
 10
0.8259342
 20
-68.7649982952
 10
1.1607920329
 20
-68.7193449136
 10
1.4931346035
 20
-68.667928029
 10
1.8226644234
 20
-68.6107936664
 10
2.1490865243
 20
-68.5479929678
 10
2.472108712
 20
-68.479582149
 10
2.7914418403
 20
-68.4056224465
 10
3.1068000749
 20
-68.3261800609
 10
3.417901135
 20
-68.2413261011
 10
3.7244665343
 20
-68.1511365242
 10
4.0262218424
 20
-68.0556920655
 10
4.3228969433
 20
-67.9550781623
 10
4.614226277
 20
-67.8493848762
 10
4.8999490646
 20
-67.7387068169
 10
5.1798095457
 20
-67.6231430563
 10
5.453557207
 20
-67.5027970397
 10
5.7209470071
 20
-67.3777764931
 10
5.9817395957
 20
-67.2481933269
 10
6.2357015282
 20
-67.1141635357
 10
6.4826054744
 20
-66.9758070942
  0
LINE
  5
23A
100
AcDbEntity
  8
0
100
AcDbLine
 62
7
  6
CONTINUOUS
 10
-14.02349118
 20
47.126525639
 11
-14.02349118
 21
48.3512310542
  0
LINE
  5
23B
100
AcDbEntity
  8
0
100
AcDbLine
 62
7
  6
CONTINUOUS
 10
-13.1491225093
 20
27.7774324611
 11
-13.1491225093
 21
-62.2806492709
  0
LWPOLYLINE
  5
23C
100
AcDbEntity
  8
0
100
AcDbPolyline
 62
7
  6
CONTINUOUS
 90
49
 70
0
 10
-8.6239665428
 20
-101.6772536863
 10
-8.6236072296
 20
-101.7095363257
 10
-8.6152036809
 20
-101.839211526
 10
-8.595701188
 20
-101.968164674
 10
-8.5650171066
 20
-102.0963903932
 10
-8.5232340809
 20
-102.2238940601
 10
-8.4706624617
 20
-102.3497286183
 10
-8.4072219161
 20
-102.4738816394
 10
-8.332992777
 20
-102.5963655517
 10
-8.2485263948
 20
-102.7162705839
 10
-8.1537465419
 20
-102.8335775335
 10
-8.0487294458
 20
-102.948305603
 10
-7.93425514
 20
-103.0596026291
 10
-7.8102532049
 20
-103.1674430638
 10
-7.6767940602
 20
-103.271852455
 10
-7.5348689976
 20
-103.3720552832
 10
-7.3844149789
 20
-103.4680202259
 10
-7.2254950422
 20
-103.5597786055
 10
-7.0592895942
 20
-103.6466488703
 10
-6.8857443859
 20
-103.7285946227
 10
-6.7049136662
 20
-103.8056522603
 10
-6.5181405878
 20
-103.8772494234
 10
-6.3253809031
 20
-103.9433454529
 10
-6.1266788597
 20
-104.003981008
 10
-5.9235103529
 20
-104.0587057073
 10
-5.7158421247
 20
-104.1074755377
 10
-5.503707433
 20
-104.1503345123
 10
-5.2886819464
 20
-104.1869642883
 10
-5.0707441397
 20
-104.2173184823
 10
-4.8499155382
 20
-104.2414434777
 10
-4.6278363859
 20
-104.2591600817
 10
-4.4044973712
 20
-104.2704205767
 10
-4.1799078058
 20
-104.2752726804
 10
-3.9557358692
 20
-104.2736803528
 10
-3.731984671
 20
-104.265595608
 10
-3.5086511016
 20
-104.2510664319
 10
-3.2873940112
 20
-104.2302007427
 10
-3.0682288616
 20
-104.2029513579
 10
-2.851140191
 20
-104.16936546
 10
-2.6377404646
 20
-104.1296925141
 10
-2.4280571508
 20
-104.0838871956
 10
-2.2220627813
 20
-104.0319948291
 10
-2.0212874162
 20
-103.9744008547
 10
-1.825769917
 20
-103.9110628175
 10
-1.6354714222
 20
-103.8420231724
 10
-1.4518054084
 20
-103.7677947236
 10
-1.2752430341
 20
-103.6885484061
 10
-1.1053131407
 20
-103.604113285
 10
-0.9420157281
 20
-103.5144893603
  0
LWPOLYLINE
  5
23D
100
AcDbEntity
  8
0
100
AcDbPolyline
 62
7
  6
CONTINUOUS
 90
49
 70
0
 10
0.3759740559
 20
-101.6772536944
 10
0.3756147427
 20
-101.644971055
 10
0.3672111941
 20
-101.5152958547
 10
0.3477087011
 20
-101.3863427067
 10
0.3170246197
 20
-101.2581169875
 10
0.275241594
 20
-101.1306133206
 10
0.2226699749
 20
-101.0047787624
 10
0.1592294292
 20
-100.8806257413
 10
0.0850002902
 20
-100.758141829
 10
0.000533908
 20
-100.6382367968
 10
-0.094245945
 20
-100.5209298472
 10
-0.1992630411
 20
-100.4062017777
 10
-0.3137373469
 20
-100.2949047516
 10
-0.4377392819
 20
-100.1870643169
 10
-0.5711984267
 20
-100.0826549257
 10
-0.7131234893
 20
-99.9824520975
 10
-0.863577508
 20
-99.8864871548
 10
-1.0224974446
 20
-99.7947287752
 10
-1.1887028927
 20
-99.7078585104
 10
-1.362248101
 20
-99.625912758
 10
-1.5430788207
 20
-99.5488551204
 10
-1.7298518991
 20
-99.4772579573
 10
-1.9226115838
 20
-99.4111619278
 10
-2.1213136271
 20
-99.3505263727
 10
-2.324482134
 20
-99.2958016734
 10
-2.5321503622
 20
-99.247031843
 10
-2.7442850539
 20
-99.2041728684
 10
-2.9593105405
 20
-99.1675430924
 10
-3.1772483471
 20
-99.1371888984
 10
-3.3980769487
 20
-99.113063903
 10
-3.620156101
 20
-99.095347299
 10
-3.8434951157
 20
-99.084086804
 10
-4.068084681
 20
-99.0792347003
 10
-4.2922566177
 20
-99.0808270279
 10
-4.5160078159
 20
-99.0889117727
 10
-4.7393413853
 20
-99.1034409488
 10
-4.9605984757
 20
-99.124306638
 10
-5.1797636253
 20
-99.1515560228
 10
-5.3968522959
 20
-99.1851419207
 10
-5.6102520222
 20
-99.2248148666
 10
-5.819935336
 20
-99.2706201851
 10
-6.0259297056
 20
-99.3225125516
 10
-6.2267050707
 20
-99.380106526
 10
-6.4222225699
 20
-99.4434445632
 10
-6.6125210646
 20
-99.5124842083
 10
-6.7961870785
 20
-99.5867126571
 10
-6.9727494528
 20
-99.6659589746
 10
-7.1426793462
 20
-99.7503940957
 10
-7.3059767588
 20
-99.8400180204
  0
LINE
  5
23E
100
AcDbEntity
  8
RACCORDO
100
AcDbLine
 62
253
  6
CONTINUOUS
 10
-4.1239962434
 20
-115.9668644568
 11
-4.1239962434
 21
-120.0492158408
  0
LWPOLYLINE
  5
23F
100
AcDbEntity
  8
RACCORDO
100
AcDbPolyline
 62
7
  6
CONTINUOUS
 90
21
 70
0
 10
-13.1491225093
 20
-62.2806492709
 10
-13.1570514211
 20
-62.593140438
 10
-13.1794799918
 20
-62.8910032174
 10
-13.2143402499
 20
-63.1727343251
 10
-13.2597376368
 20
-63.4381122818
 10
-13.313529433
 20
-63.6853757044
 10
-13.3729704301
 20
-63.9113454551
 10
-13.4354233601
 20
-64.1145873364
 10
-13.4992246745
 20
-64.2967281362
 10
-13.563114355
 20
-64.4595598378
 10
-13.6254675805
 20
-64.6033446552
 10
-13.6849583799
 20
-64.728829353
 10
-13.741259956
 20
-64.8383954429
 10
-13.7933436118
 20
-64.9325524958
 10
-13.8403718724
 20
-65.012013282
 10
-13.8826576115
 20
-65.0791164793
 10
-13.9197327766
 20
-65.1345758353
 10
-13.9508675909
 20
-65.1786282734
 10
-13.9761675665
 20
-65.2125896705
 10
-13.995246116
 20
-65.2369465076
 10
-14.0022962455
 20
-65.245616954
  0
LWPOLYLINE
  5
240
100
AcDbEntity
  8
RACCORDO
100
AcDbPolyline
 62
253
  6
CONTINUOUS
 90
29
 70
0
 10
24.840630033
 20
-77.6143282387
 10
24.9865904362
 20
-77.9264707539
 10
25.1468486101
 20
-78.3061541809
 10
25.2909719348
 20
-78.6882300248
 10
25.4186986686
 20
-79.0720044107
 10
25.529999025
 20
-79.4574804874
 10
25.6249027905
 20
-79.8446551061
 10
25.7032375827
 20
-80.2328249452
 10
25.7649732822
 20
-80.6219916114
 10
25.8101400083
 20
-81.012153498
 10
25.8386557373
 20
-81.4026024634
 10
25.8504901583
 20
-81.7933396664
 10
25.8456735821
 20
-82.1843639482
 10
25.8242149177
 20
-82.5749636904
 10
25.7860843444
 20
-82.9651361167
 10
25.731311683
 20
-83.3548840034
 10
25.6599953051
 20
-83.7435040617
 10
25.5721029296
 20
-84.1310006727
 10
25.4676668376
 20
-84.5173694554
 10
25.3468822445
 20
-84.9018939773
 10
25.2097258169
 20
-85.284556014
 10
25.0562208882
 20
-85.66537379
 10
24.8866326741
 20
-86.0436855465
 10
24.7008910091
 20
-86.4195481803
 10
24.4990660587
 20
-86.7929047946
 10
24.281633535
 20
-87.1629229409
 10
24.0487520085
 20
-87.5293251362
 10
23.8002629086
 20
-87.8923888635
 10
23.5361662353
 20
-88.2521141227
  0
LWPOLYLINE
  5
241
100
AcDbEntity
  8
RACCORDO
100
AcDbPolyline
 62
7
  6
CONTINUOUS
 90
34
 70
0
 10
8.6327633179
 20
-95.1615895181
 10
8.6335135415
 20
-95.1990060272
 10
8.635869592
 20
-95.2373121485
 10
8.6398314693
 20
-95.276507882
 10
8.6454053874
 20
-95.3167184437
 10
8.6525851323
 20
-95.3578186176
 10
8.6613520629
 20
-95.3994327556
 10
8.6717266885
 20
-95.4415476761
 10
8.6836884998
 20
-95.4841765606
 10
8.6971573275
 20
-95.5269833055
 10
8.7121035656
 20
-95.5698795625
 10
8.7285568201
 20
-95.6129536798
 10
8.74652574
 20
-95.6561345987
 10
8.7660342256
 20
-95.6994920754
 10
8.7870583765
 20
-95.7429563537
 10
8.8095351412
 20
-95.7862471053
 10
8.8335202093
 20
-95.8294299737
 10
8.8589578912
 20
-95.8724393154
 10
8.8856180656
 20
-95.914797872
 10
8.9135125833
 20
-95.9564754324
 10
8.9426295935
 20
-95.9975022076
 10
8.9727034232
 20
-96.0374915723
 10
9.0036568722
 20
-96.0763422733
 10
9.0355671407
 20
-96.1141555638
 10
9.0684001556
 20
-96.1508485774
 10
9.1022379123
 20
-96.1865118413
 10
9.1369984154
 20
-96.2210548282
 10
9.1724016064
 20
-96.2541230905
 10
9.2084921497
 20
-96.2857187961
 10
9.2452253808
 20
-96.315839777
 10
9.2821872478
 20
-96.3441250819
 10
9.3192397332
 20
-96.3704543937
 10
9.3565208545
 20
-96.3949480295
 10
9.3940306116
 20
-96.4176059893
  0
LINE
  5
242
100
AcDbEntity
  8
0
100
AcDbLine
 62
7
  6
CONTINUOUS
 10
1.1793046155
 20
38.3486218825
 11
1.1793046155
 21
39.5733272977
  0
LINE
  5
243
100
AcDbEntity
  8
RACCORDO
100
AcDbLine
 62
253
  6
CONTINUOUS
 10
2.9470715684
 20
-115.9668644568
 11
2.9470715684
 21
-120.0492158408
  0
LINE
  5
244
100
AcDbEntity
  8
0
100
AcDbLine
 62
7
  6
CONTINUOUS
 10
9.8508774907
 20
14.4975207188
 11
9.8508774907
 21
-62.2806492709
  0
LINE
  5
245
100
AcDbEntity
  8
0
100
AcDbLine
 62
7
  6
CONTINUOUS
 10
10.7252461615
 20
43.8603288924
 11
10.7252461615
 21
45.0850343076
  0
LWPOLYLINE
  5
246
100
AcDbEntity
  8
RACCORDO
100
AcDbPolyline
 62
253
  6
CONTINUOUS
 90
19
 70
0
 10
-135.5852456926
 20
98.4705155021
 10
-135.6278649813
 20
98.4973165538
 10
-135.6685478132
 20
98.5273914889
 10
-135.7071684259
 20
98.5606551615
 10
-135.743653303
 20
98.5970442521
 10
-135.7779329934
 20
98.6364894921
 10
-135.8099422437
 20
98.6789157952
 10
-135.8396201226
 20
98.7242424006
 10
-135.8669101365
 20
98.7723830264
 10
-135.8917603372
 20
98.8232460344
 10
-135.9141234211
 20
98.8767346037
 10
-135.9339568188
 20
98.932746916
 10
-135.9512227761
 20
98.9911763485
 10
-135.9658884265
 20
99.0519116775
 10
-135.977925853
 20
99.11483729
 10
-135.9873121416
 20
99.1798334033
 10
-135.9940294252
 20
99.2467762938
 10
-135.9980649168
 20
99.3155385318
 10
-135.9994109347
 20
99.3859892244
  0
LWPOLYLINE
  5
247
100
AcDbEntity
  8
RACCORDO
100
AcDbPolyline
 62
7
  6
CONTINUOUS
 90
22
 70
0
 10
21.0285470204
 20
-104.331038547
 10
21.0250391606
 20
-104.2231431878
 10
21.0145448673
 20
-104.1152478287
 10
20.9971080699
 20
-104.0078041207
 10
20.9726996661
 20
-103.9008139571
 10
20.9413487582
 20
-103.7942754447
 10
20.9031865813
 20
-103.6886345549
 10
20.8581845835
 20
-103.5838950503
 10
20.8063713168
 20
-103.4800531682
 10
20.7479636719
 20
-103.377543592
 10
20.6829340063
 20
-103.2763719064
 10
20.6113099626
 20
-103.1765325266
 10
20.5333913599
 20
-103.0784433813
 10
20.4491518122
 20
-102.9821118074
 10
20.3586177055
 20
-102.887530468
 10
20.2621680165
 20
-102.7950952817
 10
20.159777948
 20
-102.7048152449
 10
20.0514722972
 20
-102.6166813611
 10
19.9377044327
 20
-102.5310625598
 10
19.8186254775
 20
-102.4480818175
 10
19.6940843087
 20
-102.3676161577
 10
19.5640809263
 20
-102.2896655803
  0
LINE
  5
248
100
AcDbEntity
  8
RACCORDO
100
AcDbLine
 62
253
  6
CONTINUOUS
 10
19.5640809263
 20
-110.4547628976
 11
19.5640809263
 21
-106.3724115136
  0
LINE
  5
249
100
AcDbEntity
  8
0
100
AcDbLine
 62
7
  6
CONTINUOUS
 10
20.3239933632
 20
-90.4283990642
 11
20.3239933632
 21
-90.4797971483
  0
LINE
  5
24A
100
AcDbEntity
  8
RACCORDO
100
AcDbLine
 62
7
  6
CONTINUOUS
 10
21.0285470204
 20
-108.4133899309
 11
21.0285470204
 21
-104.331038547
  0
LINE
  5
24B
100
AcDbEntity
  8
RACCORDO
100
AcDbLine
 62
7
  6
CONTINUOUS
 10
22.7748989417
 20
-86.9960976515
 11
22.7748989417
 21
-87.8125679283
  0
LWPOLYLINE
  5
24C
100
AcDbEntity
  8
RACCORDO
100
AcDbPolyline
 62
253
  6
CONTINUOUS
 90
40
 70
0
 10
98.7600404192
 20
-31.2621962799
 10
98.8472042352
 20
-31.3105340876
 10
98.9374312936
 20
-31.3566965937
 10
99.0307215943
 20
-31.4006837981
 10
99.1272608535
 20
-31.4425728965
 10
99.226863355
 20
-31.4822866933
 10
99.3289719507
 20
-31.5195936017
 10
99.4335688546
 20
-31.5544670873
 10
99.5406718527
 20
-31.5869336845
 10
99.6497771543
 20
-31.6168414097
 10
99.7609023905
 20
-31.6441804191
 10
99.8740299303
 20
-31.6689605565
 10
99.9886030898
 20
-31.6910593692
 10
100.1046257418
 20
-31.710462955
 10
100.2220940135
 20
-31.727185216
 10
100.3404396029
 20
-31.741145406
 10
100.4596676232
 20
-31.7523302644
 10
100.5797729611
 20
-31.7607530517
 10
100.7001719755
 20
-31.7663728031
 10
100.8208659039
 20
-31.7691758635
 10
100.9418535088
 20
-31.769175888
 10
101.0625474363
 20
-31.7663728769
 10
101.1829464509
 20
-31.7607531748
 10
101.3030517881
 20
-31.7523304372
 10
101.4222798007
 20
-31.7411456306
 10
101.5406253605
 20
-31.7271854978
 10
101.6580935955
 20
-31.7104632961
 10
101.7741162435
 20
-31.6910597637
 10
101.8886894593
 20
-31.6689609935
 10
102.001817088
 20
-31.6441808928
 10
102.1129424026
 20
-31.6168419214
 10
102.2220478176
 20
-31.5869342101
 10
102.3291509186
 20
-31.5544676281
 10
102.4337477353
 20
-31.519594244
 10
102.5358557452
 20
-31.4822876711
 10
102.6354574708
 20
-31.4425742959
 10
102.7319965099
 20
-31.4006853464
 10
102.8252873952
 20
-31.3566978986
 10
102.915515594
 20
-31.3105348764
 10
103.0026811063
 20
-31.2621962799
  0
LWPOLYLINE
  5
24D
100
AcDbEntity
  8
RACCORDO
100
AcDbPolyline
 62
253
  6
CONTINUOUS
 90
43
 70
0
 10
97.3458268568
 20
-33.7116860201
 10
97.4804970725
 20
-33.7865878702
 10
97.6199237035
 20
-33.8585299187
 10
97.7639117492
 20
-33.9274115482
 10
97.9122598291
 20
-33.9931364213
 10
98.0647604652
 20
-34.0556126161
 10
98.2212003724
 20
-34.1147527541
 10
98.3813607562
 20
-34.1704741228
 10
98.5450176172
 20
-34.2226987904
 10
98.7119420646
 20
-34.2713537155
 10
98.8819006387
 20
-34.3163708495
 10
99.0546556379
 20
-34.3576872322
 10
99.2299654495
 20
-34.3952450792
 10
99.4075848872
 20
-34.4289918625
 10
99.5872655339
 20
-34.458880384
 10
99.7687560901
 20
-34.484868842
 10
99.9518027248
 20
-34.5069208892
 10
100.1361494307
 20
-34.5250056839
 10
100.3215383819
 20
-34.5390979327
 10
100.5077102948
 20
-34.5491779265
 10
100.6944047915
 20
-34.5552315673
 10
100.8813607631
 20
-34.5572503888
 10
101.0683167346
 20
-34.5552315673
 10
101.2550112313
 20
-34.5491779264
 10
101.4411831443
 20
-34.5390979327
 10
101.6265720954
 20
-34.5250056838
 10
101.8109188014
 20
-34.5069208892
 10
101.9939654361
 20
-34.4848688419
 10
102.1754559922
 20
-34.4588803839
 10
102.3551366388
 20
-34.4289918624
 10
102.5327560765
 20
-34.3952450791
 10
102.7080658881
 20
-34.3576872321
 10
102.8808208873
 20
-34.3163708493
 10
103.0507794615
 20
-34.2713537153
 10
103.217703909
 20
-34.2226987902
 10
103.38136077
 20
-34.1704741226
 10
103.5415211538
 20
-34.1147527539
 10
103.6979610609
 20
-34.0556126159
 10
103.8504616968
 20
-33.9931364212
 10
103.9988097766
 20
-33.927411548
 10
104.1427978222
 20
-33.8585299186
 10
104.2822244532
 20
-33.7865878701
 10
104.4168946687
 20
-33.7116860201
  0
LINE
  5
24E
100
AcDbEntity
  8
RACCORDO
100
AcDbLine
 62
7
  6
CONTINUOUS
 10
97.7599920989
 20
-36.260100296
 11
-135.5852456926
 21
98.4705155021
  0
LINE
  5
24F
100
AcDbEntity
  8
RACCORDO
100
AcDbLine
 62
253
  6
CONTINUOUS
 10
97.3458268568
 20
-35.3446265737
 11
-135.9994109347
 21
99.3859892244
  0
LINE
  5
250
100
AcDbEntity
  8
RACCORDO
100
AcDbLine
 62
253
  6
CONTINUOUS
 10
-135.9994109347
 20
101.018929778
 11
97.3458268568
 21
-33.7116860201
  0
LINE
  5
251
100
AcDbEntity
  8
RACCORDO
100
AcDbLine
 62
253
  6
CONTINUOUS
 10
-134.5851973723
 20
103.4684195183
 11
98.7600404192
 21
-31.2621962799
  0
LWPOLYLINE
  5
252
100
AcDbEntity
  8
RACCORDO
100
AcDbPolyline
 62
253
  6
CONTINUOUS
 90
22
 70
0
 10
-135.9994109347
 20
99.3859892244
 10
-136.1291363865
 20
99.4637461191
 10
-136.2537356419
 20
99.5442493084
 10
-136.3730344375
 20
99.6273862013
 10
-136.4868659231
 20
99.7130405233
 10
-136.5950708951
 20
99.8010924793
 10
-136.6974980196
 20
99.891418921
 10
-136.7940040436
 20
99.9838935193
 10
-136.8844539938
 20
100.0783869397
 10
-136.9687213668
 20
100.1747670236
 10
-137.0466883069
 20
100.2728989743
 10
-137.1182457706
 20
100.3726455457
 10
-137.1832936789
 20
100.4738672338
 10
-137.2417410565
 20
100.576422471
 10
-137.2935061592
 20
100.6801678244
 10
-137.3385165889
 20
100.7849581969
 10
-137.3767093944
 20
100.8906470297
 10
-137.4080311596
 20
100.9970865073
 10
-137.4324380781
 20
101.1041277642
 10
-137.4498960147
 20
101.2116210935
 10
-137.4603805527
 20
101.3194161561
 10
-137.4638770288
 20
101.4273621911
  0
LWPOLYLINE
  5
253
100
AcDbEntity
  8
RACCORDO
100
AcDbPolyline
 62
7
  6
CONTINUOUS
 90
28
 70
0
 10
-135.5852456926
 20
98.4705155021
 10
-135.7253301157
 20
98.5546279387
 10
-135.8599874327
 20
98.6419799767
 10
-135.9892209801
 20
98.7324477584
 10
-136.113176094
 20
98.8260218886
 10
-136.2317106201
 20
98.9224872791
 10
-136.3444259052
 20
99.0213629806
 10
-136.4511997078
 20
99.1223267317
 10
-136.5522491007
 20
99.2253633655
 10
-136.6476930594
 20
99.3303948096
 10
-136.7375505963
 20
99.4372434616
 10
-136.8218625157
 20
99.5457496009
 10
-136.9007366456
 20
99.6558459706
 10
-136.9741630489
 20
99.7673062699
 10
-137.0422054635
 20
99.8799988629
 10
-137.1050300275
 20
99.9939912349
 10
-137.1626349293
 20
100.1090846554
 10
-137.2150484376
 20
100.2251187085
 10
-137.2624148988
 20
100.3422227094
 10
-137.3047262063
 20
100.4602122724
 10
-137.3419887476
 20
100.5789131879
 10
-137.3742988775
 20
100.6984762817
 10
-137.4016392755
 20
100.8187261981
 10
-137.4240010034
 20
100.9394771828
 10
-137.4414264124
 20
101.0608682128
 10
-137.4538980272
 20
101.1828236209
 10
-137.4613829658
 20
101.305050686
 10
-137.4638770288
 20
101.4273621911
  0
LWPOLYLINE
  5
254
100
AcDbEntity
  8
RACCORDO
100
AcDbPolyline
 62
253
  6
CONTINUOUS
 90
19
 70
0
 10
97.7599920989
 20
-36.260100296
 10
97.7173728103
 20
-36.2332992444
 10
97.6766899784
 20
-36.2032243092
 10
97.6380693656
 20
-36.1699606367
 10
97.6015844885
 20
-36.1335715461
 10
97.5673047982
 20
-36.0941263061
 10
97.5352955478
 20
-36.0517000029
 10
97.505617669
 20
-36.0063733976
 10
97.4783276551
 20
-35.9582327717
 10
97.4534774543
 20
-35.9073697638
 10
97.4311143704
 20
-35.8538811944
 10
97.4112809728
 20
-35.7978688822
 10
97.3940150154
 20
-35.7394394497
 10
97.3793493651
 20
-35.6787041206
 10
97.3673119386
 20
-35.6157785082
 10
97.3579256499
 20
-35.5507823948
 10
97.3512083664
 20
-35.4838395043
 10
97.3471728748
 20
-35.4150772664
 10
97.3458268568
 20
-35.3446265737
  0
LWPOLYLINE
  5
255
100
AcDbEntity
  8
0
100
AcDbPolyline
 62
7
  6
CONTINUOUS
 90
49
 70
0
 10
28.1455860789
 20
-80.4469748333
 10
28.1459453921
 20
-80.4792574727
 10
28.1543489408
 20
-80.608932673
 10
28.1738514337
 20
-80.737885821
 10
28.2045355151
 20
-80.8661115402
 10
28.2463185408
 20
-80.9936152071
 10
28.29889016
 20
-81.1194497653
 10
28.3623307056
 20
-81.2436027863
 10
28.4365598447
 20
-81.3660866986
 10
28.5210262269
 20
-81.4859917309
 10
28.6158060798
 20
-81.6032986805
 10
28.7208231759
 20
-81.71802675
 10
28.8352974817
 20
-81.829323776
 10
28.9592994168
 20
-81.9371642107
 10
29.0927585615
 20
-82.0415736019
 10
29.2346836241
 20
-82.1417764302
 10
29.3851376428
 20
-82.2377413728
 10
29.5440575795
 20
-82.3294997525
 10
29.7102630275
 20
-82.4163700173
 10
29.8838082358
 20
-82.4983157697
 10
30.0646389555
 20
-82.5753734072
 10
30.2514120339
 20
-82.6469705704
 10
30.4441717186
 20
-82.7130665999
 10
30.642873762
 20
-82.773702155
 10
30.8460422688
 20
-82.8284268542
 10
31.053710497
 20
-82.8771966847
 10
31.2658451887
 20
-82.9200556593
 10
31.4808706753
 20
-82.9566854352
 10
31.698808482
 20
-82.9870396292
 10
31.9196370835
 20
-83.0111646246
 10
32.1417162358
 20
-83.0288812286
 10
32.3650552505
 20
-83.0401417237
 10
32.5896448159
 20
-83.0449938273
 10
32.8138167525
 20
-83.0434014998
 10
33.0375679507
 20
-83.0353167549
 10
33.2609015201
 20
-83.0207875789
 10
33.4821586105
 20
-82.9999218897
 10
33.7013237601
 20
-82.9726725049
 10
33.9184124307
 20
-82.9390866069
 10
34.1318121571
 20
-82.8994136611
 10
34.3414954709
 20
-82.8536083425
 10
34.5474898404
 20
-82.8017159761
 10
34.7482652055
 20
-82.7441220017
 10
34.9437827047
 20
-82.6807839645
 10
35.1340811995
 20
-82.6117443193
 10
35.3177472133
 20
-82.5375158706
 10
35.4943095876
 20
-82.458269553
 10
35.664239481
 20
-82.373834432
 10
35.8275368936
 20
-82.2842105073
  0
LWPOLYLINE
  5
256
100
AcDbEntity
  8
0
100
AcDbPolyline
 62
7
  6
CONTINUOUS
 90
49
 70
0
 10
37.1455266776
 20
-80.4469748413
 10
37.1451673644
 20
-80.4146922019
 10
37.1367638158
 20
-80.2850170016
 10
37.1172613228
 20
-80.1560638536
 10
37.0865772414
 20
-80.0278381344
 10
37.0447942157
 20
-79.9003344675
 10
36.9922225966
 20
-79.7744999094
 10
36.9287820509
 20
-79.6503468883
 10
36.8545529119
 20
-79.527862976
 10
36.7700865297
 20
-79.4079579437
 10
36.6753066767
 20
-79.2906509942
 10
36.5702895806
 20
-79.1759229246
 10
36.4558152748
 20
-79.0646258986
 10
36.3318133398
 20
-78.9567854639
 10
36.198354195
 20
-78.8523760727
 10
36.0564291324
 20
-78.7521732444
 10
35.9059751137
 20
-78.6562083018
 10
35.7470551771
 20
-78.5644499221
 10
35.580849729
 20
-78.4775796573
 10
35.4073045207
 20
-78.3956339049
 10
35.226473801
 20
-78.3185762674
 10
35.0397007226
 20
-78.2469791042
 10
34.8469410379
 20
-78.1808830747
 10
34.6482389946
 20
-78.1202475196
 10
34.4450704877
 20
-78.0655228204
 10
34.2374022595
 20
-78.0167529899
 10
34.0252675678
 20
-77.9738940153
 10
33.8102420812
 20
-77.9372642394
 10
33.5923042746
 20
-77.9069100454
 10
33.371475673
 20
-77.88278505
 10
33.1493965207
 20
-77.865068446
 10
32.926057506
 20
-77.8538079509
 10
32.7014679407
 20
-77.8489558473
 10
32.477296004
 20
-77.8505481749
 10
32.2535448058
 20
-77.8586329197
 10
32.0302112364
 20
-77.8731620957
 10
31.808954146
 20
-77.8940277849
 10
31.5897889964
 20
-77.9212771697
 10
31.3727003258
 20
-77.9548630677
 10
31.1593005995
 20
-77.9945360135
 10
30.9496172857
 20
-78.0403413321
 10
30.7436229161
 20
-78.0922336985
 10
30.542847551
 20
-78.1498276729
 10
30.3473300518
 20
-78.2131657101
 10
30.1570315571
 20
-78.2822053553
 10
29.9733655432
 20
-78.356433804
 10
29.7968031689
 20
-78.4356801216
 10
29.6268732755
 20
-78.5201152427
 10
29.4635758629
 20
-78.6097391673
  0
LINE
  5
257
100
AcDbEntity
  8
0
100
AcDbLine
 62
7
  6
CONTINUOUS
 10
24.8508774907
 20
-78.0915281944
 11
24.8508774907
 21
-81.0594656372
  0
LINE
  5
258
100
AcDbEntity
  8
RACCORDO
100
AcDbLine
 62
253
  6
CONTINUOUS
 10
33.70621655
 20
-94.1241737138
 11
33.70621655
 21
-98.2065250978
  0
LWPOLYLINE
  5
259
100
AcDbEntity
  8
RACCORDO
100
AcDbPolyline
 62
253
  6
CONTINUOUS
 90
34
 70
0
 10
24.8508774907
 20
-78.0915281944
 10
24.8503863395
 20
-78.1846842039
 10
24.8385996325
 20
-78.5572389675
 10
24.8111041117
 20
-78.9295175743
 10
24.7679160719
 20
-79.3012992897
 10
24.7090611243
 20
-79.6723635752
 10
24.634574186
 20
-80.0424902885
 10
24.5444994517
 20
-80.4114598689
 10
24.4388903367
 20
-80.7790535497
 10
24.3178094494
 20
-81.1450534088
 10
24.1813285708
 20
-81.5092424411
 10
24.0295286543
 20
-81.8714046039
 10
23.8624997614
 20
-82.2313250295
 10
23.6803409844
 20
-82.5887902102
 10
23.4831603355
 20
-82.9435882031
 10
23.2710747105
 20
-83.2955086716
 10
23.0442098505
 20
-83.6443429542
 10
22.8027003246
 20
-83.9898841195
 10
22.5466894115
 20
-84.3319271702
 10
22.2763289788
 20
-84.6702692144
 10
21.9917793405
 20
-85.0047096377
 10
21.6932092069
 20
-85.33505015
 10
21.3807956223
 20
-85.6610948624
 10
21.0547238852
 20
-85.9826503855
 10
20.7151873937
 20
-86.2995259983
 10
20.3623875144
 20
-86.6115337732
 10
19.9965334775
 20
-86.9184886717
 10
19.6178422759
 20
-87.2202086358
 10
19.2265385107
 20
-87.5165147188
 10
18.8228542384
 20
-87.8072312037
 10
18.4070288509
 20
-88.0921856915
 10
17.9793089512
 20
-88.3712091911
 10
17.5399482092
 20
-88.6441362205
 10
17.0892071922
 20
-88.9108049176
  0
LWPOLYLINE
  5
25A
100
AcDbEntity
  8
RACCORDO
100
AcDbPolyline
 62
7
  6
CONTINUOUS
 90
22
 70
0
 10
21.0285470204
 20
-108.4133899309
 10
21.0250391606
 20
-108.5212852901
 10
21.0145448673
 20
-108.6291806492
 10
20.9971080699
 20
-108.7366243572
 10
20.9726996661
 20
-108.8436145208
 10
20.9413487582
 20
-108.9501530332
 10
20.9031865813
 20
-109.0557939231
 10
20.8581845835
 20
-109.1605334277
 10
20.8063713168
 20
-109.2643753097
 10
20.7479636719
 20
-109.366884886
 10
20.6829340063
 20
-109.4680565716
 10
20.6113099626
 20
-109.5678959513
 10
20.5333913599
 20
-109.6659850966
 10
20.4491518122
 20
-109.7623166705
 10
20.3586177055
 20
-109.8568980099
 10
20.2621680165
 20
-109.9493331962
 10
20.159777948
 20
-110.0396132331
 10
20.0514722972
 20
-110.1277471168
 10
19.9377044327
 20
-110.2133659181
 10
19.8186254775
 20
-110.2963466604
 10
19.6940843087
 20
-110.3768123202
 10
19.5640809263
 20
-110.4547628976
  0
LWPOLYLINE
  5
25B
100
AcDbEntity
  8
RACCORDO
100
AcDbPolyline
 62
253
  6
CONTINUOUS
 90
19
 70
0
 10
-134.5851973723
 20
105.9180670782
 10
-134.6468845015
 20
105.9521302559
 10
-134.7084542058
 20
105.9830201973
 10
-134.7697892836
 20
106.0106781015
 10
-134.8307729803
 20
106.0350513203
 10
-134.8912892098
 20
106.0560934577
 10
-134.9512227761
 20
106.0737644589
 10
-135.0104595923
 20
106.0880306862
 10
-135.0688868976
 20
106.0988649829
 10
-135.1263934725
 20
106.1062467254
 10
-135.1828698498
 20
106.110161862
 10
-135.2382085236
 20
106.1106029402
 10
-135.2923041535
 20
106.1075691202
 10
-135.3450537655
 20
106.1010661772
 10
-135.3963569477
 20
106.0911064899
 10
-135.4461160415
 20
106.0777090171
 10
-135.4942363277
 20
106.0608992615
 10
-135.5406262066
 20
106.0407092217
 10
-135.5852456926
 20
106.0171494336
  0
LINE
  5
25C
100
AcDbEntity
  8
0
100
AcDbLine
 62
7
  6
CONTINUOUS
 10
-14.02349118
 20
47.126525639
 11
1.1793046155
 21
38.3486218825
  0
LINE
  5
25D
100
AcDbEntity
  8
0
100
AcDbLine
 62
7
  6
CONTINUOUS
 10
-14.02349118
 20
48.3512310542
 11
1.1793046155
 21
39.5733272977
  0
LWPOLYLINE
  5
25E
100
AcDbEntity
  8
RACCORDO
100
AcDbPolyline
 62
253
  6
CONTINUOUS
 90
37
 70
0
 10
103.0026811063
 20
-31.2621962799
 10
103.0643682355
 20
-31.2993678527
 10
103.1259379398
 20
-31.3395770625
 10
103.1872730176
 20
-31.3827473688
 10
103.2482567143
 20
-31.4287965943
 10
103.3087729438
 20
-31.4776370819
 10
103.3687065101
 20
-31.5291758607
 10
103.4279433263
 20
-31.583314824
 10
103.4863706316
 20
-31.6399509149
 10
103.5438772065
 20
-31.6989763237
 10
103.6003535838
 20
-31.7602786919
 10
103.6556922576
 20
-31.8237413271
 10
103.7097878875
 20
-31.8892434245
 10
103.7625374995
 20
-31.9566602972
 10
103.8138406817
 20
-32.0258636134
 10
103.8635997755
 20
-32.0967216405
 10
103.9117200617
 20
-32.1690994963
 10
103.9581099405
 20
-32.2428594055
 10
104.0026811063
 20
-32.3178609618
 10
104.0453487153
 20
-32.3939613956
 10
104.0860315472
 20
-32.4710158452
 10
104.1246521599
 20
-32.5488776333
 10
104.161137037
 20
-32.6273985455
 10
104.1954167274
 20
-32.7064291127
 10
104.2274259777
 20
-32.7858188958
 10
104.2571038566
 20
-32.8654167717
 10
104.2843938704
 20
-32.9450712216
 10
104.3092440712
 20
-33.0246306184
 10
104.3316071551
 20
-33.1039435165
 10
104.3514405527
 20
-33.1828589392
 10
104.3687065101
 20
-33.2612266665
 10
104.3833721605
 20
-33.338897521
 10
104.395409587
 20
-33.4157236518
 10
104.4047958756
 20
-33.4915588161
 10
104.4115131591
 20
-33.5662586571
 10
104.4155486508
 20
-33.6396809797
 10
104.4168946687
 20
-33.7116860201
  0
LINE
  5
25F
100
AcDbEntity
  8
RACCORDO
100
AcDbLine
 62
253
  6
CONTINUOUS
 10
40.7772843619
 20
-94.1241737138
 11
40.7772843619
 21
-98.2065250978
  0
LWPOLYLINE
  5
260
100
AcDbEntity
  8
RACCORDO
100
AcDbPolyline
 62
7
  6
CONTINUOUS
 90
22
 70
0
 10
-60.6925387384
 20
-79.2221510573
 10
-60.8225421208
 20
-79.3001016347
 10
-60.9470832896
 20
-79.3805672945
 10
-61.0661622448
 20
-79.4635480368
 10
-61.1799301092
 20
-79.5491668381
 10
-61.28823576
 20
-79.6373007219
 10
-61.3906258286
 20
-79.7275807587
 10
-61.4870755175
 20
-79.820015945
 10
-61.5776096243
 20
-79.9145972844
 10
-61.6618491719
 20
-80.0109288583
 10
-61.7397677747
 20
-80.1090180036
 10
-61.8113918183
 20
-80.2088573833
 10
-61.876421484
 20
-80.3100290689
 10
-61.9348291288
 20
-80.4125386452
 10
-61.9866423956
 20
-80.5163805272
 10
-62.0316443933
 20
-80.6211200318
 10
-62.0698065702
 20
-80.7267609217
 10
-62.1011574782
 20
-80.8332994341
 10
-62.1255658819
 20
-80.9402895977
 10
-62.1430026794
 20
-81.0477333057
 10
-62.1534969726
 20
-81.1556286648
 10
-62.1570048324
 20
-81.263524024
  0
LINE
  5
261
100
AcDbEntity
  8
RACCORDO
100
AcDbLine
 62
7
  6
CONTINUOUS
 10
-13.1491225093
 20
-51.7711783856
 11
-60.6925387384
 21
-79.2221510573
  0
LWPOLYLINE
  5
262
100
AcDbEntity
  8
RACCORDO
100
AcDbPolyline
 62
253
  6
CONTINUOUS
 90
11
 70
0
 10
-17.7358017813
 20
-64.8505614653
 10
-17.3197263552
 20
-64.61638362
 10
-16.8934277557
 20
-64.3884169258
 10
-16.4571839992
 20
-64.1668101322
 10
-16.0112792365
 20
-63.9517076736
 10
-15.5560046213
 20
-63.7432500889
 10
-15.0916581942
 20
-63.5415738764
 10
-14.6185431994
 20
-63.3468107256
 10
-14.1369679471
 20
-63.1590875401
 10
-13.6472467256
 20
-62.9785268235
 10
-13.1736507552
 20
-62.8135880031
  0
LWPOLYLINE
  5
263
100
AcDbEntity
  8
RACCORDO
100
AcDbPolyline
 62
7
  6
CONTINUOUS
 90
12
 70
0
 10
-19.3520391054
 20
-64.9835671654
 10
-18.8389436321
 20
-64.6951437544
 10
-18.3161457713
 20
-64.4166455951
 10
-17.7840032868
 20
-64.1480776251
 10
-17.2430627256
 20
-63.8895345808
 10
-16.6934698224
 20
-63.6409174507
 10
-16.1349565966
 20
-63.4019777982
 10
-15.5678044241
 20
-63.1727414783
 10
-14.9923604495
 20
-62.9532627445
 10
-14.4084318192
 20
-62.7434055765
 10
-13.8155094641
 20
-62.5429738744
 10
-13.2146887439
 20
-62.3523306653
  0
LINE
  5
264
100
AcDbEntity
  8
0
100
AcDbLine
 62
7
  6
CONTINUOUS
 10
10.7252461615
 20
45.0850343076
 11
-4.477549634
 21
53.8629380642
  0
LWPOLYLINE
  5
265
100
AcDbEntity
  8
RACCORDO
100
AcDbPolyline
 62
7
  6
CONTINUOUS
 90
22
 70
0
 10
58.8587598139
 20
-82.4883478039
 10
58.8552519541
 20
-82.3804524448
 10
58.8447576608
 20
-82.2725570856
 10
58.8273208633
 20
-82.1651133777
 10
58.8029124596
 20
-82.0581232141
 10
58.7715615517
 20
-81.9515847017
 10
58.7333993748
 20
-81.8459438118
 10
58.688397377
 20
-81.7412043072
 10
58.6365841102
 20
-81.6373624252
 10
58.5781764654
 20
-81.5348528489
 10
58.5131467998
 20
-81.4336811633
 10
58.4415227561
 20
-81.3338417835
 10
58.3636041534
 20
-81.2357526383
 10
58.2793646057
 20
-81.1394210644
 10
58.188830499
 20
-81.044839725
 10
58.09238081
 20
-80.9524045387
 10
57.9899907415
 20
-80.8621245018
 10
57.8816850906
 20
-80.7739906181
 10
57.7679172262
 20
-80.6883718168
 10
57.648838271
 20
-80.6053910745
 10
57.5242971022
 20
-80.5249254146
 10
57.3942937198
 20
-80.4469748373
  0
LINE
  5
266
100
AcDbEntity
  8
RACCORDO
100
AcDbLine
 62
253
  6
CONTINUOUS
 10
57.3942937198
 20
-84.5297207706
 11
57.3942937198
 21
-88.6120721545
  0
LINE
  5
267
100
AcDbEntity
  8
RACCORDO
100
AcDbLine
 62
7
  6
CONTINUOUS
 10
58.8587598139
 20
-82.4883478039
 11
58.8587598139
 21
-86.5706991879
  0
LWPOLYLINE
  5
268
100
AcDbEntity
  8
0
100
AcDbPolyline
 62
7
  6
CONTINUOUS
 90
17
 70
0
 10
-39.1257819122
 20
-81.4676613206
 10
-39.2810051025
 20
-81.5619472001
 10
-39.4272416003
 20
-81.6600625908
 10
-39.5644914058
 20
-81.7620074928
 10
-39.6930505675
 20
-81.8680539474
 10
-39.8126230368
 20
-81.9779299132
 10
-39.9223206676
 20
-82.0908192669
 10
-40.0220699308
 20
-82.2067444464
 10
-40.1119443555
 20
-82.3256830136
 10
-40.1912763832
 20
-82.4467515311
 10
-40.2599875141
 20
-82.5699658585
 10
-40.3181562481
 20
-82.6953101362
 10
-40.3653505264
 20
-82.8218533468
 10
-40.4014886319
 20
-82.9496044178
 10
-40.4266522818
 20
-83.0785544217
 10
-40.4406545684
 20
-83.2077455593
 10
-40.4437716962
 20
-83.3048969866
  0
LWPOLYLINE
  5
269
100
AcDbEntity
  8
0
100
AcDbPolyline
 62
7
  6
CONTINUOUS
 90
17
 70
0
 10
-32.7618208815
 20
-85.1421326606
 10
-32.6065976912
 20
-85.0478467812
 10
-32.4603611933
 20
-84.9497313904
 10
-32.3231113879
 20
-84.8477864884
 10
-32.1945522262
 20
-84.7417400338
 10
-32.0749797569
 20
-84.631864068
 10
-31.9652821261
 20
-84.5189747143
 10
-31.8655328629
 20
-84.4030495348
 10
-31.7756584382
 20
-84.2841109676
 10
-31.6963264104
 20
-84.1630424501
 10
-31.6276152795
 20
-84.0398281227
 10
-31.5694465456
 20
-83.914483845
 10
-31.5222522673
 20
-83.7879406344
 10
-31.4861141617
 20
-83.6601895634
 10
-31.4609505119
 20
-83.5312395595
 10
-31.4469482253
 20
-83.4020484219
 10
-31.4438310975
 20
-83.3048969946
  0
LINE
  5
26A
100
AcDbEntity
  8
RACCORDO
100
AcDbLine
 62
7
  6
CONTINUOUS
 10
-13.2146887439
 20
-62.3523306653
 11
-13.1504569757
 21
-62.3332427391
  0
LWPOLYLINE
  5
26B
100
AcDbEntity
  8
RACCORDO
100
AcDbPolyline
 62
253
  6
CONTINUOUS
 90
19
 70
0
 10
-106.3009261249
 20
122.2490508113
 10
-106.3626132541
 20
122.283113989
 10
-106.4241829583
 20
122.3140039304
 10
-106.4855180362
 20
122.3416618346
 10
-106.5465017328
 20
122.3660350534
 10
-106.6070179624
 20
122.3870771908
 10
-106.6669515287
 20
122.404748192
 10
-106.7261883448
 20
122.4190144193
 10
-106.7846156502
 20
122.429848716
 10
-106.842122225
 20
122.4372304585
 10
-106.8985986023
 20
122.4411455951
 10
-106.9539372761
 20
122.4415866733
 10
-107.0080329061
 20
122.4385528534
 10
-107.0607825181
 20
122.4320499104
 10
-107.1120857002
 20
122.422090223
 10
-107.161844794
 20
122.4086927502
 10
-107.2099650802
 20
122.3918829947
 10
-107.2563549591
 20
122.3716929548
 10
-107.3009744452
 20
122.3481331667
  0
LWPOLYLINE
  5
26C
100
AcDbEntity
  8
RACCORDO
100
AcDbPolyline
 62
253
  6
CONTINUOUS
 90
40
 70
0
 10
-102.0582854378
 20
122.2490508113
 10
-102.1454492538
 20
122.297388619
 10
-102.2356763121
 20
122.3435511251
 10
-102.3289666129
 20
122.3875383296
 10
-102.425505872
 20
122.429427428
 10
-102.5251083736
 20
122.4691412248
 10
-102.6272169692
 20
122.5064481331
 10
-102.7318138732
 20
122.5413216188
 10
-102.8389168712
 20
122.573788216
 10
-102.9480221728
 20
122.6036959411
 10
-103.0591474091
 20
122.6310349506
 10
-103.1722749489
 20
122.655815088
 10
-103.2868481084
 20
122.6779139006
 10
-103.4028707604
 20
122.6973174864
 10
-103.5203390321
 20
122.7140397475
 10
-103.6386846215
 20
122.7279999375
 10
-103.7579126417
 20
122.7391847958
 10
-103.8780179796
 20
122.7476075831
 10
-103.998416994
 20
122.7532273345
 10
-104.1191109224
 20
122.7560303949
 10
-104.2400985273
 20
122.7560304194
 10
-104.3607924549
 20
122.7532274084
 10
-104.4811914695
 20
122.7476077063
 10
-104.6012968067
 20
122.7391849686
 10
-104.7205248193
 20
122.728000162
 10
-104.838870379
 20
122.7140400292
 10
-104.9563386141
 20
122.6973178275
 10
-105.0723612621
 20
122.6779142952
 10
-105.1869344779
 20
122.655815525
 10
-105.3000621065
 20
122.6310354242
 10
-105.4111874212
 20
122.6036964529
 10
-105.5202928362
 20
122.5737887415
 10
-105.6273959371
 20
122.5413221596
 10
-105.7319927539
 20
122.5064487754
 10
-105.8341007637
 20
122.4691422025
 10
-105.9337024893
 20
122.4294288273
 10
-106.0302415285
 20
122.3875398779
 10
-106.1235324138
 20
122.34355243
 10
-106.2137606126
 20
122.2973894078
 10
-106.3009261249
 20
122.2490508113
  0
LINE
  5
26D
100
AcDbEntity
  8
RACCORDO
100
AcDbLine
 62
253
  6
CONTINUOUS
 10
131.2869523538
 20
-12.4815649868
 11
-102.0582854378
 21
122.2490508113
  0
LINE
  5
26E
100
AcDbEntity
  8
RACCORDO
100
AcDbLine
 62
7
  6
CONTINUOUS
 10
132.2870006741
 20
-12.3824826315
 11
-101.0582371175
 21
122.3481331667
  0
LWPOLYLINE
  5
26F
100
AcDbEntity
  8
RACCORDO
100
AcDbPolyline
 62
7
  6
CONTINUOUS
 90
28
 70
0
 10
132.2870006741
 20
-12.3824826315
 10
132.4270850971
 20
-12.466595068
 10
132.5617424142
 20
-12.553947106
 10
132.6909759615
 20
-12.6444148877
 10
132.8149310754
 20
-12.7379890179
 10
132.9334656016
 20
-12.8344544084
 10
133.0461808867
 20
-12.9333301099
 10
133.1529546892
 20
-13.034293861
 10
133.2540040821
 20
-13.1373304948
 10
133.3494480408
 20
-13.2423619389
 10
133.4393055777
 20
-13.3492105909
 10
133.5236174971
 20
-13.4577167303
 10
133.602491627
 20
-13.5678130999
 10
133.6759180304
 20
-13.6792733992
 10
133.7439604449
 20
-13.7919659922
 10
133.806785009
 20
-13.9059583642
 10
133.8643899108
 20
-14.0210517847
 10
133.9168034191
 20
-14.1370858378
 10
133.9641698803
 20
-14.2541898387
 10
134.0064811877
 20
-14.3721794017
 10
134.043743729
 20
-14.4908803172
 10
134.076053859
 20
-14.610443411
 10
134.1033942569
 20
-14.7306933274
 10
134.1257559848
 20
-14.8514443121
 10
134.1431813938
 20
-14.9728353421
 10
134.1556530087
 20
-15.0947907502
 10
134.1631379472
 20
-15.2170178153
 10
134.1656320102
 20
-15.3393293204
  0
LWPOLYLINE
  5
270
100
AcDbEntity
  8
RACCORDO
100
AcDbPolyline
 62
253
  6
CONTINUOUS
 90
37
 70
0
 10
131.2869523538
 20
-14.9312125468
 10
131.348639483
 20
-14.9683841196
 10
131.4102091872
 20
-15.0085933294
 10
131.4715442651
 20
-15.0517636357
 10
131.5325279617
 20
-15.0978128612
 10
131.5930441913
 20
-15.1466533488
 10
131.6529777576
 20
-15.1981921276
 10
131.7122145737
 20
-15.2523310909
 10
131.7706418791
 20
-15.3089671818
 10
131.8281484539
 20
-15.3679925905
 10
131.8846248313
 20
-15.4292949588
 10
131.939963505
 20
-15.492757594
 10
131.994059135
 20
-15.5582596914
 10
132.046808747
 20
-15.6256765641
 10
132.0981119291
 20
-15.6948798803
 10
132.1478710229
 20
-15.7657379074
 10
132.1959913091
 20
-15.8381157632
 10
132.242381188
 20
-15.9118756724
 10
132.2869523538
 20
-15.9868772287
 10
132.3296199627
 20
-16.0629776625
 10
132.3703027946
 20
-16.1400321121
 10
132.4089234074
 20
-16.2178939002
 10
132.4454082845
 20
-16.2964148124
 10
132.4796879749
 20
-16.3754453796
 10
132.5116972252
 20
-16.4548351627
 10
132.541375104
 20
-16.5344330386
 10
132.5686651179
 20
-16.6140874884
 10
132.5935153187
 20
-16.6936468853
 10
132.6158784026
 20
-16.7729597834
 10
132.6357118002
 20
-16.8518752061
 10
132.6529777576
 20
-16.9302429334
 10
132.667643408
 20
-17.0079137879
 10
132.6796808344
 20
-17.0847399187
 10
132.6890671231
 20
-17.160575083
 10
132.6957844066
 20
-17.235274924
 10
132.6998198982
 20
-17.3086972466
 10
132.7011659162
 20
-17.380702287
  0
LWPOLYLINE
  5
271
100
AcDbEntity
  8
RACCORDO
100
AcDbPolyline
 62
7
  6
CONTINUOUS
 90
22
 70
0
 10
58.8587598139
 20
-86.5706991879
 10
58.8552519541
 20
-86.6785945471
 10
58.8447576608
 20
-86.7864899062
 10
58.8273208633
 20
-86.8939336142
 10
58.8029124596
 20
-87.0009237778
 10
58.7715615517
 20
-87.1074622902
 10
58.7333993748
 20
-87.21310318
 10
58.688397377
 20
-87.3178426846
 10
58.6365841102
 20
-87.4216845667
 10
58.5781764654
 20
-87.5241941429
 10
58.5131467998
 20
-87.6253658285
 10
58.4415227561
 20
-87.7252052083
 10
58.3636041534
 20
-87.8232943535
 10
58.2793646057
 20
-87.9196259275
 10
58.188830499
 20
-88.0142072669
 10
58.09238081
 20
-88.1066424532
 10
57.9899907415
 20
-88.19692249
 10
57.8816850906
 20
-88.2850563738
 10
57.7679172262
 20
-88.3706751751
 10
57.648838271
 20
-88.4536559174
 10
57.5242971022
 20
-88.5341215772
 10
57.3942937198
 20
-88.6120721545
  0
LWPOLYLINE
  5
272
100
AcDbEntity
  8
RACCORDO
100
AcDbPolyline
 62
253
  6
CONTINUOUS
 90
18
 70
0
 10
22.7748989417
 20
-86.9960976515
 10
23.0159857096
 20
-86.6539431036
 10
23.2427247865
 20
-86.3084842143
 10
23.4549785269
 20
-85.9599211799
 10
23.6526225267
 20
-85.6084470901
 10
23.8355303148
 20
-85.2542748126
 10
24.0035772283
 20
-84.8976375295
 10
24.1566636709
 20
-84.5387413643
 10
24.2946973001
 20
-84.1777970474
 10
24.4175849029
 20
-83.815047834
 10
24.5252531857
 20
-83.4507182528
 10
24.6176457268
 20
-83.0850085532
 10
24.6947114406
 20
-82.7181273709
 10
24.7564062003
 20
-82.3502919389
 10
24.8026960223
 20
-81.9817138207
 10
24.8335560924
 20
-81.6125938137
 10
24.8489680122
 20
-81.2431426673
 10
24.8508774907
 20
-81.0594656372
  0
LWPOLYLINE
  5
273
100
AcDbEntity
  8
RACCORDO
100
AcDbPolyline
 62
7
  6
CONTINUOUS
 90
7
 70
0
 10
22.7748989417
 20
-87.8125679283
 10
22.4300485186
 20
-88.2648729652
 10
22.0609720132
 20
-88.7096265758
 10
21.6676694255
 20
-89.1468287602
 10
21.2496816694
 20
-89.5769185423
 10
20.8074678311
 20
-89.9994568981
 10
20.3424051684
 20
-90.4131267559
  0
LWPOLYLINE
  5
274
100
AcDbEntity
  8
RACCORDO
100
AcDbPolyline
 62
253
  6
CONTINUOUS
 90
28
 70
0
 10
6.4826054744
 20
-66.9758070942
 10
6.7222304222
 20
-66.8332478499
 10
6.9543618747
 20
-66.6866134128
 10
7.1787920428
 20
-66.5360350404
 10
7.395320031
 20
-66.3816475209
 10
7.6037520174
 20
-66.2235890521
 10
7.803901427
 20
-66.0620011177
 10
7.9955890988
 20
-65.8970283609
 10
8.1786434465
 20
-65.7288184547
 10
8.3529006117
 20
-65.5575219697
 10
8.5182046128
 20
-65.383292237
 10
8.6744074778
 20
-65.2062852181
 10
8.8213693784
 20
-65.0266593655
 10
8.9589587615
 20
-64.8445754736
 10
9.087052471
 20
-64.6601965279
 10
9.2055358512
 20
-64.4736875654
 10
9.3143028442
 20
-64.2852155352
 10
9.4132560879
 20
-64.094949147
 10
9.5023070071
 20
-63.9030587117
 10
9.5813758894
 20
-63.7097159955
 10
9.650391956
 20
-63.5150940679
 10
9.7092934272
 20
-63.319367144
 10
9.758027578
 20
-63.1227104256
 10
9.7965507846
 20
-62.9252999474
 10
9.8248285629
 20
-62.7273124213
 10
9.8428356007
 20
-62.5289250745
 10
9.8505557799
 20
-62.3303154891
 10
9.8508774907
 20
-62.2806492709
  0
LWPOLYLINE
  5
275
100
AcDbEntity
  8
RACCORDO
100
AcDbPolyline
 62
7
  6
CONTINUOUS
 90
7
 70
0
 10
20.3424051684
 20
-90.4131267559
 10
19.8544250343
 20
-90.8178987458
 10
19.3435960759
 20
-91.2138022375
 10
18.8115014926
 20
-91.5996082687
 10
18.2586690174
 20
-91.9749071854
 10
17.6845709172
 20
-92.3401086415
 10
17.0892071922
 20
-92.6952126371
  0
LWPOLYLINE
  5
276
100
AcDbEntity
  8
0
100
AcDbPolyline
 62
7
  6
CONTINUOUS
 90
17
 70
0
 10
-7.3059767588
 20
-99.8400180204
 10
-7.4611999491
 20
-99.9343038998
 10
-7.6074364469
 20
-100.0324192905
 10
-7.7446862524
 20
-100.1343641926
 10
-7.8732454141
 20
-100.2404106471
 10
-7.9928178834
 20
-100.350286613
 10
-8.1025155142
 20
-100.4631759666
 10
-8.2022647774
 20
-100.5791011461
 10
-8.2921392021
 20
-100.6980397134
 10
-8.3714712298
 20
-100.8191082308
 10
-8.4401823607
 20
-100.9423225583
 10
-8.4983510947
 20
-101.0676668359
 10
-8.545545373
 20
-101.1942100465
 10
-8.5816834785
 20
-101.3219611175
 10
-8.6068471284
 20
-101.4509111215
 10
-8.620849415
 20
-101.5801022591
 10
-8.6239665428
 20
-101.6772536863
  0
LWPOLYLINE
  5
277
100
AcDbEntity
  8
0
100
AcDbPolyline
 62
7
  6
CONTINUOUS
 90
17
 70
0
 10
29.4635758629
 20
-78.6097391673
 10
29.3083526726
 20
-78.7040250468
 10
29.1621161748
 20
-78.8021404375
 10
29.0248663693
 20
-78.9040853395
 10
28.8963072076
 20
-79.0101317941
 10
28.7767347383
 20
-79.1200077599
 10
28.6670371075
 20
-79.2328971136
 10
28.5672878443
 20
-79.3488222931
 10
28.4774134196
 20
-79.4677608603
 10
28.3980813919
 20
-79.5888293778
 10
28.329370261
 20
-79.7120437053
 10
28.271201527
 20
-79.8373879829
 10
28.2240072487
 20
-79.9639311935
 10
28.1878691432
 20
-80.0916822645
 10
28.1627054933
 20
-80.2206322685
 10
28.1487032067
 20
-80.349823406
 10
28.1455860789
 20
-80.4469748333
  0
LWPOLYLINE
  5
278
100
AcDbEntity
  8
RACCORDO
100
AcDbPolyline
 62
253
  6
CONTINUOUS
 90
37
 70
0
 10
98.7600404192
 20
-31.2621962799
 10
98.69835329
 20
-31.2993678527
 10
98.6367835858
 20
-31.3395770625
 10
98.5754485079
 20
-31.3827473688
 10
98.5144648113
 20
-31.4287965943
 10
98.4539485817
 20
-31.4776370819
 10
98.3940150154
 20
-31.5291758607
 10
98.3347781993
 20
-31.583314824
 10
98.2763508939
 20
-31.6399509149
 10
98.2188443191
 20
-31.6989763237
 10
98.1623679418
 20
-31.7602786919
 10
98.107029268
 20
-31.8237413271
 10
98.052933638
 20
-31.8892434245
 10
98.000184026
 20
-31.9566602972
 10
97.9488808439
 20
-32.0258636134
 10
97.8991217501
 20
-32.0967216405
 10
97.8510014639
 20
-32.1690994963
 10
97.804611585
 20
-32.2428594055
 10
97.7600404192
 20
-32.3178609618
 10
97.7173728103
 20
-32.3939613956
 10
97.6766899784
 20
-32.4710158452
 10
97.6380693656
 20
-32.5488776333
 10
97.6015844885
 20
-32.6273985455
 10
97.5673047982
 20
-32.7064291127
 10
97.5352955478
 20
-32.7858188958
 10
97.505617669
 20
-32.8654167717
 10
97.4783276551
 20
-32.9450712216
 10
97.4534774543
 20
-33.0246306184
 10
97.4311143704
 20
-33.1039435165
 10
97.4112809728
 20
-33.1828589392
 10
97.3940150154
 20
-33.2612266665
 10
97.3793493651
 20
-33.338897521
 10
97.3673119386
 20
-33.4157236518
 10
97.3579256499
 20
-33.4915588161
 10
97.3512083664
 20
-33.5662586571
 10
97.3471728748
 20
-33.6396809797
 10
97.3458268568
 20
-33.7116860201
  0
LWPOLYLINE
  5
279
100
AcDbEntity
  8
RACCORDO
100
AcDbPolyline
 62
253
  6
CONTINUOUS
 90
40
 70
0
 10
131.2869523538
 20
-14.9312125468
 10
131.3706704988
 20
-14.8808852518
 10
131.4506211536
 20
-14.8287892791
 10
131.5268043182
 20
-14.7749246287
 10
131.5993536907
 20
-14.7191840704
 10
131.668135573
 20
-14.6616748343
 10
131.7327488708
 20
-14.6027186109
 10
131.7931476284
 20
-14.5423256695
 10
131.8493778014
 20
-14.4804857407
 10
131.9011761637
 20
-14.417489707
 10
131.9485256664
 20
-14.3533273883
 10
131.9914433583
 20
-14.2880089646
 10
132.0297171586
 20
-14.2218558583
 10
132.0633229899
 20
-14.1548658331
 10
132.0922849297
 20
-14.0870411253
 10
132.1164631302
 20
-14.0187098651
 10
132.1358346252
 20
-13.9498691006
 10
132.1504223808
 20
-13.8805217837
 10
132.1601554487
 20
-13.8110049018
 10
132.1650101789
 20
-13.7413177401
 10
132.1650102214
 20
-13.6714610134
 10
132.1601555766
 20
-13.6017738523
 10
132.1504225941
 20
-13.5322569702
 10
132.1358349244
 20
-13.4629096538
 10
132.1164635192
 20
-13.3940688936
 10
132.0922854177
 20
-13.3257376506
 10
132.0633235807
 20
-13.2579129639
 10
132.029717842
 20
-13.1909229411
 10
131.9914441152
 20
-13.1247698022
 10
131.9485264867
 20
-13.0594513272
 10
131.90117705
 20
-12.9952889633
 10
131.8493787117
 20
-12.9322928641
 10
131.7931485651
 20
-12.8704528759
 10
131.7327499833
 20
-12.8100599848
 10
131.6681372664
 20
-12.7511040997
 10
131.5993561144
 20
-12.6935953116
 10
131.5268069998
 20
-12.6378548803
 10
131.4506234136
 20
-12.5839898924
 10
131.370671865
 20
-12.5318932612
 10
131.2869523538
 20
-12.4815649868
  0
LWPOLYLINE
  5
27A
100
AcDbEntity
  8
RACCORDO
100
AcDbPolyline
 62
253
  6
CONTINUOUS
 90
22
 70
0
 10
132.7011659162
 20
-17.380702287
 10
132.830891368
 20
-17.3029453923
 10
132.9554906235
 20
-17.222442203
 10
133.0747894192
 20
-17.13930531
 10
133.1886209048
 20
-17.0536509879
 10
133.2968258769
 20
-16.9655990319
 10
133.3992530015
 20
-16.8752725902
 10
133.4957590254
 20
-16.7827979918
 10
133.5862089755
 20
-16.6883045714
 10
133.6704763485
 20
-16.5919244875
 10
133.7484432885
 20
-16.4937925369
 10
133.8200007523
 20
-16.3940459655
 10
133.8850486605
 20
-16.2928242774
 10
133.9434960381
 20
-16.1902690402
 10
133.9952611408
 20
-16.0865236867
 10
134.0402715705
 20
-15.9817333142
 10
134.078464376
 20
-15.8760444814
 10
134.1097861412
 20
-15.7696050038
 10
134.1341930597
 20
-15.6625637469
 10
134.1516509961
 20
-15.5550704176
 10
134.1621355342
 20
-15.4472753551
 10
134.1656320102
 20
-15.3393293204
  0
LINE
  5
27B
100
AcDbEntity
  8
RACCORDO
100
AcDbLine
 62
253
  6
CONTINUOUS
 10
103.0026811063
 20
-31.2621962799
 11
131.2869523538
 21
-14.9312125468
  0
LINE
  5
27C
100
AcDbEntity
  8
RACCORDO
100
AcDbLine
 62
253
  6
CONTINUOUS
 10
104.4168946687
 20
-33.7116860201
 11
132.7011659162
 21
-17.380702287
  0
LINE
  5
27D
100
AcDbEntity
  8
RACCORDO
100
AcDbLine
 62
253
  6
CONTINUOUS
 10
132.7011659162
 20
-19.0136428406
 11
104.4168946687
 21
-35.3446265737
  0
LINE
  5
27E
100
AcDbEntity
  8
RACCORDO
100
AcDbLine
 62
7
  6
CONTINUOUS
 10
132.2870006741
 20
-19.9291165629
 11
104.0027294266
 21
-36.260100296
  0
LWPOLYLINE
  5
27F
100
AcDbEntity
  8
RACCORDO
100
AcDbPolyline
 62
253
  6
CONTINUOUS
 90
124
 70
0
 10
14.4375567627
 20
-83.4270554617
 10
14.0214813366
 20
-83.6612333071
 10
13.5951827371
 20
-83.8892000012
 10
13.1589389807
 20
-84.1108067949
 10
12.7130342179
 20
-84.3259092535
 10
12.2577596028
 20
-84.5343668381
 10
11.7934131756
 20
-84.7360430507
 10
11.3202981808
 20
-84.9308062015
 10
10.8387229286
 20
-85.118529387
 10
10.349001707
 20
-85.2990901036
 10
9.8514541581
 20
-85.4723705175
 10
9.346404689
 20
-85.6382576661
 10
8.8341823799
 20
-85.7966434623
 10
8.3151211512
 20
-85.9474246388
 10
7.7895597992
 20
-86.0905027644
 10
7.2578413997
 20
-86.2257844382
 10
6.7203129244
 20
-86.3531813893
 10
6.177324909
 20
-86.472610546
 10
5.6292314641
 20
-86.5839940237
 10
5.0763900886
 20
-86.6872591696
 10
4.5191614525
 20
-86.7823386125
 10
3.9579090638
 20
-86.8691703265
 10
3.3929990384
 20
-86.9476976693
 10
2.8247998875
 20
-87.017869414
 10
2.2536822906
 20
-87.0796397827
 10
1.6800188293
 20
-87.1329684794
 10
1.1041836955
 20
-87.1778207201
 10
0.5265524738
 20
-87.2141672501
 10
-0.0524980673
 20
-87.2419843597
 10
-0.6325901609
 20
-87.2612538991
 10
-1.2133453362
 20
-87.2719632963
 10
-1.7943847149
 20
-87.2741055668
 10
-2.375329304
 20
-87.2676793153
 10
-2.9558001826
 20
-87.2526887339
 10
-3.5354187122
 20
-87.2291435997
 10
-4.1138067724
 20
-87.1970592715
 10
-4.6905870534
 20
-87.1564566791
 10
-5.2653833073
 20
-87.1073623083
 10
-5.8378205762
 20
-87.0498081848
 10
-6.407525427
 20
-86.9838318545
 10
-6.9741262143
 20
-86.9094763577
 10
-7.53725334
 20
-86.826790198
 10
-8.0965394775
 20
-86.7358273116
 10
-8.6516197892
 20
-86.6366470357
 10
-9.2021321801
 20
-86.5293140684
 10
-9.7477175501
 20
-86.4138984225
 10
-10.2880200214
 20
-86.2904753805
 10
-10.822687115
 20
-86.1591254586
 10
-11.3513699974
 20
-86.0199343543
 10
-11.8737237508
 20
-85.8729928801
 10
-12.389407676
 20
-85.7183968802
 10
-12.8980854563
 20
-85.5562471782
 10
-13.3994253205
 20
-85.3866495276
 10
-13.8931001717
 20
-85.2097145775
 10
-14.3787878821
 20
-85.02555778
 10
-14.8561715654
 20
-84.8342992928
 10
-15.3249398766
 20
-84.6360638581
 10
-15.7847871212
 20
-84.4309807494
 10
-16.2354133887
 20
-84.2191837154
 10
-16.6765246536
 20
-84.0008109437
 10
-17.1078330689
 20
-83.7760049337
 10
-17.5290572212
 20
-83.5449123697
 10
-17.9399224028
 20
-83.3076839688
 10
-18.3401606879
 20
-83.0644744282
 10
-18.7295110435
 20
-82.8154423606
 10
-19.1077194212
 20
-82.5607502506
 10
-19.4745390219
 20
-82.3005642967
 10
-19.8297305136
 20
-82.035054265
 10
-20.173062251
 20
-81.7643933205
 10
-20.5043103383
 20
-81.4887579688
 10
-20.8232587288
 20
-81.2083279777
 10
-21.1296993178
 20
-80.9232863123
 10
-21.4234321519
 20
-80.6338189631
 10
-21.7042655948
 20
-80.3401147898
 10
-21.9720164859
 20
-80.0423653547
 10
-22.226510202
 20
-79.7407648458
 10
-22.467580747
 20
-79.4355099792
 10
-22.6950708394
 20
-79.1267999056
 10
-22.9088320559
 20
-78.8148360388
 10
-23.1087249439
 20
-78.4998219017
 10
-23.2946191234
 20
-78.1819629679
 10
-23.4663933451
 20
-77.8614665612
 10
-23.6239355611
 20
-77.5385417359
 10
-23.767142993
 20
-77.2133991588
 10
-23.8959222149
 20
-76.8862509464
 10
-24.0101892181
 20
-76.5573105166
 10
-24.109869468
 20
-76.226792437
 10
-24.1948979442
 20
-75.8949123018
 10
-24.2652191808
 20
-75.5618865985
 10
-24.3207873027
 20
-75.2279325764
 10
-24.3615660595
 20
-74.8932680929
 10
-24.3875288504
 20
-74.5581114662
 10
-24.3986587408
 20
-74.2226813215
 10
-24.3949484707
 20
-73.8871964578
 10
-24.3764004588
 20
-73.5518757126
 10
-24.3430268036
 20
-73.2169378338
 10
-24.2948492773
 20
-72.8826013253
 10
-24.2318993106
 20
-72.5490842946
 10
-24.1542179674
 20
-72.2166042935
 10
-24.0618559176
 20
-71.8853781917
 10
-23.9548734069
 20
-71.5556220475
 10
-23.8333402244
 20
-71.22755098
 10
-23.6973356542
 20
-70.9013790119
 10
-23.5469484173
 20
-70.5773189164
 10
-23.3822766153
 20
-70.2555820847
 10
-23.2034276721
 20
-69.9363784005
 10
-23.0105182691
 20
-69.6199161077
 10
-22.8036742376
 20
-69.3064016242
 10
-22.5830304727
 20
-68.9960394149
 10
-22.348730855
 20
-68.6890318802
 10
-22.1009282607
 20
-68.3855793513
 10
-21.8397844444
 20
-68.085879904
 10
-21.5654698727
 20
-67.7901291457
 10
-21.278163406
 20
-67.4985198881
 10
-20.9780522614
 20
-67.2112421552
 10
-20.6653320924
 20
-66.928483262
 10
-20.3402069741
 20
-66.6504277582
 10
-20.0028890713
 20
-66.3772571053
 10
-19.6535981957
 20
-66.1091493339
 10
-19.292562406
 20
-65.846279516
 10
-18.9200180331
 20
-65.5888196848
 10
-18.5362084495
 20
-65.3369379354
 10
-18.1413838259
 20
-65.0907983533
 10
-17.7358017813
 20
-64.8505614653
  0
LWPOLYLINE
  5
280
100
AcDbEntity
  8
RACCORDO
100
AcDbPolyline
 62
253
  6
CONTINUOUS
 90
43
 70
0
 10
104.4168946687
 20
-35.3446265737
 10
104.2822244532
 20
-35.4195284237
 10
104.1427978222
 20
-35.4914704722
 10
103.9988097766
 20
-35.5603521016
 10
103.8504616968
 20
-35.6260769747
 10
103.6979610609
 20
-35.6885531694
 10
103.5415211538
 20
-35.7476933075
 10
103.38136077
 20
-35.8034146762
 10
103.217703909
 20
-35.8556393438
 10
103.0507794615
 20
-35.9042942689
 10
102.8808208873
 20
-35.9493114029
 10
102.7080658881
 20
-35.9906277857
 10
102.5327560765
 20
-36.0281856327
 10
102.3551366388
 20
-36.061932416
 10
102.1754559922
 20
-36.0918209375
 10
101.9939654361
 20
-36.1178093955
 10
101.8109188014
 20
-36.1398614427
 10
101.6265720954
 20
-36.1579462374
 10
101.4411831443
 20
-36.1720384863
 10
101.2550112313
 20
-36.18211848
 10
101.0683167346
 20
-36.1881721209
 10
100.8813607631
 20
-36.1901909424
 10
100.6944047915
 20
-36.1881721209
 10
100.5077102948
 20
-36.18211848
 10
100.3215383819
 20
-36.1720384863
 10
100.1361494307
 20
-36.1579462375
 10
99.9518027248
 20
-36.1398614428
 10
99.7687560901
 20
-36.1178093956
 10
99.5872655339
 20
-36.0918209376
 10
99.4075848872
 20
-36.0619324161
 10
99.2299654495
 20
-36.0281856328
 10
99.0546556379
 20
-35.9906277858
 10
98.8819006387
 20
-35.949311403
 10
98.7119420646
 20
-35.904294269
 10
98.5450176172
 20
-35.855639344
 10
98.3813607562
 20
-35.8034146764
 10
98.2212003724
 20
-35.7476933077
 10
98.0647604652
 20
-35.6885531696
 10
97.9122598291
 20
-35.6260769749
 10
97.7639117492
 20
-35.5603521018
 10
97.6199237035
 20
-35.4914704723
 10
97.4804970725
 20
-35.4195284238
 10
97.3458268568
 20
-35.3446265737
  0
LWPOLYLINE
  5
281
100
AcDbEntity
  8
RACCORDO
100
AcDbPolyline
 62
7
  6
CONTINUOUS
 90
37
 70
0
 10
104.0027294266
 20
-36.260100296
 10
103.8499393865
 20
-36.3447158045
 10
103.6927449239
 20
-36.4247046507
 10
103.5312563668
 20
-36.5000513268
 10
103.365043741
 20
-36.5709506193
 10
103.1947027643
 20
-36.6371280719
 10
103.0219907649
 20
-36.6979853263
 10
102.8475147864
 20
-36.7534834924
 10
102.6710332824
 20
-36.8038534021
 10
102.4931797863
 20
-36.8490501004
 10
102.3143100323
 20
-36.8891304732
 10
102.1344319266
 20
-36.9242230679
 10
101.9537188992
 20
-36.9544014365
 10
101.7723683021
 20
-36.9797271264
 10
101.5905209099
 20
-37.000262021
 10
101.4082963611
 20
-37.0160592096
 10
101.225884631
 20
-37.027156812
 10
101.043418547
 20
-37.033590582
 10
100.8609466925
 20
-37.0353870514
 10
100.678620259
 20
-37.0325585384
 10
100.4966017018
 20
-37.0251114871
 10
100.3149568071
 20
-37.0130394093
 10
100.1338165953
 20
-36.9963273575
 10
99.9533624971
 20
-36.9749580642
 10
99.773721965
 20
-36.9489016863
 10
99.5949982873
 20
-36.9181135669
 10
99.4174050457
 20
-36.8825587963
 10
99.241203761
 20
-36.8422118265
 10
99.0664435477
 20
-36.7969918816
 10
98.8933968571
 20
-36.7468626212
 10
98.7226028221
 20
-36.69188073
 10
98.5540899563
 20
-36.6319519059
 10
98.3881370323
 20
-36.5670544356
 10
98.2255655749
 20
-36.4974139536
 10
98.0667037545
 20
-36.4231080588
 10
97.911462734
 20
-36.3440150018
 10
97.7599920989
 20
-36.260100296
  0
LWPOLYLINE
  5
282
100
AcDbEntity
  8
RACCORDO
100
AcDbPolyline
 62
253
  6
CONTINUOUS
 90
19
 70
0
 10
131.2869523538
 20
-12.4815649868
 10
131.348639483
 20
-12.4475018091
 10
131.4102091872
 20
-12.4166118678
 10
131.4715442651
 20
-12.3889539635
 10
131.5325279617
 20
-12.3645807448
 10
131.5930441913
 20
-12.3435386073
 10
131.6529777576
 20
-12.3258676061
 10
131.7122145737
 20
-12.3116013789
 10
131.7706418791
 20
-12.3007670822
 10
131.8281484539
 20
-12.2933853397
 10
131.8846248313
 20
-12.289470203
 10
131.939963505
 20
-12.2890291249
 10
131.994059135
 20
-12.2920629448
 10
132.046808747
 20
-12.2985658878
 10
132.0981119291
 20
-12.3085255751
 10
132.1478710229
 20
-12.321923048
 10
132.1959913091
 20
-12.3387328035
 10
132.242381188
 20
-12.3589228433
 10
132.2870006741
 20
-12.3824826315
  0
LINE
  5
283
100
AcDbEntity
  8
RACCORDO
100
AcDbLine
 62
253
  6
CONTINUOUS
 10
97.3458268568
 20
-33.7116860201
 11
97.3458268568
 21
-35.3446265737
  0
LWPOLYLINE
  5
284
100
AcDbEntity
  8
RACCORDO
100
AcDbPolyline
 62
253
  6
CONTINUOUS
 90
19
 70
0
 10
104.0027294266
 20
-36.260100296
 10
104.0453487153
 20
-36.2332992444
 10
104.0860315472
 20
-36.2032243092
 10
104.1246521599
 20
-36.1699606367
 10
104.161137037
 20
-36.1335715461
 10
104.1954167274
 20
-36.0941263061
 10
104.2274259777
 20
-36.0517000029
 10
104.2571038566
 20
-36.0063733976
 10
104.2843938704
 20
-35.9582327717
 10
104.3092440712
 20
-35.9073697638
 10
104.3316071551
 20
-35.8538811944
 10
104.3514405527
 20
-35.7978688822
 10
104.3687065101
 20
-35.7394394497
 10
104.3833721605
 20
-35.6787041206
 10
104.395409587
 20
-35.6157785082
 10
104.4047958756
 20
-35.5507823948
 10
104.4115131591
 20
-35.4838395043
 10
104.4155486508
 20
-35.4150772664
 10
104.4168946687
 20
-35.3446265737
  0
LWPOLYLINE
  5
285
100
AcDbEntity
  8
RACCORDO
100
AcDbPolyline
 62
253
  6
CONTINUOUS
 90
19
 70
0
 10
132.2870006741
 20
-19.9291165629
 10
132.3296199627
 20
-19.9023155113
 10
132.3703027946
 20
-19.8722405761
 10
132.4089234074
 20
-19.8389769036
 10
132.4454082845
 20
-19.802587813
 10
132.4796879749
 20
-19.763142573
 10
132.5116972252
 20
-19.7207162698
 10
132.541375104
 20
-19.6753896644
 10
132.5686651179
 20
-19.6272490386
 10
132.5935153187
 20
-19.5763860307
 10
132.6158784026
 20
-19.5228974613
 10
132.6357118002
 20
-19.4668851491
 10
132.6529777576
 20
-19.4084557166
 10
132.667643408
 20
-19.3477203875
 10
132.6796808344
 20
-19.2847947751
 10
132.6890671231
 20
-19.2197986617
 10
132.6957844066
 20
-19.1528557712
 10
132.6998198982
 20
-19.0840935333
 10
132.7011659162
 20
-19.0136428406
  0
LWPOLYLINE
  5
286
100
AcDbEntity
  8
0
100
AcDbPolyline
 62
7
  6
CONTINUOUS
 90
17
 70
0
 10
-0.9420157281
 20
-103.5144893603
 10
-0.7867925378
 20
-103.4202034809
 10
-0.6405560399
 20
-103.3220880902
 10
-0.5033062345
 20
-103.2201431881
 10
-0.3747470728
 20
-103.1140967336
 10
-0.2551746035
 20
-103.0042207677
 10
-0.1454769727
 20
-102.8913314141
 10
-0.0457277095
 20
-102.7754062346
 10
0.0441467152
 20
-102.6564676673
 10
0.123478743
 20
-102.5353991499
 10
0.1921898739
 20
-102.4121848224
 10
0.2503586078
 20
-102.2868405448
 10
0.2975528861
 20
-102.1602973342
 10
0.3336909916
 20
-102.0325462632
 10
0.3588546415
 20
-101.9035962592
 10
0.3728569281
 20
-101.7744051216
 10
0.3759740559
 20
-101.6772536944
  0
LWPOLYLINE
  5
287
100
AcDbEntity
  8
0
100
AcDbPolyline
 62
7
  6
CONTINUOUS
 90
17
 70
0
 10
35.8275368936
 20
-82.2842105073
 10
35.9827600839
 20
-82.1899246279
 10
36.1289965818
 20
-82.0918092371
 10
36.2662463872
 20
-81.9898643351
 10
36.3948055489
 20
-81.8838178805
 10
36.5143780182
 20
-81.7739419147
 10
36.624075649
 20
-81.661052561
 10
36.7238249122
 20
-81.5451273815
 10
36.8136993369
 20
-81.4261888143
 10
36.8930313647
 20
-81.3051202968
 10
36.9617424956
 20
-81.1819059694
 10
37.0199112295
 20
-81.0565616917
 10
37.0671055078
 20
-80.9300184811
 10
37.1032436133
 20
-80.8022674101
 10
37.1284072632
 20
-80.6733174062
 10
37.1424095498
 20
-80.5441262686
 10
37.1455266776
 20
-80.4469748413
  0
LWPOLYLINE
  5
288
100
AcDbEntity
  8
RACCORDO
100
AcDbPolyline
 62
253
  6
CONTINUOUS
 90
98
 70
0
 10
17.0892071922
 20
-88.9108049176
 10
16.6273532178
 20
-89.1710571311
 10
16.1546601922
 20
-89.4247385165
 10
15.6714084507
 20
-89.6716986254
 10
15.1778845986
 20
-89.911790992
 10
14.6743813178
 20
-90.1448732309
 10
14.1611971919
 20
-90.3708071206
 10
13.6386365518
 20
-90.5894586746
 10
13.1070093226
 20
-90.8006982109
 10
12.5666308174
 20
-91.0044004407
 10
12.0178215105
 20
-91.2004445572
 10
11.4609068819
 20
-91.3887142936
 10
10.8962172535
 20
-91.5690979827
 10
10.3240875671
 20
-91.7414886348
 10
9.7448570874
 20
-91.9057840278
 10
9.1588692348
 20
-92.0618867521
 10
8.5664714579
 20
-92.2097042453
 10
7.9680151564
 20
-92.3491488198
 10
7.3638553777
 20
-92.4801377472
 10
6.7543505169
 20
-92.6025933287
 10
6.1398619603
 20
-92.7164429635
 10
5.520753996
 20
-92.821619158
 10
4.8973936945
 20
-92.9180595473
 10
4.2701508396
 20
-93.0057069167
 10
3.6393975692
 20
-93.0845092656
 10
3.0055080543
 20
-93.1544198528
 10
2.3688581364
 20
-93.2153972325
 10
1.7298252492
 20
-93.267405255
 10
1.0887882945
 20
-93.3104130784
 10
0.4461275273
 20
-93.3443951866
 10
-0.1977758088
 20
-93.36933142
 10
-0.8425397882
 20
-93.3852069905
 10
-1.4877820784
 20
-93.3920124872
 10
-2.1331200598
 20
-93.3897438753
 10
-2.7781710244
 20
-93.3784024995
 10
-3.4225524017
 20
-93.3579950856
 10
-4.0658820345
 20
-93.3285337361
 10
-4.7077783905
 20
-93.290035923
 10
-5.3478607854
 20
-93.2425244777
 10
-5.985749608
 20
-93.1860275774
 10
-6.6210665572
 20
-93.1205787275
 10
-7.2534348463
 20
-93.0462167433
 10
-7.8824794226
 20
-92.9629857288
 10
-8.507827207
 20
-92.8709350484
 10
-9.1291073491
 20
-92.7701192923
 10
-9.7459514266
 20
-92.6605982446
 10
-10.3579936265
 20
-92.5424368547
 10
-10.964870957
 20
-92.4157052009
 10
-11.5662234968
 20
-92.2804784434
 10
-12.1616946211
 20
-92.1368367761
 10
-12.7509311651
 20
-91.9848653897
 10
-13.3335836291
 20
-91.8246544252
 10
-13.9093064222
 20
-91.6562989122
 10
-14.4777581527
 20
-91.4798986851
 10
-15.0386017803
 20
-91.295558333
 10
-15.5915047518
 20
-91.1033871562
 10
-16.1361390954
 20
-90.9034991423
 10
-16.6721817056
 20
-90.6960128757
 10
-17.1993146079
 20
-90.4810514406
 10
-17.7172252576
 20
-90.2587422965
 10
-18.225606615
 20
-90.0292172375
 10
-18.72415725
 20
-89.7926123475
 10
-19.2125814118
 20
-89.5490679789
 10
-19.6905893221
 20
-89.2987286247
 10
-20.1578974253
 20
-89.0417427942
 10
-20.6142286586
 20
-88.7782628592
 10
-21.0593124974
 20
-88.5084450173
 10
-21.4928850425
 20
-88.2324492413
 10
-21.9146890854
 20
-87.9504392524
 10
-22.3244743739
 20
-87.6625823643
 10
-22.721997827
 20
-87.3690493391
 10
-23.1070237549
 20
-87.0700142193
 10
-23.4793238962
 20
-86.7656542872
 10
-23.8386774977
 20
-86.4561500033
 10
-24.1848713864
 20
-86.1416849611
 10
-24.5177001835
 20
-85.8224457161
 10
-24.8369664694
 20
-85.4986216346
 10
-25.1424809418
 20
-85.170404729
 10
-25.4340624593
 20
-84.8379896021
 10
-25.7115381169
 20
-84.501573366
 10
-25.9747433263
 20
-84.1613555635
 10
-26.223521962
 20
-83.8175380008
 10
-26.4577264727
 20
-83.4703246019
 10
-26.6772179769
 20
-83.1199212671
 10
-26.8818663155
 20
-82.7665357873
 10
-27.0715501226
 20
-82.4103777349
 10
-27.2461568996
 20
-82.0516583392
 10
-27.4055830938
 20
-81.6905903421
 10
-27.5497341578
 20
-81.3273878714
 10
-27.6785245974
 20
-80.9622663351
 10
-27.7918780252
 20
-80.5954422934
 10
-27.8897272127
 20
-80.2271333159
 10
-27.9720141384
 20
-79.8575578119
 10
-28.0386900094
 20
-79.4869349212
 10
-28.0897152837
 20
-79.115484413
 10
-28.1250596905
 20
-78.7434266119
 10
-28.1447022636
 20
-78.3709822278
 10
-28.1491225093
 20
-78.0915281944
  0
LINE
  5
289
100
AcDbEntity
  8
RACCORDO
100
AcDbLine
 62
253
  6
CONTINUOUS
 10
104.4168946687
 20
-33.7116860201
 11
104.4168946687
 21
-35.3446265737
  0
LWPOLYLINE
  5
28A
100
AcDbEntity
  8
RACCORDO
100
AcDbPolyline
 62
7
  6
CONTINUOUS
 90
22
 70
0
 10
19.5640809263
 20
-106.3724115136
 10
19.6940843087
 20
-106.2944609363
 10
19.8186254775
 20
-106.2139952765
 10
19.9377044327
 20
-106.1310145341
 10
20.0514722972
 20
-106.0453957329
 10
20.159777948
 20
-105.9572618491
 10
20.2621680165
 20
-105.8669818122
 10
20.3586177055
 20
-105.7745466259
 10
20.4491518122
 20
-105.6799652865
 10
20.5333913599
 20
-105.5836337126
 10
20.6113099626
 20
-105.4855445674
 10
20.6829340063
 20
-105.3857051876
 10
20.7479636719
 20
-105.284533502
 10
20.8063713168
 20
-105.1820239258
 10
20.8581845835
 20
-105.0781820437
 10
20.9031865813
 20
-104.9734425391
 10
20.9413487582
 20
-104.8678016492
 10
20.9726996661
 20
-104.7612631368
 10
20.9971080699
 20
-104.6542729733
 10
21.0145448673
 20
-104.5468292653
 10
21.0250391606
 20
-104.4389339061
 10
21.0285470204
 20
-104.331038547
  0
LWPOLYLINE
  5
28B
100
AcDbEntity
  8
RACCORDO
100
AcDbPolyline
 62
7
  6
CONTINUOUS
 90
22
 70
0
 10
57.3942937198
 20
-84.5297207706
 10
57.5242971022
 20
-84.4517701932
 10
57.648838271
 20
-84.3713045334
 10
57.7679172262
 20
-84.2883237911
 10
57.8816850906
 20
-84.2027049898
 10
57.9899907415
 20
-84.1145711061
 10
58.09238081
 20
-84.0242910692
 10
58.188830499
 20
-83.9318558829
 10
58.2793646057
 20
-83.8372745435
 10
58.3636041534
 20
-83.7409429696
 10
58.4415227561
 20
-83.6428538243
 10
58.5131467998
 20
-83.5430144446
 10
58.5781764654
 20
-83.441842759
 10
58.6365841102
 20
-83.3393331827
 10
58.688397377
 20
-83.2354913007
 10
58.7333993748
 20
-83.1307517961
 10
58.7715615517
 20
-83.0251109062
 10
58.8029124596
 20
-82.9185723938
 10
58.8273208633
 20
-82.8115822302
 10
58.8447576608
 20
-82.7041385222
 10
58.8552519541
 20
-82.5962431631
 10
58.8587598139
 20
-82.4883478039
  0
LINE
  5
28C
100
AcDbEntity
  8
RACCORDO
100
AcDbLine
 62
7
  6
CONTINUOUS
 10
2.9470715684
 20
-115.9668644568
 11
19.5640809263
 21
-106.3724115136
  0
LINE
  5
28D
100
AcDbEntity
  8
RACCORDO
100
AcDbLine
 62
7
  6
CONTINUOUS
 10
40.7772843619
 20
-94.1241737138
 11
57.3942937198
 21
-84.5297207706
  0
LINE
  5
28E
100
AcDbEntity
  8
RACCORDO
100
AcDbLine
 62
7
  6
CONTINUOUS
 10
2.9470715684
 20
-120.0492158408
 11
19.5640809263
 21
-110.4547628976
  0
LINE
  5
28F
100
AcDbEntity
  8
RACCORDO
100
AcDbLine
 62
7
  6
CONTINUOUS
 10
40.7772843619
 20
-98.2065250978
 11
57.3942937198
 21
-88.6120721545
  0
LWPOLYLINE
  5
290
100
AcDbEntity
  8
RACCORDO
100
AcDbPolyline
 62
7
  6
CONTINUOUS
 90
43
 70
0
 10
40.7772843619
 20
-98.2065250978
 10
40.6422786997
 20
-98.2815874214
 10
40.5029170675
 20
-98.3534959314
 10
40.3591994653
 20
-98.4222506277
 10
40.2109129053
 20
-98.4879387668
 10
40.0582703753
 20
-98.5504730922
 10
39.9019108386
 20
-98.6095918346
 10
39.741818714
 20
-98.6652806762
 10
39.5780095827
 20
-98.7175539347
 10
39.4111691516
 20
-98.7661927938
 10
39.2412847138
 20
-98.8111820185
 10
39.0683689761
 20
-98.8525368436
 10
38.8931457658
 20
-98.8900841575
 10
38.7156054101
 20
-98.9238079996
 10
38.5357575818
 20
-98.9537243305
 10
38.3543551258
 20
-98.97970792
 10
38.1713915253
 20
-99.0017422827
 10
37.9868732971
 20
-99.019843904
 10
37.8015728365
 20
-99.0339370104
 10
37.6154868646
 20
-99.0440047987
 10
37.4286186603
 20
-99.0500640721
 10
37.241750456
 20
-99.0520894664
 10
37.0548822517
 20
-99.0500640721
 10
36.8680140474
 20
-99.0440047987
 10
36.6819280755
 20
-99.0339370104
 10
36.4966276149
 20
-99.019843904
 10
36.3121093867
 20
-99.0017422827
 10
36.1291457862
 20
-98.97970792
 10
35.9477433302
 20
-98.9537243305
 10
35.7678955018
 20
-98.9238079996
 10
35.5903551462
 20
-98.8900841575
 10
35.4151319359
 20
-98.8525368436
 10
35.2422161982
 20
-98.8111820185
 10
35.0723317604
 20
-98.7661927938
 10
34.9054913293
 20
-98.7175539347
 10
34.741682198
 20
-98.6652806762
 10
34.5815900734
 20
-98.6095918346
 10
34.4252305367
 20
-98.5504730922
 10
34.2725880067
 20
-98.4879387668
 10
34.1243014467
 20
-98.4222506277
 10
33.9805838445
 20
-98.3534959314
 10
33.8412222123
 20
-98.2815874214
 10
33.70621655
 20
-98.2065250978
  0
LWPOLYLINE
  5
291
100
AcDbEntity
  8
RACCORDO
100
AcDbPolyline
 62
7
  6
CONTINUOUS
 90
43
 70
0
 10
2.9470715684
 20
-120.0492158408
 10
2.8120659062
 20
-120.1242781645
 10
2.672704274
 20
-120.1961866745
 10
2.5289866718
 20
-120.2649413708
 10
2.3807001118
 20
-120.3306295099
 10
2.2280575818
 20
-120.3931638353
 10
2.0716980451
 20
-120.4522825776
 10
1.9116059205
 20
-120.5079714192
 10
1.7477967892
 20
-120.5602446778
 10
1.5809563581
 20
-120.6088835368
 10
1.4110719203
 20
-120.6538727615
 10
1.2381561826
 20
-120.6952275867
 10
1.0629329723
 20
-120.7327749006
 10
0.8853926166
 20
-120.7664987427
 10
0.7055447883
 20
-120.7964150735
 10
0.5241423323
 20
-120.822398663
 10
0.3411787318
 20
-120.8444330257
 10
0.1566605036
 20
-120.862534647
 10
-0.028639957
 20
-120.8766277534
 10
-0.2147259289
 20
-120.8866955417
 10
-0.4015941332
 20
-120.8927548151
 10
-0.5884623375
 20
-120.8947802094
 10
-0.7753305418
 20
-120.8927548151
 10
-0.9621987461
 20
-120.8866955417
 10
-1.148284718
 20
-120.8766277534
 10
-1.3335851786
 20
-120.862534647
 10
-1.5181034068
 20
-120.8444330257
 10
-1.7010670073
 20
-120.822398663
 10
-1.8824694633
 20
-120.7964150735
 10
-2.0623172916
 20
-120.7664987427
 10
-2.2398576473
 20
-120.7327749006
 10
-2.4150808576
 20
-120.6952275867
 10
-2.5879965953
 20
-120.6538727615
 10
-2.7578810331
 20
-120.6088835368
 10
-2.9247214642
 20
-120.5602446778
 10
-3.0885305955
 20
-120.5079714192
 10
-3.2486227201
 20
-120.4522825776
 10
-3.4049822568
 20
-120.3931638353
 10
-3.5576247868
 20
-120.3306295099
 10
-3.7059113468
 20
-120.2649413708
 10
-3.849628949
 20
-120.1961866745
 10
-3.9889905812
 20
-120.1242781645
 10
-4.1239962434
 20
-120.0492158408
  0
LINE
  5
292
100
AcDbEntity
  8
RACCORDO
100
AcDbLine
 62
253
  6
CONTINUOUS
 10
132.7011659162
 20
-17.380702287
 11
132.7011659162
 21
-19.0136428406
  0
LINE
  5
293
100
AcDbEntity
  8
RACCORDO
100
AcDbLine
 62
7
  6
CONTINUOUS
 10
134.1656320102
 20
-15.3393293204
 11
134.1656320102
 21
-16.972269874
  0
LWPOLYLINE
  5
294
100
AcDbEntity
  8
RACCORDO
100
AcDbPolyline
 62
7
  6
CONTINUOUS
 90
25
 70
0
 10
134.1656320102
 20
-16.972269874
 10
134.1625906973
 20
-17.1073302726
 10
134.1534199055
 20
-17.2427504472
 10
134.1380618221
 20
-17.3782720016
 10
134.1164963924
 20
-17.5135207318
 10
134.0886902166
 20
-17.6483476502
 10
134.0545437969
 20
-17.7828283152
 10
134.0140181937
 20
-17.9167054987
 10
133.96709683
 20
-18.0497039526
 10
133.9136444667
 20
-18.1818702822
 10
133.8536277304
 20
-18.3129410068
 10
133.7870317019
 20
-18.4426491241
 10
133.7136734661
 20
-18.5710381755
 10
133.6335422378
 20
-18.6978070432
 10
133.5465923247
 20
-18.8227382711
 10
133.452480274
 20
-18.9459948632
 10
133.3509140059
 20
-19.0675594486
 10
133.2420281174
 20
-19.1868954556
 10
133.1260825983
 20
-19.3034376967
 10
133.0029950556
 20
-19.4170330945
 10
132.8728059911
 20
-19.5274150166
 10
132.7360297056
 20
-19.6339834915
 10
132.5928725626
 20
-19.7364804761
 10
132.4431886765
 20
-19.8349057805
 10
132.2870006741
 20
-19.9291165629
  0
LWPOLYLINE
  5
295
100
AcDbEntity
  8
RACCORDO
100
AcDbPolyline
 62
253
  6
CONTINUOUS
 90
22
 70
0
 10
134.1656320102
 20
-16.972269874
 10
134.1621355342
 20
-17.0802159087
 10
134.1516509961
 20
-17.1880109712
 10
134.1341930597
 20
-17.2955043005
 10
134.1097861412
 20
-17.4025455574
 10
134.078464376
 20
-17.508985035
 10
134.0402715705
 20
-17.6146738678
 10
133.9952611408
 20
-17.7194642403
 10
133.9434960381
 20
-17.8232095938
 10
133.8850486605
 20
-17.925764831
 10
133.8200007523
 20
-18.0269865191
 10
133.7484432885
 20
-18.1267330905
 10
133.6704763485
 20
-18.2248650411
 10
133.5862089755
 20
-18.321245125
 10
133.4957590254
 20
-18.4157385454
 10
133.3992530015
 20
-18.5082131437
 10
133.2968258769
 20
-18.5985395855
 10
133.1886209048
 20
-18.6865915415
 10
133.0747894192
 20
-18.7722458636
 10
132.9554906235
 20
-18.8553827566
 10
132.830891368
 20
-18.9358859459
 10
132.7011659162
 20
-19.0136428406
  0
ENDSEC
  0
SECTION
  2
OBJECTS
  0
DICTIONARY
  5
C
100
AcDbDictionary
280
0
281
1
  3
ACAD_GROUP
350
D
  3
ACAD_MLINESTYLE
350
17
  3
ACAD_LAYOUT
350
1A
  3
ACAD_PLOTSETTINGS
350
19
  3
ACAD_PLOTSTYLENAME
350
E
  0
DICTIONARY
  5
D
102
{ACAD_REACTORS
330
C
102
}
100
AcDbDictionary
280
0
281
1
  0
ACDBDICTIONARYWDFLT
  5
E
102
{ACAD_REACTORS
330
C
102
}
100
AcDbDictionary
281
1
  3
Normal
350
F
100
AcDbDictionaryWithDefault
340
F
  0
DICTIONARY
  5
17
102
{ACAD_REACTORS
330
C
102
}
100
AcDbDictionary
280
0
281
1
  3
Standard
350
18
  0
DICTIONARY
  5
19
102
{ACAD_REACTORS
330
C
102
}
100
AcDbDictionary
281
1
  0
DICTIONARY
  5
1A
102
{ACAD_REACTORS
330
C
102
}
100
AcDbDictionary
281
1
  3
Model
350
296
  3
Layout1
350
297
  0
ACDBPLACEHOLDER
  5
F
102
{ACAD_REACTORS
330
E
102
}
  0
MLINESTYLE
  5
18
102
{ACAD_REACTORS
330
17
102
}
100
AcDbMlineStyle
  2
STANDARD
 70
0
  3

 62
256
 51
90.0
 52
90.0
 71
2
 49
0.5
 62
256
  6
BYLAYER
 49
-0.5
 62
256
  6
BYLAYER
  0
LAYOUT
  5
296
102
{ACAD_REACTORS
330
1A
102
}
100
AcDbPlotSettings
  1

  2
none_device
  4
ISO_A4_(297.00_x_210.00_MM)
  6

 40
0.0
 41
0.0
 42
0.0
 43
0.0
 44
297.0
 45
210.0
 46
0.0
 47
0.0
 48
0.0
 49
0.0
140
0.0
141
0.0
142
1.0
143
1.0
 70
1024
 72
1
 73
0
 74
0
  7

 75
0
147
1.0
148
0.0
149
0.0
100
AcDbLayout
  1
Model
 70
0
 71
0
 10
0.0
 20
0.0
 11
297.0
 21
210.0
 12
0.0
 22
0.0
 32
0.0
 14
0.0
 24
0.0
 34
0.0
 15
0.0
 25
0.0
 35
0.0
146
0.0
 13
0.0
 23
0.0
 33
0.0
 16
1.0
 26
0.0
 36
0.0
 17
0.0
 27
1.0
 37
0.0
 76
0
330
20F
345
0
346
0
  0
LAYOUT
  5
297
102
{ACAD_REACTORS
330
1A
102
}
100
AcDbPlotSettings
  1

  2
none_device
  4
ISO_A4_(297.00_x_210.00_MM)
  6

 40
0.0
 41
0.0
 42
0.0
 43
0.0
 44
297.0
 45
210.0
 46
0.0
 47
0.0
 48
0.0
 49
0.0
140
0.0
141
0.0
142
1.0
143
1.0
 70
0
 72
1
 73
0
 74
0
  7

 75
0
147
1.0
148
0.0
149
0.0
100
AcDbLayout
  1
Layout1
 70
0
 71
1
 10
0.0
 20
0.0
 11
297.0
 21
210.0
 12
0.0
 22
0.0
 32
0.0
 14
0.0
 24
0.0
 34
0.0
 15
0.0
 25
0.0
 35
0.0
146
0.0
 13
0.0
 23
0.0
 33
0.0
 16
1.0
 26
0.0
 36
0.0
 17
0.0
 27
1.0
 37
0.0
 76
0
330
210
345
0
346
0
  0
ENDSEC
  0
EOF
