  0
SECTION
  2
HEADER
  9
$ACADVER
  1
AC1021
  9
$DWGCODEPAGE
  3
ANSI_1252
  9
$EXTMAX
 10
297.0
 20
210.0
 30
0.0
  9
$EXTMIN
 10
0.0
 20
0.0
 30
0.0
  9
$LIMMIN
 10
0.0
 20
0.0
  9
$LIMMAX
 10
297.0
 20
210.0
  9
$VIEWCTR
 10
148.5
 20
105.0
  9
$VIEWSIZE
 40
210.0
  9
$CLAYER
  8
0
  9
$LTSCALE
 40
16.335
  9
$CELTYPE
  6
BYLAYER
  9
$DIMSCALE
 40
1.0
  9
$DIMASZ
 40
3.0
  9
$DIMEXO
 40
0.5
  9
$DIMDLI
 40
11.286
  9
$DIMEXE
 40
1.5
  9
$DIMCEN
 40
2.673
  9
$DIMLFAC
 40
1.0
  9
$DIMBLK
  1
_FILLED
  9
$DIMALT
 70
0
  9
$DIMALTF
 40
0.0393700787
  9
$DIMTXT
 40
3.0
  9
$DIMTOL
 70
1
  9
$DIMLIM
 70
0
  9
$DIMTFAC
 40
1.0
  9
$DIMTP
 40
0.01
  9
$DIMTM
 40
0.01
  9
$DIMGAP
 40
0.625
  9
$DIMDSEP
 70
44
  9
$AUNITS
 70
0
  9
$PDMODE
 70
3
  9
$PDSIZE
 40
3.0
  9
$HANDSEED
  5
3F0
  9
$TILEMODE
 70
1
  9
$MEASUREMENT
 70
1
  9
$INSUNITS
 70
4
  0
ENDSEC
  0
SECTION
  2
CLASSES
  0
CLASS
  1
ACDBDICTIONARYWDFLT
  2
AcDbDictionaryWithDefault
  3
AutoCAD 2000
 90
0
 91
1
280
0
281
0
  0
CLASS
  1
ACDBPLACEHOLDER
  2
AcDbPlaceHolder
  3
AutoCAD 2000
 90
0
 91
1
280
0
281
0
  0
CLASS
  1
LAYOUT
  2
AcDbLayout
  3
AutoCAD 2000
 90
0
 91
0
280
0
281
0
  0
ENDSEC
  0
SECTION
  2
TABLES
  0
TABLE
  2
VPORT
  5
8
100
AcDbSymbolTable
 70
2
  0
VPORT
  5
1F4
100
AcDbSymbolTableRecord
100
AcDbViewportTableRecord
  2
*ACTIVE
 70
0
 10
0.0
 20
0.0
 11
1.0
 21
1.0
 12
148.5
 22
105.0
 13
0.0
 23
0.0
 14
1.0
 24
1.0
 15
0.0
 25
0.0
 16
0.0
 26
0.0
 36
1.0
 17
0.0
 27
0.0
 37
0.0
 40
210.0
 41
1.4142857143
 42
50.0
 43
0.0
 44
0.0
 50
0.0
 51
0.0
 71
0
 72
100
 73
1
 74
1
 75
0
 76
0
 77
0
 78
0
  0
ENDTAB
  0
TABLE
  2
LTYPE
  5
5
100
AcDbSymbolTable
 70
6
  0
LTYPE
  5
14
100
AcDbSymbolTableRecord
100
AcDbLinetypeTableRecord
  2
BYBLOCK
 70
0
  3

 72
65
 73
0
 40
0.0
  0
LTYPE
  5
15
100
AcDbSymbolTableRecord
100
AcDbLinetypeTableRecord
  2
BYLAYER
 70
0
  3

 72
65
 73
0
 40
0.0
  0
LTYPE
  5
16
100
AcDbSymbolTableRecord
100
AcDbLinetypeTableRecord
  2
CONTINUOUS
 70
64
  3
Solid line
 72
65
 73
0
 40
0.0
  0
LTYPE
  5
1F5
100
AcDbSymbolTableRecord
100
AcDbLinetypeTableRecord
  2
CENTER
 70
64
  3
____ _ ____ _ ____ _ ____ _ ____ _ ____ _ ____
 72
65
 73
4
 40
0.6
 49
0.375
 74
0
 49
-0.075
 74
0
 49
0.075
 74
0
 49
-0.075
 74
0
  0
LTYPE
  5
1F6
100
AcDbSymbolTableRecord
100
AcDbLinetypeTableRecord
  2
HIDDEN
 70
64
  3
- - - - - - - - - - - - - - - - - - - -
 72
65
 73
2
 40
0.2
 49
0.1
 74
0
 49
-0.1
 74
0
  0
LTYPE
  5
1F7
100
AcDbSymbolTableRecord
100
AcDbLinetypeTableRecord
  2
PHANTOM
 70
64
  3
_____ _ _ _____ _ _ _____ _ _ _____
 72
65
 73
6
 40
0.8
 49
0.45
 74
0
 49
-0.05
 74
0
 49
0.1
 74
0
 49
-0.05
 74
0
 49
0.1
 74
0
 49
-0.05
 74
0
  0
LTYPE
  5
1F8
100
AcDbSymbolTableRecord
100
AcDbLinetypeTableRecord
  2
DOT
 70
64
  3
. . . . . . . . . . . . . . . . . . . .
 72
65
 73
2
 40
0.2
 49
0.1
 74
0
 49
-0.1
 74
0
  0
LTYPE
  5
1F9
100
AcDbSymbolTableRecord
100
AcDbLinetypeTableRecord
  2
DASHED
 70
64
  3
- - - - - - - - - - - - - - - - - - - -
 72
65
 73
2
 40
0.2
 49
0.1
 74
0
 49
-0.1
 74
0
  0
ENDTAB
  0
TABLE
  2
LAYER
  5
2
100
AcDbSymbolTable
 70
36
  0
LAYER
  5
10
100
AcDbSymbolTableRecord
100
AcDbLayerTableRecord
  2
0
 70
0
 62
7
  6
CONTINUOUS
370
-3
390
F
  0
LAYER
  5
1FA
100
AcDbSymbolTableRecord
100
AcDbLayerTableRecord
  2
DEFAULT_1
 70
0
 62
7
  6
CENTER
370
-3
390
F
  0
LAYER
  5
1FB
100
AcDbSymbolTableRecord
100
AcDbLayerTableRecord
  2
DEFAULT_2
 70
0
 62
7
  6
HIDDEN
370
-3
390
F
  0
LAYER
  5
1FC
100
AcDbSymbolTableRecord
100
AcDbLayerTableRecord
  2
DEFAULT_3
 70
0
 62
7
  6
PHANTOM
370
-3
390
F
  0
LAYER
  5
1FD
100
AcDbSymbolTableRecord
100
AcDbLayerTableRecord
  2
ASSI
 70
0
 62
7
  6
CONTINUOUS
370
-3
390
F
  0
LAYER
  5
1FE
100
AcDbSymbolTableRecord
100
AcDbLayerTableRecord
  2
COORDINATE
 70
0
 62
7
  6
CONTINUOUS
370
-3
390
F
  0
LAYER
  5
1FF
100
AcDbSymbolTableRecord
100
AcDbLayerTableRecord
  2
COPY_PUBLISH
 70
0
 62
7
  6
CONTINUOUS
370
-3
390
F
  0
LAYER
  5
200
100
AcDbSymbolTableRecord
100
AcDbLayerTableRecord
  2
COSMETIC
 70
0
 62
7
  6
CONTINUOUS
370
-3
390
F
  0
LAYER
  5
201
100
AcDbSymbolTableRecord
100
AcDbLayerTableRecord
  2
COSMETICI
 70
0
 62
7
  6
CONTINUOUS
370
-3
390
F
  0
LAYER
  5
202
100
AcDbSymbolTableRecord
100
AcDbLayerTableRecord
  2
CURVE
 70
0
 62
7
  6
CONTINUOUS
370
-3
390
F
  0
LAYER
  5
203
100
AcDbSymbolTableRecord
100
AcDbLayerTableRecord
  2
DRAFT
 70
0
 62
7
  6
CONTINUOUS
370
-3
390
F
  0
LAYER
  5
204
100
AcDbSymbolTableRecord
100
AcDbLayerTableRecord
  2
IGES
 70
0
 62
7
  6
CONTINUOUS
370
-3
390
F
  0
LAYER
  5
205
100
AcDbSymbolTableRecord
100
AcDbLayerTableRecord
  2
IMPORT_IGES
 70
0
 62
7
  6
CONTINUOUS
370
-3
390
F
  0
LAYER
  5
206
100
AcDbSymbolTableRecord
100
AcDbLayerTableRecord
  2
INTF_1
 70
0
 62
7
  6
CONTINUOUS
370
-3
390
F
  0
LAYER
  5
207
100
AcDbSymbolTableRecord
100
AcDbLayerTableRecord
  2
INTF_11
 70
0
 62
7
  6
CONTINUOUS
370
-3
390
F
  0
LAYER
  5
208
100
AcDbSymbolTableRecord
100
AcDbLayerTableRecord
  2
INTF_12
 70
0
 62
7
  6
CONTINUOUS
370
-3
390
F
  0
LAYER
  5
209
100
AcDbSymbolTableRecord
100
AcDbLayerTableRecord
  2
INTF_13
 70
0
 62
7
  6
CONTINUOUS
370
-3
390
F
  0
LAYER
  5
20A
100
AcDbSymbolTableRecord
100
AcDbLayerTableRecord
  2
INTF_2
 70
0
 62
7
  6
CONTINUOUS
370
-3
390
F
  0
LAYER
  5
20B
100
AcDbSymbolTableRecord
100
AcDbLayerTableRecord
  2
INTF_3
 70
0
 62
7
  6
CONTINUOUS
370
-3
390
F
  0
LAYER
  5
20C
100
AcDbSymbolTableRecord
100
AcDbLayerTableRecord
  2
INTF_GREEN
 70
0
 62
7
  6
CONTINUOUS
370
-3
390
F
  0
LAYER
  5
20D
100
AcDbSymbolTableRecord
100
AcDbLayerTableRecord
  2
INTF_RED
 70
0
 62
7
  6
CONTINUOUS
370
-3
390
F
  0
LAYER
  5
20E
100
AcDbSymbolTableRecord
100
AcDbLayerTableRecord
  2
INTF_YELLOW
 70
0
 62
7
  6
CONTINUOUS
370
-3
390
F
  0
LAYER
  5
20F
100
AcDbSymbolTableRecord
100
AcDbLayerTableRecord
  2
MIXEDCOLOR
 70
0
 62
7
  6
CONTINUOUS
370
-3
390
F
  0
LAYER
  5
210
100
AcDbSymbolTableRecord
100
AcDbLayerTableRecord
  2
NOTE
 70
0
 62
7
  6
CONTINUOUS
370
-3
390
F
  0
LAYER
  5
211
100
AcDbSymbolTableRecord
100
AcDbLayerTableRecord
  2
PIANI
 70
0
 62
7
  6
CONTINUOUS
370
-3
390
F
  0
LAYER
  5
212
100
AcDbSymbolTableRecord
100
AcDbLayerTableRecord
  2
PUNTI
 70
0
 62
7
  6
CONTINUOUS
370
-3
390
F
  0
LAYER
  5
213
100
AcDbSymbolTableRecord
100
AcDbLayerTableRecord
  2
RACCORDO
 70
0
 62
7
  6
CONTINUOUS
370
-3
390
F
  0
LAYER
  5
214
100
AcDbSymbolTableRecord
100
AcDbLayerTableRecord
  2
SIMBOLI
 70
0
 62
7
  6
CONTINUOUS
370
-3
390
F
  0
LAYER
  5
215
100
AcDbSymbolTableRecord
100
AcDbLayerTableRecord
  2
SKEL
 70
0
 62
7
  6
CONTINUOUS
370
-3
390
F
  0
LAYER
  5
216
100
AcDbSymbolTableRecord
100
AcDbLayerTableRecord
  2
SMUSSO
 70
0
 62
7
  6
CONTINUOUS
370
-3
390
F
  0
LAYER
  5
217
100
AcDbSymbolTableRecord
100
AcDbLayerTableRecord
  2
SNAPLINE
 70
0
 62
7
  6
CONTINUOUS
370
-3
390
F
  0
LAYER
  5
218
100
AcDbSymbolTableRecord
100
AcDbLayerTableRecord
  2
SUPERFICI
 70
0
 62
7
  6
CONTINUOUS
370
-3
390
F
  0
LAYER
  5
219
100
AcDbSymbolTableRecord
100
AcDbLayerTableRecord
  2
TRASH
 70
0
 62
7
  6
CONTINUOUS
370
-3
390
F
  0
LAYER
  5
21A
100
AcDbSymbolTableRecord
100
AcDbLayerTableRecord
  2
XSEC_DATUMS
 70
0
 62
7
  6
CONTINUOUS
370
-3
390
F
  0
ENDTAB
  0
TABLE
  2
STYLE
  5
3
100
AcDbSymbolTable
 70
1
  0
STYLE
  5
11
100
AcDbSymbolTableRecord
100
AcDbTextStyleTableRecord
  2
STANDARD
 70
0
 40
0.0
 41
0.8
 50
0.0
 71
0
 42
0.2
  3
txt
  4

  0
STYLE
  5
21B
100
AcDbSymbolTableRecord
100
AcDbTextStyleTableRecord
  2
TEXTSTYLE_1
 70
0
 40
0.0
 41
0.8
 50
0.0
 71
0
 42
0.2
  3
gdt
  4

  0
ENDTAB
  0
TABLE
  2
VIEW
  5
6
100
AcDbSymbolTable
 70
0
  0
ENDTAB
  0
TABLE
  2
UCS
  5
7
100
AcDbSymbolTable
 70
0
  0
ENDTAB
  0
TABLE
  2
APPID
  5
9
100
AcDbSymbolTable
 70
1
  0
APPID
  5
21C
100
AcDbSymbolTableRecord
100
AcDbRegAppTableRecord
  2
ACAD
 70
0
  0
ENDTAB
  0
TABLE
  2
BLOCK_RECORD
  5
1
100
AcDbSymbolTable
 70
0
  0
BLOCK_RECORD
  5
21D
100
AcDbSymbolTableRecord
100
AcDbBlockTableRecord
  2
*Model_Space
  0
BLOCK_RECORD
  5
21E
100
AcDbSymbolTableRecord
100
AcDbBlockTableRecord
  2
*Paper_Space
  0
ENDTAB
  0
TABLE
  2
DIMSTYLE
  5
A
100
AcDbSymbolTable
 70
1
100
AcDbDimStyleTable
 71
0
  0
DIMSTYLE
105
21F
100
AcDbSymbolTableRecord
100
AcDbDimStyleTableRecord
  2
STANDARD
 70
0
  3

  4

 40
1.0
 41
3.0
 42
0.5
 43
0.38
 44
1.5
 45
0.0
 46
0.0
 47
0.01
 48
0.01
140
3.0
141
0.09
142
0.0
143
25.4
144
1.0
145
0.0
146
1.0
147
0.625
 71
1.0
 72
0.0
 73
0
 74
0
 75
0
 76
0
 77
1
 78
8
170
0
171
2
172
0
173
0
174
0
175
0
176
0
177
0
178
0
270
2
271
2
272
2
273
2
274
2
275
0
280
0
281
0
282
0
283
1
284
8
285
0
286
0
287
3
288
0
340
11
278
44
  0
ENDTAB
  0
ENDSEC
  0
SECTION
  2
BLOCKS
  0
BLOCK
  5
20
100
AcDbEntity
  8
0
100
AcDbBlockBegin
  2
*Model_Space
 70
0
 10
0.0
 20
0.0
 30
0.0
  3
*Model_Space
  1

  0
ENDBLK
  5
21
100
AcDbEntity
  8
0
100
AcDbBlockEnd
  0
BLOCK
  5
1C
100
AcDbEntity
  8
0
100
AcDbBlockBegin
  2
*Paper_Space
 70
0
 10
0.0
 20
0.0
 30
0.0
  3
*Paper_Space
  1

  0
ENDBLK
  5
1D
100
AcDbEntity
  8
0
100
AcDbBlockEnd
  0
ENDSEC
  0
SECTION
  2
ENTITIES
  0
LWPOLYLINE
  5
220
100
AcDbEntity
  8
SUPERFICI
100
AcDbPolyline
 62
7
  6
CONTINUOUS
 90
5
 70
0
 10
-4.7044506172
 20
18.786177926
 10
-4.6209029528
 20
18.8142270936
 10
-4.5290820468
 20
18.830256603
 10
-4.4289243121
 20
18.834176266
 10
-4.3383022572
 20
18.8280486977
  0
LWPOLYLINE
  5
221
100
AcDbEntity
  8
SUPERFICI
100
AcDbPolyline
 62
7
  6
CONTINUOUS
 90
6
 70
0
 10
-3.1782835705
 20
18.8695306222
 10
-3.0564449641
 20
18.9075020387
 10
-2.8234333501
 20
18.9195219899
 10
-2.5513195286
 20
18.8693410329
 10
-2.2425578
 20
18.7572525877
 10
-1.8895941595
 20
18.5757164809
  0
LWPOLYLINE
  5
222
100
AcDbEntity
  8
RACCORDO
100
AcDbPolyline
 62
253
  6
CONTINUOUS
 90
10
 70
0
 10
7.3928751196
 20
28.3049912949
 10
7.4912481497
 20
28.3991405127
 10
7.5755535438
 20
28.5048414952
 10
7.6433484837
 20
28.6190313167
 10
7.6926685684
 20
28.7384010735
 10
7.7220847357
 20
28.8594917648
 10
7.7307446722
 20
28.9787945216
 10
7.7183975103
 20
29.0928522824
 10
7.6854010978
 20
29.1983599664
 10
7.6327116293
 20
29.2922602436
  0
LINE
  5
223
100
AcDbEntity
  8
SUPERFICI
100
AcDbLine
 62
253
  6
CONTINUOUS
 10
-1.8746698344
 20
19.0742642764
 11
-1.7332748748
 21
19.1616522729
  0
LINE
  5
224
100
AcDbEntity
  8
SUPERFICI
100
AcDbLine
 62
253
  6
CONTINUOUS
 10
-2.3138529893
 20
18.3308110724
 11
-1.8894694811
 21
18.5758447913
  0
LINE
  5
225
100
AcDbEntity
  8
SUPERFICI
100
AcDbLine
 62
253
  6
CONTINUOUS
 10
-1.8835280522
 20
17.5053970232
 11
-1.4357199584
 21
17.7273024198
  0
LWPOLYLINE
  5
226
100
AcDbEntity
  8
RACCORDO
100
AcDbPolyline
 62
253
  6
CONTINUOUS
 90
9
 70
0
 10
8.1779059931
 20
27.6481193985
 10
8.2470631254
 20
27.7395835672
 10
8.3029879958
 20
27.8379671712
 10
8.3445032689
 20
27.9411990321
 10
8.3707349615
 20
28.0471059057
 10
8.3811308413
 20
28.1534582332
 10
8.3754720528
 20
28.2580170781
 10
8.3538777247
 20
28.3585812605
 10
8.3168024617
 20
28.4530336963
  0
LINE
  5
227
100
AcDbEntity
  8
0
100
AcDbLine
 62
7
  6
CONTINUOUS
 10
-2.3276653088
 20
11.6566947841
 11
-2.2568784197
 21
11.6975662467
  0
LINE
  5
228
100
AcDbEntity
  8
0
100
AcDbLine
 62
7
  6
CONTINUOUS
 10
-1.7157174763
 20
11.5117831636
 11
-1.6448577626
 21
11.5526966741
  0
LINE
  5
229
100
AcDbEntity
  8
0
100
AcDbLine
 62
7
  6
CONTINUOUS
 10
-1.1243024777
 20
11.3702782119
 11
-1.0533665554
 21
11.4112357244
  0
LINE
  5
22A
100
AcDbEntity
  8
0
100
AcDbLine
 62
7
  6
CONTINUOUS
 10
-0.7529900382
 20
11.280717461
 11
-0.6820032872
 21
11.3217043214
  0
LINE
  5
22B
100
AcDbEntity
  8
0
100
AcDbLine
 62
7
  6
CONTINUOUS
 10
-1.0768644549
 20
10.9409487144
 11
-1.0060754104
 21
10.9818214215
  0
LINE
  5
22C
100
AcDbEntity
  8
0
100
AcDbLine
 62
7
  6
CONTINUOUS
 10
-2.2089699835
 20
9.9423232534
 11
-2.138547915
 21
9.9829840732
  0
LINE
  5
22D
100
AcDbEntity
  8
0
100
AcDbLine
 62
7
  6
CONTINUOUS
 10
-1.5240005658
 20
9.7764750795
 11
-1.4535480881
 21
9.8171534571
  0
LWPOLYLINE
  5
22E
100
AcDbEntity
  8
SUPERFICI
100
AcDbPolyline
 62
253
  6
CONTINUOUS
 90
4
 70
0
 10
1.5868507879
 20
-11.6939180861
 10
1.8607345227
 20
-11.6376797463
 10
2.1415280471
 20
-11.5497679001
 10
2.4223447839
 20
-11.4352148185
  0
LWPOLYLINE
  5
22F
100
AcDbEntity
  8
RACCORDO
100
AcDbPolyline
 62
253
  6
CONTINUOUS
 90
10
 70
0
 10
2.5250062464
 20
-9.2193221128
 10
2.5800417505
 20
-9.2086587877
 10
2.6336043987
 20
-9.1959307641
 10
2.6856602948
 20
-9.1811734437
 10
2.7362536187
 20
-9.16484507
 10
2.7854144147
 20
-9.1469941531
 10
2.8330847257
 20
-9.1276579936
 10
2.8790745512
 20
-9.1073300649
 10
2.9236195291
 20
-9.0860239057
 10
2.9670502931
 20
-9.0634632069
  0
LWPOLYLINE
  5
230
100
AcDbEntity
  8
SUPERFICI
100
AcDbPolyline
 62
7
  6
CONTINUOUS
 90
7
 70
0
 10
1.3832156506
 20
-11.8963113833
 10
1.5934366948
 20
-11.8590130692
 10
1.8070769451
 20
-11.8059467431
 10
2.0234007494
 20
-11.7361687571
 10
2.242494502
 20
-11.6484282538
 10
2.4637112846
 20
-11.541610709
 10
2.5914650147
 20
-11.4711665957
  0
LINE
  5
231
100
AcDbEntity
  8
RACCORDO
100
AcDbLine
 62
253
  6
CONTINUOUS
 10
2.4685911452
 20
-9.2278050484
 11
2.5250062464
 21
-9.2193221128
  0
LINE
  5
232
100
AcDbEntity
  8
SUPERFICI
100
AcDbLine
 62
253
  6
CONTINUOUS
 10
2.2548835621
 20
-9.2561586556
 11
2.4868448967
 21
-9.2225634382
  0
LINE
  5
233
100
AcDbEntity
  8
SUPERFICI
100
AcDbLine
 62
253
  6
CONTINUOUS
 10
1.3213059501
 20
-11.720644255
 11
1.5868507879
 21
-11.6939180861
  0
LWPOLYLINE
  5
234
100
AcDbEntity
  8
RACCORDO
100
AcDbPolyline
 62
253
  6
CONTINUOUS
 90
3
 70
0
 10
2.3520081846
 20
-9.2363209611
 10
2.4109544649
 20
-9.2334658317
 10
2.4685911452
 20
-9.2278050484
  0
LWPOLYLINE
  5
235
100
AcDbEntity
  8
SUPERFICI
100
AcDbPolyline
 62
253
  6
CONTINUOUS
 90
3
 70
0
 10
0.7970880282
 20
-11.7135021704
 10
1.0584191093
 20
-11.7268549226
 10
1.3213059501
 20
-11.720644255
  0
LWPOLYLINE
  5
236
100
AcDbEntity
  8
SUPERFICI
100
AcDbPolyline
 62
7
  6
CONTINUOUS
 90
7
 70
0
 10
0.3451154416
 20
-11.8749550709
 10
0.3923504624
 20
-11.8830941641
 10
0.582276938
 20
-11.9090569752
 10
0.7760999038
 20
-11.9242827792
 10
0.9744884621
 20
-11.9279046131
 10
1.1770282829
 20
-11.9189002778
 10
1.3832156506
 20
-11.8963113833
  0
LINE
  5
237
100
AcDbEntity
  8
SUPERFICI
100
AcDbLine
 62
7
  6
CONTINUOUS
 10
0.3453604405
 20
-11.8748235181
 11
0.3451183436
 21
-11.8747800872
  0
LWPOLYLINE
  5
238
100
AcDbEntity
  8
SUPERFICI
100
AcDbPolyline
 62
253
  6
CONTINUOUS
 90
13
 70
0
 10
0.3451183436
 20
-11.8747800872
 10
0.241299482
 20
-11.8544700395
 10
0.0426509811
 20
-11.8063192483
 10
-0.1509394826
 20
-11.7477576566
 10
-0.3392526367
 20
-11.679780023
 10
-0.5227064814
 20
-11.6033365202
 10
-0.7017924878
 20
-11.5195809045
 10
-0.877244336
 20
-11.4284707758
 10
-1.0485388093
 20
-11.3317642681
 10
-1.2148018946
 20
-11.234185872
 10
-1.3760484582
 20
-11.1383321316
 10
-1.5326005614
 20
-11.0436688507
 10
-1.6840593321
 20
-10.9503362184
  0
LWPOLYLINE
  5
239
100
AcDbEntity
  8
SUPERFICI
100
AcDbPolyline
 62
7
  6
CONTINUOUS
 90
3
 70
0
 10
-0.8344228066
 20
-11.5083760046
 10
-0.2714444782
 20
-11.7232310735
 10
0.3451183436
 20
-11.8747800872
  0
LWPOLYLINE
  5
23A
100
AcDbEntity
  8
SUPERFICI
100
AcDbPolyline
 62
253
  6
CONTINUOUS
 90
7
 70
0
 10
-0.6791086526
 20
-11.2981163725
 10
-0.4391653272
 20
-11.3948740425
 10
-0.1982216319
 20
-11.4820145473
 10
0.0416036731
 20
-11.5632219247
 10
0.2893847044
 20
-11.6291286639
 10
0.5426184961
 20
-11.678657836
 10
0.7970880282
 20
-11.7135021704
  0
LINE
  5
23B
100
AcDbEntity
  8
SUPERFICI
100
AcDbLine
 62
253
  6
CONTINUOUS
 10
-0.9140848719
 20
-11.1913671243
 11
-0.6791086526
 21
-11.2981163725
  0
LINE
  5
23C
100
AcDbEntity
  8
SUPERFICI
100
AcDbLine
 62
253
  6
CONTINUOUS
 10
-1.3598257539
 20
-10.9848222578
 11
-0.9140848719
 21
-11.1913671243
  0
LINE
  5
23D
100
AcDbEntity
  8
SUPERFICI
100
AcDbLine
 62
253
  6
CONTINUOUS
 10
-1.5633986839
 20
-10.8812918416
 11
-1.3598257539
 21
-10.9848222578
  0
LINE
  5
23E
100
AcDbEntity
  8
SUPERFICI
100
AcDbLine
 62
7
  6
CONTINUOUS
 10
-1.3687538418
 20
-11.2264862518
 11
-0.8344228066
 21
-11.5083760046
  0
LWPOLYLINE
  5
23F
100
AcDbEntity
  8
SUPERFICI
100
AcDbPolyline
 62
253
  6
CONTINUOUS
 90
4
 70
0
 10
-1.6840593321
 20
-10.9503362184
 10
-1.9314951461
 20
-10.8203810363
 10
-1.957711168
 20
-10.8068181426
 10
-1.9597100539
 20
-10.8056504627
  0
LINE
  5
240
100
AcDbEntity
  8
SUPERFICI
100
AcDbLine
 62
253
  6
CONTINUOUS
 10
-1.8976263082
 20
-10.6883072844
 11
-1.5633986839
 21
-10.8812918416
  0
LINE
  5
241
100
AcDbEntity
  8
SUPERFICI
100
AcDbLine
 62
7
  6
CONTINUOUS
 10
-1.8666492457
 20
-10.8808184673
 11
-1.3687538418
 21
-11.2264862518
  0
LINE
  5
242
100
AcDbEntity
  8
SUPERFICI
100
AcDbLine
 62
7
  6
CONTINUOUS
 10
-1.9597100539
 20
-10.8056504627
 11
-1.9598396406
 21
-10.8055546181
  0
LINE
  5
243
100
AcDbEntity
  8
SUPERFICI
100
AcDbLine
 62
7
  6
CONTINUOUS
 10
-1.9597100539
 20
-10.8056504627
 11
-1.8666492457
 21
-10.8808184673
  0
LINE
  5
244
100
AcDbEntity
  8
SUPERFICI
100
AcDbLine
 62
7
  6
CONTINUOUS
 10
-4.9372793314
 20
16.2206009468
 11
-4.9222975998
 21
15.9022897368
  0
LWPOLYLINE
  5
245
100
AcDbEntity
  8
RACCORDO
100
AcDbPolyline
 62
253
  6
CONTINUOUS
 90
9
 70
0
 10
-3.9580261228
 20
36.7629001704
 10
-3.9470659259
 20
36.9370161071
 10
-3.8994258734
 20
37.1234519037
 10
-3.8182545707
 20
37.3098629502
 10
-3.7089204826
 20
37.4839063646
 10
-3.578656481
 20
37.6340580268
 10
-3.4360809659
 20
37.7503754096
 10
-3.2906272657
 20
37.8251557096
 10
-3.1519190958
 20
37.853445716
  0
LINE
  5
246
100
AcDbEntity
  8
SUPERFICI
100
AcDbLine
 62
253
  6
CONTINUOUS
 10
-0.6777038742
 20
16.4600548127
 11
-0.4837365378
 21
16.8702490197
  0
LINE
  5
247
100
AcDbEntity
  8
0
100
AcDbLine
 62
7
  6
CONTINUOUS
 10
-2.1910349864
 20
8.360421109
 11
-2.1206677187
 21
8.4010502875
  0
LINE
  5
248
100
AcDbEntity
  8
0
100
AcDbLine
 62
7
  6
CONTINUOUS
 10
-1.4928093172
 20
8.4323057501
 11
-1.4224521726
 21
8.4729290836
  0
LINE
  5
249
100
AcDbEntity
  8
0
100
AcDbLine
 62
7
  6
CONTINUOUS
 10
-0.8669219502
 20
8.7427614839
 11
-0.7965403293
 21
8.7833989497
  0
LINE
  5
24A
100
AcDbEntity
  8
0
100
AcDbLine
 62
7
  6
CONTINUOUS
 10
-2.2194279797
 20
7.4016394845
 11
-2.1489739172
 21
7.4423187772
  0
LINE
  5
24B
100
AcDbEntity
  8
0
100
AcDbLine
 62
7
  6
CONTINUOUS
 10
-2.2653234985
 20
6.5897980805
 11
-2.1947286846
 21
6.6305586413
  0
LINE
  5
24C
100
AcDbEntity
  8
0
100
AcDbLine
 62
7
  6
CONTINUOUS
 10
-2.411225488
 20
4.9926574404
 11
-2.3401794712
 21
5.03367852
  0
LINE
  5
24D
100
AcDbEntity
  8
SUPERFICI
100
AcDbLine
 62
253
  6
CONTINUOUS
 10
2.711346618
 20
7.3746856898
 11
2.9042768093
 21
7.4860774619
  0
LINE
  5
24E
100
AcDbEntity
  8
0
100
AcDbLine
 62
7
  6
CONTINUOUS
 10
-0.9020105652
 20
5.2337038752
 11
-0.8312875442
 21
5.2745384612
  0
LINE
  5
24F
100
AcDbEntity
  8
SUPERFICI
100
AcDbLine
 62
253
  6
CONTINUOUS
 10
3.339925419
 20
7.2513807926
 11
3.4889090932
 21
7.3315965793
  0
LINE
  5
250
100
AcDbEntity
  8
SUPERFICI
100
AcDbLine
 62
253
  6
CONTINUOUS
 10
1.2190303396
 20
-8.0860279015
 11
1.1218519185
 21
-8.1118171254
  0
LINE
  5
251
100
AcDbEntity
  8
SUPERFICI
100
AcDbLine
 62
253
  6
CONTINUOUS
 10
1.4604774376
 20
-5.9520193437
 11
1.3632154048
 21
-5.9758894182
  0
LINE
  5
252
100
AcDbEntity
  8
SUPERFICI
100
AcDbLine
 62
253
  6
CONTINUOUS
 10
1.7971205989
 20
-8.461239231
 11
1.6770941696
 21
-8.4054279191
  0
LWPOLYLINE
  5
253
100
AcDbEntity
  8
RACCORDO
100
AcDbPolyline
 62
253
  6
CONTINUOUS
 90
22
 70
0
 10
1.8626111967
 20
-8.6878834058
 10
1.9032121465
 20
-8.7096379613
 10
1.9550410835
 20
-8.732939505
 10
2.0070759238
 20
-8.7518336369
 10
2.0589856082
 20
-8.7666253148
 10
2.1105539128
 20
-8.777670224
 10
2.161607633
 20
-8.7852333519
 10
2.2119112058
 20
-8.7895742807
 10
2.2613193239
 20
-8.7909821296
 10
2.3098502943
 20
-8.7896861081
 10
2.3573587176
 20
-8.7859084785
 10
2.4037067397
 20
-8.7799044271
 10
2.4489658472
 20
-8.7718788879
 10
2.4930489791
 20
-8.7620246213
 10
2.5358413236
 20
-8.7505438509
 10
2.5774010747
 20
-8.7376015453
 10
2.6176265173
 20
-8.7233745841
 10
2.6564871728
 20
-8.7080093969
 10
2.694166343
 20
-8.6915779402
 10
2.730698742
 20
-8.6741738386
 10
2.7659680152
 20
-8.6559377347
 10
2.7999421467
 20
-8.636981951
  0
LINE
  5
254
100
AcDbEntity
  8
SUPERFICI
100
AcDbLine
 62
7
  6
CONTINUOUS
 10
1.3112933246
 20
-9.5796512303
 11
1.2944199854
 21
-9.5700532754
  0
LINE
  5
255
100
AcDbEntity
  8
SUPERFICI
100
AcDbLine
 62
253
  6
CONTINUOUS
 10
-0.9233940281
 20
-9.0388624423
 11
-1.1630871222
 21
-8.9004666539
  0
LINE
  5
256
100
AcDbEntity
  8
SUPERFICI
100
AcDbLine
 62
253
  6
CONTINUOUS
 10
0.5939175857
 20
-8.1681023639
 11
-0.6107594447
 21
-7.4725369447
  0
LINE
  5
257
100
AcDbEntity
  8
RACCORDO
100
AcDbLine
 62
7
  6
CONTINUOUS
 10
1.8625635473
 20
-8.6878558963
 11
1.8626111967
 21
-8.6878834058
  0
LINE
  5
258
100
AcDbEntity
  8
SUPERFICI
100
AcDbLine
 62
7
  6
CONTINUOUS
 10
-1.3230817173
 20
-5.4678223329
 11
-1.080719473
 21
-5.6077582537
  0
LINE
  5
259
100
AcDbEntity
  8
SUPERFICI
100
AcDbLine
 62
7
  6
CONTINUOUS
 10
-0.6107523738
 20
-5.1969564562
 11
0.8361586791
 21
-6.0323847641
  0
LWPOLYLINE
  5
25A
100
AcDbEntity
  8
SUPERFICI
100
AcDbPolyline
 62
7
  6
CONTINUOUS
 90
10
 70
0
 10
1.2944199854
 20
-9.5700532754
 10
1.1506033811
 20
-9.4753178448
 10
1.0086574417
 20
-9.3535741338
 10
0.8860038165
 20
-9.215919136
 10
0.7819527873
 20
-9.0632777171
 10
0.6978147573
 20
-8.8979731762
 10
0.6368342522
 20
-8.7237831509
 10
0.599922153
 20
-8.5432101673
 10
0.5857412589
 20
-8.3573841058
 10
0.5938985198
 20
-8.1680929276
  0
LWPOLYLINE
  5
25B
100
AcDbEntity
  8
SUPERFICI
100
AcDbPolyline
 62
253
  6
CONTINUOUS
 90
5
 70
0
 10
1.4727526176
 20
-9.0096778613
 10
1.6338504831
 20
-9.1159098835
 10
1.8210566
 20
-9.1966177336
 10
2.0315519741
 20
-9.2466394374
 10
2.2548835621
 20
-9.2561586556
  0
LWPOLYLINE
  5
25C
100
AcDbEntity
  8
RACCORDO
100
AcDbPolyline
 62
253
  6
CONTINUOUS
 90
10
 70
0
 10
2.7998817986
 20
-8.6370163434
 10
2.8401784482
 20
-8.6647432299
 10
2.8790076083
 20
-8.7003802779
 10
2.9149552574
 20
-8.7426297117
 10
2.9467123083
 20
-8.7899529562
 10
2.9731222805
 20
-8.8406266655
 10
2.9932234156
 20
-8.8928054821
 10
3.0062837006
 20
-8.9445892375
 10
3.0118275257
 20
-8.9940921498
 10
3.0096530038
 20
-9.0395114977
  0
LINE
  5
25D
100
AcDbEntity
  8
SUPERFICI
100
AcDbLine
 62
7
  6
CONTINUOUS
 10
1.6768151428
 20
-8.4053672667
 11
1.6155209799
 21
-8.3629687044
  0
LWPOLYLINE
  5
25E
100
AcDbEntity
  8
RACCORDO
100
AcDbPolyline
 62
7
  6
CONTINUOUS
 90
5
 70
0
 10
1.8626808284
 20
-8.6878987
 10
1.7868830688
 20
-8.6346974462
 10
1.7211178231
 20
-8.5683107602
 10
1.6677587937
 20
-8.4911711215
 10
1.6275977065
 20
-8.4051649977
  0
LWPOLYLINE
  5
25F
100
AcDbEntity
  8
SUPERFICI
100
AcDbPolyline
 62
7
  6
CONTINUOUS
 90
6
 70
0
 10
0.0119128403
 20
-8.8269920337
 10
-0.2125090403
 20
-8.6510403332
 10
-0.3807808783
 20
-8.4311617012
 10
-0.5009777886
 20
-8.163039139
 10
-0.5776565392
 20
-7.8434208755
 10
-0.61081713
 20
-7.4723069105
  0
LWPOLYLINE
  5
260
100
AcDbEntity
  8
SUPERFICI
100
AcDbPolyline
 62
253
  6
CONTINUOUS
 90
5
 70
0
 10
-2.137092814
 20
-10.4665528503
 10
-2.1280932193
 20
-10.490436702
 10
-2.087649356
 20
-10.540165698
 10
-2.0118004092
 20
-10.6083813328
 10
-1.8976263082
 20
-10.6883072844
  0
LINE
  5
261
100
AcDbEntity
  8
SUPERFICI
100
AcDbLine
 62
7
  6
CONTINUOUS
 10
-4.1710559174
 20
9.9721167695
 11
-4.0686031721
 21
9.0294810109
  0
LINE
  5
262
100
AcDbEntity
  8
SUPERFICI
100
AcDbLine
 62
7
  6
CONTINUOUS
 10
-3.388099891
 20
2.3383453223
 11
-3.3757155739
 21
2.224092434
  0
LINE
  5
263
100
AcDbEntity
  8
SUPERFICI
100
AcDbLine
 62
7
  6
CONTINUOUS
 10
-3.0753288903
 20
-0.601958084
 11
-2.9399924841
 21
-1.8742930639
  0
LINE
  5
264
100
AcDbEntity
  8
SUPERFICI
100
AcDbLine
 62
7
  6
CONTINUOUS
 10
-4.0690785973
 20
8.7452249128
 11
-3.9405981044
 21
7.5481745756
  0
LINE
  5
265
100
AcDbEntity
  8
SUPERFICI
100
AcDbLine
 62
7
  6
CONTINUOUS
 10
-3.6554116217
 20
4.8373548154
 11
-3.5676495084
 21
4.0123247258
  0
LWPOLYLINE
  5
266
100
AcDbEntity
  8
0
100
AcDbPolyline
 62
7
  6
CONTINUOUS
 90
3
 70
0
 10
-1.0768644549
 20
10.9409487144
 10
-1.0842945166
 20
11.0128437209
 10
-1.0997261706
 20
11.1562256257
  0
LWPOLYLINE
  5
267
100
AcDbEntity
  8
0
100
AcDbPolyline
 62
7
  6
CONTINUOUS
 90
3
 70
0
 10
-2.3276653088
 20
11.6566947841
 10
-2.3353157751
 20
11.7308845306
 10
-2.3512251231
 20
11.878829582
  0
LWPOLYLINE
  5
268
100
AcDbEntity
  8
0
100
AcDbPolyline
 62
7
  6
CONTINUOUS
 90
3
 70
0
 10
-1.0060754104
 20
10.9818214215
 10
-1.0134824681
 20
11.0537293131
 10
-1.0288663434
 20
11.1971384869
  0
LWPOLYLINE
  5
269
100
AcDbEntity
  8
0
100
AcDbPolyline
 62
7
  6
CONTINUOUS
 90
3
 70
0
 10
-2.2568784197
 20
11.6975662467
 10
-2.2645051996
 20
11.7717692467
 10
-2.2803652897
 20
11.9197424008
  0
LWPOLYLINE
  5
26A
100
AcDbEntity
  8
SUPERFICI
100
AcDbPolyline
 62
7
  6
CONTINUOUS
 90
3
 70
0
 10
-3.9405981044
 20
7.5481745756
 10
-3.7895117955
 20
6.0849766131
 10
-3.651183322
 20
4.7678541194
  0
LINE
  5
26B
100
AcDbEntity
  8
SUPERFICI
100
AcDbLine
 62
7
  6
CONTINUOUS
 10
-4.0686031721
 20
9.0294810109
 11
-3.9756703917
 21
8.1203638188
  0
LWPOLYLINE
  5
26C
100
AcDbEntity
  8
0
100
AcDbPolyline
 62
7
  6
CONTINUOUS
 90
6
 70
0
 10
-0.6756891377
 20
10.5811669474
 10
-0.6873080606
 20
10.6986614784
 10
-0.6994328078
 20
10.815794898
 10
-0.7120633791
 20
10.932567206
 10
-0.7251997746
 20
11.0489784025
 10
-0.7388419943
 20
11.1650284875
  0
LINE
  5
26D
100
AcDbEntity
  8
SUPERFICI
100
AcDbLine
 62
7
  6
CONTINUOUS
 10
-3.7323174779
 20
5.6057835236
 11
-3.6554116217
 21
4.8373548154
  0
LINE
  5
26E
100
AcDbEntity
  8
SUPERFICI
100
AcDbLine
 62
7
  6
CONTINUOUS
 10
-3.9756703917
 20
8.1203638188
 11
-3.8899303234
 21
7.246664427
  0
LWPOLYLINE
  5
26F
100
AcDbEntity
  8
SUPERFICI
100
AcDbPolyline
 62
7
  6
CONTINUOUS
 90
3
 70
0
 10
-2.9399924841
 20
-1.8742930639
 10
-2.4223783146
 20
-7.2253624664
 10
-2.137274292
 20
-10.4628585376
  0
LINE
  5
270
100
AcDbEntity
  8
SUPERFICI
100
AcDbLine
 62
7
  6
CONTINUOUS
 10
-3.8899303234
 20
7.246664427
 11
-3.7323174779
 21
5.6057835236
  0
LWPOLYLINE
  5
271
100
AcDbEntity
  8
0
100
AcDbPolyline
 62
7
  6
CONTINUOUS
 90
3
 70
0
 10
-0.2240622435
 20
9.7585901365
 10
-0.2297432069
 20
9.8338971631
 10
-0.2417116014
 20
9.9840981884
  0
LWPOLYLINE
  5
272
100
AcDbEntity
  8
SUPERFICI
100
AcDbPolyline
 62
253
  6
CONTINUOUS
 90
10
 70
0
 10
-1.745971413
 20
-10.7759362268
 10
-1.7441790189
 20
-10.7998155219
 10
-1.7410727576
 20
-10.8227361184
 10
-1.7366621265
 20
-10.8446414417
 10
-1.7309636585
 20
-10.8654550396
 10
-1.7239975708
 20
-10.8850916072
 10
-1.7157912297
 20
-10.9034737198
 10
-1.7063796613
 20
-10.9205304114
 10
-1.6957950267
 20
-10.9362003349
 10
-1.6840624308
 20
-10.9504419948
  0
LWPOLYLINE
  5
273
100
AcDbEntity
  8
SUPERFICI
100
AcDbPolyline
 62
7
  6
CONTINUOUS
 90
4
 70
0
 10
-4.9222975998
 20
15.9022897368
 10
-4.8967836409
 20
15.5526221332
 10
-4.8610690862
 20
15.1713337452
 10
-4.8147264785
 20
14.7521324794
  0
LINE
  5
274
100
AcDbEntity
  8
0
100
AcDbLine
 62
7
  6
CONTINUOUS
 10
-0.1942734746
 20
9.3046449977
 11
-0.2033895388
 21
9.4563929465
  0
LINE
  5
275
100
AcDbEntity
  8
0
100
AcDbLine
 62
7
  6
CONTINUOUS
 10
-2.2303722897
 20
10.4049723278
 11
-2.2438383238
 21
10.6345225021
  0
LINE
  5
276
100
AcDbEntity
  8
0
100
AcDbLine
 62
7
  6
CONTINUOUS
 10
-2.1598846765
 20
10.4456702769
 11
-2.1681988298
 21
10.5908492063
  0
LINE
  5
277
100
AcDbEntity
  8
0
100
AcDbLine
 62
7
  6
CONTINUOUS
 10
-0.1859641681
 20
9.152375064
 11
-0.1942734746
 21
9.3046449977
  0
LINE
  5
278
100
AcDbEntity
  8
0
100
AcDbLine
 62
7
  6
CONTINUOUS
 10
-2.2187495096
 20
10.1742392449
 11
-2.2303722897
 21
10.4049723278
  0
LINE
  5
279
100
AcDbEntity
  8
0
100
AcDbLine
 62
7
  6
CONTINUOUS
 10
-2.1482974915
 20
10.2149166418
 11
-2.1598846765
 21
10.4456702769
  0
LINE
  5
27A
100
AcDbEntity
  8
0
100
AcDbLine
 62
7
  6
CONTINUOUS
 10
-0.1784616194
 20
8.9995831455
 11
-0.1859641681
 21
9.152375064
  0
LINE
  5
27B
100
AcDbEntity
  8
SUPERFICI
100
AcDbLine
 62
7
  6
CONTINUOUS
 10
-1.0847917366
 20
-5.6054096629
 11
-0.922002115
 21
-9.0396614273
  0
LINE
  5
27C
100
AcDbEntity
  8
SUPERFICI
100
AcDbLine
 62
253
  6
CONTINUOUS
 10
-2.1946925769
 20
-0.9750381412
 11
-2.2242935335
 21
-0.3399528228
  0
LINE
  5
27D
100
AcDbEntity
  8
SUPERFICI
100
AcDbLine
 62
253
  6
CONTINUOUS
 10
-3.0644662249
 20
17.6858613459
 11
-3.0940711904
 21
18.3210326775
  0
LINE
  5
27E
100
AcDbEntity
  8
RACCORDO
100
AcDbLine
 62
253
  6
CONTINUOUS
 10
-3.9580262245
 20
36.7629001055
 11
-3.0619706785
 21
17.5059460096
  0
LINE
  5
27F
100
AcDbEntity
  8
SUPERFICI
100
AcDbLine
 62
253
  6
CONTINUOUS
 10
-2.2235878379
 20
-0.5115752819
 11
-1.7459713827
 21
-10.7759368993
  0
LINE
  5
280
100
AcDbEntity
  8
0
100
AcDbLine
 62
7
  6
CONTINUOUS
 10
-2.2089699835
 20
9.9423232534
 11
-2.2187495096
 21
10.1742392449
  0
LINE
  5
281
100
AcDbEntity
  8
0
100
AcDbLine
 62
7
  6
CONTINUOUS
 10
-2.138547915
 20
9.9829840732
 11
-2.1482974915
 21
10.2149166418
  0
LINE
  5
282
100
AcDbEntity
  8
SUPERFICI
100
AcDbLine
 62
253
  6
CONTINUOUS
 10
-1.7355734728
 20
19.1603459712
 11
-1.9980820801
 21
26.3324976333
  0
LINE
  5
283
100
AcDbEntity
  8
0
100
AcDbLine
 62
7
  6
CONTINUOUS
 10
-0.157189068
 20
8.4093309642
 11
-0.1615918148
 21
8.5638303312
  0
LINE
  5
284
100
AcDbEntity
  8
0
100
AcDbLine
 62
7
  6
CONTINUOUS
 10
-0.1535917859
 20
8.254342262
 11
-0.157189068
 21
8.4093309642
  0
LINE
  5
285
100
AcDbEntity
  8
0
100
AcDbLine
 62
7
  6
CONTINUOUS
 10
-0.1507999687
 20
8.0988642248
 11
-0.1535917859
 21
8.254342262
  0
LINE
  5
286
100
AcDbEntity
  8
0
100
AcDbLine
 62
7
  6
CONTINUOUS
 10
-2.1877215289
 20
8.83721407
 11
-2.1888251657
 21
9.0740280107
  0
LINE
  5
287
100
AcDbEntity
  8
0
100
AcDbLine
 62
7
  6
CONTINUOUS
 10
-2.1173643762
 20
8.8778374533
 11
-2.1180808508
 21
9.0564160677
  0
LINE
  5
288
100
AcDbEntity
  8
SUPERFICI
100
AcDbLine
 62
7
  6
CONTINUOUS
 10
-0.6107523738
 20
-5.1969564562
 11
-0.6107594447
 21
-7.4725369447
  0
LINE
  5
289
100
AcDbEntity
  8
0
100
AcDbLine
 62
7
  6
CONTINUOUS
 10
-0.1475702336
 20
7.4981601808
 11
-0.1472701139
 21
7.6554082777
  0
LINE
  5
28A
100
AcDbEntity
  8
0
100
AcDbLine
 62
7
  6
CONTINUOUS
 10
-2.1884581358
 20
8.5993451028
 11
-2.1877215289
 21
8.83721407
  0
LINE
  5
28B
100
AcDbEntity
  8
0
100
AcDbLine
 62
7
  6
CONTINUOUS
 10
-2.1180987343
 20
8.6399697845
 11
-2.1173643762
 21
8.8778374533
  0
LINE
  5
28C
100
AcDbEntity
  8
0
100
AcDbLine
 62
7
  6
CONTINUOUS
 10
-0.1486755961
 20
7.3404546061
 11
-0.1475702336
 21
7.4981601808
  0
LINE
  5
28D
100
AcDbEntity
  8
0
100
AcDbLine
 62
7
  6
CONTINUOUS
 10
-2.1910349864
 20
8.360421109
 11
-2.1884581358
 21
8.5993451028
  0
LINE
  5
28E
100
AcDbEntity
  8
0
100
AcDbLine
 62
7
  6
CONTINUOUS
 10
-2.1206677187
 20
8.4010502875
 11
-2.1180987343
 21
8.6399697845
  0
LINE
  5
28F
100
AcDbEntity
  8
0
100
AcDbLine
 62
7
  6
CONTINUOUS
 10
-0.1505862014
 20
7.1822915534
 11
-0.1486755961
 21
7.3404546061
  0
LINE
  5
290
100
AcDbEntity
  8
SUPERFICI
100
AcDbLine
 62
253
  6
CONTINUOUS
 10
-1.8895941595
 20
18.5757164809
 11
-1.8747793154
 21
19.0741841999
  0
LINE
  5
291
100
AcDbEntity
  8
0
100
AcDbLine
 62
7
  6
CONTINUOUS
 10
-2.2067373701
 20
7.7230619937
 11
-2.2016010743
 21
7.8831353856
  0
LINE
  5
292
100
AcDbEntity
  8
0
100
AcDbLine
 62
7
  6
CONTINUOUS
 10
-0.1662871627
 20
6.5449251348
 11
-0.1611524851
 21
6.7049992178
  0
LINE
  5
293
100
AcDbEntity
  8
0
100
AcDbLine
 62
7
  6
CONTINUOUS
 10
-2.1391837412
 20
7.683528056
 11
-2.1336613832
 21
7.8438041664
  0
LINE
  5
294
100
AcDbEntity
  8
0
100
AcDbLine
 62
7
  6
CONTINUOUS
 10
-2.2126796719
 20
7.56256336
 11
-2.2067373701
 21
7.7230619937
  0
LINE
  5
295
100
AcDbEntity
  8
0
100
AcDbLine
 62
7
  6
CONTINUOUS
 10
-0.172227844
 20
6.3844258118
 11
-0.1662871627
 21
6.5449251348
  0
LINE
  5
296
100
AcDbEntity
  8
0
100
AcDbLine
 62
7
  6
CONTINUOUS
 10
-2.2194279797
 20
7.4016394845
 11
-2.2126796719
 21
7.56256336
  0
LWPOLYLINE
  5
297
100
AcDbEntity
  8
0
100
AcDbPolyline
 62
7
  6
CONTINUOUS
 90
3
 70
0
 10
-2.1489739172
 20
7.4423187772
 10
-2.14550964
 20
7.5228278853
 10
-2.1391837412
 20
7.683528056
  0
LINE
  5
298
100
AcDbEntity
  8
0
100
AcDbLine
 62
7
  6
CONTINUOUS
 10
-0.1789745288
 20
6.223501249
 11
-0.172227844
 21
6.3844258118
  0
LINE
  5
299
100
AcDbEntity
  8
0
100
AcDbLine
 62
7
  6
CONTINUOUS
 10
-2.2445365017
 20
6.9158716807
 11
-2.2353541964
 21
7.078310536
  0
LINE
  5
29A
100
AcDbEntity
  8
0
100
AcDbLine
 62
7
  6
CONTINUOUS
 10
-2.1788844136
 20
6.8752356257
 11
-2.1706549035
 21
7.0148020774
  0
LINE
  5
29B
100
AcDbEntity
  8
0
100
AcDbLine
 62
7
  6
CONTINUOUS
 10
-2.2545262691
 20
6.7530341956
 11
-2.2445365017
 21
6.9158716807
  0
LWPOLYLINE
  5
29C
100
AcDbEntity
  8
0
100
AcDbPolyline
 62
7
  6
CONTINUOUS
 90
3
 70
0
 10
-2.1947286846
 20
6.6305586413
 10
-2.1892460151
 20
6.712217038
 10
-2.1788844136
 20
6.8752356257
  0
LINE
  5
29D
100
AcDbEntity
  8
0
100
AcDbLine
 62
7
  6
CONTINUOUS
 10
-2.2653234985
 20
6.5897980805
 11
-2.2545262691
 21
6.7530341956
  0
LINE
  5
29E
100
AcDbEntity
  8
0
100
AcDbLine
 62
7
  6
CONTINUOUS
 10
-0.2596737369
 20
4.9491686333
 11
-0.2465713292
 21
5.1139036466
  0
LINE
  5
29F
100
AcDbEntity
  8
0
100
AcDbLine
 62
7
  6
CONTINUOUS
 10
-0.2735857354
 20
4.7840605434
 11
-0.2596737369
 21
4.9491686333
  0
LINE
  5
2A0
100
AcDbEntity
  8
0
100
AcDbLine
 62
7
  6
CONTINUOUS
 10
-0.2883073246
 20
4.6185793768
 11
-0.2735857354
 21
4.7840605434
  0
LINE
  5
2A1
100
AcDbEntity
  8
0
100
AcDbLine
 62
7
  6
CONTINUOUS
 10
-2.303737754
 20
5.3687376856
 11
-2.2915211764
 21
5.4881691298
  0
LINE
  5
2A2
100
AcDbEntity
  8
0
100
AcDbLine
 62
7
  6
CONTINUOUS
 10
-2.3746702661
 20
5.327781398
 11
-2.3576111639
 21
5.4948222351
  0
LINE
  5
2A3
100
AcDbEntity
  8
0
100
AcDbLine
 62
7
  6
CONTINUOUS
 10
-2.3215537052
 20
5.2013814599
 11
-2.303737754
 21
5.3687376856
  0
LINE
  5
2A4
100
AcDbEntity
  8
0
100
AcDbLine
 62
7
  6
CONTINUOUS
 10
-2.3925417074
 20
5.1603931331
 11
-2.3746702661
 21
5.327781398
  0
LINE
  5
2A5
100
AcDbEntity
  8
0
100
AcDbLine
 62
7
  6
CONTINUOUS
 10
-2.3401794712
 20
5.03367852
 11
-2.3215537052
 21
5.2013814599
  0
LINE
  5
2A6
100
AcDbEntity
  8
0
100
AcDbLine
 62
7
  6
CONTINUOUS
 10
-2.411225488
 20
4.9926574404
 11
-2.3925417074
 21
5.1603931331
  0
LWPOLYLINE
  5
2A7
100
AcDbEntity
  8
SUPERFICI
100
AcDbPolyline
 62
7
  6
CONTINUOUS
 90
8
 70
0
 10
1.1686653358
 20
1.6185604652
 10
1.4669306858
 20
2.2475502393
 10
1.7355000004
 20
2.9092066914
 10
1.9738885088
 20
3.6002082266
 10
2.1834166525
 20
4.3096466864
 10
2.3638500206
 20
5.0350976367
 10
2.5133468129
 20
5.7825365
 10
2.6307915667
 20
6.5541981832
  0
LINE
  5
2A8
100
AcDbEntity
  8
SUPERFICI
100
AcDbLine
 62
7
  6
CONTINUOUS
 10
0.8432181178
 20
1.0179213636
 11
1.1686653358
 21
1.6185604652
  0
LWPOLYLINE
  5
2A9
100
AcDbEntity
  8
SUPERFICI
100
AcDbPolyline
 62
7
  6
CONTINUOUS
 90
51
 70
0
 10
0.247736995
 20
1.3917026692
 10
0.3575306399
 20
1.5885411963
 10
0.4664198768
 20
1.7945430522
 10
0.5741428342
 20
2.0096472023
 10
0.680565524
 20
2.2337340244
 10
0.7856125996
 20
2.4674233459
 10
0.8890980285
 20
2.710420715
 10
0.990730749
 20
2.9627804991
 10
1.0902185328
 20
3.2256137579
 10
1.1872953498
 20
3.4985698707
 10
1.2816325547
 20
3.7816718564
 10
1.3727512278
 20
4.076539331
 10
1.4603662921
 20
4.3827949041
 10
1.5439970344
 20
4.7003563078
 10
1.6227403079
 20
5.031207319
 10
1.6962633747
 20
5.3746799008
 10
1.7639137276
 20
5.7307954139
 10
1.8241193516
 20
6.1024492384
 10
1.8765675717
 20
6.4886097189
 10
1.9202601039
 20
6.8893697002
 10
1.9522983643
 20
7.3091046531
 10
1.9723272009
 20
7.7503093003
 10
1.9787515456
 20
8.2089824927
 10
1.9669533258
 20
8.6798032872
 10
1.935467496
 20
9.1670981086
 10
1.8843097173
 20
9.6651400318
 10
1.8126046349
 20
10.154562678
 10
1.7204870089
 20
10.6322999805
 10
1.6090033852
 20
11.1018999235
 10
1.4802894274
 20
11.5551750268
 10
1.3356776481
 20
11.9903308116
 10
1.1757552635
 20
12.4104336708
 10
1.0019976632
 20
12.8150097176
 10
0.8151284834
 20
13.2046641081
 10
0.6160819099
 20
13.580053657
 10
0.4066457955
 20
13.9408252837
 10
0.1873190292
 20
14.2879286666
 10
-0.0409827278
 20
14.6216168343
 10
-0.2758497881
 20
14.9405246633
 10
-0.5173076971
 20
15.2458386182
 10
-0.7641165162
 20
15.5375022354
 10
-1.0119379244
 20
15.8123421496
 10
-1.2601352646
 20
16.0703951408
 10
-1.5083276046
 20
16.3126394489
 10
-1.7525849568
 20
16.5373040981
 10
-1.9932567336
 20
16.744846714
 10
-2.2293370229
 20
16.9354939932
 10
-2.4549620009
 20
17.1070310516
 10
-2.6680870196
 20
17.2588161352
 10
-2.8704708934
 20
17.3917963262
 10
-3.0620469367
 20
17.5060433286
  0
LINE
  5
2AA
100
AcDbEntity
  8
SUPERFICI
100
AcDbLine
 62
7
  6
CONTINUOUS
 10
0.4929699457
 20
0.4458418787
 11
0.8432181178
 21
1.0179213636
  0
LINE
  5
2AB
100
AcDbEntity
  8
SUPERFICI
100
AcDbLine
 62
7
  6
CONTINUOUS
 10
0.3662413693
 20
0.263117379
 11
0.4929699457
 21
0.4458418787
  0
LWPOLYLINE
  5
2AC
100
AcDbEntity
  8
SUPERFICI
100
AcDbPolyline
 62
7
  6
CONTINUOUS
 90
7
 70
0
 10
0.9714501637
 20
1.0241031933
 10
0.8673292567
 20
0.8777721773
 10
0.7612884249
 20
0.7382540643
 10
0.6538983855
 20
0.6059018549
 10
0.5466861679
 20
0.4811654612
 10
0.4393245662
 20
0.3642994132
 10
0.4299574948
 20
0.3549869279
  0
LWPOLYLINE
  5
2AD
100
AcDbEntity
  8
SUPERFICI
100
AcDbPolyline
 62
7
  6
CONTINUOUS
 90
4
 70
0
 10
0.8912510034
 20
0.971608063
 10
0.7439071227
 20
0.7683596045
 10
0.585174644
 20
0.5665031973
 10
0.5225947606
 20
0.4942297082
  0
LWPOLYLINE
  5
2AE
100
AcDbEntity
  8
SUPERFICI
100
AcDbPolyline
 62
7
  6
CONTINUOUS
 90
7
 70
0
 10
-0.4206721856
 20
0.3869278139
 10
-0.3085435097
 20
0.533538793
 10
-0.196582589
 20
0.6885487994
 10
-0.0848888962
 20
0.8517443111
 10
0.0263653164
 20
1.0232370807
 10
0.1372637753
 20
1.2032981733
 10
0.247736995
 20
1.3917026692
  0
LINE
  5
2AF
100
AcDbEntity
  8
SUPERFICI
100
AcDbLine
 62
7
  6
CONTINUOUS
 10
-0.533178122
 20
0.248924084
 11
-0.4206721856
 21
0.3869278139
  0
LWPOLYLINE
  5
2B0
100
AcDbEntity
  8
SUPERFICI
100
AcDbPolyline
 62
7
  6
CONTINUOUS
 90
6
 70
0
 10
-0.3236583894
 20
-0.5166240185
 10
-0.1789313452
 20
-0.378990587
 10
-0.0373241405
 20
-0.232044423
 10
0.1008949018
 20
-0.0759488203
 10
0.2354872565
 20
0.0891488515
 10
0.3662413693
 20
0.263117379
  0
LWPOLYLINE
  5
2B1
100
AcDbEntity
  8
SUPERFICI
100
AcDbPolyline
 62
7
  6
CONTINUOUS
 90
5
 70
0
 10
-0.9863309863
 20
-0.215419506
 10
-0.8721105661
 20
-0.1128829216
 10
-0.7586549601
 20
-0.0014076887
 10
-0.6458461756
 20
0.1194149225
 10
-0.533178122
 20
0.248924084
  0
LINE
  5
2B2
100
AcDbEntity
  8
SUPERFICI
100
AcDbLine
 62
7
  6
CONTINUOUS
 10
-1.1009936494
 20
-0.3085473385
 11
-0.9863309863
 21
-0.215419506
  0
LWPOLYLINE
  5
2B3
100
AcDbEntity
  8
SUPERFICI
100
AcDbPolyline
 62
7
  6
CONTINUOUS
 90
7
 70
0
 10
-1.031388135
 20
-0.9949955404
 10
-0.9077904394
 20
-0.9365463704
 10
-0.786132818
 20
-0.8693910653
 10
-0.666670513
 20
-0.7936815536
 10
-0.5496346657
 20
-0.7095617899
 10
-0.4352343302
 20
-0.6171671687
 10
-0.3236583894
 20
-0.5166240185
  0
LWPOLYLINE
  5
2B4
100
AcDbEntity
  8
SUPERFICI
100
AcDbPolyline
 62
253
  6
CONTINUOUS
 90
5
 70
0
 10
4.6658998748
 20
-3.2182201812
 10
4.5408236663
 20
-3.2258072243
 10
4.3873794281
 20
-3.2611469392
 10
4.2030910743
 20
-3.3240266592
 10
3.9855355424
 20
-3.4132850901
  0
LWPOLYLINE
  5
2B5
100
AcDbEntity
  8
RACCORDO
100
AcDbPolyline
 62
253
  6
CONTINUOUS
 90
21
 70
0
 10
4.542549717
 20
-3.5106299723
 10
4.5097485914
 20
-3.5070739012
 10
4.4752792228
 20
-3.5070408541
 10
4.4396554548
 20
-3.5096651257
 10
4.4029622994
 20
-3.5148784954
 10
4.3652541333
 20
-3.5226563778
 10
4.3269597695
 20
-3.5322810776
 10
4.2882832134
 20
-3.5436888081
 10
4.2492408738
 20
-3.5568856717
 10
4.2101348098
 20
-3.5712092497
 10
4.1710796301
 20
-3.5866197104
 10
4.1320013071
 20
-3.6032226225
 10
4.0930229191
 20
-3.6205203921
 10
4.0543316329
 20
-3.6383978483
 10
4.0159061281
 20
-3.6569658951
 10
3.9775461117
 20
-3.6760541257
 10
3.9393736329
 20
-3.6955805814
 10
3.9014108418
 20
-3.7156005491
 10
3.8633861857
 20
-3.7360804669
 10
3.8251286817
 20
-3.7570664789
 10
3.7865714716
 20
-3.778691091
  0
LWPOLYLINE
  5
2B6
100
AcDbEntity
  8
SUPERFICI
100
AcDbPolyline
 62
7
  6
CONTINUOUS
 90
7
 70
0
 10
-1.8049792262
 20
-1.116086426
 10
-1.6807494415
 20
-1.1306552098
 10
-1.5544339721
 20
-1.1310915489
 10
-1.4261939872
 20
-1.1175642506
 10
-1.2961802721
 20
-1.0902498261
 10
-1.1645341158
 20
-1.049331037
 10
-1.031388135
 20
-0.9949955404
  0
LWPOLYLINE
  5
2B7
100
AcDbEntity
  8
SUPERFICI
100
AcDbPolyline
 62
7
  6
CONTINUOUS
 90
9
 70
0
 10
-2.019210578
 20
-0.5946002102
 10
-1.9107978225
 20
-0.6116850844
 10
-1.7968445828
 20
-0.6117327134
 10
-1.6788690993
 20
-0.5954526605
 10
-1.5612727727
 20
-0.5649399973
 10
-1.4457649741
 20
-0.5199967819
 10
-1.3308124961
 20
-0.4608628784
 10
-1.2159301473
 20
-0.3902859939
 10
-1.1009936494
 20
-0.3085473385
  0
LWPOLYLINE
  5
2B8
100
AcDbEntity
  8
SUPERFICI
100
AcDbPolyline
 62
7
  6
CONTINUOUS
 90
3
 70
0
 10
-2.2235556301
 20
-0.5113562112
 10
-2.1234731456
 20
-0.5611594087
 10
-2.019210578
 20
-0.5946002102
  0
LWPOLYLINE
  5
2B9
100
AcDbEntity
  8
SUPERFICI
100
AcDbPolyline
 62
7
  6
CONTINUOUS
 90
7
 70
0
 10
-2.1946925644
 20
-0.97503841
 10
-2.1315105655
 20
-1.0087807561
 10
-2.0675641847
 20
-1.0384006559
 10
-2.0028968871
 20
-1.0639187859
 10
-1.9375504497
 20
-1.0853570012
 10
-1.871565029
 20
-1.1027382394
 10
-1.8049792262
 20
-1.116086426
  0
LWPOLYLINE
  5
2BA
100
AcDbEntity
  8
SUPERFICI
100
AcDbPolyline
 62
253
  6
CONTINUOUS
 90
3
 70
0
 10
4.8425844668
 20
-3.2822825687
 10
4.7651365836
 20
-3.2377299774
 10
4.6658998748
 20
-3.2182201812
  0
LINE
  5
2BB
100
AcDbEntity
  8
RACCORDO
100
AcDbLine
 62
253
  6
CONTINUOUS
 10
2.0661726254
 20
-5.355611314
 11
3.9685565316
 21
-6.4540620565
  0
LINE
  5
2BC
100
AcDbEntity
  8
SUPERFICI
100
AcDbLine
 62
253
  6
CONTINUOUS
 10
3.8211730194
 20
-6.193769478
 11
2.1456903955
 21
-5.2263668097
  0
LINE
  5
2BD
100
AcDbEntity
  8
SUPERFICI
100
AcDbLine
 62
253
  6
CONTINUOUS
 10
3.7505187993
 20
-3.8680663224
 11
4.1116867893
 21
-4.0766001933
  0
LINE
  5
2BE
100
AcDbEntity
  8
RACCORDO
100
AcDbLine
 62
253
  6
CONTINUOUS
 10
3.657374671
 20
-3.9572964978
 11
4.2484742058
 21
-4.2986085085
  0
LINE
  5
2BF
100
AcDbEntity
  8
RACCORDO
100
AcDbLine
 62
253
  6
CONTINUOUS
 10
4.1948619851
 20
-3.6759489662
 11
4.1917814178
 21
-3.6741119162
  0
LWPOLYLINE
  5
2C0
100
AcDbEntity
  8
RACCORDO
100
AcDbPolyline
 62
253
  6
CONTINUOUS
 90
10
 70
0
 10
3.9685627559
 20
-6.4540135499
 10
4.0187711498
 20
-6.4844357479
 10
4.0765706129
 20
-6.5076896942
 10
4.1392514746
 20
-6.522685231
 10
4.2038752214
 20
-6.5287193592
 10
4.2674122566
 20
-6.5255091956
 10
4.3268839286
 20
-6.5132052344
 10
4.3795021729
 20
-6.4923842922
 10
4.4228002169
 20
-6.4640224661
 10
4.4547482245
 20
-6.4294493743
  0
LWPOLYLINE
  5
2C1
100
AcDbEntity
  8
RACCORDO
100
AcDbPolyline
 62
253
  6
CONTINUOUS
 90
10
 70
0
 10
4.2484256019
 20
-4.2986291505
 10
4.2993767264
 20
-4.329638648
 10
4.3581022689
 20
-4.3532489432
 10
4.4217705045
 20
-4.3683214987
 10
4.4873113737
 20
-4.3741294646
 10
4.5515645166
 20
-4.3703927283
 10
4.6114316655
 20
-4.3572914232
 10
4.6640260461
 20
-4.3354572424
 10
4.7068115774
 20
-4.3059429776
 10
4.7377251575
 20
-4.2701717552
  0
LWPOLYLINE
  5
2C2
100
AcDbEntity
  8
SUPERFICI
100
AcDbPolyline
 62
253
  6
CONTINUOUS
 90
10
 70
0
 10
3.8211718356
 20
-6.1937669773
 10
3.9067287646
 20
-6.2462225526
 10
4.005159596
 20
-6.2860355113
 10
4.111596377
 20
-6.3113586992
 10
4.2210398657
 20
-6.3210697897
 10
4.3279971318
 20
-6.3147478349
 10
4.426824932
 20
-6.2929713968
 10
4.5129111163
 20
-6.2572048317
 10
4.5827662167
 20
-6.209402094
 10
4.6335994718
 20
-6.1520209497
  0
LINE
  5
2C3
100
AcDbEntity
  8
SUPERFICI
100
AcDbLine
 62
7
  6
CONTINUOUS
 10
-2.3207690816
 20
-0.4471597139
 11
-2.2235556301
 21
-0.5113562112
  0
LINE
  5
2C4
100
AcDbEntity
  8
SUPERFICI
100
AcDbLine
 62
7
  6
CONTINUOUS
 10
-2.4143657326
 20
-0.3661156959
 11
-2.3207690816
 21
-0.4471597139
  0
LWPOLYLINE
  5
2C5
100
AcDbEntity
  8
SUPERFICI
100
AcDbPolyline
 62
7
  6
CONTINUOUS
 90
7
 70
0
 10
-2.5301932243
 20
-0.6972389213
 10
-2.4797066437
 20
-0.7514935057
 10
-2.4271499911
 20
-0.8025688101
 10
-2.3724480385
 20
-0.8504620603
 10
-2.3155238618
 20
-0.8951715497
 10
-2.2562988271
 20
-0.9366967027
 10
-2.1946925769
 20
-0.9750381412
  0
LWPOLYLINE
  5
2C6
100
AcDbEntity
  8
SUPERFICI
100
AcDbPolyline
 62
7
  6
CONTINUOUS
 90
4
 70
0
 10
-2.6831615232
 20
0.1529522011
 10
-2.545684577
 20
-0.0401172411
 10
-2.3927688875
 20
-0.2043286062
 10
-2.2242426352
 20
-0.3396440708
  0
LWPOLYLINE
  5
2C7
100
AcDbEntity
  8
SUPERFICI
100
AcDbPolyline
 62
7
  6
CONTINUOUS
 90
6
 70
0
 10
-2.8244042195
 20
0.2797770765
 10
-2.7535136142
 20
0.1263314901
 10
-2.6755145367
 20
-0.0179388499
 10
-2.5916733518
 20
-0.1514908868
 10
-2.5043760071
 20
-0.2682307409
 10
-2.4143657326
 20
-0.3661156959
  0
LWPOLYLINE
  5
2C8
100
AcDbEntity
  8
SUPERFICI
100
AcDbPolyline
 62
253
  6
CONTINUOUS
 90
4
 70
0
 10
1.1631902643
 20
-8.5367359873
 10
1.2332901629
 20
-8.7181482796
 10
1.337280139
 20
-8.876484385
 10
1.4727526176
 20
-9.0096778613
  0
LWPOLYLINE
  5
2C9
100
AcDbEntity
  8
RACCORDO
100
AcDbPolyline
 62
253
  6
CONTINUOUS
 90
17
 70
0
 10
1.450688079
 20
-8.6283172563
 10
1.4843152702
 20
-8.7154932644
 10
1.5239326441
 20
-8.7951596832
 10
1.5692873411
 20
-8.8671227867
 10
1.620495255
 20
-8.9313568351
 10
1.6748754752
 20
-8.988713102
 10
1.7321588631
 20
-9.0391249245
 10
1.7925214962
 20
-9.0825595014
 10
1.8539527359
 20
-9.1200625948
 10
1.9162506994
 20
-9.1516000692
 10
1.9797232123
 20
-9.1771358009
 10
2.0430799783
 20
-9.1978344506
 10
2.1060856363
 20
-9.213815791
 10
2.1688654689
 20
-9.2250596027
 10
2.2308138513
 20
-9.232506747
 10
2.2918255334
 20
-9.2362713875
 10
2.3520081846
 20
-9.2363209611
  0
LWPOLYLINE
  5
2CA
100
AcDbEntity
  8
RACCORDO
100
AcDbPolyline
 62
7
  6
CONTINUOUS
 90
4
 70
0
 10
1.6275977065
 20
-8.4051649977
 10
1.6007971279
 20
-8.3115233088
 10
1.5872344649
 20
-8.2110792092
 10
1.5870952761
 20
-8.1053332254
  0
LWPOLYLINE
  5
2CB
100
AcDbEntity
  8
SUPERFICI
100
AcDbPolyline
 62
7
  6
CONTINUOUS
 90
7
 70
0
 10
-3.1191322652
 20
0.6275378563
 10
-3.0477385482
 20
0.3562327368
 10
-2.9674444077
 20
0.1048792177
 10
-2.8769694307
 20
-0.1263277598
 10
-2.7749377371
 20
-0.3371984988
 10
-2.6598729328
 20
-0.5275551269
 10
-2.5301932243
 20
-0.6972389213
  0
LWPOLYLINE
  5
2CC
100
AcDbEntity
  8
SUPERFICI
100
AcDbPolyline
 62
7
  6
CONTINUOUS
 90
6
 70
0
 10
-3.1130413031
 20
1.190132888
 10
-3.0622354445
 20
0.9911188048
 10
-3.0084436792
 20
0.7995966014
 10
-2.9508523527
 20
0.6171712624
 10
-2.8896312616
 20
0.4438984373
 10
-2.8244042195
 20
0.2797770765
  0
LWPOLYLINE
  5
2CD
100
AcDbEntity
  8
SUPERFICI
100
AcDbPolyline
 62
7
  6
CONTINUOUS
 90
3
 70
0
 10
-3.2060919292
 20
1.6093664911
 10
-3.1609557558
 20
1.3960349585
 10
-3.1130413031
 20
1.190132888
  0
LINE
  5
2CE
100
AcDbEntity
  8
SUPERFICI
100
AcDbLine
 62
253
  6
CONTINUOUS
 10
1.1258748974
 20
-8.3340331293
 11
1.1631902643
 21
-8.5367359873
  0
LWPOLYLINE
  5
2CF
100
AcDbEntity
  8
SUPERFICI
100
AcDbPolyline
 62
7
  6
CONTINUOUS
 90
3
 70
0
 10
-3.2907591819
 20
2.0585936939
 10
-3.2492778506
 20
1.830241835
 10
-3.2060919292
 20
1.6093664911
  0
LWPOLYLINE
  5
2D0
100
AcDbEntity
  8
SUPERFICI
100
AcDbPolyline
 62
7
  6
CONTINUOUS
 90
9
 70
0
 10
-3.3457657822
 20
2.3937057984
 10
-3.2901544464
 20
2.0760921804
 10
-3.2288000979
 20
1.7681634058
 10
-3.1622891897
 20
1.4696276659
 10
-3.0895484689
 20
1.1809402935
 10
-3.0059746244
 20
0.9046102869
 10
-2.9108544723
 20
0.6361571932
 10
-2.8044028209
 20
0.3802006535
 10
-2.6831615232
 20
0.1529522011
  0
LWPOLYLINE
  5
2D1
100
AcDbEntity
  8
SUPERFICI
100
AcDbPolyline
 62
7
  6
CONTINUOUS
 90
7
 70
0
 10
-2.1373281667
 20
-10.4638782616
 10
-2.1252943144
 20
-10.5384750982
 10
-2.1029684923
 20
-10.6084322822
 10
-2.0724660127
 20
-10.6712790897
 10
-2.0355822261
 20
-10.7266122263
 10
-1.9944272195
 20
-10.7738690972
 10
-1.9565876272
 20
-10.8084942002
  0
LWPOLYLINE
  5
2D2
100
AcDbEntity
  8
SUPERFICI
100
AcDbPolyline
 62
7
  6
CONTINUOUS
 90
3
 70
0
 10
-3.3976512697
 20
2.7196344562
 10
-3.3305305102
 20
2.2944086147
 10
-3.2907591819
 20
2.0585936939
  0
LWPOLYLINE
  5
2D3
100
AcDbEntity
  8
SUPERFICI
100
AcDbPolyline
 62
7
  6
CONTINUOUS
 90
3
 70
0
 10
-3.4788131902
 20
3.3139185741
 10
-3.443052004
 20
3.0473757596
 10
-3.4065386596
 20
2.788851571
  0
LWPOLYLINE
  5
2D4
100
AcDbEntity
  8
SUPERFICI
100
AcDbPolyline
 62
7
  6
CONTINUOUS
 90
3
 70
0
 10
-3.4917813028
 20
3.3955306709
 10
-3.4463398295
 20
3.0535211192
 10
-3.3690496176
 20
2.5378771383
  0
LINE
  5
2D5
100
AcDbEntity
  8
SUPERFICI
100
AcDbLine
 62
7
  6
CONTINUOUS
 10
-4.7022407746
 20
13.8314825165
 11
-4.5719668833
 21
12.8453188312
  0
LINE
  5
2D6
100
AcDbEntity
  8
SUPERFICI
100
AcDbLine
 62
7
  6
CONTINUOUS
 10
-4.7155870105
 20
14.3090704672
 11
-4.5035935246
 21
12.6892780301
  0
LINE
  5
2D7
100
AcDbEntity
  8
SUPERFICI
100
AcDbLine
 62
7
  6
CONTINUOUS
 10
-4.5035935246
 20
12.6892780301
 11
-4.4251881114
 21
12.0831115715
  0
LINE
  5
2D8
100
AcDbEntity
  8
SUPERFICI
100
AcDbLine
 62
7
  6
CONTINUOUS
 10
-4.5719668833
 20
12.8453188312
 11
-4.3838785715
 21
11.3962548335
  0
LWPOLYLINE
  5
2D9
100
AcDbEntity
  8
SUPERFICI
100
AcDbPolyline
 62
7
  6
CONTINUOUS
 90
4
 70
0
 10
-7.7152780009
 20
37.8222884238
 10
-7.3500707089
 20
34.9822127384
 10
-6.4436389971
 20
27.8706109599
 10
-5.6036124649
 20
21.1721687841
  0
LINE
  5
2DA
100
AcDbEntity
  8
SUPERFICI
100
AcDbLine
 62
7
  6
CONTINUOUS
 10
-3.5141022271
 20
3.588382776
 11
-3.4788131902
 21
3.3139185741
  0
LINE
  5
2DB
100
AcDbEntity
  8
SUPERFICI
100
AcDbLine
 62
7
  6
CONTINUOUS
 10
-4.3838785715
 20
11.3962548335
 11
-4.3253665765
 21
10.9313169054
  0
LWPOLYLINE
  5
2DC
100
AcDbEntity
  8
SUPERFICI
100
AcDbPolyline
 62
7
  6
CONTINUOUS
 90
4
 70
0
 10
-4.4251881114
 20
12.0831115715
 10
-4.2831643116
 20
10.9458760181
 10
-4.225497906
 20
10.4553795951
 10
-4.1710559174
 20
9.9721167695
  0
LINE
  5
2DD
100
AcDbEntity
  8
SUPERFICI
100
AcDbLine
 62
7
  6
CONTINUOUS
 10
-3.5489695558
 20
3.8707281837
 11
-3.4917813028
 21
3.3955306709
  0
LWPOLYLINE
  5
2DE
100
AcDbEntity
  8
SUPERFICI
100
AcDbPolyline
 62
7
  6
CONTINUOUS
 90
7
 70
0
 10
-0.922002115
 20
-9.0396614273
 10
-0.8847459742
 20
-9.3430078882
 10
-0.8174267412
 20
-9.6101548861
 10
-0.7200444161
 20
-9.8411024209
 10
-0.590144192
 20
-10.0371929241
 10
-0.4301808758
 20
-10.1970839642
 10
-0.2926316819
 20
-10.2921458331
  0
LINE
  5
2DF
100
AcDbEntity
  8
SUPERFICI
100
AcDbLine
 62
7
  6
CONTINUOUS
 10
-5.6036124649
 20
21.1721687841
 11
-4.7022407746
 21
13.8314825165
  0
LINE
  5
2E0
100
AcDbEntity
  8
SUPERFICI
100
AcDbLine
 62
7
  6
CONTINUOUS
 10
-4.3253665765
 20
10.9313169054
 11
-4.2157838529
 21
10.0289101279
  0
LINE
  5
2E1
100
AcDbEntity
  8
SUPERFICI
100
AcDbLine
 62
7
  6
CONTINUOUS
 10
-4.8147264785
 20
14.7521324794
 11
-4.7869986798
 21
14.5183112316
  0
LWPOLYLINE
  5
2E2
100
AcDbEntity
  8
SUPERFICI
100
AcDbPolyline
 62
7
  6
CONTINUOUS
 90
7
 70
0
 10
-3.3757155739
 20
2.224092434
 10
-3.3428974649
 20
1.9425428078
 10
-3.3069861824
 20
1.6671699505
 10
-3.2673497148
 20
1.397962847
 10
-3.2233144911
 20
1.1349309859
 10
-3.1741631661
 20
0.8781051079
 10
-3.1191322652
 20
0.6275378563
  0
LINE
  5
2E3
100
AcDbEntity
  8
SUPERFICI
100
AcDbLine
 62
7
  6
CONTINUOUS
 10
-3.5833263432
 20
4.1614937812
 11
-3.535076832
 21
3.7450821202
  0
LWPOLYLINE
  5
2E4
100
AcDbEntity
  8
SUPERFICI
100
AcDbPolyline
 62
7
  6
CONTINUOUS
 90
3
 70
0
 10
-4.2157838529
 20
10.0289101279
 10
-4.1160038817
 20
9.1634017895
 10
-4.0690785973
 20
8.7452249128
  0
LWPOLYLINE
  5
2E5
100
AcDbEntity
  8
0
100
AcDbPolyline
 62
7
  6
CONTINUOUS
 90
3
 70
0
 10
-2.3512251231
 20
11.878829582
 10
-2.3594840049
 20
11.9525848869
 10
-2.3766101839
 20
12.0996610551
  0
LWPOLYLINE
  5
2E6
100
AcDbEntity
  8
0
100
AcDbPolyline
 62
7
  6
CONTINUOUS
 90
3
 70
0
 10
-1.0997261706
 20
11.1562256257
 10
-1.1077277628
 20
11.2277125239
 10
-1.1243024777
 20
11.3702782119
  0
LWPOLYLINE
  5
2E7
100
AcDbEntity
  8
0
100
AcDbPolyline
 62
7
  6
CONTINUOUS
 90
3
 70
0
 10
-2.2803652897
 20
11.9197424008
 10
-2.2885985999
 20
11.9935125549
 10
-2.2986464541
 20
12.0808550186
  0
LWPOLYLINE
  5
2E8
100
AcDbEntity
  8
0
100
AcDbPolyline
 62
7
  6
CONTINUOUS
 90
3
 70
0
 10
-1.0288663434
 20
11.1971384869
 10
-1.0368431608
 20
11.2686397691
 10
-1.0533665554
 20
11.4112357244
  0
LINE
  5
2E9
100
AcDbEntity
  8
SUPERFICI
100
AcDbLine
 62
7
  6
CONTINUOUS
 10
-3.651183322
 20
4.7678541194
 11
-3.5765799495
 21
4.1015320325
  0
LWPOLYLINE
  5
2EA
100
AcDbEntity
  8
0
100
AcDbPolyline
 62
7
  6
CONTINUOUS
 90
3
 70
0
 10
-0.2417116014
 20
9.9840981884
 10
-0.2479990325
 20
10.0589921871
 10
-0.2611803622
 20
10.2083671566
  0
LWPOLYLINE
  5
2EB
100
AcDbEntity
  8
SUPERFICI
100
AcDbPolyline
 62
7
  6
CONTINUOUS
 90
6
 70
0
 10
2.6836664529
 20
9.6422413925
 10
2.7132812818
 20
9.2669689252
 10
2.7335727691
 20
8.9060092164
 10
2.7448294116
 20
8.5589571629
 10
2.7474660287
 20
8.2326876943
 10
2.741573009
 20
7.9195757449
  0
LINE
  5
2EC
100
AcDbEntity
  8
SUPERFICI
100
AcDbLine
 62
7
  6
CONTINUOUS
 10
2.9886757797
 20
10.1892030889
 11
3.0315996547
 21
9.5891874821
  0
LWPOLYLINE
  5
2ED
100
AcDbEntity
  8
SUPERFICI
100
AcDbPolyline
 62
7
  6
CONTINUOUS
 90
22
 70
0
 10
1.9522101765
 20
8.271490484
 10
1.9401956293
 20
8.877164773
 10
1.8996086554
 20
9.4683034693
 10
1.8314361097
 20
10.0452239108
 10
1.7373647324
 20
10.6084766934
 10
1.6175897333
 20
11.1582328052
 10
1.4709565408
 20
11.6943922528
 10
1.2984953607
 20
12.2180297462
 10
1.1011553274
 20
12.7291642876
 10
0.8779668254
 20
13.2264434022
 10
0.629520181
 20
13.7119195473
 10
0.3573841195
 20
14.1850866769
 10
0.0625923394
 20
14.6413186046
 10
-0.2556854709
 20
15.0840653085
 10
-0.5941342007
 20
15.5120344245
 10
-0.9447590877
 20
15.9142866309
 10
-1.3095691789
 20
16.2937450383
 10
-1.6838746692
 20
16.6501289518
 10
-2.0491532092
 20
16.9682426527
 10
-2.3985441219
 20
17.243748158
 10
-2.7371411589
 20
17.48284397
 10
-3.0645222916
 20
17.6859820736
  0
LINE
  5
2EE
100
AcDbEntity
  8
SUPERFICI
100
AcDbLine
 62
253
  6
CONTINUOUS
 10
1.1219550841
 20
-8.1115654239
 11
1.1258748974
 21
-8.3340331293
  0
LWPOLYLINE
  5
2EF
100
AcDbEntity
  8
SUPERFICI
100
AcDbPolyline
 62
7
  6
CONTINUOUS
 90
4
 70
0
 10
3.0315996547
 20
9.5891874821
 10
3.0394295814
 20
8.9409624369
 10
3.0010801669
 20
8.2425175418
 10
2.9041033727
 20
7.4860332288
  0
LWPOLYLINE
  5
2F0
100
AcDbEntity
  8
SUPERFICI
100
AcDbPolyline
 62
7
  6
CONTINUOUS
 90
37
 70
0
 10
1.9522101765
 20
8.271490484
 10
1.9426645838
 20
7.8258425077
 10
1.9208852232
 20
7.3913416882
 10
1.8875006877
 20
6.9685305443
 10
1.8426774952
 20
6.5585539803
 10
1.7874688422
 20
6.1612547005
 10
1.7237609632
 20
5.7751443213
 10
1.6522706671
 20
5.4004565431
 10
1.5732983024
 20
5.0377044547
 10
1.4879959505
 20
4.68573184
 10
1.3969241064
 20
4.3447142811
 10
1.3003760116
 20
4.0150435068
 10
1.1990122812
 20
3.6958219469
 10
1.0932929433
 20
3.3872066887
 10
0.9834749674
 20
3.0894712795
 10
0.8698380562
 20
2.801842819
 10
0.7527883696
 20
2.5244281106
 10
0.6325168107
 20
2.2574446437
 10
0.5089130005
 20
2.0002462852
 10
0.3822697849
 20
1.7527012444
 10
0.2527832189
 20
1.5151821855
 10
0.1201533073
 20
1.2877740153
 10
-0.0154102565
 20
1.070165431
 10
-0.1536932324
 20
0.8628538245
 10
-0.2949904468
 20
0.6671289116
 10
-0.4389268916
 20
0.4826481567
 10
-0.5854683285
 20
0.3099086866
 10
-0.7353857777
 20
0.1514635031
 10
-0.8880245913
 20
0.0062911469
 10
-1.0436353198
 20
-0.1244573211
 10
-1.2042730678
 20
-0.2349564073
 10
-1.3719632174
 20
-0.3275958891
 10
-1.5442710055
 20
-0.3998752582
 10
-1.7163707789
 20
-0.4385934321
 10
-1.8864241679
 20
-0.4392979748
 10
-2.0557588465
 20
-0.4063245121
 10
-2.2242426352
 20
-0.3396440708
  0
LWPOLYLINE
  5
2F1
100
AcDbEntity
  8
SUPERFICI
100
AcDbPolyline
 62
7
  6
CONTINUOUS
 90
5
 70
0
 10
2.741573009
 20
7.9195757449
 10
2.7268608656
 20
7.597589595
 10
2.703312325
 20
7.2592514556
 10
2.6712387737
 20
6.9115449217
 10
2.6307915667
 20
6.5541981832
  0
LWPOLYLINE
  5
2F2
100
AcDbEntity
  8
SUPERFICI
100
AcDbPolyline
 62
253
  6
CONTINUOUS
 90
10
 70
0
 10
2.9774906618
 20
-9.035400634
 10
2.9810602459
 20
-8.9572464933
 10
2.9714033637
 20
-8.8740554984
 10
2.9493326893
 20
-8.7880315332
 10
2.915437516
 20
-8.7007711398
 10
2.870931886
 20
-8.6156132348
 10
2.8183939981
 20
-8.537244154
 10
2.7600175658
 20
-8.4683527942
 10
2.6968424445
 20
-8.4100241868
 10
2.6302149382
 20
-8.3638387446
  0
LWPOLYLINE
  5
2F3
100
AcDbEntity
  8
RACCORDO
100
AcDbPolyline
 62
253
  6
CONTINUOUS
 90
5
 70
0
 10
1.4142802748
 20
-8.20007285
 10
1.4086421762
 20
-8.3188126411
 10
1.4127289874
 20
-8.429854128
 10
1.4264189005
 20
-8.5331254012
 10
1.450688079
 20
-8.6283172563
  0
LWPOLYLINE
  5
2F4
100
AcDbEntity
  8
SUPERFICI
100
AcDbPolyline
 62
253
  6
CONTINUOUS
 90
4
 70
0
 10
4.9260340832
 20
-4.0305640608
 10
4.9447549947
 20
-3.8031531503
 10
4.947838982
 20
-3.6149534921
 10
4.9338067765
 20
-3.4651855288
  0
LINE
  5
2F5
100
AcDbEntity
  8
RACCORDO
100
AcDbLine
 62
7
  6
CONTINUOUS
 10
1.5870952761
 20
-8.1053332254
 11
1.5922377941
 21
-8.049345821
  0
LWPOLYLINE
  5
2F6
100
AcDbEntity
  8
RACCORDO
100
AcDbPolyline
 62
253
  6
CONTINUOUS
 90
16
 70
0
 10
4.7376889107
 20
-4.2701594646
 10
4.7499933905
 20
-4.1555230803
 10
4.7581347009
 20
-4.0521170228
 10
4.762021964
 20
-3.9599643384
 10
4.7609762641
 20
-3.8800054513
 10
4.7552724287
 20
-3.8113445545
 10
4.7462944696
 20
-3.7512203422
 10
4.7341468952
 20
-3.6993061236
 10
4.7184720401
 20
-3.6558278935
 10
4.7002555408
 20
-3.6187596078
 10
4.6795966157
 20
-3.5878760575
 10
4.6561978382
 20
-3.5633146348
 10
4.6307013647
 20
-3.5435329761
 10
4.6032283628
 20
-3.5282933314
 10
4.5736839728
 20
-3.5176859106
 10
4.542549717
 20
-3.5106299723
  0
LINE
  5
2F7
100
AcDbEntity
  8
SUPERFICI
100
AcDbLine
 62
253
  6
CONTINUOUS
 10
1.1219550841
 20
-8.1115654239
 11
1.2277963296
 21
-7.1586943094
  0
LINE
  5
2F8
100
AcDbEntity
  8
SUPERFICI
100
AcDbLine
 62
253
  6
CONTINUOUS
 10
1.2277963296
 20
-7.1586943094
 11
1.3626556375
 21
-5.9754024648
  0
LINE
  5
2F9
100
AcDbEntity
  8
SUPERFICI
100
AcDbLine
 62
7
  6
CONTINUOUS
 10
0.8361586791
 20
-6.0323847641
 11
0.5939175857
 21
-8.1681023639
  0
LWPOLYLINE
  5
2FA
100
AcDbEntity
  8
SUPERFICI
100
AcDbPolyline
 62
7
  6
CONTINUOUS
 90
28
 70
0
 10
3.4896668019
 20
7.3305465549
 10
3.5701252446
 20
8.0148468766
 10
3.6138783846
 20
8.6682848066
 10
3.6208806942
 20
9.291731003
 10
3.585376576
 20
9.8844487499
 10
3.5125110299
 20
10.4503480027
 10
3.4185606119
 20
10.9970114842
 10
3.3066910485
 20
11.5275915978
 10
3.173032783
 20
12.0425769033
 10
3.023522496
 20
12.5442670963
 10
2.8595998629
 20
13.0349080396
 10
2.6790880687
 20
13.5149091588
 10
2.4826223277
 20
13.9827733089
 10
2.2704755622
 20
14.4403831194
 10
2.0424934731
 20
14.8885903593
 10
1.7990893518
 20
15.3241770789
 10
1.5411644291
 20
15.7491400537
 10
1.2695392245
 20
16.1641338567
 10
0.9850059151
 20
16.56336801
 10
0.689181492
 20
16.9475105028
 10
0.3840748669
 20
17.3165048424
 10
0.0721035082
 20
17.662906871
 10
-0.244903662
 20
17.9857391046
 10
-0.5619572021
 20
18.2851413056
 10
-0.872229134
 20
18.554392813
 10
-1.1721039812
 20
18.7900223072
 10
-1.4606783215
 20
18.9924949263
 10
-1.7356310312
 20
19.1601828695
  0
LINE
  5
2FB
100
AcDbEntity
  8
RACCORDO
100
AcDbLine
 62
253
  6
CONTINUOUS
 10
1.6730611249
 20
-6.0403412218
 11
1.4142802748
 21
-8.20007285
  0
LINE
  5
2FC
100
AcDbEntity
  8
RACCORDO
100
AcDbLine
 62
7
  6
CONTINUOUS
 10
1.5921788178
 20
-8.0492188325
 11
1.7463608335
 21
-6.7973272884
  0
LINE
  5
2FD
100
AcDbEntity
  8
RACCORDO
100
AcDbLine
 62
7
  6
CONTINUOUS
 10
1.7463608335
 20
-6.7973272884
 11
1.8599960529
 21
-5.8879553845
  0
LINE
  5
2FE
100
AcDbEntity
  8
RACCORDO
100
AcDbLine
 62
253
  6
CONTINUOUS
 10
3.9685565316
 20
-6.4540620565
 11
4.1539330973
 21
-5.0190560946
  0
LINE
  5
2FF
100
AcDbEntity
  8
RACCORDO
100
AcDbLine
 62
253
  6
CONTINUOUS
 10
4.454748233
 20
-6.4294493773
 11
4.6422543254
 21
-4.9917881202
  0
LINE
  5
300
100
AcDbEntity
  8
RACCORDO
100
AcDbLine
 62
253
  6
CONTINUOUS
 10
4.1539330973
 20
-5.0190560946
 11
4.2484742058
 21
-4.2986085085
  0
LINE
  5
301
100
AcDbEntity
  8
RACCORDO
100
AcDbLine
 62
253
  6
CONTINUOUS
 10
4.6422543254
 20
-4.9917881202
 11
4.7376889107
 21
-4.2701594646
  0
LINE
  5
302
100
AcDbEntity
  8
SUPERFICI
100
AcDbLine
 62
253
  6
CONTINUOUS
 10
3.8211730194
 20
-6.193769478
 11
4.1116867893
 21
-4.0766001933
  0
LINE
  5
303
100
AcDbEntity
  8
SUPERFICI
100
AcDbLine
 62
253
  6
CONTINUOUS
 10
2.9186711056
 20
-9.6853668038
 11
2.6911099244
 21
-11.3007449266
  0
LINE
  5
304
100
AcDbEntity
  8
RACCORDO
100
AcDbLine
 62
253
  6
CONTINUOUS
 10
2.9186711056
 20
-9.6853668038
 11
3.0096538035
 21
-9.0395120978
  0
LINE
  5
305
100
AcDbEntity
  8
RACCORDO
100
AcDbLine
 62
253
  6
CONTINUOUS
 10
3.7476070116
 20
-3.8010374957
 11
8.1779055662
 21
27.6481197191
  0
LINE
  5
306
100
AcDbEntity
  8
SUPERFICI
100
AcDbLine
 62
7
  6
CONTINUOUS
 10
8.315955345
 20
19.511936817
 11
9.3043601874
 21
25.9925121193
  0
LWPOLYLINE
  5
307
100
AcDbEntity
  8
RACCORDO
100
AcDbPolyline
 62
253
  6
CONTINUOUS
 90
14
 70
0
 10
4.2484735977
 20
-4.2986081574
 10
4.2634215871
 20
-4.202103742
 10
4.2731808168
 20
-4.1151486402
 10
4.2787119962
 20
-4.0377847298
 10
4.281418964
 20
-3.970470956
 10
4.2816788757
 20
-3.9124305439
 10
4.2786482289
 20
-3.8618558547
 10
4.2727289049
 20
-3.8183167255
 10
4.2647385911
 20
-3.7816110563
 10
4.2541342833
 20
-3.7504746411
 10
4.2412036807
 20
-3.7244929653
 10
4.2265048061
 20
-3.7034654713
 10
4.2097028665
 20
-3.6866267345
 10
4.1948619851
 20
-3.6759489662
  0
LINE
  5
308
100
AcDbEntity
  8
SUPERFICI
100
AcDbLine
 62
253
  6
CONTINUOUS
 10
1.3985408818
 20
-5.7758681034
 11
1.3626556375
 21
-5.9754024648
  0
LINE
  5
309
100
AcDbEntity
  8
SUPERFICI
100
AcDbLine
 62
7
  6
CONTINUOUS
 10
2.9042154169
 20
7.4859729028
 11
2.7559249071
 21
6.6720178078
  0
LWPOLYLINE
  5
30A
100
AcDbEntity
  8
SUPERFICI
100
AcDbPolyline
 62
253
  6
CONTINUOUS
 90
13
 70
0
 10
3.8211402165
 20
-6.1937540963
 10
3.7905150149
 20
-6.3595479237
 10
3.7486457355
 20
-6.5417536118
 10
3.6947707412
 20
-6.7378804274
 10
3.6300266817
 20
-6.9469443419
 10
3.5526934322
 20
-7.1635468593
 10
3.4590098607
 20
-7.3780302985
 10
3.3502839153
 20
-7.5864641277
 10
3.2286271251
 20
-7.785103672
 10
3.0931980701
 20
-7.9652049241
 10
2.9458544794
 20
-8.1223458559
 10
2.7905612155
 20
-8.2558699463
 10
2.6302192742
 20
-8.3638421741
  0
LINE
  5
30B
100
AcDbEntity
  8
RACCORDO
100
AcDbLine
 62
253
  6
CONTINUOUS
 10
1.6958920397
 20
-5.9220925227
 11
1.6730611249
 21
-6.0403412218
  0
LWPOLYLINE
  5
30C
100
AcDbEntity
  8
SUPERFICI
100
AcDbPolyline
 62
7
  6
CONTINUOUS
 90
10
 70
0
 10
3.3410214627
 20
7.2519709244
 10
3.1784700881
 20
6.453931438
 10
2.9715890574
 20
5.6660591085
 10
2.7311473777
 20
4.8961195222
 10
2.4677389985
 20
4.1527088063
 10
2.1886364867
 20
3.4400795436
 10
1.8930586803
 20
2.759695491
 10
1.5787026026
 20
2.1167713804
 10
1.2452984741
 20
1.5190815905
 10
0.8917983711
 20
0.9719711785
  0
LINE
  5
30D
100
AcDbEntity
  8
SUPERFICI
100
AcDbLine
 62
253
  6
CONTINUOUS
 10
4.1462246237
 20
-3.9064352534
 11
4.1109817629
 21
-4.0775775769
  0
LWPOLYLINE
  5
30E
100
AcDbEntity
  8
SUPERFICI
100
AcDbPolyline
 62
7
  6
CONTINUOUS
 90
13
 70
0
 10
3.4896668019
 20
7.3305465549
 10
3.3491491281
 20
6.6897228204
 10
3.191450375
 20
6.0668979664
 10
3.0168116716
 20
5.4623161621
 10
2.8238211215
 20
4.8759868408
 10
2.615215224
 20
4.3091609417
 10
2.3977781951
 20
3.7641635115
 10
2.1764455325
 20
3.24273675
 10
1.9492117796
 20
2.7455260086
 10
1.7129170626
 20
2.2733744412
 10
1.4684225782
 20
1.8278415399
 10
1.2202065069
 20
1.4108034093
 10
0.9714501637
 20
1.0241031933
  0
LINE
  5
30F
100
AcDbEntity
  8
RACCORDO
100
AcDbLine
 62
7
  6
CONTINUOUS
 10
1.8603989719
 20
-5.8850637616
 11
1.9033531396
 21
-5.695500492
  0
LWPOLYLINE
  5
310
100
AcDbEntity
  8
SUPERFICI
100
AcDbPolyline
 62
7
  6
CONTINUOUS
 90
3
 70
0
 10
2.7559249071
 20
6.6720178078
 10
2.5679444185
 20
5.8666562617
 10
2.4321817287
 20
5.3767355636
  0
LWPOLYLINE
  5
311
100
AcDbEntity
  8
RACCORDO
100
AcDbPolyline
 62
253
  6
CONTINUOUS
 90
3
 70
0
 10
1.5922377941
 20
-8.049345821
 10
1.5801806883
 20
-8.0899403218
 10
1.5549347094
 20
-8.1267605988
  0
LWPOLYLINE
  5
312
100
AcDbEntity
  8
RACCORDO
100
AcDbPolyline
 62
253
  6
CONTINUOUS
 90
6
 70
0
 10
1.8599960529
 20
-5.8879553845
 10
1.846328208
 20
-5.9316153265
 10
1.819453493
 20
-5.9686862076
 10
1.7802859634
 20
-6.0001087186
 10
1.7306982358
 20
-6.0243805362
 10
1.6730611209
 20
-6.0403412149
  0
LWPOLYLINE
  5
313
100
AcDbEntity
  8
SUPERFICI
100
AcDbPolyline
 62
7
  6
CONTINUOUS
 90
4
 70
0
 10
1.0067144781
 20
-5.4249719804
 10
0.9248074572
 20
-5.6314082804
 10
0.8680269957
 20
-5.8343835995
 10
0.8360947866
 20
-6.0323478733
  0
LINE
  5
314
100
AcDbEntity
  8
RACCORDO
100
AcDbLine
 62
7
  6
CONTINUOUS
 10
1.9033531396
 20
-5.695500492
 11
2.0034615925
 21
-5.4575389252
  0
LWPOLYLINE
  5
315
100
AcDbEntity
  8
RACCORDO
100
AcDbPolyline
 62
7
  6
CONTINUOUS
 90
3
 70
0
 10
2.0034615925
 20
-5.4575389252
 10
2.1565994159
 20
-5.2086357926
 10
2.351256941
 20
-4.9637349107
  0
LWPOLYLINE
  5
316
100
AcDbEntity
  8
SUPERFICI
100
AcDbPolyline
 62
7
  6
CONTINUOUS
 90
3
 70
0
 10
1.2487556431
 20
-5.0107124674
 10
1.1151216186
 20
-5.2178049281
 10
1.0067144781
 20
-5.4249719804
  0
LWPOLYLINE
  5
317
100
AcDbEntity
  8
SUPERFICI
100
AcDbPolyline
 62
253
  6
CONTINUOUS
 90
5
 70
0
 10
1.9599013746
 20
-4.8634412483
 10
1.7552103217
 20
-5.1099240185
 10
1.5911848702
 20
-5.3466302897
 10
1.4745663847
 20
-5.5661202757
 10
1.3985408818
 20
-5.7758681034
  0
LWPOLYLINE
  5
318
100
AcDbEntity
  8
RACCORDO
100
AcDbPolyline
 62
253
  6
CONTINUOUS
 90
11
 70
0
 10
2.2600118626
 20
-4.9494003894
 10
2.1884595719
 20
-5.0295790343
 10
2.1187236774
 20
-5.1134270293
 10
2.0505675647
 20
-5.2011099188
 10
1.9843501448
 20
-5.2925580606
 10
1.9223340714
 20
-5.3877985941
 10
1.8641741706
 20
-5.4870638342
 10
1.810245617
 20
-5.5903049389
 10
1.7638743292
 20
-5.6972034464
 10
1.7261424439
 20
-5.8077291297
 10
1.6958920397
 20
-5.9220925227
  0
LINE
  5
319
100
AcDbEntity
  8
RACCORDO
100
AcDbLine
 62
7
  6
CONTINUOUS
 10
2.351256941
 20
-4.9637349107
 11
2.5793477897
 21
-4.7261397844
  0
LWPOLYLINE
  5
31A
100
AcDbEntity
  8
SUPERFICI
100
AcDbPolyline
 62
7
  6
CONTINUOUS
 90
5
 70
0
 10
1.9920871493
 20
-4.1901603556
 10
1.7753814168
 20
-4.3894414553
 10
1.5791270847
 20
-4.5943599782
 10
1.4038720995
 20
-4.8025437808
 10
1.2487556431
 20
-5.0107124674
  0
LWPOLYLINE
  5
31B
100
AcDbEntity
  8
RACCORDO
100
AcDbPolyline
 62
7
  6
CONTINUOUS
 90
6
 70
0
 10
2.5793477897
 20
-4.7261397844
 10
2.8294069176
 20
-4.5022649484
 10
3.0786497032
 20
-4.3050902169
 10
3.3109303918
 20
-4.1398003445
 10
3.5233451243
 20
-4.0019156898
 10
3.688224025
 20
-3.9030645854
  0
LINE
  5
31C
100
AcDbEntity
  8
SUPERFICI
100
AcDbLine
 62
7
  6
CONTINUOUS
 10
-0.6107026799
 20
-5.1969085254
 11
-1.0847917366
 21
-5.6054096629
  0
LWPOLYLINE
  5
31D
100
AcDbEntity
  8
RACCORDO
100
AcDbPolyline
 62
253
  6
CONTINUOUS
 90
9
 70
0
 10
2.8312001529
 20
-4.4215678618
 10
2.7621551335
 20
-4.4775947319
 10
2.692042234
 20
-4.5361947537
 10
2.6209657983
 20
-4.597379349
 10
2.5493460537
 20
-4.6615537094
 10
2.4770928392
 20
-4.7287854729
 10
2.4043972181
 20
-4.7990223116
 10
2.3320691526
 20
-4.8725534692
 10
2.2600118626
 20
-4.9494003894
  0
LWPOLYLINE
  5
31E
100
AcDbEntity
  8
RACCORDO
100
AcDbPolyline
 62
253
  6
CONTINUOUS
 90
5
 70
0
 10
3.6889319964
 20
-3.9026477268
 10
3.7100974534
 20
-3.8858885189
 10
3.7274249828
 20
-3.8628286516
 10
3.7400327898
 20
-3.8343083119
 10
3.7476070109
 20
-3.8010374952
  0
LWPOLYLINE
  5
31F
100
AcDbEntity
  8
RACCORDO
100
AcDbPolyline
 62
253
  6
CONTINUOUS
 90
5
 70
0
 10
3.0949973717
 20
-4.2217766245
 10
3.031113316
 20
-4.2682359692
 10
2.9657969253
 20
-4.3170573246
 10
2.8991758487
 20
-4.3681512655
 10
2.8312001529
 20
-4.4215678618
  0
LWPOLYLINE
  5
320
100
AcDbEntity
  8
SUPERFICI
100
AcDbPolyline
 62
7
  6
CONTINUOUS
 90
5
 70
0
 10
2.8431540564
 20
-3.515051461
 10
2.6288697254
 20
-3.6698622913
 10
2.4150348631
 20
-3.834982303
 10
2.202290802
 20
-4.0088627108
 10
1.9920871493
 20
-4.1901603556
  0
LINE
  5
321
100
AcDbEntity
  8
RACCORDO
100
AcDbLine
 62
253
  6
CONTINUOUS
 10
3.688224025
 20
-3.9030645854
 11
3.6889319964
 21
-3.9026477268
  0
LWPOLYLINE
  5
322
100
AcDbEntity
  8
RACCORDO
100
AcDbPolyline
 62
253
  6
CONTINUOUS
 90
14
 70
0
 10
3.7476070116
 20
-3.8010374957
 10
3.7064165671
 20
-3.8249233097
 10
3.6642271227
 20
-3.849812076
 10
3.6209415599
 20
-3.8757491715
 10
3.5766083173
 20
-3.902620812
 10
3.530974984
 20
-3.9306431005
 10
3.4835021864
 20
-3.9603348484
 10
3.4342972272
 20
-3.9915577917
 10
3.3833705755
 20
-4.0243388389
 10
3.3302124548
 20
-4.0593136155
 10
3.274601556
 20
-4.096549101
 10
3.2167637473
 20
-4.1358945499
 10
3.1569246319
 20
-4.1776214002
 10
3.0949973717
 20
-4.2217766245
  0
LINE
  5
323
100
AcDbEntity
  8
RACCORDO
100
AcDbLine
 62
253
  6
CONTINUOUS
 10
3.7865714716
 20
-3.778691091
 11
3.7476069959
 21
-3.8010376069
  0
LWPOLYLINE
  5
324
100
AcDbEntity
  8
RACCORDO
100
AcDbPolyline
 62
7
  6
CONTINUOUS
 90
7
 70
0
 10
3.6889309468
 20
-3.9026459161
 10
3.7714066082
 20
-3.8563384912
 10
3.9272733567
 20
-3.7766009326
 10
4.0535977492
 20
-3.7224814218
 10
4.1435411128
 20
-3.6936064028
 10
4.190131032
 20
-3.6841478514
 10
4.1948167091
 20
-3.6833991641
  0
LWPOLYLINE
  5
325
100
AcDbEntity
  8
SUPERFICI
100
AcDbPolyline
 62
7
  6
CONTINUOUS
 90
9
 70
0
 10
3.8344458745
 20
-2.9056144652
 10
4.0428988526
 20
-2.7992438477
 10
4.2393834374
 20
-2.7086048612
 10
4.4216167448
 20
-2.6358943099
 10
4.5861655896
 20
-2.5823507236
 10
4.7313497111
 20
-2.550633096
 10
4.8574409955
 20
-2.5442725229
 10
4.9628485371
 20
-2.5646004371
 10
5.0078068577
 20
-2.5853043977
  0
LWPOLYLINE
  5
326
100
AcDbEntity
  8
SUPERFICI
100
AcDbPolyline
 62
7
  6
CONTINUOUS
 90
3
 70
0
 10
5.0078068577
 20
-2.5853043977
 10
5.0439864822
 20
-2.611205077
 10
5.0983137122
 20
-2.6839839433
  0
LINE
  5
327
100
AcDbEntity
  8
SUPERFICI
100
AcDbLine
 62
253
  6
CONTINUOUS
 10
0.8394363378
 20
1.0117443755
 11
0.891405339
 21
0.9714223128
  0
LWPOLYLINE
  5
328
100
AcDbEntity
  8
SUPERFICI
100
AcDbPolyline
 62
7
  6
CONTINUOUS
 90
3
 70
0
 10
5.0983137122
 20
-2.6839839433
 10
5.1244150911
 20
-2.750475763
 10
5.1433973735
 20
-2.8303058
  0
LWPOLYLINE
  5
329
100
AcDbEntity
  8
SUPERFICI
100
AcDbPolyline
 62
253
  6
CONTINUOUS
 90
3
 70
0
 10
4.9338067765
 20
-3.4651855288
 10
4.8992411481
 20
-3.3554208975
 10
4.8425844668
 20
-3.2822825687
  0
LWPOLYLINE
  5
32A
100
AcDbEntity
  8
SUPERFICI
100
AcDbPolyline
 62
7
  6
CONTINUOUS
 90
3
 70
0
 10
2.5142132317
 20
10.7715569757
 10
2.6127355422
 20
10.2036246456
 10
2.6836664529
 20
9.6422413925
  0
LINE
  5
32B
100
AcDbEntity
  8
0
100
AcDbLine
 62
7
  6
CONTINUOUS
 10
-0.4091746067
 20
11.478886081
 11
-0.4302858267
 21
11.6236256278
  0
LINE
  5
32C
100
AcDbEntity
  8
0
100
AcDbLine
 62
7
  6
CONTINUOUS
 10
-0.3888777783
 20
11.3335378633
 11
-0.4091746067
 21
11.478886081
  0
LINE
  5
32D
100
AcDbEntity
  8
0
100
AcDbLine
 62
7
  6
CONTINUOUS
 10
-0.3693953416
 20
11.1875809745
 11
-0.3888777783
 21
11.3335378633
  0
LWPOLYLINE
  5
32E
100
AcDbEntity
  8
SUPERFICI
100
AcDbPolyline
 62
7
  6
CONTINUOUS
 90
4
 70
0
 10
5.1433973735
 20
-2.8303058
 10
5.1552875726
 20
-2.922329058
 10
5.1596113069
 20
-3.0249843975
 10
5.1571459314
 20
-3.1375409106
  0
LINE
  5
32F
100
AcDbEntity
  8
SUPERFICI
100
AcDbLine
 62
7
  6
CONTINUOUS
 10
2.9176684651
 20
10.7519036561
 11
2.9886757797
 21
10.1892030889
  0
LINE
  5
330
100
AcDbEntity
  8
0
100
AcDbLine
 62
7
  6
CONTINUOUS
 10
-0.7388419943
 20
11.1650284875
 11
-0.7529900382
 21
11.280717461
  0
LWPOLYLINE
  5
331
100
AcDbEntity
  8
RACCORDO
100
AcDbPolyline
 62
253
  6
CONTINUOUS
 90
30
 70
0
 10
9.3043371624
 20
25.9923673699
 10
9.3056995571
 20
26.0204738914
 10
9.3025655059
 20
26.0613867516
 10
9.2945130118
 20
26.1054553018
 10
9.2818614173
 20
26.1512298881
 10
9.2652388027
 20
26.1985261041
 10
9.2453632488
 20
26.247538372
 10
9.2223658529
 20
26.2972002563
 10
9.1967469903
 20
26.3475052214
 10
9.1690758256
 20
26.3986120326
 10
9.1393755232
 20
26.4499204485
 10
9.1080098081
 20
26.5013367337
 10
9.0753952232
 20
26.5529252262
 10
9.0414786336
 20
26.6044087726
 10
9.0064707563
 20
26.6557080912
 10
8.9707163511
 20
26.7068409698
 10
8.9341704161
 20
26.757581466
 10
8.8970391142
 20
26.8079113178
 10
8.8595616135
 20
26.8578027832
 10
8.821712951
 20
26.9070810093
 10
8.7836358
 20
26.955680508
 10
8.7455371392
 20
27.0036179834
 10
8.7073827165
 20
27.0507923303
 10
8.6693049029
 20
27.0971721645
 10
8.6314496092
 20
27.142738685
 10
8.5937660408
 20
27.1874171479
 10
8.5563479274
 20
27.2311686685
 10
8.5192908798
 20
27.2739786906
 10
8.4825876516
 20
27.3158437634
 10
8.4108236988
 20
27.3967869983
  0
LWPOLYLINE
  5
332
100
AcDbEntity
  8
SUPERFICI
100
AcDbPolyline
 62
7
  6
CONTINUOUS
 90
4
 70
0
 10
5.1571459314
 20
-3.1375409106
 10
5.1498375967
 20
-3.2601768602
 10
5.1384817992
 20
-3.3922954041
 10
5.1227930216
 20
-3.5324616338
  0
LINE
  5
333
100
AcDbEntity
  8
SUPERFICI
100
AcDbLine
 62
7
  6
CONTINUOUS
 10
4.5563775742
 20
-8.4255334577
 11
4.7424665303
 21
-6.505845328
  0
LINE
  5
334
100
AcDbEntity
  8
SUPERFICI
100
AcDbLine
 62
7
  6
CONTINUOUS
 10
4.7424665303
 20
-6.505845328
 11
4.8216858578
 21
-5.7911028888
  0
LINE
  5
335
100
AcDbEntity
  8
SUPERFICI
100
AcDbLine
 62
253
  6
CONTINUOUS
 10
4.5563775742
 20
-8.4255334577
 11
4.5577421758
 21
-8.4140901359
  0
LWPOLYLINE
  5
336
100
AcDbEntity
  8
SUPERFICI
100
AcDbPolyline
 62
7
  6
CONTINUOUS
 90
6
 70
0
 10
5.1570588912
 20
-2.7652587262
 10
5.6568274807
 20
1.1907356602
 10
6.2298820244
 20
5.3694929047
 10
6.865752216
 20
9.7955959499
 10
7.5619975395
 20
14.5046498145
 10
8.315955345
 20
19.511936817
  0
LWPOLYLINE
  5
337
100
AcDbEntity
  8
RACCORDO
100
AcDbPolyline
 62
7
  6
CONTINUOUS
 90
3
 70
0
 10
9.303339056
 20
25.9849123211
 10
9.3118594117
 20
26.0521030555
 10
9.3152525624
 20
26.3053359186
  0
LINE
  5
338
100
AcDbEntity
  8
RACCORDO
100
AcDbLine
 62
253
  6
CONTINUOUS
 10
9.3032947439
 20
25.9844632994
 11
9.3043371624
 21
25.9923673699
  0
LINE
  5
339
100
AcDbEntity
  8
SUPERFICI
100
AcDbLine
 62
7
  6
CONTINUOUS
 10
5.1227930216
 20
-3.5324616338
 11
4.8211579049
 21
-5.7910443725
  0
LWPOLYLINE
  5
33A
100
AcDbEntity
  8
SUPERFICI
100
AcDbPolyline
 62
7
  6
CONTINUOUS
 90
4
 70
0
 10
4.821157899
 20
-5.7910443693
 10
4.7952326469
 20
-5.9782317857
 10
4.7622468596
 20
-6.1783803818
 10
4.7218533077
 20
-6.3903180184
  0
LINE
  5
33B
100
AcDbEntity
  8
SUPERFICI
100
AcDbLine
 62
7
  6
CONTINUOUS
 10
4.9268122472
 20
-4.0309628415
 11
4.6665041503
 21
-5.9157969361
  0
LINE
  5
33C
100
AcDbEntity
  8
SUPERFICI
100
AcDbLine
 62
7
  6
CONTINUOUS
 10
4.6665041503
 20
-5.9157969361
 11
4.6335994718
 21
-6.1520209497
  0
LINE
  5
33D
100
AcDbEntity
  8
SUPERFICI
100
AcDbLine
 62
7
  6
CONTINUOUS
 10
4.5347311788
 20
-8.5782783173
 11
4.5577187625
 21
-8.4139488314
  0
LINE
  5
33E
100
AcDbEntity
  8
SUPERFICI
100
AcDbLine
 62
253
  6
CONTINUOUS
 10
4.4972622172
 20
-8.7569605498
 11
4.5453720387
 21
-8.5059295366
  0
LWPOLYLINE
  5
33F
100
AcDbEntity
  8
RACCORDO
100
AcDbPolyline
 62
253
  6
CONTINUOUS
 90
5
 70
0
 10
4.3911400157
 20
-6.7873895568
 10
4.4114909017
 20
-6.6908611827
 10
4.4287181033
 20
-6.5995457366
 10
4.4431238777
 20
-6.5123969681
 10
4.454748233
 20
-6.4294493773
  0
LINE
  5
340
100
AcDbEntity
  8
SUPERFICI
100
AcDbLine
 62
7
  6
CONTINUOUS
 10
4.7218533077
 20
-6.3903180184
 11
4.6747133372
 21
-6.6134090788
  0
LWPOLYLINE
  5
341
100
AcDbEntity
  8
SUPERFICI
100
AcDbPolyline
 62
7
  6
CONTINUOUS
 90
6
 70
0
 10
4.6747133372
 20
-6.6134090788
 10
4.6197694174
 20
-6.8455485424
 10
4.55433347
 20
-7.0831570428
 10
4.4777044991
 20
-7.3238885802
 10
4.3910957874
 20
-7.5666504759
 10
4.2949578915
 20
-7.8095985997
  0
LWPOLYLINE
  5
342
100
AcDbEntity
  8
RACCORDO
100
AcDbPolyline
 62
253
  6
CONTINUOUS
 90
3
 70
0
 10
4.3421389748
 20
-6.9893937034
 10
4.3678157866
 20
-6.8880000883
 10
4.3911400157
 20
-6.7873895568
  0
LINE
  5
343
100
AcDbEntity
  8
SUPERFICI
100
AcDbLine
 62
253
  6
CONTINUOUS
 10
4.4310148669
 20
-9.0126384385
 11
4.4972622172
 21
-8.7569605498
  0
LWPOLYLINE
  5
344
100
AcDbEntity
  8
SUPERFICI
100
AcDbPolyline
 62
253
  6
CONTINUOUS
 90
6
 70
0
 10
4.288770945
 20
-7.3895559213
 10
4.397544387
 20
-7.1028443424
 10
4.4841601138
 20
-6.8339844567
 10
4.5497130029
 20
-6.5899276947
 10
4.5988216824
 20
-6.3627041459
 10
4.6329827291
 20
-6.1517406877
  0
LWPOLYLINE
  5
345
100
AcDbEntity
  8
SUPERFICI
100
AcDbPolyline
 62
7
  6
CONTINUOUS
 90
3
 70
0
 10
4.2949578915
 20
-7.8095985997
 10
4.1825539331
 20
-8.054861511
 10
4.0570137984
 20
-8.2897881482
  0
LWPOLYLINE
  5
346
100
AcDbEntity
  8
SUPERFICI
100
AcDbPolyline
 62
7
  6
CONTINUOUS
 90
5
 70
0
 10
4.0099746617
 20
-10.0274325977
 10
4.1943347016
 20
-9.6728608667
 10
4.3443007216
 20
-9.3055063221
 10
4.4574196965
 20
-8.9380723113
 10
4.5347311788
 20
-8.5782783173
  0
LWPOLYLINE
  5
347
100
AcDbEntity
  8
SUPERFICI
100
AcDbPolyline
 62
253
  6
CONTINUOUS
 90
5
 70
0
 10
3.9781416708
 20
-10.0258414711
 10
4.1211243829
 20
-9.7770457906
 10
4.24290528
 20
-9.5242873723
 10
4.3461559327
 20
-9.2694822056
 10
4.4310148669
 20
-9.0126384385
  0
LWPOLYLINE
  5
348
100
AcDbEntity
  8
SUPERFICI
100
AcDbPolyline
 62
7
  6
CONTINUOUS
 90
5
 70
0
 10
4.0570137984
 20
-8.2897881482
 10
3.919651964
 20
-8.5126299132
 10
3.7723093153
 20
-8.7219783106
 10
3.6159448819
 20
-8.9161048693
 10
3.4506130418
 20
-9.0929497299
  0
LWPOLYLINE
  5
349
100
AcDbEntity
  8
SUPERFICI
100
AcDbPolyline
 62
253
  6
CONTINUOUS
 90
4
 70
0
 10
3.8393247065
 20
-8.216970759
 10
4.0126586137
 20
-7.9470905086
 10
4.1615791831
 20
-7.6718069772
 10
4.288770945
 20
-7.3895559213
  0
LWPOLYLINE
  5
34A
100
AcDbEntity
  8
RACCORDO
100
AcDbPolyline
 62
253
  6
CONTINUOUS
 90
20
 70
0
 10
3.6485044714
 20
-8.4601190749
 10
3.6862046557
 20
-8.4103317478
 10
3.7242799777
 20
-8.3578734633
 10
3.7625902894
 20
-8.3028228636
 10
3.8010353281
 20
-8.2448677791
 10
3.8396217475
 20
-8.1839940795
 10
3.8783787027
 20
-8.1201421882
 10
3.9171318737
 20
-8.0530189205
 10
3.955857312
 20
-7.9826584542
 10
3.9944485118
 20
-7.9090894711
 10
4.0326393188
 20
-7.832011013
 10
4.0705934655
 20
-7.7512518123
 10
4.1082259584
 20
-7.6669259901
 10
4.145103912
 20
-7.5790472565
 10
4.181412339
 20
-7.4872630168
 10
4.2169064331
 20
-7.3920253773
 10
4.2506509176
 20
-7.294537564
 10
4.2829668433
 20
-7.1941370019
 10
4.3138421703
 20
-7.0914250604
 10
4.3421389748
 20
-6.9893937034
  0
LWPOLYLINE
  5
34B
100
AcDbEntity
  8
RACCORDO
100
AcDbPolyline
 62
253
  6
CONTINUOUS
 90
28
 70
0
 10
3.2547545562
 20
-8.2352992386
 10
3.2845840441
 20
-8.197779959
 10
3.3145042712
 20
-8.1584481392
 10
3.3447326498
 20
-8.1169337164
 10
3.3752286262
 20
-8.0731244031
 10
3.4058685708
 20
-8.027052226
 10
3.4367147218
 20
-7.9785382041
 10
3.4676288718
 20
-7.9275580288
 10
3.4985232635
 20
-7.8740757007
 10
3.5295012994
 20
-7.8178835067
 10
3.5603525478
 20
-7.7589870964
 10
3.5909684313
 20
-7.6973509098
 10
3.6215475354
 20
-7.6326936336
 10
3.6518401746
 20
-7.5649739673
 10
3.681657751
 20
-7.4942767678
 10
3.7112187254
 20
-7.4205163791
 10
3.7402525266
 20
-7.3435230068
 10
3.7684194896
 20
-7.2636468172
 10
3.7958019942
 20
-7.1816228301
 10
3.8221784448
 20
-7.0972496274
 10
3.8470576501
 20
-7.0111249155
 10
3.8702965595
 20
-6.9252416925
 10
3.8919443639
 20
-6.8397438058
 10
3.9116202087
 20
-6.7551136468
 10
3.9289989723
 20
-6.6738077859
 10
3.944164743
 20
-6.5967539455
 10
3.9573135516
 20
-6.5234436117
 10
3.9685571947
 20
-6.4540624403
  0
LWPOLYLINE
  5
34C
100
AcDbEntity
  8
SUPERFICI
100
AcDbPolyline
 62
7
  6
CONTINUOUS
 90
3
 70
0
 10
3.508719563
 20
-10.7189190484
 10
3.7871555682
 20
-10.3718332471
 10
4.0099746617
 20
-10.0274325977
  0
LINE
  5
34D
100
AcDbEntity
  8
SUPERFICI
100
AcDbLine
 62
7
  6
CONTINUOUS
 10
3.4506130418
 20
-9.0929497299
 11
3.2773201578
 21
-9.2510316752
  0
LWPOLYLINE
  5
34E
100
AcDbEntity
  8
RACCORDO
100
AcDbPolyline
 62
253
  6
CONTINUOUS
 90
11
 70
0
 10
3.2775961158
 20
-8.8503612152
 10
3.3152370726
 20
-8.8180327021
 10
3.3526988144
 20
-8.7843500271
 10
3.3898917305
 20
-8.7494046205
 10
3.4268125899
 20
-8.7131675328
 10
3.4637298202
 20
-8.6753282105
 10
3.5005172502
 20
-8.6360301335
 10
3.5371846193
 20
-8.5952040483
 10
3.574070852
 20
-8.5522857007
 10
3.6111856616
 20
-8.5072636116
 10
3.6485044714
 20
-8.4601190749
  0
LINE
  5
34F
100
AcDbEntity
  8
RACCORDO
100
AcDbLine
 62
253
  6
CONTINUOUS
 10
1.5549347094
 20
-8.1267605988
 11
1.5176415654
 21
-8.1583131568
  0
LINE
  5
350
100
AcDbEntity
  8
SUPERFICI
100
AcDbLine
 62
7
  6
CONTINUOUS
 10
3.2773201578
 20
-9.2510316752
 11
3.09802211
 21
-9.3894772425
  0
LWPOLYLINE
  5
351
100
AcDbEntity
  8
SUPERFICI
100
AcDbPolyline
 62
253
  6
CONTINUOUS
 90
5
 70
0
 10
2.9774906618
 20
-9.035400634
 10
3.2206853578
 20
-8.8729941654
 10
3.4441948945
 20
-8.6817522944
 10
3.6489799062
 20
-8.464194657
 10
3.8393247065
 20
-8.216970759
  0
LINE
  5
352
100
AcDbEntity
  8
SUPERFICI
100
AcDbLine
 62
7
  6
CONTINUOUS
 10
3.09802211
 20
-9.3894772425
 11
2.9142093829
 21
-9.5073407393
  0
LWPOLYLINE
  5
353
100
AcDbEntity
  8
RACCORDO
100
AcDbPolyline
 62
253
  6
CONTINUOUS
 90
16
 70
0
 10
2.7999409057
 20
-8.6369812349
 10
2.8311598683
 20
-8.6183495686
 10
2.8622737424
 20
-8.5985738143
 10
2.8932588018
 20
-8.5776643741
 10
2.9240384044
 20
-8.5556609094
 10
2.9546405776
 20
-8.5325482372
 10
2.9851970545
 20
-8.5082430476
 10
3.0157412983
 20
-8.4827003279
 10
3.0461842428
 20
-8.4559629324
 10
3.0764717604
 20
-8.428071661
 10
3.1065032495
 20
-8.3990986246
 10
3.13631957
 20
-8.3689874808
 10
3.1660737986
 20
-8.3375759883
 10
3.1956578949
 20
-8.3049394244
 10
3.2251038319
 20
-8.2709950863
 10
3.2547545562
 20
-8.2352992386
  0
LWPOLYLINE
  5
354
100
AcDbEntity
  8
RACCORDO
100
AcDbPolyline
 62
253
  6
CONTINUOUS
 90
8
 70
0
 10
3.0096538034
 20
-9.0395120981
 10
3.0491605016
 20
-9.0159997049
 10
3.0877606912
 20
-8.9916036296
 10
3.1258142834
 20
-8.9661183136
 10
3.1636808657
 20
-8.9393519137
 10
3.201654255
 20
-8.9111235213
 10
3.2397291946
 20
-8.8813981742
 10
3.2775961158
 20
-8.8503612152
  0
LINE
  5
355
100
AcDbEntity
  8
RACCORDO
100
AcDbLine
 62
253
  6
CONTINUOUS
 10
2.9670502931
 20
-9.0634632069
 11
3.0096538035
 21
-9.0395120978
  0
LWPOLYLINE
  5
356
100
AcDbEntity
  8
RACCORDO
100
AcDbPolyline
 62
253
  6
CONTINUOUS
 90
3
 70
0
 10
1.5176415654
 20
-8.1583131568
 10
1.4700261237
 20
-8.1831387103
 10
1.414290678
 20
-8.2000891061
  0
LWPOLYLINE
  5
357
100
AcDbEntity
  8
SUPERFICI
100
AcDbPolyline
 62
7
  6
CONTINUOUS
 90
10
 70
0
 10
2.9142078954
 20
-9.5073409009
 10
2.7334874883
 20
-9.599937533
 10
2.5501458142
 20
-9.6723238568
 10
2.3654952198
 20
-9.723828868
 10
2.1805043231
 20
-9.7536972371
 10
1.9968072256
 20
-9.7617545076
 10
1.816703279
 20
-9.7483787584
 10
1.6417873797
 20
-9.7136409746
 10
1.4729300541
 20
-9.6573420443
 10
1.3112933246
 20
-9.5796512303
  0
LWPOLYLINE
  5
358
100
AcDbEntity
  8
SUPERFICI
100
AcDbPolyline
 62
253
  6
CONTINUOUS
 90
6
 70
0
 10
2.6302144478
 20
-8.3638393874
 10
2.4615717186
 20
-8.4425266093
 10
2.291492254
 20
-8.4930177997
 10
2.1228935223
 20
-8.5139048725
 10
1.9563451257
 20
-8.5031802575
 10
1.7971205989
 20
-8.461239231
  0
LINE
  5
359
100
AcDbEntity
  8
SUPERFICI
100
AcDbLine
 62
253
  6
CONTINUOUS
 10
2.7285303517
 20
-9.1488641382
 11
2.9774906618
 21
-9.035400634
  0
LINE
  5
35A
100
AcDbEntity
  8
SUPERFICI
100
AcDbLine
 62
253
  6
CONTINUOUS
 10
2.4868448967
 20
-9.2225634382
 11
2.7285303517
 21
-9.1488641382
  0
LINE
  5
35B
100
AcDbEntity
  8
SUPERFICI
100
AcDbLine
 62
253
  6
CONTINUOUS
 10
2.9041033727
 20
7.4860332288
 11
3.339925419
 21
7.2513807926
  0
LINE
  5
35C
100
AcDbEntity
  8
0
100
AcDbLine
 62
7
  6
CONTINUOUS
 10
-2.2194279797
 20
7.4016394845
 11
-0.1789745288
 21
6.223501249
  0
LINE
  5
35D
100
AcDbEntity
  8
0
100
AcDbLine
 62
7
  6
CONTINUOUS
 10
-2.1489739172
 20
7.4423187772
 11
-0.1755493785
 21
6.3028823931
  0
LINE
  5
35E
100
AcDbEntity
  8
0
100
AcDbLine
 62
7
  6
CONTINUOUS
 10
-2.2016010743
 20
7.8831353856
 11
-0.1611524851
 21
6.7049992178
  0
LINE
  5
35F
100
AcDbEntity
  8
0
100
AcDbLine
 62
7
  6
CONTINUOUS
 10
-2.1910349864
 20
8.360421109
 11
-0.1505862014
 21
7.1822915534
  0
LINE
  5
360
100
AcDbEntity
  8
0
100
AcDbLine
 62
7
  6
CONTINUOUS
 10
-2.1206677187
 20
8.4010502875
 11
-0.1495140147
 21
7.2629308431
  0
LINE
  5
361
100
AcDbEntity
  8
0
100
AcDbLine
 62
7
  6
CONTINUOUS
 10
-1.4928093172
 20
8.4323057501
 11
-0.1472701139
 21
7.6554082777
  0
LINE
  5
362
100
AcDbEntity
  8
0
100
AcDbLine
 62
7
  6
CONTINUOUS
 10
-1.5240005658
 20
9.7764750795
 11
-0.1784616194
 21
8.9995831455
  0
LINE
  5
363
100
AcDbEntity
  8
0
100
AcDbLine
 62
7
  6
CONTINUOUS
 10
-1.4535480881
 20
9.8171534571
 11
-0.1824760688
 21
9.083257496
  0
LINE
  5
364
100
AcDbEntity
  8
0
100
AcDbLine
 62
7
  6
CONTINUOUS
 10
-2.2438383238
 20
10.6345225021
 11
-0.2033895388
 21
9.4563929465
  0
LINE
  5
365
100
AcDbEntity
  8
SUPERFICI
100
AcDbLine
 62
7
  6
CONTINUOUS
 10
3.1631158381
 20
-11.0606263462
 11
3.508719563
 21
-10.7189190484
  0
LWPOLYLINE
  5
366
100
AcDbEntity
  8
SUPERFICI
100
AcDbPolyline
 62
253
  6
CONTINUOUS
 90
5
 70
0
 10
3.1937039552
 20
-10.9405881968
 10
3.4288155389
 20
-10.7259278635
 10
3.6367048189
 20
-10.4996934047
 10
3.8170014797
 20
-10.2666603995
 10
3.9781416708
 20
-10.0258414711
  0
LWPOLYLINE
  5
367
100
AcDbEntity
  8
SUPERFICI
100
AcDbPolyline
 62
253
  6
CONTINUOUS
 90
3
 70
0
 10
2.6911099381
 20
-11.3007448297
 10
2.9432406722
 20
-11.1351163542
 10
3.1937039552
 20
-10.9405881968
  0
LWPOLYLINE
  5
368
100
AcDbEntity
  8
SUPERFICI
100
AcDbPolyline
 62
253
  6
CONTINUOUS
 90
7
 70
0
 10
2.5914650147
 20
-11.4711665957
 10
2.6024160891
 20
-11.4642744946
 10
2.62874797
 20
-11.4419965142
 10
2.6510563881
 20
-11.4140735223
 10
2.6690375199
 20
-11.3809579216
 10
2.682438927
 20
-11.3430700105
 10
2.6911100959
 20
-11.3007436957
  0
LWPOLYLINE
  5
369
100
AcDbEntity
  8
SUPERFICI
100
AcDbPolyline
 62
7
  6
CONTINUOUS
 90
3
 70
0
 10
2.5904939778
 20
-11.4717221519
 10
2.7518095795
 20
-11.3726514396
 10
3.1631158381
 20
-11.0606263462
  0
LINE
  5
36A
100
AcDbEntity
  8
SUPERFICI
100
AcDbLine
 62
253
  6
CONTINUOUS
 10
2.4223447839
 20
-11.4352148185
 11
2.6911099244
 21
-11.3007449266
  0
LWPOLYLINE
  5
36B
100
AcDbEntity
  8
SUPERFICI
100
AcDbPolyline
 62
7
  6
CONTINUOUS
 90
19
 70
0
 10
-3.0645222916
 20
17.6859820736
 10
-3.3556834874
 20
17.8398308169
 10
-3.6215671335
 20
17.9551137738
 10
-3.8624743018
 20
18.0315083122
 10
-4.080435678
 20
18.0675869535
 10
-4.2746355333
 20
18.0634938646
 10
-4.4412008623
 20
18.0211748012
 10
-4.5787548901
 20
17.9385473282
 10
-4.6904307986
 20
17.8159386914
 10
-4.7788220734
 20
17.6592504806
 10
-4.8442049022
 20
17.4683392477
 10
-4.8880146591
 20
17.241800094
 10
-4.914198479
 20
16.9840693506
 10
-4.9237819858
 20
16.6952854391
 10
-4.91740096
 20
16.3739971686
 10
-4.8981872216
 20
16.0225231624
 10
-4.8672832545
 20
15.6409975862
 10
-4.8252512443
 20
15.2281427176
 10
-4.7991960164
 20
14.9965611953
  0
LWPOLYLINE
  5
36C
100
AcDbEntity
  8
SUPERFICI
100
AcDbPolyline
 62
7
  6
CONTINUOUS
 90
19
 70
0
 10
-3.0620469367
 20
17.5060433286
 10
-3.2497672622
 20
17.6107553592
 10
-3.4317282498
 20
17.6995269351
 10
-3.60799792
 20
17.7722849188
 10
-3.7809325394
 20
17.8304507697
 10
-3.9484674129
 20
17.872291599
 10
-4.1041325463
 20
17.8929045502
 10
-4.2471010482
 20
17.8910159745
 10
-4.3788677395
 20
17.8672035226
 10
-4.4965472591
 20
17.8192409351
 10
-4.6002582396
 20
17.7459386243
 10
-4.690922981
 20
17.6474485645
 10
-4.7668861888
 20
17.5235476665
 10
-4.8282700516
 20
17.3735941532
 10
-4.8761896119
 20
17.1970803944
 10
-4.9104356432
 20
16.994053882
 10
-4.9316973867
 20
16.764675552
 10
-4.940682618
 20
16.5076027976
 10
-4.9372793314
 20
16.2206009468
  0
LWPOLYLINE
  5
36D
100
AcDbEntity
  8
SUPERFICI
100
AcDbPolyline
 62
7
  6
CONTINUOUS
 90
6
 70
0
 10
-2.9075603765
 20
18.2138176336
 10
-2.7145469991
 20
18.0949517992
 10
-2.5152799165
 20
17.9645848133
 10
-2.3100263938
 20
17.8228853203
 10
-2.0990721758
 20
17.6700410548
 10
-1.8827215294
 20
17.5062589172
  0
LWPOLYLINE
  5
36E
100
AcDbEntity
  8
SUPERFICI
100
AcDbPolyline
 62
7
  6
CONTINUOUS
 90
7
 70
0
 10
-1.8827215294
 20
17.5062589172
 10
-1.6831124884
 20
17.3517418434
 10
-1.4824964735
 20
17.1890364984
 10
-1.2812301811
 20
17.0183897755
 10
-1.0796602204
 20
16.8400476628
 10
-0.8781229776
 20
16.6542547648
 10
-0.6769444918
 20
16.4612538475
  0
LWPOLYLINE
  5
36F
100
AcDbEntity
  8
SUPERFICI
100
AcDbPolyline
 62
7
  6
CONTINUOUS
 90
7
 70
0
 10
-1.4356450086
 20
17.7273658162
 10
-1.2752909546
 20
17.5976667106
 10
-1.1147912547
 20
17.4623056019
 10
-0.9548010869
 20
17.3215871786
 10
-0.795922862
 20
17.1758162529
 10
-0.6387082685
 20
17.0252975193
 10
-0.4836602859
 20
16.8703353165
  0
LWPOLYLINE
  5
370
100
AcDbEntity
  8
SUPERFICI
100
AcDbPolyline
 62
7
  6
CONTINUOUS
 90
14
 70
0
 10
-0.6769444918
 20
16.4612538475
 10
-0.3282318687
 20
16.109958506
 10
0.0081281045
 20
15.7419974762
 10
0.3306458131
 20
15.3585391072
 10
0.6388768808
 20
14.9610552514
 10
0.9310544309
 20
14.5499470847
 10
1.2040710859
 20
14.1245558954
 10
1.4573536837
 20
13.6854619051
 10
1.690633758
 20
13.2330410668
 10
1.9016732478
 20
12.7660447106
 10
2.0910883383
 20
12.2841481629
 10
2.258696168
 20
11.7876320443
 10
2.4014759022
 20
11.2757710273
 10
2.5142132317
 20
10.7715569757
  0
LWPOLYLINE
  5
371
100
AcDbEntity
  8
SUPERFICI
100
AcDbPolyline
 62
7
  6
CONTINUOUS
 90
14
 70
0
 10
-0.4836602859
 20
16.8703353165
 10
-0.1549570488
 20
16.5192719819
 10
0.1605604663
 20
16.1500067643
 10
0.4597570871
 20
15.7667188543
 10
0.7379293017
 20
15.3763654872
 10
0.9954681225
 20
14.9795461139
 10
1.2367534776
 20
14.5690699102
 10
1.4608321456
 20
14.143911626
 10
1.6652576233
 20
13.7076437563
 10
1.8513244484
 20
13.2581205679
 10
2.0192716888
 20
12.7940977992
 10
2.1677660256
 20
12.3173135915
 10
2.2956672261
 20
11.829953569
 10
2.3793101066
 20
11.4507560042
  0
LWPOLYLINE
  5
372
100
AcDbEntity
  8
RACCORDO
100
AcDbPolyline
 62
7
  6
CONTINUOUS
 90
8
 70
0
 10
9.3152525624
 20
26.3053359186
 10
9.282219292
 20
26.5503976778
 10
9.2191433561
 20
26.8004129521
 10
9.1295816124
 20
27.0566252184
 10
9.0161297786
 20
27.3193162105
 10
8.8755272616
 20
27.5974799188
 10
8.7056961149
 20
27.8927767903
 10
8.5070264718
 20
28.2014431792
  0
LINE
  5
373
100
AcDbEntity
  8
SUPERFICI
100
AcDbLine
 62
253
  6
CONTINUOUS
 10
-3.0940692319
 20
18.3210354278
 11
-2.3138493737
 21
18.3308111177
  0
LINE
  5
374
100
AcDbEntity
  8
SUPERFICI
100
AcDbLine
 62
253
  6
CONTINUOUS
 10
-4.0792386692
 20
18.7731728148
 11
-3.0591328825
 21
18.6646439113
  0
LWPOLYLINE
  5
375
100
AcDbEntity
  8
SUPERFICI
100
AcDbPolyline
 62
7
  6
CONTINUOUS
 90
4
 70
0
 10
-4.3383022572
 20
18.8280486977
 10
-4.3203711257
 20
18.8259027564
 10
-4.2033688166
 20
18.8053599819
 10
-4.0778686475
 20
18.7724794666
  0
LWPOLYLINE
  5
376
100
AcDbEntity
  8
SUPERFICI
100
AcDbPolyline
 62
7
  6
CONTINUOUS
 90
4
 70
0
 10
-3.0591442986
 20
18.6646451031
 10
-3.167277864
 20
18.6908177093
 10
-3.2694947343
 20
18.7078699533
 10
-3.2823572109
 20
18.7094035505
  0
LWPOLYLINE
  5
377
100
AcDbEntity
  8
SUPERFICI
100
AcDbPolyline
 62
7
  6
CONTINUOUS
 90
7
 70
0
 10
-4.0778686475
 20
18.7724794666
 10
-3.9325117109
 20
18.7277910452
 10
-3.7793224029
 20
18.6706902789
 10
-3.6185909506
 20
18.6013135973
 10
-3.450609426
 20
18.5198068672
 10
-3.2756713296
 20
18.4263251881
 10
-2.9075603765
 20
18.2138176336
  0
LWPOLYLINE
  5
378
100
AcDbEntity
  8
SUPERFICI
100
AcDbPolyline
 62
7
  6
CONTINUOUS
 90
8
 70
0
 10
-1.7355734728
 20
19.1603459712
 10
-1.9940587976
 20
19.302896466
 10
-2.2452700528
 20
19.412399501
 10
-2.4861766798
 20
19.4879690506
 10
-2.7157408147
 20
19.5290863669
 10
-2.9294529191
 20
19.5349434511
 10
-3.1202831351
 20
19.5032176919
 10
-3.2078787923
 20
19.469301533
  0
LWPOLYLINE
  5
379
100
AcDbEntity
  8
SUPERFICI
100
AcDbPolyline
 62
7
  6
CONTINUOUS
 90
7
 70
0
 10
-2.3138529893
 20
18.3308110724
 10
-2.4542863484
 20
18.4098081333
 10
-2.5877818038
 20
18.4789874072
 10
-2.7146846585
 20
18.538711013
 10
-2.8353303986
 20
18.5893327617
 10
-2.9500448442
 20
18.6311982752
 10
-3.0591442986
 20
18.6646451031
  0
LWPOLYLINE
  5
37A
100
AcDbEntity
  8
SUPERFICI
100
AcDbPolyline
 62
7
  6
CONTINUOUS
 90
7
 70
0
 10
-2.3137685975
 20
18.3308597992
 10
-2.1657197657
 20
18.2432053668
 10
-2.0189576425
 20
18.1503632276
 10
-1.8729960814
 20
18.0523337875
 10
-1.7273889185
 20
17.94913372
 10
-1.5817286299
 20
17.8407953114
 10
-1.4356450086
 20
17.7273658162
  0
LWPOLYLINE
  5
37B
100
AcDbEntity
  8
SUPERFICI
100
AcDbPolyline
 62
7
  6
CONTINUOUS
 90
25
 70
0
 10
-1.8747789396
 20
19.0741968449
 10
-1.5184060453
 20
18.8520854053
 10
-1.1517868266
 20
18.5882846079
 10
-0.7766738482
 20
18.2820618217
 10
-0.3853067027
 20
17.9234154857
 10
0.0109023615
 20
17.518766947
 10
0.3807615218
 20
17.1017543818
 10
0.7055884894
 20
16.7020490354
 10
0.9987232364
 20
16.3116348851
 10
1.2758284397
 20
15.9131382612
 10
1.5360671592
 20
15.508543413
 10
1.7774340666
 20
15.1018310532
 10
2.0112979103
 20
14.672110565
 10
2.2389934025
 20
14.2111687102
 10
2.4544774407
 20
13.7258941936
 10
2.65598861
 20
13.2158203265
 10
2.8419559166
 20
12.6799415293
 10
3.0107316705
 20
12.1172218252
 10
3.1604484409
 20
11.5272014854
 10
3.2889720025
 20
10.9085964874
 10
3.3908329897
 20
10.2581308812
 10
3.4584856587
 20
9.5719981841
 10
3.4831249619
 20
8.8456766806
 10
3.4498005246
 20
8.0739231592
 10
3.339925419
 20
7.2513807926
  0
LWPOLYLINE
  5
37C
100
AcDbEntity
  8
SUPERFICI
100
AcDbPolyline
 62
7
  6
CONTINUOUS
 90
20
 70
0
 10
-1.8895941595
 20
18.5757164809
 10
-1.5299523761
 20
18.3479450917
 10
-1.1814529348
 20
18.0887729975
 10
-0.8346241562
 20
17.7987700638
 10
-0.5013923641
 20
17.4915467943
 10
-0.1835432251
 20
17.1708805796
 10
0.1345956039
 20
16.820731648
 10
0.4568523283
 20
16.4330121417
 10
0.7690425588
 20
16.0204068071
 10
1.0620139856
 20
15.593938898
 10
1.3293142823
 20
15.1663586575
 10
1.5745634105
 20
14.7356667772
 10
1.8048999855
 20
14.2900656934
 10
2.0218318647
 20
13.8244021537
 10
2.2213997297
 20
13.3441928721
 10
2.4019984888
 20
12.8507555939
 10
2.5622704863
 20
12.3455511651
 10
2.7020335035
 20
11.8279215823
 10
2.8213174618
 20
11.2958610579
 10
2.9176684651
 20
10.7519036561
  0
LWPOLYLINE
  5
37D
100
AcDbEntity
  8
0
100
AcDbPolyline
 62
7
  6
CONTINUOUS
 90
7
 70
0
 10
6.1817123444
 20
31.0699382492
 10
6.1529541049
 20
31.1401853586
 10
6.0973529118
 20
31.2495004364
 10
6.0366826808
 20
31.3519766914
 10
5.9681699413
 20
31.4552185775
 10
5.8911982518
 20
31.5611932178
 10
5.8060113153
 20
31.6702769667
  0
LWPOLYLINE
  5
37E
100
AcDbEntity
  8
RACCORDO
100
AcDbPolyline
 62
253
  6
CONTINUOUS
 90
10
 70
0
 10
8.2650267678
 20
28.5393859618
 10
8.2365760617
 20
28.5767956133
 10
8.2066285872
 20
28.6157119864
 10
8.175115106
 20
28.6561777205
 10
8.1419931312
 20
28.6982037408
 10
8.1071622756
 20
28.741866224
 10
8.0704485376
 20
28.7873175717
 10
8.0317505391
 20
28.8346270469
 10
7.9909777932
 20
28.8838436785
 10
7.9479347017
 20
28.9351155489
  0
LINE
  5
37F
100
AcDbEntity
  8
RACCORDO
100
AcDbLine
 62
253
  6
CONTINUOUS
 10
8.2849756953
 20
28.5128923453
 11
8.2650267678
 21
28.5393859618
  0
LINE
  5
380
100
AcDbEntity
  8
SUPERFICI
100
AcDbLine
 62
7
  6
CONTINUOUS
 10
8.3756524191
 20
28.3894636958
 11
7.8820166452
 21
29.0546508935
  0
LWPOLYLINE
  5
381
100
AcDbEntity
  8
RACCORDO
100
AcDbPolyline
 62
253
  6
CONTINUOUS
 90
5
 70
0
 10
7.6334327243
 20
29.2912454944
 10
7.3420601412
 20
29.687428922
 10
7.0340971876
 20
30.0828746459
 10
6.708974344
 20
30.4769122394
 10
6.3661276579
 20
30.8688389246
  0
LWPOLYLINE
  5
382
100
AcDbEntity
  8
RACCORDO
100
AcDbPolyline
 62
7
  6
CONTINUOUS
 90
4
 70
0
 10
8.3756612859
 20
28.3894513766
 10
8.3488750185
 20
28.4264402564
 10
8.3203619032
 20
28.4653213927
 10
8.2849756953
 20
28.5128923453
  0
LINE
  5
383
100
AcDbEntity
  8
RACCORDO
100
AcDbLine
 62
7
  6
CONTINUOUS
 10
8.389680633
 20
28.3699079542
 11
8.3756612859
 21
28.3894513766
  0
LINE
  5
384
100
AcDbEntity
  8
RACCORDO
100
AcDbLine
 62
7
  6
CONTINUOUS
 10
8.5070264718
 20
28.2014431792
 11
8.3896757511
 21
28.3699148202
  0
LINE
  5
385
100
AcDbEntity
  8
RACCORDO
100
AcDbLine
 62
253
  6
CONTINUOUS
 10
8.3168024617
 20
28.4530336963
 11
8.2650267745
 21
28.5393859667
  0
LINE
  5
386
100
AcDbEntity
  8
RACCORDO
100
AcDbLine
 62
253
  6
CONTINUOUS
 10
-1.9582310347
 20
35.5135467157
 11
-2.2784034096
 21
35.7243891454
  0
LINE
  5
387
100
AcDbEntity
  8
RACCORDO
100
AcDbLine
 62
253
  6
CONTINUOUS
 10
-1.7893323049
 20
35.4011978311
 11
-1.9582310347
 21
35.5135467157
  0
LWPOLYLINE
  5
388
100
AcDbEntity
  8
RACCORDO
100
AcDbPolyline
 62
253
  6
CONTINUOUS
 90
3
 70
0
 10
-1.2433831128
 20
35.0312367023
 10
-1.4318743288
 20
35.1598257593
 10
-1.7893323049
 20
35.4011978311
  0
LWPOLYLINE
  5
389
100
AcDbEntity
  8
RACCORDO
100
AcDbPolyline
 62
253
  6
CONTINUOUS
 90
3
 70
0
 10
-0.6310360125
 20
34.6054990775
 10
-0.8430227599
 20
34.7538258365
 10
-1.2433831128
 20
35.0312367023
  0
LWPOLYLINE
  5
38A
100
AcDbEntity
  8
RACCORDO
100
AcDbPolyline
 62
253
  6
CONTINUOUS
 90
3
 70
0
 10
0.058531765
 20
34.1136923064
 10
-0.180172164
 20
34.2850625486
 10
-0.6310360125
 20
34.6054990775
  0
LWPOLYLINE
  5
38B
100
AcDbEntity
  8
RACCORDO
100
AcDbPolyline
 62
253
  6
CONTINUOUS
 90
3
 70
0
 10
0.8239669961
 20
33.5533349359
 10
0.5604425614
 20
33.7475175707
 10
0.058531765
 20
34.1136923064
  0
LWPOLYLINE
  5
38C
100
AcDbEntity
  8
RACCORDO
100
AcDbPolyline
 62
253
  6
CONTINUOUS
 90
3
 70
0
 10
1.6622461368
 20
32.9245525378
 10
1.3755607116
 20
33.1412668705
 10
0.8239669961
 20
33.5533349359
  0
LWPOLYLINE
  5
38D
100
AcDbEntity
  8
RACCORDO
100
AcDbPolyline
 62
253
  6
CONTINUOUS
 90
3
 70
0
 10
2.5785902806
 20
32.2185666843
 10
2.2638666619
 20
32.4625622248
 10
1.6622461368
 20
32.9245525378
  0
LWPOLYLINE
  5
38E
100
AcDbEntity
  8
RACCORDO
100
AcDbPolyline
 62
253
  6
CONTINUOUS
 90
4
 70
0
 10
3.9378967859
 20
31.1413324368
 10
3.5909475495
 20
31.4196593111
 10
3.2433769366
 20
31.6960074495
 10
2.5785902806
 20
32.2185666843
  0
LWPOLYLINE
  5
38F
100
AcDbEntity
  8
0
100
AcDbPolyline
 62
7
  6
CONTINUOUS
 90
3
 70
0
 10
3.0538894595
 20
34.2473957099
 10
2.7779507704
 20
34.4694923875
 10
2.4932899493
 20
34.6938997803
  0
LINE
  5
390
100
AcDbEntity
  8
RACCORDO
100
AcDbLine
 62
253
  6
CONTINUOUS
 10
4.6317717388
 20
30.5781502393
 11
3.9378967859
 21
31.1413324368
  0
LINE
  5
391
100
AcDbEntity
  8
RACCORDO
100
AcDbLine
 62
253
  6
CONTINUOUS
 10
5.2936564351
 20
30.0363945326
 11
4.6317717388
 21
30.5781502393
  0
LINE
  5
392
100
AcDbEntity
  8
RACCORDO
100
AcDbLine
 62
253
  6
CONTINUOUS
 10
7.5991588087
 20
28.1356595045
 11
6.723535103
 21
28.8535979154
  0
LINE
  5
393
100
AcDbEntity
  8
RACCORDO
100
AcDbLine
 62
253
  6
CONTINUOUS
 10
6.723535103
 20
28.8535979154
 11
5.2936564351
 21
30.0363945326
  0
LINE
  5
394
100
AcDbEntity
  8
RACCORDO
100
AcDbLine
 62
253
  6
CONTINUOUS
 10
7.7768635336
 20
27.9878537728
 11
7.5991588087
 21
28.1356595045
  0
LWPOLYLINE
  5
395
100
AcDbEntity
  8
0
100
AcDbPolyline
 62
7
  6
CONTINUOUS
 90
3
 70
0
 10
3.5765668948
 20
33.8141287013
 10
3.3201649298
 20
34.0287667976
 10
3.0538894595
 20
34.2473957099
  0
LINE
  5
396
100
AcDbEntity
  8
RACCORDO
100
AcDbLine
 62
253
  6
CONTINUOUS
 10
7.9301612458
 20
27.8592047325
 11
7.7768635336
 21
27.9878537728
  0
LWPOLYLINE
  5
397
100
AcDbEntity
  8
RACCORDO
100
AcDbPolyline
 62
253
  6
CONTINUOUS
 90
3
 70
0
 10
8.1779055662
 20
27.6481197191
 10
8.1412850061
 20
27.67945501
 10
7.9301612458
 20
27.8592047325
  0
LWPOLYLINE
  5
398
100
AcDbEntity
  8
0
100
AcDbPolyline
 62
7
  6
CONTINUOUS
 90
3
 70
0
 10
4.0572497158
 20
33.4001203998
 10
3.8225273158
 20
33.6042610687
 10
3.5765668948
 20
33.8141287013
  0
LWPOLYLINE
  5
399
100
AcDbEntity
  8
RACCORDO
100
AcDbPolyline
 62
253
  6
CONTINUOUS
 90
15
 70
0
 10
4.8944271192
 20
31.9443144806
 10
4.572707578
 20
32.2281386018
 10
4.248916554
 20
32.5094582424
 10
3.9237273252
 20
32.787871503
 10
3.6055467783
 20
33.0564126891
 10
3.2984564833
 20
33.3120890519
 10
3.0001105822
 20
33.5572940497
 10
2.7093022409
 20
33.7933084598
 10
2.4266144143
 20
34.019930491
 10
2.1524349746
 20
34.23714379
 10
1.8850661985
 20
34.4465403425
 10
1.6241800905
 20
34.648572901
 10
1.3707024089
 20
34.8427095924
 10
1.1247151928
 20
35.0290737581
 10
0.8862645422
 20
35.2078003461
  0
LWPOLYLINE
  5
39A
100
AcDbEntity
  8
0
100
AcDbPolyline
 62
7
  6
CONTINUOUS
 90
5
 70
0
 10
4.8755996494
 20
32.6525194559
 10
4.6901888448
 20
32.8277053414
 10
4.4914987125
 20
33.0112750326
 10
4.2803101662
 20
33.2023270528
 10
4.0572497158
 20
33.4001203998
  0
LINE
  5
39B
100
AcDbEntity
  8
0
100
AcDbLine
 62
7
  6
CONTINUOUS
 10
5.0475671909
 20
32.4860548247
 11
4.8755996494
 21
32.6525194559
  0
LINE
  5
39C
100
AcDbEntity
  8
0
100
AcDbLine
 62
7
  6
CONTINUOUS
 10
5.4059662784
 20
31.866915699
 11
5.1472665481
 21
32.1221601187
  0
LINE
  5
39D
100
AcDbEntity
  8
0
100
AcDbLine
 62
7
  6
CONTINUOUS
 10
5.78356236
 20
31.4838269553
 11
5.4059662784
 21
31.866915699
  0
LINE
  5
39E
100
AcDbEntity
  8
0
100
AcDbLine
 62
7
  6
CONTINUOUS
 10
6.1078641949
 20
31.1443242078
 11
5.78356236
 21
31.4838269553
  0
LINE
  5
39F
100
AcDbEntity
  8
RACCORDO
100
AcDbLine
 62
7
  6
CONTINUOUS
 10
6.1567094867
 20
31.0972874114
 11
6.1088070164
 21
31.1484384742
  0
LWPOLYLINE
  5
3A0
100
AcDbEntity
  8
RACCORDO
100
AcDbPolyline
 62
253
  6
CONTINUOUS
 90
12
 70
0
 10
7.6327138865
 20
29.2922597601
 10
7.4613719055
 20
29.4759263701
 10
7.274569238
 20
29.672211516
 10
7.0718015636
 20
29.8812060283
 10
6.8519121231
 20
30.1036774273
 10
6.6151693746
 20
30.3388744684
 10
6.36346645
 20
30.5844563879
 10
6.0964603625
 20
30.8404478291
 10
5.8143437118
 20
31.1063366873
 10
5.5202688633
 20
31.3787936934
 10
5.2130456254
 20
31.6587069537
 10
4.8944271192
 20
31.9443144806
  0
LWPOLYLINE
  5
3A1
100
AcDbEntity
  8
RACCORDO
100
AcDbPolyline
 62
253
  6
CONTINUOUS
 90
4
 70
0
 10
8.3073276149
 20
27.5106734281
 10
8.274017424
 20
27.546588058
 10
8.2412707127
 20
27.581472096
 10
8.1779055662
 20
27.6481197191
  0
LINE
  5
3A2
100
AcDbEntity
  8
RACCORDO
100
AcDbLine
 62
253
  6
CONTINUOUS
 10
6.3661276579
 20
30.8688389246
 11
6.1567094867
 21
31.0972874114
  0
LINE
  5
3A3
100
AcDbEntity
  8
SUPERFICI
100
AcDbLine
 62
7
  6
CONTINUOUS
 10
6.5209663771
 20
30.6988481242
 11
6.1567094867
 21
31.0972874114
  0
LINE
  5
3A4
100
AcDbEntity
  8
RACCORDO
100
AcDbLine
 62
253
  6
CONTINUOUS
 10
7.6934246949
 20
29.2255829365
 11
7.6334327243
 21
29.2912454944
  0
LWPOLYLINE
  5
3A5
100
AcDbEntity
  8
RACCORDO
100
AcDbPolyline
 62
253
  6
CONTINUOUS
 90
3
 70
0
 10
8.4108236988
 20
27.3967869983
 10
8.3757311539
 20
27.4357766829
 10
8.3073276149
 20
27.5106734281
  0
LWPOLYLINE
  5
3A6
100
AcDbEntity
  8
RACCORDO
100
AcDbPolyline
 62
253
  6
CONTINUOUS
 90
3
 70
0
 10
7.8037895677
 20
29.1021623476
 10
7.7501488562
 20
29.162594008
 10
7.6934246949
 20
29.2255829365
  0
LWPOLYLINE
  5
3A7
100
AcDbEntity
  8
RACCORDO
100
AcDbPolyline
 62
253
  6
CONTINUOUS
 90
3
 70
0
 10
7.9024809916
 20
28.988543559
 10
7.8545019397
 20
29.0441858833
 10
7.8037895677
 20
29.1021623476
  0
LINE
  5
3A8
100
AcDbEntity
  8
RACCORDO
100
AcDbLine
 62
253
  6
CONTINUOUS
 10
7.9479347017
 20
28.9351155489
 11
7.9024809916
 21
28.988543559
  0
LWPOLYLINE
  5
3A9
100
AcDbEntity
  8
0
100
AcDbPolyline
 62
7
  6
CONTINUOUS
 90
7
 70
0
 10
5.8060113153
 20
31.6702769667
 10
5.710170527
 20
31.7858832433
 10
5.6026543145
 20
31.9091653599
 10
5.4833359294
 20
32.0401868194
 10
5.351325128
 20
32.1798262285
 10
5.2061334787
 20
32.3284412055
 10
5.0475671909
 20
32.4860548247
  0
LWPOLYLINE
  5
3AA
100
AcDbEntity
  8
SUPERFICI
100
AcDbPolyline
 62
7
  6
CONTINUOUS
 90
3
 70
0
 10
7.4289108047
 20
29.6311503289
 10
6.9746582833
 20
30.179181347
 10
6.5209663771
 20
30.6988481242
  0
LINE
  5
3AB
100
AcDbEntity
  8
SUPERFICI
100
AcDbLine
 62
7
  6
CONTINUOUS
 10
7.8820166452
 20
29.0546508935
 11
7.4289108047
 21
29.6311503289
  0
LWPOLYLINE
  5
3AC
100
AcDbEntity
  8
SUPERFICI
100
AcDbPolyline
 62
7
  6
CONTINUOUS
 90
3
 70
0
 10
-3.6123544562
 20
38.2070614204
 10
-4.3466392553
 20
38.54027517
 10
-4.841985689
 20
38.7529235327
  0
LWPOLYLINE
  5
3AD
100
AcDbEntity
  8
RACCORDO
100
AcDbPolyline
 62
253
  6
CONTINUOUS
 90
30
 70
0
 10
-5.3638844194
 20
37.5105749714
 10
-5.473470739
 20
37.5626377926
 10
-5.5834823646
 20
37.613812485
 10
-5.6938474233
 20
37.6641667438
 10
-5.8044855673
 20
37.7131696505
 10
-5.9150207947
 20
37.760790382
 10
-6.0252925466
 20
37.8070231012
 10
-6.1354579815
 20
37.8513675704
 10
-6.2452250786
 20
37.8939067604
 10
-6.3542781053
 20
37.9345700892
 10
-6.4626449334
 20
37.9726332423
 10
-6.5700492088
 20
38.0082019111
 10
-6.6760127753
 20
38.0412052026
 10
-6.7800738404
 20
38.0705565839
 10
-6.88188678
 20
38.0963460127
 10
-6.9809463689
 20
38.118577859
 10
-7.0766215843
 20
38.1361556358
 10
-7.1682494516
 20
38.1490300504
 10
-7.2553021188
 20
38.157004025
 10
-7.3372206225
 20
38.1587702732
 10
-7.4133382154
 20
38.1544634389
 10
-7.4832442389
 20
38.1442123391
 10
-7.5461234112
 20
38.1261922958
 10
-7.6010081665
 20
38.1000631398
 10
-7.6469344928
 20
38.0659499641
 10
-7.6828367119
 20
38.0226652457
 10
-7.7074677079
 20
37.9690223786
 10
-7.7189496637
 20
37.9044899502
 10
-7.7163362345
 20
37.8302503769
 10
-7.7152705985
 20
37.8222301069
  0
LWPOLYLINE
  5
3AE
100
AcDbEntity
  8
SUPERFICI
100
AcDbPolyline
 62
7
  6
CONTINUOUS
 90
4
 70
0
 10
-0.8625605239
 20
36.91589665
 10
-1.2046294109
 20
37.0792330206
 10
-1.5079559028
 20
37.2073894844
 10
-1.7850510526
 20
37.3070207617
  0
LWPOLYLINE
  5
3AF
100
AcDbEntity
  8
RACCORDO
100
AcDbPolyline
 62
7
  6
CONTINUOUS
 90
7
 70
0
 10
-4.1948920629
 20
38.457465522
 10
-4.3007852139
 20
38.5087938546
 10
-4.407427424
 20
38.5593989344
 10
-4.5147232335
 20
38.6091512051
 10
-4.6224069574
 20
38.6578413032
 10
-4.7303041394
 20
38.7052997187
 10
-4.8419862812
 20
38.7529237813
  0
LWPOLYLINE
  5
3B0
100
AcDbEntity
  8
RACCORDO
100
AcDbPolyline
 62
253
  6
CONTINUOUS
 90
5
 70
0
 10
-4.9336810094
 20
37.2960865412
 10
-5.039602793
 20
37.3503139434
 10
-5.1467574911
 20
37.4041443227
 10
-5.2549350055
 20
37.4575813863
 10
-5.3638844194
 20
37.5105749714
  0
LWPOLYLINE
  5
3B1
100
AcDbEntity
  8
RACCORDO
100
AcDbPolyline
 62
253
  6
CONTINUOUS
 90
3
 70
0
 10
-4.7257291668
 20
37.1876127443
 10
-4.8290167703
 20
37.2418586641
 10
-4.9336810094
 20
37.2960865412
  0
LWPOLYLINE
  5
3B2
100
AcDbEntity
  8
0
100
AcDbPolyline
 62
253
  6
CONTINUOUS
 90
6
 70
0
 10
-0.255387991
 20
36.5885709436
 10
-0.2728168621
 20
36.5978666239
 10
-0.3477393166
 20
36.6227217064
 10
-0.4298996615
 20
36.6286160423
 10
-0.5167280737
 20
36.6158652676
 10
-0.6076017809
 20
36.5849257574
  0
LWPOLYLINE
  5
3B3
100
AcDbEntity
  8
RACCORDO
100
AcDbPolyline
 62
7
  6
CONTINUOUS
 90
7
 70
0
 10
-3.6104975798
 20
38.1569831334
 10
-3.6824694041
 20
38.1954354454
 10
-3.782238057
 20
38.2481031341
 10
-3.8835096777
 20
38.3007799775
 10
-3.9861458837
 20
38.3533307613
 10
-4.0899526901
 20
38.4055902942
 10
-4.1948920629
 20
38.457465522
  0
LWPOLYLINE
  5
3B4
100
AcDbEntity
  8
SUPERFICI
100
AcDbPolyline
 62
7
  6
CONTINUOUS
 90
4
 70
0
 10
-1.5957190831
 20
37.1742333964
 10
-2.2370849284
 20
37.5222361763
 10
-2.9088024928
 20
37.8668988934
 10
-3.6123544562
 20
38.2070614204
  0
LWPOLYLINE
  5
3B5
100
AcDbEntity
  8
RACCORDO
100
AcDbPolyline
 62
253
  6
CONTINUOUS
 90
3
 70
0
 10
-4.4250457551
 20
37.0255124774
 10
-4.5236580337
 20
37.0792519633
 10
-4.7257291668
 20
37.1876127443
  0
LWPOLYLINE
  5
3B6
100
AcDbEntity
  8
SUPERFICI
100
AcDbPolyline
 62
7
  6
CONTINUOUS
 90
3
 70
0
 10
-0.255387991
 20
36.5885709436
 10
-0.4776592185
 20
36.7132365732
 10
-0.8625605239
 20
36.91589665
  0
LWPOLYLINE
  5
3B7
100
AcDbEntity
  8
RACCORDO
100
AcDbPolyline
 62
253
  6
CONTINUOUS
 90
5
 70
0
 10
-3.2071422318
 20
37.9348022022
 10
-3.2989429695
 20
37.9863241509
 10
-3.3923722042
 20
38.038196146
 10
-3.4873961657
 20
38.09035273
 10
-3.6104975798
 20
38.1569831334
  0
LINE
  5
3B8
100
AcDbEntity
  8
SUPERFICI
100
AcDbLine
 62
7
  6
CONTINUOUS
 10
-1.2705865428
 20
36.9905062022
 11
-1.5957190831
 21
37.1742333964
  0
LWPOLYLINE
  5
3B9
100
AcDbEntity
  8
RACCORDO
100
AcDbPolyline
 62
253
  6
CONTINUOUS
 90
4
 70
0
 10
-4.0477815773
 20
36.8145122268
 10
-4.1394452482
 20
36.8665250008
 10
-4.2329431527
 20
36.9189710798
 10
-4.4250457551
 20
37.0255124774
  0
LINE
  5
3BA
100
AcDbEntity
  8
RACCORDO
100
AcDbLine
 62
253
  6
CONTINUOUS
 10
-3.029134156
 20
37.8333701727
 11
-3.2071422318
 21
37.9348022022
  0
LINE
  5
3BB
100
AcDbEntity
  8
RACCORDO
100
AcDbLine
 62
7
  6
CONTINUOUS
 10
-1.2705865428
 20
36.9905062022
 11
-1.1896076869
 21
36.9437776367
  0
LINE
  5
3BC
100
AcDbEntity
  8
0
100
AcDbLine
 62
7
  6
CONTINUOUS
 10
-0.2551276927
 20
36.588419965
 11
-0.255387991
 21
36.5885709436
  0
LINE
  5
3BD
100
AcDbEntity
  8
0
100
AcDbLine
 62
7
  6
CONTINUOUS
 10
-1.0187785981
 20
36.8436927421
 11
-1.1896076869
 21
36.9437776367
  0
LWPOLYLINE
  5
3BE
100
AcDbEntity
  8
RACCORDO
100
AcDbPolyline
 62
253
  6
CONTINUOUS
 90
3
 70
0
 10
-3.7685743716
 20
36.6523401374
 10
-3.865110162
 20
36.709036505
 10
-4.0477815773
 20
36.8145122268
  0
LINE
  5
3BF
100
AcDbEntity
  8
RACCORDO
100
AcDbLine
 62
253
  6
CONTINUOUS
 10
-2.8431029347
 20
37.7245471746
 11
-3.0291341518
 21
37.8333701743
  0
LINE
  5
3C0
100
AcDbEntity
  8
0
100
AcDbLine
 62
7
  6
CONTINUOUS
 10
0.024303371
 20
36.4219526523
 11
-0.2551276927
 21
36.588419965
  0
LINE
  5
3C1
100
AcDbEntity
  8
RACCORDO
100
AcDbLine
 62
253
  6
CONTINUOUS
 10
-2.6428639001
 20
37.6051910419
 11
-2.8431029347
 21
37.7245471746
  0
LINE
  5
3C2
100
AcDbEntity
  8
0
100
AcDbLine
 62
7
  6
CONTINUOUS
 10
-0.6273085804
 20
36.6089100615
 11
-1.0187785981
 21
36.8436927421
  0
LWPOLYLINE
  5
3C3
100
AcDbEntity
  8
RACCORDO
100
AcDbPolyline
 62
253
  6
CONTINUOUS
 90
3
 70
0
 10
-3.4568920014
 20
36.4661623674
 10
-3.5645279007
 20
36.5308553267
 10
-3.7685743716
 20
36.6523401374
  0
LINE
  5
3C4
100
AcDbEntity
  8
RACCORDO
100
AcDbLine
 62
253
  6
CONTINUOUS
 10
-2.4275786052
 20
37.474439541
 11
-2.6428639001
 21
37.6051910419
  0
LWPOLYLINE
  5
3C5
100
AcDbEntity
  8
RACCORDO
100
AcDbPolyline
 62
253
  6
CONTINUOUS
 90
3
 70
0
 10
-3.1080591824
 20
36.2525614953
 10
-3.228734764
 20
36.3269536856
 10
-3.4568920014
 20
36.4661623674
  0
LINE
  5
3C6
100
AcDbEntity
  8
RACCORDO
100
AcDbLine
 62
253
  6
CONTINUOUS
 10
-2.1954156747
 20
37.3307569015
 11
-2.4275786052
 21
37.474439541
  0
LINE
  5
3C7
100
AcDbEntity
  8
0
100
AcDbLine
 62
7
  6
CONTINUOUS
 10
0.3381416185
 20
36.2267762177
 11
0.024303371
 21
36.4219526523
  0
LWPOLYLINE
  5
3C8
100
AcDbEntity
  8
RACCORDO
100
AcDbPolyline
 62
253
  6
CONTINUOUS
 90
3
 70
0
 10
-2.7168539091
 20
36.0068496971
 10
-2.8521830486
 20
36.0924212772
 10
-3.1080591824
 20
36.2525614953
  0
LINE
  5
3C9
100
AcDbEntity
  8
RACCORDO
100
AcDbLine
 62
253
  6
CONTINUOUS
 10
-1.9448588819
 20
37.1727199544
 11
-2.1954156747
 21
37.3307569015
  0
LWPOLYLINE
  5
3CA
100
AcDbEntity
  8
RACCORDO
100
AcDbPolyline
 62
253
  6
CONTINUOUS
 90
3
 70
0
 10
-2.2784034096
 20
35.7243891454
 10
-2.4299229514
 20
35.8226687879
 10
-2.7168539091
 20
36.0068496971
  0
LWPOLYLINE
  5
3CB
100
AcDbEntity
  8
0
100
AcDbPolyline
 62
7
  6
CONTINUOUS
 90
4
 70
0
 10
0.3716796483
 20
35.9744517047
 10
0.1092236773
 20
36.1461649817
 10
-0.2502303725
 20
36.3754811265
 10
-0.6273085804
 20
36.6089100615
  0
LWPOLYLINE
  5
3CC
100
AcDbEntity
  8
0
100
AcDbPolyline
 62
7
  6
CONTINUOUS
 90
11
 70
0
 10
0.3678711634
 20
35.9769683063
 10
0.5116637549
 20
35.881171573
 10
1.0948697589
 20
35.4786609492
 10
1.68794884
 20
35.0477221356
 10
2.2865617093
 20
34.5921047181
 10
2.8747121305
 20
34.1254071174
 10
3.4360828329
 20
33.6620863996
 10
3.9678672455
 20
33.2060096002
 10
4.4624654496
 20
32.765482716
 10
4.908608692
 20
32.3516920973
 10
5.1435412579
 20
32.1257935382
  0
LWPOLYLINE
  5
3CD
100
AcDbEntity
  8
RACCORDO
100
AcDbPolyline
 62
253
  6
CONTINUOUS
 90
6
 70
0
 10
-1.0714006387
 20
36.5997479743
 10
-1.2304421034
 20
36.706487446
 10
-1.3840035298
 20
36.8085623636
 10
-1.5320209814
 20
36.9060076974
 10
-1.6748003871
 20
36.999112092
 10
-1.9448588819
 20
37.1727199544
  0
LWPOLYLINE
  5
3CE
100
AcDbEntity
  8
0
100
AcDbPolyline
 62
7
  6
CONTINUOUS
 90
4
 70
0
 10
1.2849840668
 20
35.5916292863
 10
0.9709073765
 20
35.8095562752
 10
0.6545053264
 20
36.0219620636
 10
0.3381416185
 20
36.2267762177
  0
LINE
  5
3CF
100
AcDbEntity
  8
0
100
AcDbLine
 62
7
  6
CONTINUOUS
 10
1.595442118
 20
35.3697123944
 11
1.2849840668
 21
35.5916292863
  0
LWPOLYLINE
  5
3D0
100
AcDbEntity
  8
RACCORDO
100
AcDbPolyline
 62
253
  6
CONTINUOUS
 90
8
 70
0
 10
0.2192611786
 20
35.6975074116
 10
0.013646849
 20
35.845351569
 10
-0.184575429
 20
35.9864533991
 10
-0.3753392187
 20
36.1208916228
 10
-0.558722594
 20
36.2488483987
 10
-0.7357992004
 20
36.3712021276
 10
-0.9067313551
 20
36.4881640374
 10
-1.0714006387
 20
36.5997479743
  0
LWPOLYLINE
  5
3D1
100
AcDbEntity
  8
RACCORDO
100
AcDbPolyline
 62
253
  6
CONTINUOUS
 90
4
 70
0
 10
0.8862645422
 20
35.2078003461
 10
0.6556191332
 20
35.378855211
 10
0.4331355603
 20
35.5421459945
 10
0.2192611786
 20
35.6975074116
  0
LWPOLYLINE
  5
3D2
100
AcDbEntity
  8
0
100
AcDbPolyline
 62
7
  6
CONTINUOUS
 90
3
 70
0
 10
2.200914466
 20
34.9193809064
 10
1.9012474975
 20
35.1451047905
 10
1.595442118
 20
35.3697123944
  0
LINE
  5
3D3
100
AcDbEntity
  8
0
100
AcDbLine
 62
7
  6
CONTINUOUS
 10
2.4932899493
 20
34.6938997803
 11
2.200914466
 21
34.9193809064
  0
LINE
  5
3D4
100
AcDbEntity
  8
RACCORDO
100
AcDbLine
 62
253
  6
CONTINUOUS
 10
-3.1519190958
 20
37.853445716
 11
-3.0291334254
 21
37.8333696678
  0
LINE
  5
3D5
100
AcDbEntity
  8
SUPERFICI
100
AcDbLine
 62
7
  6
CONTINUOUS
 10
-1.7850510526
 20
37.3070207617
 11
-1.9018596973
 21
37.3403441826
  0
LWPOLYLINE
  5
3D6
100
AcDbEntity
  8
RACCORDO
100
AcDbPolyline
 62
7
  6
CONTINUOUS
 90
13
 70
0
 10
-4.8830566251
 20
38.7700313882
 10
-5.1128982916
 20
38.8616393453
 10
-5.5285699807
 20
39.0062000828
 10
-5.8995977605
 20
39.1053153041
 10
-6.2409649348
 20
39.1616553269
 10
-6.5666875502
 20
39.1710535564
 10
-6.8762927681
 20
39.1230752935
 10
-7.1616440889
 20
39.0079285749
 10
-7.41808484
 20
38.8103771298
 10
-7.6123293362
 20
38.5324464063
 10
-7.7109519576
 20
38.2225659367
 10
-7.7243848935
 20
37.9111528173
 10
-7.7141091428
 20
37.8142862206
  0
LWPOLYLINE
  5
3D7
100
AcDbEntity
  8
RACCORDO
100
AcDbPolyline
 62
253
  6
CONTINUOUS
 90
8
 70
0
 10
-3.0291341518
 20
37.8333701743
 10
-2.7469011803
 20
37.7187467385
 10
-2.4678654616
 20
37.5980543856
 10
-2.1920663536
 20
37.4713109748
 10
-1.9195343267
 20
37.3385301986
 10
-1.6503164254
 20
37.1997338604
 10
-1.3844753732
 20
37.0549538237
 10
-1.2705865428
 20
36.9905062022
  0
LINE
  5
3D8
100
AcDbEntity
  8
RACCORDO
100
AcDbLine
 62
7
  6
CONTINUOUS
 10
-4.8419862812
 20
38.7529237813
 11
-4.8830543796
 21
38.7700303395
  0
ELLIPSE
  5
3D9
100
AcDbEntity
  8
0
100
AcDbEllipse
 62
7
  6
CONTINUOUS
 10
-29.7745510713
 20
-1.7953446166
 30
0.0
 11
73.2124775087
 21
-66.5508239563
 31
0.0
 40
0.2563235524
 41
7.6792262384
 42
7.7078236224
  0
ELLIPSE
  5
3DA
100
AcDbEntity
  8
0
100
AcDbEllipse
 62
7
  6
CONTINUOUS
 10
-16.4806452277
 20
-9.471079239
 30
0.0
 11
75.1370913711
 21
-10.5630649814
 31
0.0
 40
0.2240065692
 41
1.3935315133
 42
1.4132841409
  0
ELLIPSE
  5
3DB
100
AcDbEntity
  8
0
100
AcDbEllipse
 62
7
  6
CONTINUOUS
 10
-20.2985852662
 20
-7.2666485108
 30
0.0
 11
81.7033229925
 21
-71.5376967925
 31
0.0
 40
0.232046774
 41
7.8104861925
 42
7.8272916047
  0
ELLIPSE
  5
3DC
100
AcDbEntity
  8
0
100
AcDbEllipse
 62
7
  6
CONTINUOUS
 10
-25.9567826655
 20
-3.9996762463
 30
0.0
 11
83.3031197552
 21
-16.0417807273
 31
0.0
 40
0.2107851529
 41
1.3056873126
 42
1.3222709571
  0
ELLIPSE
  5
3DD
100
AcDbEntity
  8
0
100
AcDbEllipse
 62
7
  6
CONTINUOUS
 10
-34.32633866
 20
0.8328004898
 30
0.0
 11
75.1364560628
 21
-10.5626325122
 31
0.0
 40
0.2240075521
 41
1.1344999175
 42
1.1633015687
  0
ELLIPSE
  5
3DE
100
AcDbEntity
  8
0
100
AcDbEllipse
 62
7
  6
CONTINUOUS
 10
-16.009939785
 20
-9.7428586622
 30
0.0
 11
73.2124849444
 21
-66.550828318
 31
0.0
 40
0.256323529
 41
1.5886503095
 42
1.5942861004
  0
ELLIPSE
  5
3DF
100
AcDbEntity
  8
0
100
AcDbEllipse
 62
7
  6
CONTINUOUS
 10
-16.0094368716
 20
-9.7431490381
 30
0.0
 11
73.2168887266
 21
-66.5534115197
 31
0.0
 40
0.2563096862
 41
7.8829211962
 42
7.891584364
  0
ELLIPSE
  5
3E0
100
AcDbEntity
  8
0
100
AcDbEllipse
 62
7
  6
CONTINUOUS
 10
-33.0553733613
 20
0.0989610553
 30
0.0
 11
75.1371319925
 21
-10.5630926332
 31
0.0
 40
0.2240065064
 41
1.163580916
 42
1.1722535262
  0
ELLIPSE
  5
3E1
100
AcDbEntity
  8
0
100
AcDbEllipse
 62
7
  6
CONTINUOUS
 10
-21.7218045887
 20
-6.4448995111
 30
0.0
 11
81.7023795284
 21
-71.5371421895
 31
0.0
 40
0.2320492263
 41
7.8016029027
 42
7.8181938202
  0
ELLIPSE
  5
3E2
100
AcDbEntity
  8
0
100
AcDbEllipse
 62
7
  6
CONTINUOUS
 10
-24.533596735
 20
-4.8214059658
 30
0.0
 11
83.3043526515
 21
-16.0425965024
 31
0.0
 40
0.2107831173
 41
1.3145737121
 42
1.3313637749
  0
ELLIPSE
  5
3E3
100
AcDbEntity
  8
0
100
AcDbEllipse
 62
7
  6
CONTINUOUS
 10
-31.0457293212
 20
-1.0613822267
 30
0.0
 11
73.2140872802
 21
-66.5517682269
 31
0.0
 40
0.2563184921
 41
1.3871199383
 42
1.40683252
  0
ELLIPSE
  5
3E4
100
AcDbEntity
  8
0
100
AcDbEllipse
 62
7
  6
CONTINUOUS
 10
-33.0557071512
 20
0.0991537814
 30
0.0
 11
75.1392655191
 21
-10.5645449668
 31
0.0
 40
0.2240032056
 41
1.1524709917
 42
1.1581294967
  0
ELLIPSE
  5
3E5
100
AcDbEntity
  8
0
100
AcDbEllipse
 62
7
  6
CONTINUOUS
 10
-33.0553733613
 20
0.0989610553
 30
0.0
 11
75.367172977
 21
-10.5954327581
 31
0.0
 40
0.2240065064
 41
1.1639738345
 42
1.1726195661
  0
ELLIPSE
  5
3E6
100
AcDbEntity
  8
0
100
AcDbEllipse
 62
7
  6
CONTINUOUS
 10
-33.0557071512
 20
0.0991537814
 30
0.0
 11
75.3693130357
 21
-10.5968895382
 31
0.0
 40
0.2240032056
 41
1.1540610968
 42
1.1585393785
  0
ELLIPSE
  5
3E7
100
AcDbEntity
  8
0
100
AcDbEllipse
 62
7
  6
CONTINUOUS
 10
-17.2808539621
 20
-9.0090487447
 30
0.0
 11
73.4379441321
 21
-66.7553502027
 31
0.0
 40
0.2563194213
 41
7.8548320812
 42
7.8823066613
  0
ELLIPSE
  5
3E8
100
AcDbEntity
  8
0
100
AcDbEllipse
 62
7
  6
CONTINUOUS
 10
-21.7218045887
 20
-6.4448995111
 30
0.0
 11
81.9525207745
 21
-71.7561613906
 31
0.0
 40
0.2320492263
 41
7.8015222285
 42
7.818062444
  0
ELLIPSE
  5
3E9
100
AcDbEntity
  8
0
100
AcDbEllipse
 62
7
  6
CONTINUOUS
 10
-24.533596735
 20
-4.8214059658
 30
0.0
 11
83.5593985229
 21
-16.0917127595
 31
0.0
 40
0.2107831173
 41
1.3153354766
 42
1.3313660752
  0
ELLIPSE
  5
3EA
100
AcDbEntity
  8
0
100
AcDbEllipse
 62
7
  6
CONTINUOUS
 10
-31.0457293212
 20
-1.0613822267
 30
0.0
 11
73.4382406418
 21
-66.7555241314
 31
0.0
 40
0.2563184921
 41
7.6706174151
 42
7.6902693162
  0
ELLIPSE
  5
3EB
100
AcDbEntity
  8
0
100
AcDbEllipse
 62
7
  6
CONTINUOUS
 10
-15.2096036985
 20
-10.204962688
 30
0.0
 11
75.3670069297
 21
-10.5953197259
 31
0.0
 40
0.2240067625
 41
1.4029527477
 42
1.4307656982
  0
ELLIPSE
  5
3EC
100
AcDbEntity
  8
0
100
AcDbEllipse
 62
7
  6
CONTINUOUS
 10
-17.2808539621
 20
-9.0090487447
 30
0.0
 11
73.2137916754
 21
-66.5515948291
 31
0.0
 40
0.2563194213
 41
7.854004506
 42
7.8826450572
  0
ELLIPSE
  5
3ED
100
AcDbEntity
  8
0
100
AcDbEllipse
 62
7
  6
CONTINUOUS
 10
-15.2096036985
 20
-10.204962688
 30
0.0
 11
75.136966452
 21
-10.5629799461
 31
0.0
 40
0.2240067625
 41
1.4024608939
 42
1.4311945269
  0
ENDSEC
  0
SECTION
  2
OBJECTS
  0
DICTIONARY
  5
C
100
AcDbDictionary
280
0
281
1
  3
ACAD_GROUP
350
D
  3
ACAD_MLINESTYLE
350
17
  3
ACAD_LAYOUT
350
1A
  3
ACAD_PLOTSETTINGS
350
19
  3
ACAD_PLOTSTYLENAME
350
E
  0
DICTIONARY
  5
D
102
{ACAD_REACTORS
330
C
102
}
100
AcDbDictionary
280
0
281
1
  0
ACDBDICTIONARYWDFLT
  5
E
102
{ACAD_REACTORS
330
C
102
}
100
AcDbDictionary
281
1
  3
Normal
350
F
100
AcDbDictionaryWithDefault
340
F
  0
DICTIONARY
  5
17
102
{ACAD_REACTORS
330
C
102
}
100
AcDbDictionary
280
0
281
1
  3
Standard
350
18
  0
DICTIONARY
  5
19
102
{ACAD_REACTORS
330
C
102
}
100
AcDbDictionary
281
1
  0
DICTIONARY
  5
1A
102
{ACAD_REACTORS
330
C
102
}
100
AcDbDictionary
281
1
  3
Model
350
3EE
  3
Layout1
350
3EF
  0
ACDBPLACEHOLDER
  5
F
102
{ACAD_REACTORS
330
E
102
}
  0
MLINESTYLE
  5
18
102
{ACAD_REACTORS
330
17
102
}
100
AcDbMlineStyle
  2
STANDARD
 70
0
  3

 62
256
 51
90.0
 52
90.0
 71
2
 49
0.5
 62
256
  6
BYLAYER
 49
-0.5
 62
256
  6
BYLAYER
  0
LAYOUT
  5
3EE
102
{ACAD_REACTORS
330
1A
102
}
100
AcDbPlotSettings
  1

  2
none_device
  4
ISO_A4_(297.00_x_210.00_MM)
  6

 40
0.0
 41
0.0
 42
0.0
 43
0.0
 44
297.0
 45
210.0
 46
0.0
 47
0.0
 48
0.0
 49
0.0
140
0.0
141
0.0
142
1.0
143
1.0
 70
1024
 72
1
 73
0
 74
0
  7

 75
0
147
1.0
148
0.0
149
0.0
100
AcDbLayout
  1
Model
 70
0
 71
0
 10
0.0
 20
0.0
 11
297.0
 21
210.0
 12
0.0
 22
0.0
 32
0.0
 14
0.0
 24
0.0
 34
0.0
 15
0.0
 25
0.0
 35
0.0
146
0.0
 13
0.0
 23
0.0
 33
0.0
 16
1.0
 26
0.0
 36
0.0
 17
0.0
 27
1.0
 37
0.0
 76
0
330
21D
345
0
346
0
  0
LAYOUT
  5
3EF
102
{ACAD_REACTORS
330
1A
102
}
100
AcDbPlotSettings
  1

  2
none_device
  4
ISO_A4_(297.00_x_210.00_MM)
  6

 40
0.0
 41
0.0
 42
0.0
 43
0.0
 44
297.0
 45
210.0
 46
0.0
 47
0.0
 48
0.0
 49
0.0
140
0.0
141
0.0
142
1.0
143
1.0
 70
0
 72
1
 73
0
 74
0
  7

 75
0
147
1.0
148
0.0
149
0.0
100
AcDbLayout
  1
Layout1
 70
0
 71
1
 10
0.0
 20
0.0
 11
297.0
 21
210.0
 12
0.0
 22
0.0
 32
0.0
 14
0.0
 24
0.0
 34
0.0
 15
0.0
 25
0.0
 35
0.0
146
0.0
 13
0.0
 23
0.0
 33
0.0
 16
1.0
 26
0.0
 36
0.0
 17
0.0
 27
1.0
 37
0.0
 76
0
330
21E
345
0
346
0
  0
ENDSEC
  0
EOF
