  0
SECTION
  2
HEADER
  9
$ACADVER
  1
AC1021
  9
$DWGCODEPAGE
  3
ANSI_1252
  9
$EXTMAX
 10
297.0
 20
210.0
 30
0.0
  9
$EXTMIN
 10
0.0
 20
0.0
 30
0.0
  9
$LIMMIN
 10
0.0
 20
0.0
  9
$LIMMAX
 10
297.0
 20
210.0
  9
$VIEWCTR
 10
148.5
 20
105.0
  9
$VIEWSIZE
 40
210.0
  9
$CLAYER
  8
0
  9
$LTSCALE
 40
16.335
  9
$CELTYPE
  6
BYLAYER
  9
$DIMSCALE
 40
1.0
  9
$DIMASZ
 40
3.0
  9
$DIMEXO
 40
0.5
  9
$DIMDLI
 40
11.286
  9
$DIMEXE
 40
1.5
  9
$DIMCEN
 40
2.673
  9
$DIMLFAC
 40
1.0
  9
$DIMBLK
  1
_FILLED
  9
$DIMALT
 70
0
  9
$DIMALTF
 40
0.0393700787
  9
$DIMTXT
 40
3.0
  9
$DIMTOL
 70
1
  9
$DIMLIM
 70
0
  9
$DIMTFAC
 40
1.0
  9
$DIMTP
 40
0.01
  9
$DIMTM
 40
0.01
  9
$DIMGAP
 40
0.625
  9
$DIMDSEP
 70
44
  9
$AUNITS
 70
0
  9
$PDMODE
 70
3
  9
$PDSIZE
 40
3.0
  9
$HANDSEED
  5
373
  9
$TILEMODE
 70
1
  9
$MEASUREMENT
 70
1
  9
$INSUNITS
 70
4
  0
ENDSEC
  0
SECTION
  2
CLASSES
  0
CLASS
  1
ACDBDICTIONARYWDFLT
  2
AcDbDictionaryWithDefault
  3
AutoCAD 2000
 90
0
 91
1
280
0
281
0
  0
CLASS
  1
ACDBPLACEHOLDER
  2
AcDbPlaceHolder
  3
AutoCAD 2000
 90
0
 91
1
280
0
281
0
  0
CLASS
  1
LAYOUT
  2
AcDbLayout
  3
AutoCAD 2000
 90
0
 91
0
280
0
281
0
  0
ENDSEC
  0
SECTION
  2
TABLES
  0
TABLE
  2
VPORT
  5
8
100
AcDbSymbolTable
 70
2
  0
VPORT
  5
1F4
100
AcDbSymbolTableRecord
100
AcDbViewportTableRecord
  2
*ACTIVE
 70
0
 10
0.0
 20
0.0
 11
1.0
 21
1.0
 12
148.5
 22
105.0
 13
0.0
 23
0.0
 14
1.0
 24
1.0
 15
0.0
 25
0.0
 16
0.0
 26
0.0
 36
1.0
 17
0.0
 27
0.0
 37
0.0
 40
210.0
 41
1.4142857143
 42
50.0
 43
0.0
 44
0.0
 50
0.0
 51
0.0
 71
0
 72
100
 73
1
 74
1
 75
0
 76
0
 77
0
 78
0
  0
ENDTAB
  0
TABLE
  2
LTYPE
  5
5
100
AcDbSymbolTable
 70
6
  0
LTYPE
  5
14
100
AcDbSymbolTableRecord
100
AcDbLinetypeTableRecord
  2
BYBLOCK
 70
0
  3

 72
65
 73
0
 40
0.0
  0
LTYPE
  5
15
100
AcDbSymbolTableRecord
100
AcDbLinetypeTableRecord
  2
BYLAYER
 70
0
  3

 72
65
 73
0
 40
0.0
  0
LTYPE
  5
16
100
AcDbSymbolTableRecord
100
AcDbLinetypeTableRecord
  2
CONTINUOUS
 70
64
  3
Solid line
 72
65
 73
0
 40
0.0
  0
LTYPE
  5
1F5
100
AcDbSymbolTableRecord
100
AcDbLinetypeTableRecord
  2
CENTER
 70
64
  3
____ _ ____ _ ____ _ ____ _ ____ _ ____ _ ____
 72
65
 73
4
 40
0.6
 49
0.375
 74
0
 49
-0.075
 74
0
 49
0.075
 74
0
 49
-0.075
 74
0
  0
LTYPE
  5
1F6
100
AcDbSymbolTableRecord
100
AcDbLinetypeTableRecord
  2
HIDDEN
 70
64
  3
- - - - - - - - - - - - - - - - - - - -
 72
65
 73
2
 40
0.2
 49
0.1
 74
0
 49
-0.1
 74
0
  0
LTYPE
  5
1F7
100
AcDbSymbolTableRecord
100
AcDbLinetypeTableRecord
  2
PHANTOM
 70
64
  3
_____ _ _ _____ _ _ _____ _ _ _____
 72
65
 73
6
 40
0.8
 49
0.45
 74
0
 49
-0.05
 74
0
 49
0.1
 74
0
 49
-0.05
 74
0
 49
0.1
 74
0
 49
-0.05
 74
0
  0
LTYPE
  5
1F8
100
AcDbSymbolTableRecord
100
AcDbLinetypeTableRecord
  2
DOT
 70
64
  3
. . . . . . . . . . . . . . . . . . . .
 72
65
 73
2
 40
0.2
 49
0.1
 74
0
 49
-0.1
 74
0
  0
LTYPE
  5
1F9
100
AcDbSymbolTableRecord
100
AcDbLinetypeTableRecord
  2
DASHED
 70
64
  3
- - - - - - - - - - - - - - - - - - - -
 72
65
 73
2
 40
0.2
 49
0.1
 74
0
 49
-0.1
 74
0
  0
ENDTAB
  0
TABLE
  2
LAYER
  5
2
100
AcDbSymbolTable
 70
36
  0
LAYER
  5
10
100
AcDbSymbolTableRecord
100
AcDbLayerTableRecord
  2
0
 70
0
 62
7
  6
CONTINUOUS
370
-3
390
F
  0
LAYER
  5
1FA
100
AcDbSymbolTableRecord
100
AcDbLayerTableRecord
  2
DEFAULT_1
 70
0
 62
7
  6
CENTER
370
-3
390
F
  0
LAYER
  5
1FB
100
AcDbSymbolTableRecord
100
AcDbLayerTableRecord
  2
DEFAULT_2
 70
0
 62
7
  6
HIDDEN
370
-3
390
F
  0
LAYER
  5
1FC
100
AcDbSymbolTableRecord
100
AcDbLayerTableRecord
  2
DEFAULT_3
 70
0
 62
7
  6
PHANTOM
370
-3
390
F
  0
LAYER
  5
1FD
100
AcDbSymbolTableRecord
100
AcDbLayerTableRecord
  2
ASSI
 70
0
 62
7
  6
CONTINUOUS
370
-3
390
F
  0
LAYER
  5
1FE
100
AcDbSymbolTableRecord
100
AcDbLayerTableRecord
  2
COORDINATE
 70
0
 62
7
  6
CONTINUOUS
370
-3
390
F
  0
LAYER
  5
1FF
100
AcDbSymbolTableRecord
100
AcDbLayerTableRecord
  2
COSMETICI
 70
0
 62
7
  6
CONTINUOUS
370
-3
390
F
  0
LAYER
  5
200
100
AcDbSymbolTableRecord
100
AcDbLayerTableRecord
  2
CURVE
 70
0
 62
7
  6
CONTINUOUS
370
-3
390
F
  0
LAYER
  5
201
100
AcDbSymbolTableRecord
100
AcDbLayerTableRecord
  2
INTFCLR_1091
 70
0
 62
7
  6
CONTINUOUS
370
-3
390
F
  0
LAYER
  5
202
100
AcDbSymbolTableRecord
100
AcDbLayerTableRecord
  2
INTFCLR_14682
 70
0
 62
7
  6
CONTINUOUS
370
-3
390
F
  0
LAYER
  5
203
100
AcDbSymbolTableRecord
100
AcDbLayerTableRecord
  2
INTFCLR_16367
 70
0
 62
7
  6
CONTINUOUS
370
-3
390
F
  0
LAYER
  5
204
100
AcDbSymbolTableRecord
100
AcDbLayerTableRecord
  2
INTFCLR_19717
 70
0
 62
7
  6
CONTINUOUS
370
-3
390
F
  0
LAYER
  5
205
100
AcDbSymbolTableRecord
100
AcDbLayerTableRecord
  2
INTFCLR_21422
 70
0
 62
7
  6
CONTINUOUS
370
-3
390
F
  0
LAYER
  5
206
100
AcDbSymbolTableRecord
100
AcDbLayerTableRecord
  2
INTFCLR_23160
 70
0
 62
7
  6
CONTINUOUS
370
-3
390
F
  0
LAYER
  5
207
100
AcDbSymbolTableRecord
100
AcDbLayerTableRecord
  2
INTFCLR_38495
 70
0
 62
7
  6
CONTINUOUS
370
-3
390
F
  0
LAYER
  5
208
100
AcDbSymbolTableRecord
100
AcDbLayerTableRecord
  2
INTFCLR_40183
 70
0
 62
7
  6
CONTINUOUS
370
-3
390
F
  0
LAYER
  5
209
100
AcDbSymbolTableRecord
100
AcDbLayerTableRecord
  2
INTFCLR_41847
 70
0
 62
7
  6
CONTINUOUS
370
-3
390
F
  0
LAYER
  5
20A
100
AcDbSymbolTableRecord
100
AcDbLayerTableRecord
  2
INTFCLR_43320
 70
0
 62
7
  6
CONTINUOUS
370
-3
390
F
  0
LAYER
  5
20B
100
AcDbSymbolTableRecord
100
AcDbLayerTableRecord
  2
INTFCLR_45217
 70
0
 62
7
  6
CONTINUOUS
370
-3
390
F
  0
LAYER
  5
20C
100
AcDbSymbolTableRecord
100
AcDbLayerTableRecord
  2
INTFCLR_46926
 70
0
 62
7
  6
CONTINUOUS
370
-3
390
F
  0
LAYER
  5
20D
100
AcDbSymbolTableRecord
100
AcDbLayerTableRecord
  2
INTFCLR_48550
 70
0
 62
7
  6
CONTINUOUS
370
-3
390
F
  0
LAYER
  5
20E
100
AcDbSymbolTableRecord
100
AcDbLayerTableRecord
  2
INTFCLR_51479
 70
0
 62
7
  6
CONTINUOUS
370
-3
390
F
  0
LAYER
  5
20F
100
AcDbSymbolTableRecord
100
AcDbLayerTableRecord
  2
INTFCLR_63744
 70
0
 62
7
  6
CONTINUOUS
370
-3
390
F
  0
LAYER
  5
210
100
AcDbSymbolTableRecord
100
AcDbLayerTableRecord
  2
INTFCLR_65423
 70
0
 62
7
  6
CONTINUOUS
370
-3
390
F
  0
LAYER
  5
211
100
AcDbSymbolTableRecord
100
AcDbLayerTableRecord
  2
INTFCLR_68828
 70
0
 62
7
  6
CONTINUOUS
370
-3
390
F
  0
LAYER
  5
212
100
AcDbSymbolTableRecord
100
AcDbLayerTableRecord
  2
INTFCLR_70481
 70
0
 62
7
  6
CONTINUOUS
370
-3
390
F
  0
LAYER
  5
213
100
AcDbSymbolTableRecord
100
AcDbLayerTableRecord
  2
INTFCLR_72157
 70
0
 62
7
  6
CONTINUOUS
370
-3
390
F
  0
LAYER
  5
214
100
AcDbSymbolTableRecord
100
AcDbLayerTableRecord
  2
INTFCLR_9102
 70
0
 62
7
  6
CONTINUOUS
370
-3
390
F
  0
LAYER
  5
215
100
AcDbSymbolTableRecord
100
AcDbLayerTableRecord
  2
NONE
 70
0
 62
7
  6
CONTINUOUS
370
-3
390
F
  0
LAYER
  5
216
100
AcDbSymbolTableRecord
100
AcDbLayerTableRecord
  2
NOTE
 70
0
 62
7
  6
CONTINUOUS
370
-3
390
F
  0
LAYER
  5
217
100
AcDbSymbolTableRecord
100
AcDbLayerTableRecord
  2
PIANI
 70
0
 62
7
  6
CONTINUOUS
370
-3
390
F
  0
LAYER
  5
218
100
AcDbSymbolTableRecord
100
AcDbLayerTableRecord
  2
PUNTI
 70
0
 62
7
  6
CONTINUOUS
370
-3
390
F
  0
LAYER
  5
219
100
AcDbSymbolTableRecord
100
AcDbLayerTableRecord
  2
SIMBOLI
 70
0
 62
7
  6
CONTINUOUS
370
-3
390
F
  0
LAYER
  5
21A
100
AcDbSymbolTableRecord
100
AcDbLayerTableRecord
  2
SNAPLINE
 70
0
 62
7
  6
CONTINUOUS
370
-3
390
F
  0
LAYER
  5
21B
100
AcDbSymbolTableRecord
100
AcDbLayerTableRecord
  2
SUPERFICI
 70
0
 62
7
  6
CONTINUOUS
370
-3
390
F
  0
LAYER
  5
21C
100
AcDbSymbolTableRecord
100
AcDbLayerTableRecord
  2
_12283
 70
0
 62
7
  6
CONTINUOUS
370
-3
390
F
  0
LAYER
  5
21D
100
AcDbSymbolTableRecord
100
AcDbLayerTableRecord
  2
_12880
 70
0
 62
7
  6
CONTINUOUS
370
-3
390
F
  0
LAYER
  5
21E
100
AcDbSymbolTableRecord
100
AcDbLayerTableRecord
  2
_14133
 70
0
 62
7
  6
CONTINUOUS
370
-3
390
F
  0
LAYER
  5
21F
100
AcDbSymbolTableRecord
100
AcDbLayerTableRecord
  2
_1568
 70
0
 62
7
  6
CONTINUOUS
370
-3
390
F
  0
LAYER
  5
220
100
AcDbSymbolTableRecord
100
AcDbLayerTableRecord
  2
_18940
 70
0
 62
7
  6
CONTINUOUS
370
-3
390
F
  0
LAYER
  5
221
100
AcDbSymbolTableRecord
100
AcDbLayerTableRecord
  2
_19205
 70
0
 62
7
  6
CONTINUOUS
370
-3
390
F
  0
LAYER
  5
222
100
AcDbSymbolTableRecord
100
AcDbLayerTableRecord
  2
_19569
 70
0
 62
7
  6
CONTINUOUS
370
-3
390
F
  0
LAYER
  5
223
100
AcDbSymbolTableRecord
100
AcDbLayerTableRecord
  2
_19718
 70
0
 62
7
  6
CONTINUOUS
370
-3
390
F
  0
LAYER
  5
224
100
AcDbSymbolTableRecord
100
AcDbLayerTableRecord
  2
_20634
 70
0
 62
7
  6
CONTINUOUS
370
-3
390
F
  0
LAYER
  5
225
100
AcDbSymbolTableRecord
100
AcDbLayerTableRecord
  2
_20814
 70
0
 62
7
  6
CONTINUOUS
370
-3
390
F
  0
LAYER
  5
226
100
AcDbSymbolTableRecord
100
AcDbLayerTableRecord
  2
_20968
 70
0
 62
7
  6
CONTINUOUS
370
-3
390
F
  0
LAYER
  5
227
100
AcDbSymbolTableRecord
100
AcDbLayerTableRecord
  2
_21039
 70
0
 62
7
  6
CONTINUOUS
370
-3
390
F
  0
LAYER
  5
228
100
AcDbSymbolTableRecord
100
AcDbLayerTableRecord
  2
_25508
 70
0
 62
7
  6
CONTINUOUS
370
-3
390
F
  0
LAYER
  5
229
100
AcDbSymbolTableRecord
100
AcDbLayerTableRecord
  2
_26495
 70
0
 62
7
  6
CONTINUOUS
370
-3
390
F
  0
LAYER
  5
22A
100
AcDbSymbolTableRecord
100
AcDbLayerTableRecord
  2
_2655
 70
0
 62
7
  6
CONTINUOUS
370
-3
390
F
  0
LAYER
  5
22B
100
AcDbSymbolTableRecord
100
AcDbLayerTableRecord
  2
_29304
 70
0
 62
7
  6
CONTINUOUS
370
-3
390
F
  0
LAYER
  5
22C
100
AcDbSymbolTableRecord
100
AcDbLayerTableRecord
  2
_33869
 70
0
 62
7
  6
CONTINUOUS
370
-3
390
F
  0
LAYER
  5
22D
100
AcDbSymbolTableRecord
100
AcDbLayerTableRecord
  2
_34640
 70
0
 62
7
  6
CONTINUOUS
370
-3
390
F
  0
LAYER
  5
22E
100
AcDbSymbolTableRecord
100
AcDbLayerTableRecord
  2
_4261
 70
0
 62
7
  6
CONTINUOUS
370
-3
390
F
  0
LAYER
  5
22F
100
AcDbSymbolTableRecord
100
AcDbLayerTableRecord
  2
_45763
 70
0
 62
7
  6
CONTINUOUS
370
-3
390
F
  0
LAYER
  5
230
100
AcDbSymbolTableRecord
100
AcDbLayerTableRecord
  2
_46698
 70
0
 62
7
  6
CONTINUOUS
370
-3
390
F
  0
LAYER
  5
231
100
AcDbSymbolTableRecord
100
AcDbLayerTableRecord
  2
_47310
 70
0
 62
7
  6
CONTINUOUS
370
-3
390
F
  0
LAYER
  5
232
100
AcDbSymbolTableRecord
100
AcDbLayerTableRecord
  2
_48104
 70
0
 62
7
  6
CONTINUOUS
370
-3
390
F
  0
LAYER
  5
233
100
AcDbSymbolTableRecord
100
AcDbLayerTableRecord
  2
_48796
 70
0
 62
7
  6
CONTINUOUS
370
-3
390
F
  0
LAYER
  5
234
100
AcDbSymbolTableRecord
100
AcDbLayerTableRecord
  2
_49094
 70
0
 62
7
  6
CONTINUOUS
370
-3
390
F
  0
LAYER
  5
235
100
AcDbSymbolTableRecord
100
AcDbLayerTableRecord
  2
_5212
 70
0
 62
7
  6
CONTINUOUS
370
-3
390
F
  0
LAYER
  5
236
100
AcDbSymbolTableRecord
100
AcDbLayerTableRecord
  2
_52428
 70
0
 62
7
  6
CONTINUOUS
370
-3
390
F
  0
LAYER
  5
237
100
AcDbSymbolTableRecord
100
AcDbLayerTableRecord
  2
_55702
 70
0
 62
7
  6
CONTINUOUS
370
-3
390
F
  0
LAYER
  5
238
100
AcDbSymbolTableRecord
100
AcDbLayerTableRecord
  2
_59266
 70
0
 62
7
  6
CONTINUOUS
370
-3
390
F
  0
LAYER
  5
239
100
AcDbSymbolTableRecord
100
AcDbLayerTableRecord
  2
_59927
 70
0
 62
7
  6
CONTINUOUS
370
-3
390
F
  0
LAYER
  5
23A
100
AcDbSymbolTableRecord
100
AcDbLayerTableRecord
  2
_62068
 70
0
 62
7
  6
CONTINUOUS
370
-3
390
F
  0
LAYER
  5
23B
100
AcDbSymbolTableRecord
100
AcDbLayerTableRecord
  2
_6518
 70
0
 62
7
  6
CONTINUOUS
370
-3
390
F
  0
LAYER
  5
23C
100
AcDbSymbolTableRecord
100
AcDbLayerTableRecord
  2
_72293
 70
0
 62
7
  6
CONTINUOUS
370
-3
390
F
  0
ENDTAB
  0
TABLE
  2
STYLE
  5
3
100
AcDbSymbolTable
 70
1
  0
STYLE
  5
11
100
AcDbSymbolTableRecord
100
AcDbTextStyleTableRecord
  2
STANDARD
 70
0
 40
0.0
 41
0.8
 50
0.0
 71
0
 42
0.2
  3
txt
  4

  0
STYLE
  5
23D
100
AcDbSymbolTableRecord
100
AcDbTextStyleTableRecord
  2
TEXTSTYLE_1
 70
0
 40
0.0
 41
0.8
 50
0.0
 71
0
 42
0.2
  3
gdt
  4

  0
ENDTAB
  0
TABLE
  2
VIEW
  5
6
100
AcDbSymbolTable
 70
0
  0
ENDTAB
  0
TABLE
  2
UCS
  5
7
100
AcDbSymbolTable
 70
0
  0
ENDTAB
  0
TABLE
  2
APPID
  5
9
100
AcDbSymbolTable
 70
1
  0
APPID
  5
23E
100
AcDbSymbolTableRecord
100
AcDbRegAppTableRecord
  2
ACAD
 70
0
  0
ENDTAB
  0
TABLE
  2
BLOCK_RECORD
  5
1
100
AcDbSymbolTable
 70
0
  0
BLOCK_RECORD
  5
23F
100
AcDbSymbolTableRecord
100
AcDbBlockTableRecord
  2
*Model_Space
  0
BLOCK_RECORD
  5
240
100
AcDbSymbolTableRecord
100
AcDbBlockTableRecord
  2
*Paper_Space
  0
ENDTAB
  0
TABLE
  2
DIMSTYLE
  5
A
100
AcDbSymbolTable
 70
1
100
AcDbDimStyleTable
 71
0
  0
DIMSTYLE
105
241
100
AcDbSymbolTableRecord
100
AcDbDimStyleTableRecord
  2
STANDARD
 70
0
  3

  4

 40
1.0
 41
3.0
 42
0.5
 43
0.38
 44
1.5
 45
0.0
 46
0.0
 47
0.01
 48
0.01
140
3.0
141
0.09
142
0.0
143
25.4
144
1.0
145
0.0
146
1.0
147
0.625
 71
1.0
 72
0.0
 73
0
 74
0
 75
0
 76
0
 77
1
 78
8
170
0
171
2
172
0
173
0
174
0
175
0
176
0
177
0
178
0
270
2
271
2
272
2
273
2
274
2
275
0
280
0
281
0
282
0
283
1
284
8
285
0
286
0
287
3
288
0
340
11
278
44
  0
ENDTAB
  0
ENDSEC
  0
SECTION
  2
BLOCKS
  0
BLOCK
  5
20
100
AcDbEntity
  8
0
100
AcDbBlockBegin
  2
*Model_Space
 70
0
 10
0.0
 20
0.0
 30
0.0
  3
*Model_Space
  1

  0
ENDBLK
  5
21
100
AcDbEntity
  8
0
100
AcDbBlockEnd
  0
BLOCK
  5
1C
100
AcDbEntity
  8
0
100
AcDbBlockBegin
  2
*Paper_Space
 70
0
 10
0.0
 20
0.0
 30
0.0
  3
*Paper_Space
  1

  0
ENDBLK
  5
1D
100
AcDbEntity
  8
0
100
AcDbBlockEnd
  0
ENDSEC
  0
SECTION
  2
ENTITIES
  0
LWPOLYLINE
  5
242
100
AcDbEntity
  8
_14133
100
AcDbPolyline
 62
253
  6
CONTINUOUS
 90
15
 70
0
 10
19.7032578854
 20
-69.1445863925
 10
19.2918622378
 20
-69.2084398238
 10
18.6346432491
 20
-69.2834101522
 10
17.9754922843
 20
-69.3311287588
 10
17.3179016188
 20
-69.351125747
 10
16.661218269
 20
-69.3430404
 10
16.0090578776
 20
-69.3061078864
 10
15.3657779702
 20
-69.2401686772
 10
14.7324692269
 20
-69.145005021
 10
14.1129256611
 20
-69.0205106062
 10
13.5116474598
 20
-68.8673174525
 10
12.9313760047
 20
-68.6861261502
 10
12.3757404421
 20
-68.4779306674
 10
11.8482018937
 20
-68.2443401131
 10
11.3515456073
 20
-67.9872144249
  0
LWPOLYLINE
  5
243
100
AcDbEntity
  8
_14133
100
AcDbPolyline
 62
253
  6
CONTINUOUS
 90
14
 70
0
 10
18.4393717957
 20
-65.5652704359
 10
18.4112076632
 20
-65.5689344274
 10
17.7106714509
 20
-65.6293353023
 10
17.009918864
 20
-65.6588051456
 10
16.3078672175
 20
-65.656788476
 10
15.6085236657
 20
-65.6224693399
 10
14.9174437982
 20
-65.5555032874
 10
14.2363741797
 20
-65.4554902315
 10
13.5699266499
 20
-65.3225144921
 10
12.923392307
 20
-65.1573022894
 10
12.2998209784
 20
-64.9604803966
 10
11.7032229015
 20
-64.7332756888
 10
11.1381753661
 20
-64.4777250105
 10
10.6081644888
 20
-64.1961072202
  0
LWPOLYLINE
  5
244
100
AcDbEntity
  8
_55702
100
AcDbPolyline
 62
7
  6
CONTINUOUS
 90
13
 70
0
 10
-51.4218521871
 20
45.9281876111
 10
-51.5820739035
 20
45.8327745971
 10
-52.2227306653
 20
45.3920783285
 10
-52.8170725396
 20
44.8839955613
 10
-53.3646066488
 20
44.307804119
 10
-53.8658258705
 20
43.6642261781
 10
-54.3150532321
 20
42.9602841821
 10
-54.711741629
 20
42.1953202642
 10
-55.0564381657
 20
41.3699922912
 10
-55.3451071829
 20
40.493296307
 10
-55.5764034609
 20
39.5682309928
 10
-55.7516722195
 20
38.5917976675
 10
-55.8709134587
 20
37.5639963309
  0
LINE
  5
245
100
AcDbEntity
  8
_55702
100
AcDbLine
 62
7
  6
CONTINUOUS
 10
-50.3613681979
 20
46.5409044691
 11
-51.4220283697
 21
45.9284925791
  0
LWPOLYLINE
  5
246
100
AcDbEntity
  8
_55702
100
AcDbPolyline
 62
7
  6
CONTINUOUS
 90
14
 70
0
 10
-50.3611917905
 20
46.5405991118
 10
-49.8414429348
 20
46.8137137674
 10
-49.1220409802
 20
47.1091349874
 10
-48.363482443
 20
47.3323125139
 10
-47.5741826247
 20
47.4807144652
 10
-46.753810019
 20
47.5535421001
 10
-45.902696132
 20
47.5515941598
 10
-45.0302507834
 20
47.4747349856
 10
-44.1362299625
 20
47.3221629044
 10
-43.2208776799
 20
47.0946795892
 10
-42.294335787
 20
46.7945544011
 10
-41.3599849009
 20
46.4225437935
 10
-40.4144444045
 20
45.977891313
 10
-39.4577142978
 20
45.4605969594
  0
LINE
  5
247
100
AcDbEntity
  8
_55702
100
AcDbLine
 62
7
  6
CONTINUOUS
 10
-3.4193425619
 20
64.4043616065
 11
-44.2971867603
 21
47.3496315193
  0
LWPOLYLINE
  5
248
100
AcDbEntity
  8
_55702
100
AcDbPolyline
 62
7
  6
CONTINUOUS
 90
3
 70
0
 10
-50.1828629422
 20
46.496665963
 10
-50.9022578594
 20
46.2012284532
 10
-51.4218521871
 20
45.9281876111
  0
LWPOLYLINE
  5
249
100
AcDbEntity
  8
_55702
100
AcDbPolyline
 62
7
  6
CONTINUOUS
 90
12
 70
0
 10
-3.4191453295
 20
64.4039831808
 10
-2.9903487844
 20
64.5591548889
 10
-2.4713144482
 20
64.6894374609
 10
-1.9287293858
 20
64.7656800386
 10
-1.3628773641
 20
64.7885265969
 10
-0.7808152055
 20
64.7575632075
 10
-0.1823335399
 20
64.6721396628
 10
0.4323582625
 20
64.5329061705
 10
1.0555752684
 20
64.341399426
 10
1.6847558333
 20
64.098131661
 10
2.3224616016
 20
63.8025906437
 10
2.9686925734
 20
63.4547763742
  0
LWPOLYLINE
  5
24A
100
AcDbEntity
  8
_55702
100
AcDbPolyline
 62
7
  6
CONTINUOUS
 90
10
 70
0
 10
-55.8709134587
 20
37.5639963309
 10
-55.8832605464
 20
37.3909522778
 10
-55.8909423957
 20
37.218830661
 10
-55.8939619005
 20
37.047698034
 10
-55.8923217107
 20
36.8776019312
 10
-55.8860277558
 20
36.7086260403
 10
-55.8750924149
 20
36.5408880276
 10
-55.8595283163
 20
36.3744668028
 10
-55.8393451594
 20
36.209404651
 10
-55.8145554534
 20
36.0457609029
  0
LWPOLYLINE
  5
24B
100
AcDbEntity
  8
_55702
100
AcDbPolyline
 62
7
  6
CONTINUOUS
 90
14
 70
0
 10
-53.733000459
 20
36.3295921592
 10
-53.6194283776
 20
37.1978724184
 10
-53.4587130447
 20
38.0221549172
 10
-53.2508544604
 20
38.8024396558
 10
-52.9946946887
 20
39.5411992394
 10
-52.6913916654
 20
40.2359610626
 10
-52.3444191989
 20
40.8793073102
 10
-51.9533271585
 20
41.4706891487
 10
-51.5185656747
 20
42.0106554115
 10
-51.0449589475
 20
42.4934347833
 10
-50.5321019255
 20
42.9184267094
 10
-49.98039966
 20
43.2862317445
 10
-49.3958915045
 20
43.5928802374
 10
-49.1933221733
 20
43.6814845474
  0
LINE
  5
24C
100
AcDbEntity
  8
_55702
100
AcDbLine
 62
253
  6
CONTINUOUS
 10
-40.5183744696
 20
44.8481850694
 11
-39.4577142978
 21
45.4605969594
  0
LINE
  5
24D
100
AcDbEntity
  8
_55702
100
AcDbLine
 62
253
  6
CONTINUOUS
 10
-38.1480495097
 20
44.7044129247
 11
2.9686925734
 21
63.4547763742
  0
LWPOLYLINE
  5
24E
100
AcDbEntity
  8
_55702
100
AcDbPolyline
 62
7
  6
CONTINUOUS
 90
13
 70
0
 10
-49.1933221733
 20
43.6814845474
 10
-48.7782330954
 20
43.8377301104
 10
-48.1277687963
 20
44.0214234411
 10
-47.4515710513
 20
44.1419168114
 10
-46.7493679937
 20
44.1985486436
 10
-46.0214314903
 20
44.1919805155
 10
-45.2756495854
 20
44.1221537423
 10
-44.5118222326
 20
43.9884049092
 10
-43.7301494784
 20
43.791397431
 10
-42.9391195066
 20
43.533062867
 10
-42.1415617118
 20
43.2140450703
 10
-41.3346466995
 20
42.8337001877
 10
-40.5183744696
 20
42.3920282192
  0
LINE
  5
24F
100
AcDbEntity
  8
_55702
100
AcDbLine
 62
7
  6
CONTINUOUS
 10
27.8278307612
 20
72.7213223977
 11
2.5519313558
 21
63.6790854909
  0
LINE
  5
250
100
AcDbEntity
  8
_55702
100
AcDbLine
 62
253
  6
CONTINUOUS
 10
33.0174691092
 20
71.7718953595
 11
5.5700172279
 21
61.952804121
  0
LINE
  5
251
100
AcDbEntity
  8
_55702
100
AcDbLine
 62
253
  6
CONTINUOUS
 10
28.0016575485
 20
72.7791027028
 11
27.8278307612
 21
72.7213223977
  0
LWPOLYLINE
  5
252
100
AcDbEntity
  8
_14133
100
AcDbPolyline
 62
253
  6
CONTINUOUS
 90
13
 70
0
 10
-1.5645128733
 20
-61.2571230108
 10
-1.5207550354
 20
-61.264760837
 10
-1.4710270221
 20
-61.2674716057
 10
-1.4165089509
 20
-61.2649555672
 10
-1.359377083
 20
-61.2573405954
 10
-1.3007226593
 20
-61.2451553644
 10
-1.2394331655
 20
-61.2281238442
 10
-1.1765693356
 20
-61.2061382426
 10
-1.1142038747
 20
-61.1798146333
 10
-1.0526107578
 20
-61.1491437673
 10
-0.9933797783
 20
-61.1146346953
 10
-0.9386962039
 20
-61.0775185124
 10
-0.8900704211
 20
-61.0389911467
  0
LWPOLYLINE
  5
253
100
AcDbEntity
  8
_14133
100
AcDbPolyline
 62
253
  6
CONTINUOUS
 90
19
 70
0
 10
-0.6771138739
 20
-58.7515360953
 10
-0.4718239549
 20
-58.8040127909
 10
-0.2580550003
 20
-58.8805058941
 10
-0.0357659236
 20
-58.9806193713
 10
0.1901492088
 20
-59.1017465882
 10
0.4197313294
 20
-59.244183801
 10
0.6529396382
 20
-59.4076346476
 10
0.8847638016
 20
-59.5885985111
 10
1.1151853048
 20
-59.7873136976
 10
1.3442482508
 20
-60.0035214617
 10
1.5670407869
 20
-60.2329719611
 10
1.7838033098
 20
-60.4763405058
 10
1.9943416861
 20
-60.7329147412
 10
2.1930909904
 20
-60.9963643169
 10
2.3796629879
 20
-61.2666239463
 10
2.5544994004
 20
-61.5437159027
 10
2.7132706459
 20
-61.8214488091
 10
2.8558530098
 20
-62.1003762798
 10
2.9824194305
 20
-62.3799048596
  0
LWPOLYLINE
  5
254
100
AcDbEntity
  8
_14133
100
AcDbPolyline
 62
253
  6
CONTINUOUS
 90
16
 70
0
 10
10.7611300893
 20
-68.3737947808
 10
10.8397718806
 20
-68.4150245312
 10
10.9143528859
 20
-68.446524859
 10
10.9848741933
 20
-68.46829488
 10
11.0520240314
 20
-68.4804137359
 10
11.1151185234
 20
-68.4827987495
 10
11.1721012333
 20
-68.4752057943
 10
11.2228282575
 20
-68.4573210421
 10
11.2674507715
 20
-68.4294524194
 10
11.3043542382
 20
-68.392289018
 10
11.3333387245
 20
-68.3456195711
 10
11.3546116759
 20
-68.2896492595
 10
11.3671673233
 20
-68.2256937153
 10
11.3706714635
 20
-68.1541906343
 10
11.3654632797
 20
-68.0746983
 10
11.3515456073
 20
-67.9872144249
  0
LWPOLYLINE
  5
255
100
AcDbEntity
  8
_14133
100
AcDbPolyline
 62
7
  6
CONTINUOUS
 90
16
 70
0
 10
12.885838311
 20
-71.7077222702
 10
13.2795707074
 20
-71.925381536
 10
13.9145275
 20
-72.2377336878
 10
14.5736283884
 20
-72.5144968216
 10
15.2546610299
 20
-72.7530457867
 10
15.9526439207
 20
-72.9503008033
 10
16.6637228625
 20
-73.1038596167
 10
17.3839935614
 20
-73.2123982727
 10
18.1109536967
 20
-73.275176024
 10
18.8441594888
 20
-73.2912068338
 10
19.5781753713
 20
-73.2597608417
 10
20.3068486039
 20
-73.1813716292
 10
21.0287363572
 20
-73.0562135137
 10
21.740317965
 20
-72.8846242931
 10
22.4356759043
 20
-72.6683468427
 10
22.4759628801
 20
-72.6534157069
  0
LINE
  5
256
100
AcDbEntity
  8
_14133
100
AcDbLine
 62
7
  6
CONTINUOUS
 10
12.8856490082
 20
-71.7076475739
 11
-6.9182059334
 21
-60.2731517031
  0
LWPOLYLINE
  5
257
100
AcDbEntity
  8
_14133
100
AcDbPolyline
 62
253
  6
CONTINUOUS
 90
11
 70
0
 10
-6.9182059334
 20
-60.2731517031
 10
-7.1492528775
 20
-60.1278741914
 10
-7.4518787155
 20
-59.8979867305
 10
-7.7345702714
 20
-59.6341805513
 10
-7.9951921612
 20
-59.3378457791
 10
-8.2325220823
 20
-59.0100319765
 10
-8.4456958606
 20
-58.6515577729
 10
-8.6335327624
 20
-58.2640754357
 10
-8.7952154137
 20
-57.8491146379
 10
-8.9301784508
 20
-57.4079444191
 10
-9.0378597839
 20
-56.9421061676
  0
LINE
  5
258
100
AcDbEntity
  8
_55702
100
AcDbLine
 62
253
  6
CONTINUOUS
 10
-53.6697596943
 20
34.7846024972
 11
-39.122728821
 21
41.5861999133
  0
LWPOLYLINE
  5
259
100
AcDbEntity
  8
_55702
100
AcDbPolyline
 62
253
  6
CONTINUOUS
 90
10
 70
0
 10
33.0174691092
 20
71.7718953595
 10
33.2471120033
 20
71.865561956
 10
33.4710362915
 20
71.9350096624
 10
33.6878871585
 20
71.9804705109
 10
33.8954030102
 20
72.0022934366
 10
34.0935670237
 20
72.0013141808
 10
34.2842107597
 20
71.9776995454
 10
34.4667620993
 20
71.9310136657
 10
34.6390769646
 20
71.8612673882
 10
34.7219146089
 20
71.8172456453
  0
LINE
  5
25A
100
AcDbEntity
  8
_14133
100
AcDbLine
 62
253
  6
CONTINUOUS
 10
10.7611300893
 20
-68.3737947808
 11
3.2877831787
 21
-64.0587779376
  0
LINE
  5
25B
100
AcDbEntity
  8
_14133
100
AcDbLine
 62
253
  6
CONTINUOUS
 10
-1.5645128733
 20
-61.2571230108
 11
-9.0378597839
 21
-56.9421061676
  0
LINE
  5
25C
100
AcDbEntity
  8
_55702
100
AcDbLine
 62
7
  6
CONTINUOUS
 10
22.8887762185
 20
-72.8917689547
 11
20.7478446903
 21
-71.6556219225
  0
LINE
  5
25D
100
AcDbEntity
  8
_55702
100
AcDbLine
 62
7
  6
CONTINUOUS
 10
-18.8809349124
 20
-48.7744612451
 11
-21.0218664406
 21
-47.5383142129
  0
LINE
  5
25E
100
AcDbEntity
  8
_55702
100
AcDbLine
 62
253
  6
CONTINUOUS
 10
22.5813812537
 20
-72.4979537316
 11
20.4535334039
 21
-71.2693610514
  0
LINE
  5
25F
100
AcDbEntity
  8
_55702
100
AcDbLine
 62
253
  6
CONTINUOUS
 10
-19.2443790831
 20
-48.3482839131
 11
-21.3722269328
 21
-47.1196912328
  0
LWPOLYLINE
  5
260
100
AcDbEntity
  8
_14133
100
AcDbPolyline
 62
253
  6
CONTINUOUS
 90
12
 70
0
 10
-10.6074095833
 20
-51.9465006446
 10
-11.0923643883
 20
-51.643284613
 10
-11.5439914209
 20
-51.3158825686
 10
-11.9591767238
 20
-50.9666380374
 10
-12.3343476958
 20
-50.5993296311
 10
-12.668836524
 20
-50.2159568821
 10
-12.9639430005
 20
-49.8159465603
 10
-13.2176654533
 20
-49.402852565
 10
-13.4296819189
 20
-48.9787414335
 10
-13.601993912
 20
-48.539606355
 10
-13.7331961947
 20
-48.0865134376
 10
-13.7952890114
 20
-47.7877003455
  0
LWPOLYLINE
  5
261
100
AcDbEntity
  8
_14133
100
AcDbPolyline
 62
253
  6
CONTINUOUS
 90
10
 70
0
 10
-9.4412898035
 20
-45.0513457409
 10
-9.6232689708
 20
-45.0819295287
 10
-9.8080377092
 20
-45.1001499284
 10
-9.9939120621
 20
-45.1055175259
 10
-10.1790461295
 20
-45.0975984467
 10
-10.3610593055
 20
-45.0761048422
 10
-10.5373830835
 20
-45.0410056264
 10
-10.7057230741
 20
-44.9924687353
 10
-10.8640464149
 20
-44.9307739697
 10
-11.0102474968
 20
-44.8563942772
  0
LINE
  5
262
100
AcDbEntity
  8
_14133
100
AcDbLine
 62
253
  6
CONTINUOUS
 10
-8.703283694
 20
-48.1050380205
 11
6.8530654921
 21
-57.0870790737
  0
LINE
  5
263
100
AcDbEntity
  8
_14133
100
AcDbLine
 62
7
  6
CONTINUOUS
 10
7.8568914208
 20
-54.5838691469
 11
-7.515691505
 21
-45.7079324293
  0
LINE
  5
264
100
AcDbEntity
  8
_48104
100
AcDbLine
 62
7
  6
CONTINUOUS
 10
-7.8141141311
 20
-45.4749731583
 11
7.8470823366
 21
-54.5175517179
  0
LWPOLYLINE
  5
265
100
AcDbEntity
  8
_14133
100
AcDbPolyline
 62
253
  6
CONTINUOUS
 90
10
 70
0
 10
-8.703283694
 20
-48.1050380205
 10
-8.8863702157
 20
-47.9909860475
 10
-9.0677264316
 20
-47.8629706262
 10
-9.247348297
 20
-47.7209886361
 10
-9.4266350484
 20
-47.5637132071
 10
-9.6041712978
 20
-47.3924587557
 10
-9.7757283817
 20
-47.211182029
 10
-9.9398881052
 20
-47.0211952934
 10
-10.0980413934
 20
-46.8211652984
 10
-10.2501713331
 20
-46.611079047
  0
LWPOLYLINE
  5
266
100
AcDbEntity
  8
_14133
100
AcDbPolyline
 62
253
  6
CONTINUOUS
 90
8
 70
0
 10
8.5058996639
 20
-56.124773053
 10
8.3788694532
 20
-56.042062853
 10
8.268312961
 20
-55.9506302837
 10
8.1749345878
 20
-55.8517589002
 10
8.0996183527
 20
-55.7474272272
 10
8.0419676732
 20
-55.6383404015
 10
8.0014006358
 20
-55.5235760843
 10
7.9828833861
 20
-55.4356726826
  0
LWPOLYLINE
  5
267
100
AcDbEntity
  8
_55702
100
AcDbPolyline
 62
7
  6
CONTINUOUS
 90
10
 70
0
 10
-53.6697596943
 20
34.7846024972
 10
-53.6983442492
 20
34.9524009868
 10
-53.7215688946
 20
35.1213428055
 10
-53.7394196745
 20
35.2913661
 10
-53.7518884919
 20
35.4624439055
 10
-53.7589578179
 20
35.6344770763
 10
-53.7606070095
 20
35.8072900168
 10
-53.7568297931
 20
35.9807757403
 10
-53.7476279551
 20
36.1549001873
 10
-53.733000459
 20
36.3295921592
  0
LINE
  5
268
100
AcDbEntity
  8
_55702
100
AcDbLine
 62
253
  6
CONTINUOUS
 10
-19.7691367358
 20
34.0926590309
 11
-20.8297969075
 21
33.4802471409
  0
LINE
  5
269
100
AcDbEntity
  8
_55702
100
AcDbLine
 62
253
  6
CONTINUOUS
 10
22.6572701354
 20
52.0868384457
 11
-18.5234053288
 21
33.3073196188
  0
LWPOLYLINE
  5
26A
100
AcDbEntity
  8
_14133
100
AcDbPolyline
 62
7
  6
CONTINUOUS
 90
6
 70
0
 10
-7.8371189789
 20
-45.4527124263
 10
-7.7738818828
 20
-45.5139040526
 10
-7.7099732866
 20
-45.5701634264
 10
-7.6458819598
 20
-45.621016969
 10
-7.5811211917
 20
-45.6669398365
 10
-7.515691505
 20
-45.7079324293
  0
LWPOLYLINE
  5
26B
100
AcDbEntity
  8
_14133
100
AcDbPolyline
 62
253
  6
CONTINUOUS
 90
3
 70
0
 10
-8.1828242028
 20
-45.0509509228
 10
-8.126381339
 20
-45.1130038882
 10
-8.0672320315
 20
-45.174258444
  0
LINE
  5
26C
100
AcDbEntity
  8
_55702
100
AcDbLine
 62
7
  6
CONTINUOUS
 10
-21.3722269328
 20
-47.1196912328
 11
-55.3964630639
 21
34.6449932133
  0
LINE
  5
26D
100
AcDbEntity
  8
_55702
100
AcDbLine
 62
7
  6
CONTINUOUS
 10
-53.2686152141
 20
33.4164005331
 11
-19.2443790831
 21
-48.3482839131
  0
LINE
  5
26E
100
AcDbEntity
  8
_55702
100
AcDbLine
 62
253
  6
CONTINUOUS
 10
23.9232268295
 20
51.2599634186
 11
46.2328044703
 21
64.1415263491
  0
LWPOLYLINE
  5
26F
100
AcDbEntity
  8
_14133
100
AcDbPolyline
 62
7
  6
CONTINUOUS
 90
3
 70
0
 10
-7.956697367
 20
-45.3202730998
 10
-7.8982205067
 20
-45.3880109999
 10
-7.8371189789
 20
-45.4527124263
  0
LINE
  5
270
100
AcDbEntity
  8
_14133
100
AcDbLine
 62
253
  6
CONTINUOUS
 10
-8.2363057785
 20
-44.9886090437
 11
-8.1828242028
 21
-45.0509509228
  0
LWPOLYLINE
  5
271
100
AcDbEntity
  8
_14133
100
AcDbPolyline
 62
7
  6
CONTINUOUS
 90
3
 70
0
 10
-8.0672320315
 20
-45.174258444
 10
-8.0130352461
 20
-45.2490227867
 10
-7.956697367
 20
-45.3202730998
  0
LWPOLYLINE
  5
272
100
AcDbEntity
  8
_14133
100
AcDbPolyline
 62
7
  6
CONTINUOUS
 90
3
 70
0
 10
-8.0672320315
 20
-45.174258444
 10
-8.1134867226
 20
-45.104214904
 10
-8.1561597634
 20
-45.0331472198
  0
LWPOLYLINE
  5
273
100
AcDbEntity
  8
_14133
100
AcDbPolyline
 62
253
  6
CONTINUOUS
 90
10
 70
0
 10
-10.2501713331
 20
-46.611079047
 10
-10.3809656278
 20
-46.4123371308
 10
-10.5006079698
 20
-46.2135951781
 10
-10.6090888608
 20
-46.0148459295
 10
-10.7069473969
 20
-45.8148007927
 10
-10.7936229818
 20
-45.6147319554
 10
-10.8674608389
 20
-45.4184766112
 10
-10.9279074712
 20
-45.2273124099
 10
-10.9755051487
 20
-45.0399532333
 10
-11.0102474968
 20
-44.8563942772
  0
LWPOLYLINE
  5
274
100
AcDbEntity
  8
_14133
100
AcDbPolyline
 62
253
  6
CONTINUOUS
 90
6
 70
0
 10
-8.4505581535
 20
-44.6876784871
 10
-8.4158347778
 20
-44.7455034214
 10
-8.3768349675
 20
-44.805071533
 10
-8.3336707862
 20
-44.8655892647
 10
-8.2866747792
 20
-44.9267221346
 10
-8.2363057785
 20
-44.9886090437
  0
LINE
  5
275
100
AcDbEntity
  8
_55702
100
AcDbLine
 62
253
  6
CONTINUOUS
 10
53.3830134576
 20
58.5254234045
 11
52.3130414548
 21
57.9075430585
  0
LWPOLYLINE
  5
276
100
AcDbEntity
  8
_14133
100
AcDbPolyline
 62
7
  6
CONTINUOUS
 90
7
 70
0
 10
-11.2405540051
 20
-25.1189948724
 10
-11.24914972
 20
-25.1171835696
 10
-11.2542388908
 20
-25.1159227513
 10
-11.2428175244
 20
-25.1199964902
 10
-11.2165587829
 20
-25.1311659526
 10
-11.179517298
 20
-25.1495191071
 10
-11.1486469014
 20
-25.1665952353
  0
LWPOLYLINE
  5
277
100
AcDbEntity
  8
_14133
100
AcDbPolyline
 62
253
  6
CONTINUOUS
 90
16
 70
0
 10
-13.3111888897
 20
-25.517336566
 10
-13.1701311093
 20
-25.5898652883
 10
-13.018233404
 20
-25.651291616
 10
-12.8575136359
 20
-25.70128533
 10
-12.6910549607
 20
-25.7394640804
 10
-12.519860053
 20
-25.7661383383
 10
-12.3424686811
 20
-25.7815929423
 10
-12.159559775
 20
-25.7853860047
 10
-11.9740144194
 20
-25.7770779074
 10
-11.7875278666
 20
-25.7564379694
 10
-11.6019570599
 20
-25.7233105513
 10
-11.4196933041
 20
-25.6777523882
 10
-11.2433130034
 20
-25.62008952
 10
-11.0751150493
 20
-25.550798633
 10
-10.9171345847
 20
-25.4704262151
 10
-10.7714771918
 20
-25.3797118416
  0
LINE
  5
278
100
AcDbEntity
  8
_14133
100
AcDbLine
 62
253
  6
CONTINUOUS
 10
4.0403947757
 20
-33.4527702938
 11
-11.5159544104
 21
-24.4707292406
  0
LINE
  5
279
100
AcDbEntity
  8
_14133
100
AcDbLine
 62
7
  6
CONTINUOUS
 10
4.4080976353
 20
-34.1488768874
 11
-11.1488457102
 21
-25.1664923207
  0
LWPOLYLINE
  5
27A
100
AcDbEntity
  8
_14133
100
AcDbPolyline
 62
7
  6
CONTINUOUS
 90
23
 70
0
 10
4.4077970812
 20
-34.1486911484
 10
4.4505398436
 20
-34.1745460322
 10
4.5144089167
 20
-34.21732831
 10
4.5881717285
 20
-34.2723109167
 10
4.670563683
 20
-34.3401968049
 10
4.7582920601
 20
-34.4196983563
 10
4.8489935819
 20
-34.5096619089
 10
4.9409318928
 20
-34.6092704097
 10
5.0317836193
 20
-34.716663923
 10
5.1204331105
 20
-34.8308037585
 10
5.2055033596
 20
-34.9500027696
 10
5.2847881176
 20
-35.0711539088
 10
5.3575724412
 20
-35.1928914295
 10
5.4237959821
 20
-35.3145393731
 10
5.4823913157
 20
-35.4335127356
 10
5.5328390464
 20
-35.5475588103
 10
5.5750381351
 20
-35.6550485435
 10
5.6090005252
 20
-35.7540012418
 10
5.6353788489
 20
-35.8435601936
 10
5.6548248081
 20
-35.9226268271
 10
5.6679033949
 20
-35.988925887
 10
5.6757178444
 20
-36.04155987
 10
5.6787404018
 20
-36.0700483825
  0
LWPOLYLINE
  5
27B
100
AcDbEntity
  8
_14133
100
AcDbPolyline
 62
253
  6
CONTINUOUS
 90
5
 70
0
 10
4.0403947757
 20
-33.4527702938
 10
4.2148836901
 20
-33.5620089256
 10
4.386749509
 20
-33.6847682427
 10
4.5559956227
 20
-33.8210459374
 10
4.7237916408
 20
-33.9719695439
  0
LWPOLYLINE
  5
27C
100
AcDbEntity
  8
_14133
100
AcDbPolyline
 62
253
  6
CONTINUOUS
 90
8
 70
0
 10
-11.1488457102
 20
-25.1664923207
 10
-11.2257014256
 20
-25.1136578022
 10
-11.3017228288
 20
-25.0409822016
 10
-11.3678366351
 20
-24.9534341866
 10
-11.4230420711
 20
-24.851739902
 10
-11.4665428988
 20
-24.7367530296
 10
-11.497699865
 20
-24.6093762284
 10
-11.5159544104
 20
-24.4707292406
  0
LWPOLYLINE
  5
27D
100
AcDbEntity
  8
_14133
100
AcDbPolyline
 62
253
  6
CONTINUOUS
 90
14
 70
0
 10
8.1911721068
 20
-57.2588796249
 10
8.0962851651
 20
-57.1199130003
 10
8.0132471975
 20
-56.9738374854
 10
7.943171934
 20
-56.822844429
 10
7.8872874181
 20
-56.6712732972
 10
7.8449494286
 20
-56.5197961082
 10
7.8149176466
 20
-56.3648853801
 10
7.7978176943
 20
-56.2072416994
 10
7.7943663258
 20
-56.0498755263
 10
7.8047888353
 20
-55.89240941
 10
7.8296071772
 20
-55.7366712907
 10
7.8687162109
 20
-55.5850207917
 10
7.9222875325
 20
-55.4382236632
 10
7.96898122
 20
-55.3416878367
  0
LINE
  5
27E
100
AcDbEntity
  8
_14133
100
AcDbLine
 62
253
  6
CONTINUOUS
 10
-8.4808385215
 20
-44.6321767571
 11
-8.4505581535
 21
-44.6876784871
  0
LINE
  5
27F
100
AcDbEntity
  8
_14133
100
AcDbLine
 62
7
  6
CONTINUOUS
 10
-8.1561597634
 20
-45.0331472198
 11
-8.1950193673
 21
-44.9615911007
  0
LWPOLYLINE
  5
280
100
AcDbEntity
  8
_14133
100
AcDbPolyline
 62
253
  6
CONTINUOUS
 90
26
 70
0
 10
-0.8900722379
 20
-61.0389927103
 10
-0.7746258961
 20
-61.2539854875
 10
-0.6438327033
 20
-61.4670983144
 10
-0.4986130681
 20
-61.676615677
 10
-0.3391409586
 20
-61.8798849393
 10
-0.167311515
 20
-62.0764036411
 10
0.013492631
 20
-62.2677554793
 10
0.2021526686
 20
-62.4522997762
 10
0.3978401629
 20
-62.6288911675
 10
0.5979629179
 20
-62.7996635882
 10
0.8022673853
 20
-62.9638139771
 10
1.0091789784
 20
-63.1190471641
 10
1.2141920863
 20
-63.2651915178
 10
1.4156845842
 20
-63.4014834817
 10
1.6128873633
 20
-63.526183196
 10
1.8024345886
 20
-63.638192038
 10
1.982185634
 20
-63.7372998606
 10
2.1517141235
 20
-63.8224782951
 10
2.3102502543
 20
-63.8921899986
 10
2.455801248
 20
-63.9466673895
 10
2.58815893
 20
-63.9859434495
 10
2.7093387978
 20
-64.0086072181
 10
2.8181257412
 20
-64.015066455
 10
2.9139583626
 20
-64.0057527354
 10
2.9997604974
 20
-63.9790640834
 10
3.0442352721
 20
-63.9559691752
  0
LWPOLYLINE
  5
281
100
AcDbEntity
  8
_14133
100
AcDbPolyline
 62
7
  6
CONTINUOUS
 90
6
 70
0
 10
-8.1950193673
 20
-44.9615911007
 10
-8.2299022093
 20
-44.8901748829
 10
-8.2606083656
 20
-44.8193425532
 10
-8.286867084
 20
-44.7493542225
 10
-8.3084937913
 20
-44.6806519908
 10
-8.3254264715
 20
-44.613851959
  0
LWPOLYLINE
  5
282
100
AcDbEntity
  8
_14133
100
AcDbPolyline
 62
253
  6
CONTINUOUS
 90
18
 70
0
 10
-1.5645128733
 20
-61.2571230108
 10
-1.6788645577
 20
-60.9796600745
 10
-1.7718066444
 20
-60.7133781071
 10
-1.8433366263
 20
-60.4582752656
 10
-1.8936120505
 20
-60.2124260951
 10
-1.9224669771
 20
-59.9777496482
 10
-1.9294287014
 20
-59.7600230004
 10
-1.9140547314
 20
-59.5598394753
 10
-1.8768124287
 20
-59.3766261807
 10
-1.8186201638
 20
-59.2144320515
 10
-1.7389031827
 20
-59.0736253579
 10
-1.6382799832
 20
-58.953873267
 10
-1.519478925
 20
-58.8581891711
 10
-1.3819512242
 20
-58.7873249175
 10
-1.2262998604
 20
-58.7405722465
 10
-1.0569930557
 20
-58.7187641296
 10
-0.8738574158
 20
-58.722658802
 10
-0.6771138739
 20
-58.7515360953
  0
LWPOLYLINE
  5
283
100
AcDbEntity
  8
_14133
100
AcDbPolyline
 62
253
  6
CONTINUOUS
 90
13
 70
0
 10
-18.6117029155
 20
10.1505554659
 10
-18.5930406639
 20
9.7829809411
 10
-18.5289393163
 20
9.3751502222
 10
-18.4182168735
 20
8.9667920939
 10
-18.2602858706
 20
8.5602427448
 10
-18.0554910016
 20
8.1587345046
 10
-17.8035102153
 20
7.7632850732
 10
-17.5051747038
 20
7.3765748532
 10
-17.16236657
 20
7.001675659
 10
-16.7764780767
 20
6.6403570948
 10
-16.3499328633
 20
6.2949422729
 10
-15.8864346768
 20
5.9680778144
 10
-15.3898768387
 20
5.6617745187
  0
LWPOLYLINE
  5
284
100
AcDbEntity
  8
_14133
100
AcDbPolyline
 62
7
  6
CONTINUOUS
 90
13
 70
0
 10
-18.6116855849
 20
10.150474234
 10
-18.5803606951
 20
5.252334166
 10
-18.4814443283
 20
0.2015048709
 10
-18.3148443893
 20
-4.809989592
 10
-18.0805163321
 20
-9.7809521672
 10
-17.7784085484
 20
-14.7102717667
 10
-17.4084550879
 20
-19.5969342286
 10
-16.9706066718
 20
-24.4398042365
 10
-16.464875996
 20
-29.237763409
 10
-15.8912716546
 20
-33.9898312257
 10
-15.2498019472
 20
-38.6949463705
 10
-14.5404821473
 20
-43.351957248
 10
-13.7963393345
 20
-47.7728154148
  0
LINE
  5
285
100
AcDbEntity
  8
_14133
100
AcDbLine
 62
7
  6
CONTINUOUS
 10
-18.6117035998
 20
10.1527918336
 11
-18.6117029155
 21
10.1505554659
  0
LWPOLYLINE
  5
286
100
AcDbEntity
  8
_14133
100
AcDbPolyline
 62
7
  6
CONTINUOUS
 90
6
 70
0
 10
-18.1508950095
 20
29.15590583
 10
-18.2460594541
 20
27.1612143051
 10
-18.4075993951
 20
22.8209451069
 10
-18.5224335459
 20
18.504302475
 10
-18.5904779769
 20
14.2119812238
 10
-18.6117035998
 20
10.1527918336
  0
LINE
  5
287
100
AcDbEntity
  8
_14133
100
AcDbLine
 62
253
  6
CONTINUOUS
 10
-11.8052486728
 20
-20.6190655932
 11
3.7511005133
 21
-29.6011066464
  0
LINE
  5
288
100
AcDbEntity
  8
_14133
100
AcDbLine
 62
253
  6
CONTINUOUS
 10
4.8976727784
 20
-27.2152800648
 11
-10.5362069775
 21
-18.3039513257
  0
LINE
  5
289
100
AcDbEntity
  8
_14133
100
AcDbLine
 62
7
  6
CONTINUOUS
 10
-10.4894549653
 20
-18.2769572998
 11
4.8737270982
 21
-27.1474660773
  0
LWPOLYLINE
  5
28A
100
AcDbEntity
  8
_14133
100
AcDbPolyline
 62
253
  6
CONTINUOUS
 90
19
 70
0
 10
-11.8052486728
 20
-20.6190655932
 10
-11.9796657052
 20
-20.509749892
 10
-12.1512814838
 20
-20.3868035764
 10
-12.3200926195
 20
-20.250224389
 10
-12.4872529284
 20
-20.0988723248
 10
-12.6515951153
 20
-19.9338784159
 10
-12.8096317858
 20
-19.7586454072
 10
-12.9612905396
 20
-19.5728332041
 10
-13.1066200806
 20
-19.3767661591
 10
-13.2423155033
 20
-19.1748442537
 10
-13.3681091005
 20
-18.9670844597
 10
-13.4842411978
 20
-18.7534516803
 10
-13.5881736331
 20
-18.5382709298
 10
-13.6797484601
 20
-18.3214663035
 10
-13.759098364
 20
-18.103097075
 10
-13.8241293134
 20
-17.8876964667
 10
-13.8741399376
 20
-17.6767733813
 10
-13.9098156401
 20
-17.468808511
 10
-13.9311474759
 20
-17.2637960364
  0
LWPOLYLINE
  5
28B
100
AcDbEntity
  8
_14133
100
AcDbPolyline
 62
7
  6
CONTINUOUS
 90
3
 70
0
 10
-10.4894549653
 20
-18.2769572998
 10
-10.563647942
 20
-18.2300312989
 10
-10.6375641981
 20
-18.1749775463
  0
LWPOLYLINE
  5
28C
100
AcDbEntity
  8
_14133
100
AcDbPolyline
 62
7
  6
CONTINUOUS
 90
4
 70
0
 10
-10.6375641981
 20
-18.1749775463
 10
-10.7104033807
 20
-18.1124000587
 10
-10.781392189
 20
-18.0430197213
 10
-10.8497638926
 20
-17.9675773543
  0
LWPOLYLINE
  5
28D
100
AcDbEntity
  8
_14133
100
AcDbPolyline
 62
253
  6
CONTINUOUS
 90
5
 70
0
 10
-10.8329482697
 20
-18.0786516287
 10
-10.7586665957
 20
-18.1450801001
 10
-10.6839864825
 20
-18.2051577205
 10
-10.6095740231
 20
-18.2582783851
 10
-10.5362069775
 20
-18.3039513257
  0
LWPOLYLINE
  5
28E
100
AcDbEntity
  8
_14133
100
AcDbPolyline
 62
253
  6
CONTINUOUS
 90
15
 70
0
 10
4.7237916408
 20
-33.9719695439
 10
4.8889814362
 20
-34.1364023459
 10
5.0480821349
 20
-34.3109440629
 10
5.2010440997
 20
-34.4959086621
 10
5.3479406673
 20
-34.6909660034
 10
5.4854726136
 20
-34.8917501868
 10
5.6134083779
 20
-35.0982339004
 10
5.7320069635
 20
-35.3104256632
 10
5.8387003347
 20
-35.5240164831
 10
5.9333559625
 20
-35.7390541801
 10
6.0161317256
 20
-35.9554734835
 10
6.0848870853
 20
-36.1688012982
 10
6.1389119889
 20
-36.3775441696
 10
6.1789326956
 20
-36.5831842879
 10
6.204958271
 20
-36.7857153419
  0
LWPOLYLINE
  5
28F
100
AcDbEntity
  8
_14133
100
AcDbPolyline
 62
253
  6
CONTINUOUS
 90
4
 70
0
 10
-11.0442036085
 20
-17.8481846299
 10
-10.976578508
 20
-17.9294116171
 10
-10.9059462137
 20
-18.006523774
 10
-10.8329482697
 20
-18.0786516287
  0
LWPOLYLINE
  5
290
100
AcDbEntity
  8
_14133
100
AcDbPolyline
 62
7
  6
CONTINUOUS
 90
6
 70
0
 10
-10.8497638926
 20
-17.9675773543
 10
-10.9147589424
 20
-17.8868123186
 10
-10.975745481
 20
-17.801562735
 10
-11.0320106879
 20
-17.7128245365
 10
-11.0827617399
 20
-17.6216588995
 10
-11.1274911291
 20
-17.5291491776
  0
LWPOLYLINE
  5
291
100
AcDbEntity
  8
_14133
100
AcDbPolyline
 62
253
  6
CONTINUOUS
 90
3
 70
0
 10
-11.1670705193
 20
-17.6770200612
 10
-11.1080783889
 20
-17.7637511714
 10
-11.0442036085
 20
-17.8481846299
  0
LWPOLYLINE
  5
292
100
AcDbEntity
  8
_14133
100
AcDbPolyline
 62
7
  6
CONTINUOUS
 90
3
 70
0
 10
2.8155094309
 20
-62.1723673564
 10
2.91426243
 20
-62.4054375974
 10
2.9965642214
 20
-62.6311921942
  0
LWPOLYLINE
  5
293
100
AcDbEntity
  8
_14133
100
AcDbPolyline
 62
253
  6
CONTINUOUS
 90
5
 70
0
 10
2.9824194305
 20
-62.3799048596
 10
3.0890647653
 20
-62.6521390254
 10
3.1750566789
 20
-62.9165757444
 10
3.2411511418
 20
-63.1736986074
 10
3.285646529
 20
-63.4171153399
  0
LWPOLYLINE
  5
294
100
AcDbEntity
  8
_14133
100
AcDbPolyline
 62
253
  6
CONTINUOUS
 90
16
 70
0
 10
-9.9479206124
 20
-55.6891695746
 10
-9.9272227388
 20
-55.7804783041
 10
-9.8990637356
 20
-55.8731462681
 10
-9.8634464216
 20
-55.9671757406
 10
-9.8197834432
 20
-56.0635398225
 10
-9.7686671067
 20
-56.1612694115
 10
-9.7118711884
 20
-56.2574546696
 10
-9.6491998375
 20
-56.3521297799
 10
-9.5808563759
 20
-56.4452666117
 10
-9.5092156402
 20
-56.5338637257
 10
-9.4342275568
 20
-56.6177432791
 10
-9.3559494605
 20
-56.6970890078
 10
-9.2769180542
 20
-56.7694424546
 10
-9.1979805267
 20
-56.8339854506
 10
-9.1182940727
 20
-56.891539726
 10
-9.0378597839
 20
-56.9421061676
  0
LWPOLYLINE
  5
295
100
AcDbEntity
  8
_14133
100
AcDbPolyline
 62
253
  6
CONTINUOUS
 90
12
 70
0
 10
-13.1567878587
 20
-51.4170893814
 10
-13.0738663909
 20
-51.80339996
 10
-12.9382690463
 20
-52.2526816253
 10
-12.7612694124
 20
-52.6945343584
 10
-12.5433955015
 20
-53.1258733538
 10
-12.284379605
 20
-53.5458377597
 10
-11.9849363172
 20
-53.9519732001
 10
-11.6468382158
 20
-54.3412181992
 10
-11.2715331945
 20
-54.7116849608
 10
-10.861212246
 20
-55.0612267307
 10
-10.4189288227
 20
-55.3876164338
 10
-9.9479212497
 20
-55.6891691947
  0
LWPOLYLINE
  5
296
100
AcDbEntity
  8
_14133
100
AcDbPolyline
 62
7
  6
CONTINUOUS
 90
22
 70
0
 10
-13.1567066887
 20
-51.4170574667
 10
-13.1042060389
 20
-51.6969230007
 10
-12.9763925407
 20
-52.2646511513
 10
-12.8229564281
 20
-52.8202717861
 10
-12.6433945906
 20
-53.3683993488
 10
-12.4391261115
 20
-53.9066386868
 10
-12.2141636943
 20
-54.4267799572
 10
-11.9675999762
 20
-54.9340132603
 10
-11.6977371543
 20
-55.4323038033
 10
-11.4090896914
 20
-55.9143976176
 10
-11.101612925
 20
-56.3817812473
 10
-10.7742968556
 20
-56.8363707868
 10
-10.430903902
 20
-57.273503859
 10
-10.0690449737
 20
-57.6967322
 10
-9.6902852847
 20
-58.1040963934
 10
-9.2991183915
 20
-58.4906298321
 10
-8.8923557415
 20
-58.8602987223
 10
-8.4698573471
 20
-59.2128587611
 10
-8.0379197715
 20
-59.5430339933
 10
-7.5964947255
 20
-59.8515150378
 10
-7.1407050149
 20
-60.141466434
 10
-6.9179235711
 20
-60.2732794141
  0
LINE
  5
297
100
AcDbEntity
  8
_14133
100
AcDbLine
 62
253
  6
CONTINUOUS
 10
-10.6074089183
 20
-51.9465010305
 11
-10.5333279422
 21
-52.3660120805
  0
LINE
  5
298
100
AcDbEntity
  8
_14133
100
AcDbLine
 62
253
  6
CONTINUOUS
 10
-10.5333279422
 20
-52.3660120805
 11
-10.3857676907
 21
-53.2022985086
  0
LINE
  5
299
100
AcDbEntity
  8
_14133
100
AcDbLine
 62
253
  6
CONTINUOUS
 10
-10.3857676907
 20
-53.2022985086
 11
-10.2390102615
 21
-54.0349346805
  0
LWPOLYLINE
  5
29A
100
AcDbEntity
  8
_14133
100
AcDbPolyline
 62
253
  6
CONTINUOUS
 90
3
 70
0
 10
-10.2390102615
 20
-54.0349346805
 10
-10.0203892168
 20
-55.2769935882
 10
-9.9479206124
 20
-55.6891695746
  0
LINE
  5
29B
100
AcDbEntity
  8
_14133
100
AcDbLine
 62
7
  6
CONTINUOUS
 10
-13.350346298
 20
-50.3135667692
 11
-13.1567878587
 21
-51.4170893814
  0
LINE
  5
29C
100
AcDbEntity
  8
_14133
100
AcDbLine
 62
7
  6
CONTINUOUS
 10
-13.350346298
 20
-50.3135667692
 11
-13.7976913049
 21
-47.7739629259
  0
LINE
  5
29D
100
AcDbEntity
  8
_48104
100
AcDbLine
 62
7
  6
CONTINUOUS
 10
-9.8794859575
 20
-32.2106598102
 11
-9.9301247298
 21
-31.7455455413
  0
LINE
  5
29E
100
AcDbEntity
  8
_14133
100
AcDbLine
 62
7
  6
CONTINUOUS
 10
-11.2377893814
 20
-17.165537519
 11
-11.2468933888
 21
-17.0812732891
  0
LINE
  5
29F
100
AcDbEntity
  8
_48104
100
AcDbLine
 62
7
  6
CONTINUOUS
 10
-9.9301247298
 20
-31.7455455413
 11
-9.9801125605
 21
-31.2799673995
  0
LINE
  5
2A0
100
AcDbEntity
  8
_48104
100
AcDbLine
 62
7
  6
CONTINUOUS
 10
-9.9801125605
 20
-31.2799673995
 11
-10.0294494056
 21
-30.8139257905
  0
LINE
  5
2A1
100
AcDbEntity
  8
_14133
100
AcDbLine
 62
253
  6
CONTINUOUS
 10
-10.3602918757
 20
-29.7285318749
 11
-10.1337159394
 21
-31.887973645
  0
LINE
  5
2A2
100
AcDbEntity
  8
_14133
100
AcDbLine
 62
7
  6
CONTINUOUS
 10
-9.9913142427
 20
-31.8057711559
 11
-10.218005466
 21
-29.6463917312
  0
LINE
  5
2A3
100
AcDbEntity
  8
_48104
100
AcDbLine
 62
7
  6
CONTINUOUS
 10
-10.0294494056
 20
-30.8139257905
 11
-10.0781328404
 21
-30.3474440737
  0
LINE
  5
2A4
100
AcDbEntity
  8
_48104
100
AcDbLine
 62
7
  6
CONTINUOUS
 10
-10.0781328404
 20
-30.3474440737
 11
-10.1261650403
 21
-29.8805018851
  0
LINE
  5
2A5
100
AcDbEntity
  8
_48104
100
AcDbLine
 62
7
  6
CONTINUOUS
 10
-10.1261650403
 20
-29.8805018851
 11
-10.1735459639
 21
-29.4130996319
  0
LINE
  5
2A6
100
AcDbEntity
  8
_48104
100
AcDbLine
 62
7
  6
CONTINUOUS
 10
-10.1735459639
 20
-29.4130996319
 11
-10.2202754456
 21
-28.9452389434
  0
LINE
  5
2A7
100
AcDbEntity
  8
_14133
100
AcDbLine
 62
7
  6
CONTINUOUS
 10
-10.218005466
 20
-29.6463917312
 11
-10.4307007041
 21
-27.4770274215
  0
LINE
  5
2A8
100
AcDbEntity
  8
_48104
100
AcDbLine
 62
7
  6
CONTINUOUS
 10
-10.2202754456
 20
-28.9452389434
 11
-10.2663534696
 21
-28.4769199736
  0
LINE
  5
2A9
100
AcDbEntity
  8
_14133
100
AcDbLine
 62
253
  6
CONTINUOUS
 10
-10.5728789598
 20
-27.5591112738
 11
-10.3602918757
 21
-29.7285318749
  0
LINE
  5
2AA
100
AcDbEntity
  8
_14133
100
AcDbLine
 62
253
  6
CONTINUOUS
 10
-11.6683333043
 20
-12.1814866804
 11
-11.6608672292
 21
-12.2581808801
  0
LINE
  5
2AB
100
AcDbEntity
  8
_48104
100
AcDbLine
 62
7
  6
CONTINUOUS
 10
-10.2663534696
 20
-28.4769199736
 11
-10.3117797972
 21
-28.0081451505
  0
LINE
  5
2AC
100
AcDbEntity
  8
_48104
100
AcDbLine
 62
7
  6
CONTINUOUS
 10
-10.3117797972
 20
-28.0081451505
 11
-10.3565544179
 21
-27.538914585
  0
LINE
  5
2AD
100
AcDbEntity
  8
_48104
100
AcDbLine
 62
7
  6
CONTINUOUS
 10
-10.3565544179
 20
-27.538914585
 11
-10.4006771763
 21
-27.0692299134
  0
LINE
  5
2AE
100
AcDbEntity
  8
_48104
100
AcDbLine
 62
7
  6
CONTINUOUS
 10
-10.4006771763
 20
-27.0692299134
 11
-10.4441480334
 21
-26.5990915448
  0
LINE
  5
2AF
100
AcDbEntity
  8
_14133
100
AcDbLine
 62
7
  6
CONTINUOUS
 10
-10.4307007041
 20
-27.4770274215
 11
-10.6131608061
 21
-25.475790524
  0
LWPOLYLINE
  5
2B0
100
AcDbEntity
  8
_14133
100
AcDbPolyline
 62
253
  6
CONTINUOUS
 90
10
 70
0
 10
-13.3111888897
 20
-25.517336566
 10
-13.1117161
 20
-27.7063603226
 10
-12.8981692185
 20
-29.8855755462
 10
-12.6705588749
 20
-32.0548737633
 10
-12.4288963989
 20
-34.2141469939
 10
-12.1731938194
 20
-36.3632877568
 10
-11.9034638646
 20
-38.5021890756
 10
-11.6197199605
 20
-40.6307444831
 10
-11.3219762311
 20
-42.7488480276
 10
-11.0102474968
 20
-44.8563942772
  0
LINE
  5
2B1
100
AcDbEntity
  8
_14133
100
AcDbLine
 62
253
  6
CONTINUOUS
 10
-10.7714771918
 20
-25.3797118416
 11
-10.5728789598
 21
-27.5591112738
  0
LINE
  5
2B2
100
AcDbEntity
  8
_48104
100
AcDbLine
 62
7
  6
CONTINUOUS
 10
-10.4441480334
 20
-26.5990915448
 11
-10.4869688352
 21
-26.1284789776
  0
LWPOLYLINE
  5
2B3
100
AcDbEntity
  8
_48104
100
AcDbPolyline
 62
7
  6
CONTINUOUS
 90
3
 70
0
 10
-10.4869688352
 20
-26.1284789776
 10
-10.5291374016
 20
-25.6574156493
 10
-10.5415396785
 20
-25.5171436654
  0
LINE
  5
2B4
100
AcDbEntity
  8
_48104
100
AcDbLine
 62
7
  6
CONTINUOUS
 10
-11.1534875394
 20
-17.4661087943
 11
-11.1766829073
 21
-17.1001262706
  0
LINE
  5
2B5
100
AcDbEntity
  8
_14133
100
AcDbLine
 62
253
  6
CONTINUOUS
 10
-11.42226537
 20
-16.6203195475
 11
-11.388659844
 21
-17.1631274636
  0
LINE
  5
2B6
100
AcDbEntity
  8
_14133
100
AcDbLine
 62
7
  6
CONTINUOUS
 10
-11.2468933888
 20
-17.0812732891
 11
-11.280515783
 21
-16.5384753595
  0
LINE
  5
2B7
100
AcDbEntity
  8
_48104
100
AcDbLine
 62
7
  6
CONTINUOUS
 10
-11.1766829073
 20
-17.1001262706
 11
-11.2064591476
 21
-16.6203821763
  0
LINE
  5
2B8
100
AcDbEntity
  8
_48104
100
AcDbLine
 62
7
  6
CONTINUOUS
 10
-11.2064591476
 20
-16.6203821763
 11
-11.2355806511
 21
-16.140208613
  0
LINE
  5
2B9
100
AcDbEntity
  8
_48104
100
AcDbLine
 62
7
  6
CONTINUOUS
 10
-11.2355806511
 20
-16.140208613
 11
-11.2640513653
 21
-15.659538117
  0
LINE
  5
2BA
100
AcDbEntity
  8
_14133
100
AcDbLine
 62
7
  6
CONTINUOUS
 10
-11.280515783
 20
-16.5384753595
 11
-11.3186496542
 21
-15.9039984152
  0
LWPOLYLINE
  5
2BB
100
AcDbEntity
  8
_14133
100
AcDbPolyline
 62
7
  6
CONTINUOUS
 90
4
 70
0
 10
-11.3186496542
 20
-15.9039984152
 10
-11.3452393149
 20
-15.4512353009
 10
-11.3763405432
 20
-14.9067915396
 10
-11.4066013527
 20
-14.3617997118
  0
LINE
  5
2BC
100
AcDbEntity
  8
_48104
100
AcDbLine
 62
7
  6
CONTINUOUS
 10
-11.2640513653
 20
-15.659538117
 11
-11.2918708664
 21
-15.1783730038
  0
LINE
  5
2BD
100
AcDbEntity
  8
_48104
100
AcDbLine
 62
7
  6
CONTINUOUS
 10
-11.2918708664
 20
-15.1783730038
 11
-11.3190350982
 21
-14.6967809495
  0
LINE
  5
2BE
100
AcDbEntity
  8
_48104
100
AcDbLine
 62
7
  6
CONTINUOUS
 10
-11.3190350982
 20
-14.6967809495
 11
-11.3455439666
 21
-14.2147636367
  0
LINE
  5
2BF
100
AcDbEntity
  8
_48104
100
AcDbLine
 62
7
  6
CONTINUOUS
 10
-11.3455439666
 20
-14.2147636367
 11
-11.3713974479
 21
-13.7323214861
  0
LINE
  5
2C0
100
AcDbEntity
  8
_14133
100
AcDbLine
 62
7
  6
CONTINUOUS
 10
-11.4066013527
 20
-14.3617997118
 11
-11.4402261808
 21
-13.735923691
  0
LWPOLYLINE
  5
2C1
100
AcDbEntity
  8
_14133
100
AcDbPolyline
 62
7
  6
CONTINUOUS
 90
4
 70
0
 10
-11.4402261808
 20
-13.735923691
 10
-11.4646008086
 20
-13.2701881787
 10
-11.4923394552
 20
-12.7235684734
 10
-11.515591933
 20
-12.2505625432
  0
LINE
  5
2C2
100
AcDbEntity
  8
_48104
100
AcDbLine
 62
7
  6
CONTINUOUS
 10
-11.3713974479
 20
-13.7323214861
 11
-11.3967030301
 21
-13.2473664568
  0
LINE
  5
2C3
100
AcDbEntity
  8
_48104
100
AcDbLine
 62
7
  6
CONTINUOUS
 10
-11.3967030301
 20
-13.2473664568
 11
-11.4213512148
 21
-12.7619054522
  0
LWPOLYLINE
  5
2C4
100
AcDbEntity
  8
_14133
100
AcDbPolyline
 62
253
  6
CONTINUOUS
 90
10
 70
0
 10
-14.2045791822
 20
-12.3367882239
 10
-14.1775739422
 20
-12.8864169995
 10
-14.149724485
 20
-13.4355037146
 10
-14.1210308934
 20
-13.984046736
 10
-14.0914932526
 20
-14.532044432
 10
-14.0611116507
 20
-15.0794951726
 10
-14.0298861779
 20
-15.6263973293
 10
-13.9978169272
 20
-16.1727492754
 10
-13.9649039939
 20
-16.7185493856
 10
-13.9311474759
 20
-17.2637960364
  0
LWPOLYLINE
  5
2C5
100
AcDbEntity
  8
_14133
100
AcDbPolyline
 62
253
  6
CONTINUOUS
 90
9
 70
0
 10
-11.6608672292
 20
-12.2581808801
 10
-11.6339827681
 20
-12.8053513102
 10
-11.6062580381
 20
-13.3519788718
 10
-11.5776930393
 20
-13.8980635652
 10
-11.5482876812
 20
-14.4436070207
 10
-11.5180420542
 20
-14.9886076079
 10
-11.4869564298
 20
-15.5330604349
 10
-11.4550308986
 20
-16.0769638713
 10
-11.42226537
 20
-16.6203195475
  0
LINE
  5
2C6
100
AcDbEntity
  8
_48104
100
AcDbLine
 62
7
  6
CONTINUOUS
 10
-11.4213512148
 20
-12.7619054522
 11
-11.4445763131
 21
-12.2915660721
  0
LWPOLYLINE
  5
2C7
100
AcDbEntity
  8
_14133
100
AcDbPolyline
 62
253
  6
CONTINUOUS
 90
19
 70
0
 10
-13.3111888897
 20
-25.517336566
 10
-13.3198500415
 20
-25.3286951301
 10
-13.313664325
 20
-25.152833535
 10
-13.29263931
 20
-24.9897570597
 10
-13.256427163
 20
-24.838528467
 10
-13.2053890705
 20
-24.7000942955
 10
-13.1406014366
 20
-24.5772891094
 10
-13.061699687
 20
-24.4703790621
 10
-12.969072006
 20
-24.3791142613
 10
-12.864933262
 20
-24.305561567
 10
-12.7491805944
 20
-24.2501385741
 10
-12.6219446173
 20
-24.2124466954
 10
-12.485795711
 20
-24.1933321177
 10
-12.3405438096
 20
-24.1930876045
 10
-12.1864026166
 20
-24.2114365247
 10
-12.0265492386
 20
-24.2483716919
 10
-11.8620478654
 20
-24.3038942202
 10
-11.6918484079
 20
-24.3780125989
 10
-11.5159544104
 20
-24.4707292406
  0
LWPOLYLINE
  5
2C8
100
AcDbEntity
  8
_14133
100
AcDbPolyline
 62
253
  6
CONTINUOUS
 90
19
 70
0
 10
-11.8052486728
 20
-20.6190655932
 10
-11.8088430362
 20
-20.4853820456
 10
-11.8017248809
 20
-20.3473918345
 10
-11.7843528175
 20
-20.2064469289
 10
-11.7574648919
 20
-20.0647789892
 10
-11.7215691575
 20
-19.9227196994
 10
-11.6763261085
 20
-19.7785811028
 10
-11.6215778376
 20
-19.6326475668
 10
-11.5578175378
 20
-19.4868978955
 10
-11.4851973149
 20
-19.3421651367
 10
-11.4039029805
 20
-19.1993905921
 10
-11.3145678521
 20
-19.0602072587
 10
-11.2181808615
 20
-18.9264810892
 10
-11.1157190748
 20
-18.7997243835
 10
-11.0077787746
 20
-18.6808231405
 10
-10.8949381823
 20
-18.5706581378
 10
-10.7780116777
 20
-18.4703315078
 10
-10.6580837149
 20
-18.3810746087
 10
-10.5362069775
 20
-18.3039513257
  0
LWPOLYLINE
  5
2C9
100
AcDbEntity
  8
_14133
100
AcDbPolyline
 62
253
  6
CONTINUOUS
 90
13
 70
0
 10
-15.3898781929
 20
5.6617753006
 10
-15.3565733196
 20
0.6141850892
 10
-15.2566630437
 20
-4.3924149554
 10
-15.0901715201
 20
-9.3568310546
 10
-14.857140263
 20
-14.2778789506
 10
-14.557624487
 20
-19.1543853071
 10
-14.1916931406
 20
-23.9851880192
 10
-13.7594357593
 20
-28.7691341163
 10
-13.2609563074
 20
-33.5050826135
 10
-12.6963695812
 20
-38.1919059562
 10
-12.0658104892
 20
-42.8284864198
 10
-11.3694339743
 20
-47.4137163446
 10
-10.6074089183
 20
-51.9465010305
  0
LWPOLYLINE
  5
2CA
100
AcDbEntity
  8
_14133
100
AcDbPolyline
 62
253
  6
CONTINUOUS
 90
16
 70
0
 10
-14.2045791822
 20
-12.3367882239
 10
-14.2058581953
 20
-12.1441199647
 10
-14.1924850012
 20
-11.964276963
 10
-14.164467057
 20
-11.7972640567
 10
-14.1214141023
 20
-11.6421066401
 10
-14.0637295328
 20
-11.4997878306
 10
-13.9926166168
 20
-11.3732524301
 10
-13.9077183003
 20
-11.2627753477
 10
-13.8094151081
 20
-11.1680966988
 10
-13.7000259984
 20
-11.0913650036
 10
-13.5794550926
 20
-11.0329943744
 10
-13.4478258498
 20
-10.9925882487
 10
-13.307791549
 20
-10.9710824861
 10
-13.1591814511
 20
-10.9687691784
 10
-13.0021898823
 20
-10.9853711867
 10
-12.840018841
 20
-11.0209712226
  0
LWPOLYLINE
  5
2CB
100
AcDbEntity
  8
_14133
100
AcDbPolyline
 62
253
  6
CONTINUOUS
 90
6
 70
0
 10
-14.8678847743
 20
25.9435142968
 10
-15.0227797296
 20
22.6997683256
 10
-15.183365538
 20
18.4015836696
 10
-15.2980889957
 20
14.1287231708
 10
-15.3669303746
 20
9.8818879073
 10
-15.3898781929
 20
5.6617753006
  0
LINE
  5
2CC
100
AcDbEntity
  8
_55702
100
AcDbLine
 62
253
  6
CONTINUOUS
 10
54.6716025853
 20
49.5250992742
 11
32.3621761649
 21
36.6436236584
  0
LWPOLYLINE
  5
2CD
100
AcDbEntity
  8
_14133
100
AcDbPolyline
 62
7
  6
CONTINUOUS
 90
7
 70
0
 10
-12.0168568767
 20
-11.9581829247
 10
-12.0310846699
 20
-11.9559499534
 10
-12.0468187044
 20
-11.9525749712
 10
-12.0451985862
 20
-11.953163602
 10
-12.0273823838
 20
-11.9601001038
 10
-11.9960951433
 20
-11.9746548031
 10
-11.9549065745
 20
-11.9969025121
  0
LWPOLYLINE
  5
2CE
100
AcDbEntity
  8
_14133
100
AcDbPolyline
 62
253
  6
CONTINUOUS
 90
3
 70
0
 10
-12.840018841
 20
-11.0209712226
 10
-12.6737408194
 20
-11.0756001195
 10
-12.5022974284
 20
-11.1492359646
  0
LWPOLYLINE
  5
2CF
100
AcDbEntity
  8
_14133
100
AcDbPolyline
 62
253
  6
CONTINUOUS
 90
16
 70
0
 10
-14.2045791822
 20
-12.3367882239
 10
-14.0634991656
 20
-12.4096450058
 10
-13.9115359271
 20
-12.4720381713
 10
-13.7507094108
 20
-12.5236067835
 10
-13.5841062586
 20
-12.5639170618
 10
-13.4127313631
 20
-12.5932467533
 10
-13.2351231002
 20
-12.6119012375
 10
-13.0519602757
 20
-12.6194404622
 10
-12.8661270263
 20
-12.6153797783
 10
-12.6793204701
 20
-12.5994609784
 10
-12.4933998364
 20
-12.5714947007
 10
-12.3107600146
 20
-12.5314847918
 10
-12.1339819319
 20
-12.4796905624
 10
-11.9653689789
 20
-12.4165223221
 10
-11.8069605918
 20
-12.3424632171
 10
-11.5816323328
 20
-12.212431644
  0
LINE
  5
2D0
100
AcDbEntity
  8
_14133
100
AcDbLine
 62
253
  6
CONTINUOUS
 10
-12.5022974284
 20
-11.1492359646
 11
-12.3256922168
 21
-11.2418810014
  0
LINE
  5
2D1
100
AcDbEntity
  8
_14133
100
AcDbLine
 62
253
  6
CONTINUOUS
 10
2.2236594484
 20
-19.6424943068
 11
-12.3256922168
 21
-11.2418810014
  0
LINE
  5
2D2
100
AcDbEntity
  8
_14133
100
AcDbLine
 62
7
  6
CONTINUOUS
 10
2.4635860774
 20
-20.3219647262
 11
-11.9550732076
 21
-11.9968109168
  0
LWPOLYLINE
  5
2D3
100
AcDbEntity
  8
_14133
100
AcDbPolyline
 62
253
  6
CONTINUOUS
 90
9
 70
0
 10
-11.9550732076
 20
-11.9968109168
 10
-11.9659507794
 20
-11.9903564509
 10
-12.0510271787
 20
-11.9278778456
 10
-12.1265699348
 20
-11.8493376454
 10
-12.1914214639
 20
-11.7552310165
 10
-12.2445139218
 20
-11.6464051941
 10
-12.2850130017
 20
-11.5238443336
 10
-12.3122601914
 20
-11.3885780082
 10
-12.3256922168
 20
-11.2418810014
  0
LWPOLYLINE
  5
2D4
100
AcDbEntity
  8
_14133
100
AcDbPolyline
 62
253
  6
CONTINUOUS
 90
6
 70
0
 10
5.2762113488
 20
-28.2872984658
 10
5.254670575
 20
-28.2651683849
 10
5.1798267012
 20
-28.1652989235
 10
5.122764484
 20
-28.0617710708
 10
5.082906562
 20
-27.9537054892
 10
5.0610107488
 20
-27.8414909486
  0
LWPOLYLINE
  5
2D5
100
AcDbEntity
  8
_14133
100
AcDbPolyline
 62
253
  6
CONTINUOUS
 90
4
 70
0
 10
-11.309310713
 20
-17.4133772702
 10
-11.2683072252
 20
-17.5010506357
 10
-11.2206196824
 20
-17.5891423527
 10
-11.1670705193
 20
-17.6770200612
  0
LWPOLYLINE
  5
2D6
100
AcDbEntity
  8
_14133
100
AcDbPolyline
 62
7
  6
CONTINUOUS
 90
5
 70
0
 10
-11.1274911291
 20
-17.5291491776
 10
-11.1657826473
 20
-17.4362935889
 10
-11.197114839
 20
-17.3440605071
 10
-11.2211612833
 20
-17.2534610011
 10
-11.2377893814
 20
-17.165537519
  0
LWPOLYLINE
  5
2D7
100
AcDbEntity
  8
_14133
100
AcDbPolyline
 62
7
  6
CONTINUOUS
 90
8
 70
0
 10
2.9965642214
 20
-62.6311921942
 10
3.0619790422
 20
-62.8471999964
 10
3.1104536972
 20
-63.050866213
 10
3.1415474163
 20
-63.2376432117
 10
3.1562260514
 20
-63.4043869321
 10
3.1565129498
 20
-63.5495680449
 10
3.144558099
 20
-63.6734549156
 10
3.141873589
 20
-63.6899973677
  0
LWPOLYLINE
  5
2D8
100
AcDbEntity
  8
_14133
100
AcDbPolyline
 62
253
  6
CONTINUOUS
 90
10
 70
0
 10
-1.1832133729
 20
-60.2320284037
 10
-1.162271615
 20
-60.3165200664
 10
-1.1383684485
 20
-60.4026052664
 10
-1.1115135307
 20
-60.4901502519
 10
-1.08169632
 20
-60.5789976106
 10
-1.0489593421
 20
-60.6690319888
 10
-1.0133958269
 20
-60.7601813508
 10
-0.9750530553
 20
-60.8523291056
 10
-0.933934658
 20
-60.9453132243
 10
-0.8900722379
 20
-61.0389927103
  0
LWPOLYLINE
  5
2D9
100
AcDbEntity
  8
_14133
100
AcDbPolyline
 62
253
  6
CONTINUOUS
 90
4
 70
0
 10
-11.388659844
 20
-17.1631274636
 10
-11.3696443273
 20
-17.2432820894
 10
-11.343132788
 20
-17.327050291
 10
-11.309310713
 20
-17.4133772702
  0
LINE
  5
2DA
100
AcDbEntity
  8
_14133
100
AcDbLine
 62
7
  6
CONTINUOUS
 10
-8.3254264715
 20
-44.613851959
 11
-8.3375958318
 21
-44.5494702233
  0
LINE
  5
2DB
100
AcDbEntity
  8
_48104
100
AcDbLine
 62
7
  6
CONTINUOUS
 10
-8.216798811
 20
-44.9170016864
 11
-8.265674984
 21
-44.5958784794
  0
LINE
  5
2DC
100
AcDbEntity
  8
_48104
100
AcDbLine
 62
7
  6
CONTINUOUS
 10
-8.265674984
 20
-44.5958784794
 11
-8.3339229734
 21
-44.1432081216
  0
LWPOLYLINE
  5
2DD
100
AcDbEntity
  8
_14133
100
AcDbPolyline
 62
253
  6
CONTINUOUS
 90
10
 70
0
 10
-8.703283694
 20
-48.1050380205
 10
-8.7069887908
 20
-48.0802213179
 10
-8.7102563975
 20
-48.0551065984
 10
-8.713086804
 20
-48.0297035498
 10
-8.715479311
 20
-48.0040354787
 10
-8.7174361153
 20
-47.9780989102
 10
-8.7189600281
 20
-47.9518620481
 10
-8.7200503523
 20
-47.9253194344
 10
-8.7207051634
 20
-47.8984934817
 10
-8.7209236003
 20
-47.8713930009
  0
LINE
  5
2DE
100
AcDbEntity
  8
_48104
100
AcDbLine
 62
7
  6
CONTINUOUS
 10
-8.3339229734
 20
-44.1432081216
 11
-8.4015450302
 21
-43.6898936189
  0
LINE
  5
2DF
100
AcDbEntity
  8
_14133
100
AcDbLine
 62
7
  6
CONTINUOUS
 10
-8.3375958318
 20
-44.5494702233
 11
-8.6481098025
 21
-42.4512867292
  0
LINE
  5
2E0
100
AcDbEntity
  8
_14133
100
AcDbLine
 62
253
  6
CONTINUOUS
 10
-8.7911946398
 20
-42.5338933317
 11
-8.4808385215
 21
-44.6321767571
  0
LINE
  5
2E1
100
AcDbEntity
  8
_48104
100
AcDbLine
 62
7
  6
CONTINUOUS
 10
-8.4015450302
 20
-43.6898936189
 11
-8.4685066383
 21
-43.236160915
  0
LINE
  5
2E2
100
AcDbEntity
  8
_48104
100
AcDbLine
 62
7
  6
CONTINUOUS
 10
-8.4685066383
 20
-43.236160915
 11
-8.5347974022
 21
-42.782085494
  0
LINE
  5
2E3
100
AcDbEntity
  8
_48104
100
AcDbLine
 62
7
  6
CONTINUOUS
 10
-8.5347974022
 20
-42.782085494
 11
-8.6004392065
 21
-42.3275198926
  0
LINE
  5
2E4
100
AcDbEntity
  8
_48104
100
AcDbLine
 62
7
  6
CONTINUOUS
 10
-8.6004392065
 20
-42.3275198926
 11
-8.6654319941
 21
-41.8724645081
  0
LINE
  5
2E5
100
AcDbEntity
  8
_48104
100
AcDbLine
 62
7
  6
CONTINUOUS
 10
-8.6654319941
 20
-41.8724645081
 11
-8.7297755376
 21
-41.4169209296
  0
LINE
  5
2E6
100
AcDbEntity
  8
_14133
100
AcDbLine
 62
253
  6
CONTINUOUS
 10
-9.0876001387
 20
-40.4253097357
 11
-8.7911946398
 21
-42.5338933317
  0
LINE
  5
2E7
100
AcDbEntity
  8
_14133
100
AcDbLine
 62
7
  6
CONTINUOUS
 10
-8.6481098025
 20
-42.4512867292
 11
-8.944666079
 21
-40.3427966949
  0
LINE
  5
2E8
100
AcDbEntity
  8
_48104
100
AcDbLine
 62
7
  6
CONTINUOUS
 10
-8.7297755376
 20
-41.4169209296
 11
-8.7934609056
 21
-40.9609534602
  0
LINE
  5
2E9
100
AcDbEntity
  8
_48104
100
AcDbLine
 62
7
  6
CONTINUOUS
 10
-8.7934609056
 20
-40.9609534602
 11
-8.8564880414
 21
-40.5045646732
  0
LINE
  5
2EA
100
AcDbEntity
  8
_48104
100
AcDbLine
 62
7
  6
CONTINUOUS
 10
-8.8564880414
 20
-40.5045646732
 11
-8.9188659315
 21
-40.0476905924
  0
LINE
  5
2EB
100
AcDbEntity
  8
_48104
100
AcDbLine
 62
7
  6
CONTINUOUS
 10
-8.9188659315
 20
-40.0476905924
 11
-8.9805943587
 21
-39.5903328133
  0
LINE
  5
2EC
100
AcDbEntity
  8
_14133
100
AcDbLine
 62
253
  6
CONTINUOUS
 10
-9.370055018
 20
-38.306425969
 11
-9.0876001387
 21
-40.4253097357
  0
LINE
  5
2ED
100
AcDbEntity
  8
_14133
100
AcDbLine
 62
7
  6
CONTINUOUS
 10
-8.944666079
 20
-40.3427966949
 11
-9.2272646612
 21
-38.2240001204
  0
LINE
  5
2EE
100
AcDbEntity
  8
_48104
100
AcDbLine
 62
7
  6
CONTINUOUS
 10
-8.9805943587
 20
-39.5903328133
 11
-9.0416732687
 21
-39.1324917348
  0
LINE
  5
2EF
100
AcDbEntity
  8
_48104
100
AcDbLine
 62
7
  6
CONTINUOUS
 10
-9.0416732687
 20
-39.1324917348
 11
-9.1020883835
 21
-38.6742762549
  0
LINE
  5
2F0
100
AcDbEntity
  8
_48104
100
AcDbLine
 62
7
  6
CONTINUOUS
 10
-9.1020883835
 20
-38.6742762549
 11
-9.1618539005
 21
-38.2155806046
  0
LINE
  5
2F1
100
AcDbEntity
  8
_48104
100
AcDbLine
 62
7
  6
CONTINUOUS
 10
-9.1618539005
 20
-38.2155806046
 11
-9.2209697679
 21
-37.7564051845
  0
LINE
  5
2F2
100
AcDbEntity
  8
_48104
100
AcDbLine
 62
7
  6
CONTINUOUS
 10
-9.2209697679
 20
-37.7564051845
 11
-9.279435779
 21
-37.2967515966
  0
LINE
  5
2F3
100
AcDbEntity
  8
_14133
100
AcDbLine
 62
253
  6
CONTINUOUS
 10
-9.6385720222
 20
-36.1771349184
 11
-9.370055018
 21
-38.306425969
  0
LINE
  5
2F4
100
AcDbEntity
  8
_14133
100
AcDbLine
 62
7
  6
CONTINUOUS
 10
-9.2272646612
 20
-38.2240001204
 11
-9.4959183129
 21
-36.0947897874
  0
LINE
  5
2F5
100
AcDbEntity
  8
_48104
100
AcDbLine
 62
7
  6
CONTINUOUS
 10
-9.279435779
 20
-37.2967515966
 11
-9.33724653
 21
-36.8366631062
  0
LINE
  5
2F6
100
AcDbEntity
  8
_48104
100
AcDbLine
 62
7
  6
CONTINUOUS
 10
-9.33724653
 20
-36.8366631062
 11
-9.3944019039
 21
-36.3761422342
  0
LINE
  5
2F7
100
AcDbEntity
  8
_48104
100
AcDbLine
 62
7
  6
CONTINUOUS
 10
-9.3944019039
 20
-36.3761422342
 11
-9.4509073322
 21
-35.9151460206
  0
LINE
  5
2F8
100
AcDbEntity
  8
_48104
100
AcDbLine
 62
7
  6
CONTINUOUS
 10
-9.4509073322
 20
-35.9151460206
 11
-9.5067626186
 21
-35.4536760739
  0
LINE
  5
2F9
100
AcDbEntity
  8
_14133
100
AcDbLine
 62
7
  6
CONTINUOUS
 10
-9.4959183129
 20
-36.0947897874
 11
-9.7506142704
 21
-33.9552729141
  0
LINE
  5
2FA
100
AcDbEntity
  8
_48104
100
AcDbLine
 62
7
  6
CONTINUOUS
 10
-9.5067626186
 20
-35.4536760739
 11
-9.5619677138
 21
-34.9917327962
  0
LINE
  5
2FB
100
AcDbEntity
  8
_14133
100
AcDbLine
 62
253
  6
CONTINUOUS
 10
-9.8931384069
 20
-34.0375436973
 11
-9.6385720222
 21
-36.1771349184
  0
LINE
  5
2FC
100
AcDbEntity
  8
_48104
100
AcDbLine
 62
7
  6
CONTINUOUS
 10
-9.5619677138
 20
-34.9917327962
 11
-9.6165148212
 21
-34.5293826644
  0
LINE
  5
2FD
100
AcDbEntity
  8
_48104
100
AcDbLine
 62
7
  6
CONTINUOUS
 10
-9.6165148212
 20
-34.5293826644
 11
-9.6704115726
 21
-34.0665622615
  0
LINE
  5
2FE
100
AcDbEntity
  8
_48104
100
AcDbLine
 62
7
  6
CONTINUOUS
 10
-9.6704115726
 20
-34.0665622615
 11
-9.7236579216
 21
-33.6032719912
  0
LINE
  5
2FF
100
AcDbEntity
  8
_48104
100
AcDbLine
 62
7
  6
CONTINUOUS
 10
-9.7236579216
 20
-33.6032719912
 11
-9.7762536817
 21
-33.1395134687
  0
LINE
  5
300
100
AcDbEntity
  8
_14133
100
AcDbLine
 62
7
  6
CONTINUOUS
 10
-9.7506142704
 20
-33.9552729141
 11
-9.9913142427
 21
-31.8057711559
  0
LINE
  5
301
100
AcDbEntity
  8
_14133
100
AcDbLine
 62
253
  6
CONTINUOUS
 10
-10.1337159394
 20
-31.887973645
 11
-9.8931384069
 21
-34.0375436973
  0
LINE
  5
302
100
AcDbEntity
  8
_48104
100
AcDbLine
 62
7
  6
CONTINUOUS
 10
-9.7762536817
 20
-33.1395134687
 11
-9.8281964196
 21
-32.6753085842
  0
LINE
  5
303
100
AcDbEntity
  8
_48104
100
AcDbLine
 62
7
  6
CONTINUOUS
 10
-9.8281964196
 20
-32.6753085842
 11
-9.8794859575
 21
-32.2106598102
  0
LWPOLYLINE
  5
304
100
AcDbEntity
  8
_55702
100
AcDbPolyline
 62
7
  6
CONTINUOUS
 90
10
 70
0
 10
-7.6151709181
 20
9.7017353745
 10
-7.5973876674
 20
9.5083298435
 10
-7.5787187221
 20
9.3181131556
 10
-7.5591651186
 20
9.131156509
 10
-7.5387281062
 20
8.9474957163
 10
-7.5174109229
 20
8.7672360112
 10
-7.4952251044
 20
8.5905477311
 10
-7.472185144
 20
8.4175282688
 10
-7.4483021745
 20
8.248206342
 10
-7.4235901517
 20
8.0826438039
  0
LINE
  5
305
100
AcDbEntity
  8
_14133
100
AcDbLine
 62
253
  6
CONTINUOUS
 10
-11.6681345553
 20
-12.1624863449
 11
-11.6683333043
 21
-12.1814866804
  0
LWPOLYLINE
  5
306
100
AcDbEntity
  8
_14133
100
AcDbPolyline
 62
253
  6
CONTINUOUS
 90
10
 70
0
 10
-8.7209236003
 20
-47.8713930009
 10
-8.7143716971
 20
-47.7186830824
 10
-8.6950189923
 20
-47.5614397062
 10
-8.6634091037
 20
-47.401392195
 10
-8.6204782447
 20
-47.2411651798
 10
-8.5668157586
 20
-47.0814408378
 10
-8.5020083269
 20
-46.9209304815
 10
-8.4259638404
 20
-46.7603064512
 10
-8.3395331324
 20
-46.6021517782
 10
-8.2433285628
 20
-46.4481178113
  0
LWPOLYLINE
  5
307
100
AcDbEntity
  8
_55702
100
AcDbPolyline
 62
253
  6
CONTINUOUS
 90
10
 70
0
 10
54.6716025853
 20
49.5250992742
 10
54.8675332005
 20
49.6771572505
 10
55.0396299394
 20
49.8363729055
 10
55.1874164119
 20
50.0014567941
 10
55.3100641267
 20
50.1702756446
 10
55.4082884697
 20
50.3423969757
 10
55.4831495921
 20
50.5193237095
 10
55.5339839799
 20
50.7007782823
 10
55.5597290916
 20
50.8848982647
 10
55.5630186709
 20
50.9781183072
  0
LINE
  5
308
100
AcDbEntity
  8
_55702
100
AcDbLine
 62
253
  6
CONTINUOUS
 10
-4.3983453135
 20
8.863469504
 11
32.4452851958
 21
35.1334990735
  0
LWPOLYLINE
  5
309
100
AcDbEntity
  8
_55702
100
AcDbPolyline
 62
7
  6
CONTINUOUS
 90
25
 70
0
 10
-5.4772579184
 20
8.4673312028
 10
-5.5965053282
 20
9.6328713124
 10
-5.7717824611
 20
10.8117392999
 10
-6.0030893172
 20
12.0039351653
 10
-6.2917717274
 20
13.2140114032
 10
-6.6364838609
 20
14.4374155189
 10
-7.0331882244
 20
15.660490029
 10
-7.4824318753
 20
16.8832085873
 10
-7.9836677564
 20
18.1055975399
 10
-8.5312172029
 20
19.3140784416
 10
-9.1255729876
 20
20.5084980116
 10
-9.7662423378
 20
21.6890095307
 10
-10.4460682705
 20
22.8424943963
 10
-11.1654702252
 20
23.968662961
 10
-11.9240287623
 20
25.0678048723
 10
-12.7133285807
 20
26.1276704693
 10
-13.5337011864
 20
27.147843826
 10
-14.3848150734
 20
28.1287408684
 10
-15.257260422
 20
29.0593597142
 10
-16.1512812429
 20
29.9391804675
 10
-17.0666335254
 20
30.7687230241
 10
-17.9931754183
 20
31.5385451893
 10
-18.9275263044
 20
32.2454995647
 10
-19.8730668008
 20
32.8927335485
 10
-20.8297969075
 20
33.4802471409
  0
LINE
  5
30A
100
AcDbEntity
  8
_14133
100
AcDbLine
 62
253
  6
CONTINUOUS
 10
3.285646529
 20
-63.4171153399
 11
3.3079672706
 21
-63.6447018133
  0
LWPOLYLINE
  5
30B
100
AcDbEntity
  8
_55702
100
AcDbPolyline
 62
7
  6
CONTINUOUS
 90
10
 70
0
 10
-4.4165977467
 20
9.0797430928
 10
-4.4042649228
 20
8.9286736294
 10
-4.3907282957
 20
8.7795685299
 10
-4.3759903523
 20
8.6324722344
 10
-4.3600533471
 20
8.4874191625
 10
-4.3429218145
 20
8.3444624781
 10
-4.3246040545
 20
8.2036730796
 10
-4.3051080777
 20
8.065101629
 10
-4.2844401134
 20
7.9287795377
 10
-4.262608161
 20
7.7947470356
  0
LINE
  5
30C
100
AcDbEntity
  8
_55702
100
AcDbLine
 62
7
  6
CONTINUOUS
 10
20.4535334039
 20
-71.2693610514
 11
-7.0987497567
 21
6.7584988623
  0
LINE
  5
30D
100
AcDbEntity
  8
_55702
100
AcDbLine
 62
7
  6
CONTINUOUS
 10
-4.9709019069
 20
5.529906182
 11
22.5813812537
 21
-72.4979537316
  0
LINE
  5
30E
100
AcDbEntity
  8
_55702
100
AcDbLine
 62
7
  6
CONTINUOUS
 10
-3.9742073703
 20
6.5242590375
 11
23.9971826541
 21
-72.6905083808
  0
LWPOLYLINE
  5
30F
100
AcDbEntity
  8
_14133
100
AcDbPolyline
 62
253
  6
CONTINUOUS
 90
11
 70
0
 10
10.7611300893
 20
-68.3737947808
 10
10.8668057348
 20
-68.8321192979
 10
10.9982495332
 20
-69.2647876836
 10
11.1545973745
 20
-69.6706624771
 10
11.3345383635
 20
-70.0480236133
 10
11.5373549443
 20
-70.3968096262
 10
11.7633898341
 20
-70.7180833754
 10
12.0122119229
 20
-71.0110200572
 10
12.2827782237
 20
-71.2741986209
 10
12.5749703785
 20
-71.5072182917
 10
12.8823484815
 20
-71.7057441771
  0
LWPOLYLINE
  5
310
100
AcDbEntity
  8
_14133
100
AcDbPolyline
 62
253
  6
CONTINUOUS
 90
10
 70
0
 10
11.3515456073
 20
-67.9872144249
 10
11.2635295703
 20
-67.5660615457
 10
11.1768673946
 20
-67.144885228
 10
11.0915592733
 20
-66.7236863121
 10
11.0076051121
 20
-66.3024641146
 10
10.9250053928
 20
-65.8812209994
 10
10.8437611524
 20
-65.4599623941
 10
10.7638728411
 20
-65.0386906882
 10
10.6853403427
 20
-64.6174052159
 10
10.6081638246
 20
-64.1961068387
  0
LINE
  5
311
100
AcDbEntity
  8
_14133
100
AcDbLine
 62
253
  6
CONTINUOUS
 10
10.6081638246
 20
-64.1961068387
 11
9.8198087015
 21
-59.6481194858
  0
LWPOLYLINE
  5
312
100
AcDbEntity
  8
_55702
100
AcDbPolyline
 62
7
  6
CONTINUOUS
 90
10
 70
0
 10
-5.2873148992
 20
6.8719654619
 10
-5.3140439521
 20
7.0367289647
 10
-5.3393921424
 20
7.204773342
 10
-5.3633469609
 20
7.3760392634
 10
-5.3858984797
 20
7.5504843116
 10
-5.4070342989
 20
7.7280297089
 10
-5.4267427259
 20
7.9085581854
 10
-5.4450180597
 20
8.0919861854
 10
-5.4618574219
 20
8.2782660424
 10
-5.4772579184
 20
8.4673312028
  0
LWPOLYLINE
  5
313
100
AcDbEntity
  8
_14133
100
AcDbPolyline
 62
253
  6
CONTINUOUS
 90
8
 70
0
 10
5.6787622446
 20
-36.0704755226
 10
5.6944726923
 20
-36.1694366134
 10
5.7313477302
 20
-36.2849649258
 10
5.7881349969
 20
-36.3973498852
 10
5.8645340371
 20
-36.5049763828
 10
5.9599833064
 20
-36.6064187505
 10
6.0737890276
 20
-36.7004252541
 10
6.204958271
 20
-36.7857153419
  0
LINE
  5
314
100
AcDbEntity
  8
_14133
100
AcDbLine
 62
253
  6
CONTINUOUS
 10
9.8198087015
 20
-59.6481194858
 11
9.0993804244
 21
-55.0490023639
  0
LWPOLYLINE
  5
315
100
AcDbEntity
  8
_14133
100
AcDbPolyline
 62
7
  6
CONTINUOUS
 90
10
 70
0
 10
7.9834619126
 20
-55.4393872302
 10
7.6706449606
 20
-53.3246907969
 10
7.3724569066
 20
-51.2034399351
 10
7.0883025137
 20
-49.0718253313
 10
6.8181944509
 20
-46.929950404
 10
6.5621451792
 20
-44.7779226295
 10
6.32016684
 20
-42.6158536842
 10
6.0922703915
 20
-40.443852192
 10
5.8784657193
 20
-38.2620235723
 10
5.6787622446
 20
-36.0704755226
  0
LWPOLYLINE
  5
316
100
AcDbEntity
  8
_14133
100
AcDbPolyline
 62
253
  6
CONTINUOUS
 90
10
 70
0
 10
8.5058996639
 20
-56.124773053
 10
8.1941709297
 20
-54.0172268034
 10
7.8964272002
 20
-51.899123259
 10
7.6126832962
 20
-49.7705678514
 10
7.3429533413
 20
-47.6316665327
 10
7.0872507619
 20
-45.4825257697
 10
6.8455882858
 20
-43.3232525392
 10
6.6179779422
 20
-41.1539543221
 10
6.4044310608
 20
-38.9747390984
 10
6.204958271
 20
-36.7857153419
  0
LWPOLYLINE
  5
317
100
AcDbEntity
  8
_14133
100
AcDbPolyline
 62
253
  6
CONTINUOUS
 90
9
 70
0
 10
4.0403947757
 20
-33.4527702938
 10
4.057905741
 20
-33.5873844833
 10
4.0874350884
 20
-33.7109990653
 10
4.1283507818
 20
-33.8227111626
 10
4.1796127726
 20
-33.9212635388
 10
4.2406281063
 20
-34.0067456792
 10
4.3118309835
 20
-34.0798810485
 10
4.3932105248
 20
-34.1399920532
 10
4.4077197917
 20
-34.148658542
  0
LINE
  5
318
100
AcDbEntity
  8
_14133
100
AcDbLine
 62
253
  6
CONTINUOUS
 10
5.0610107488
 20
-27.8414909486
 11
5.0582246642
 21
-27.8092793374
  0
LINE
  5
319
100
AcDbEntity
  8
_14133
100
AcDbLine
 62
7
  6
CONTINUOUS
 10
5.0582246642
 20
-27.8092793374
 11
5.047765658
 21
-27.6403419774
  0
LWPOLYLINE
  5
31A
100
AcDbEntity
  8
_14133
100
AcDbPolyline
 62
7
  6
CONTINUOUS
 90
4
 70
0
 10
5.0582208163
 20
-27.8090686547
 10
5.0595687732
 20
-27.8457404641
 10
5.0591791075
 20
-27.8671121007
 10
5.0590694599
 20
-27.8691732095
  0
LWPOLYLINE
  5
31B
100
AcDbEntity
  8
_14133
100
AcDbPolyline
 62
253
  6
CONTINUOUS
 90
10
 70
0
 10
6.8354255858
 20
-56.8534340541
 10
6.8356424432
 20
-56.8804368424
 10
6.8362939333
 20
-56.9072104282
 10
6.8373813219
 20
-56.9337447604
 10
6.8389064836
 20
-56.9600411829
 10
6.8408700059
 20
-56.9860780842
 10
6.8432692935
 20
-57.0118121779
 10
6.8461019803
 20
-57.0372237877
 10
6.8493678253
 20
-57.0623155736
 10
6.8530654921
 20
-57.0870790737
  0
LINE
  5
31C
100
AcDbEntity
  8
_14133
100
AcDbLine
 62
253
  6
CONTINUOUS
 10
3.3079672706
 20
-63.6447018133
 11
3.3086803601
 21
-63.858588702
  0
LINE
  5
31D
100
AcDbEntity
  8
_55702
100
AcDbLine
 62
253
  6
CONTINUOUS
 10
-55.3964630639
 20
34.6449932133
 11
-53.2686152141
 21
33.4164005331
  0
LINE
  5
31E
100
AcDbEntity
  8
_55702
100
AcDbLine
 62
253
  6
CONTINUOUS
 10
-7.0987497567
 20
6.7584988623
 11
-4.9709019069
 21
5.529906182
  0
LINE
  5
31F
100
AcDbEntity
  8
_55702
100
AcDbLine
 62
253
  6
CONTINUOUS
 10
-5.4772579184
 20
8.4673312028
 11
-7.6151709181
 21
9.7017353745
  0
LINE
  5
320
100
AcDbEntity
  8
_55702
100
AcDbLine
 62
253
  6
CONTINUOUS
 10
-53.733000459
 20
36.3295921592
 11
-55.8709134587
 21
37.5639963309
  0
LWPOLYLINE
  5
321
100
AcDbEntity
  8
_14133
100
AcDbPolyline
 62
253
  6
CONTINUOUS
 90
6
 70
0
 10
9.0993804244
 20
-55.0490023639
 10
8.4470478747
 20
-50.3998501735
 10
7.8629618775
 20
-45.7017681987
 10
7.3472614587
 20
-40.95587654
 10
6.9000737669
 20
-36.1633098799
 10
6.5706349746
 20
-31.9530964963
  0
LWPOLYLINE
  5
322
100
AcDbEntity
  8
_14133
100
AcDbPolyline
 62
7
  6
CONTINUOUS
 90
4
 70
0
 10
7.9834619126
 20
-55.4393872302
 10
7.9869329245
 20
-55.4677388507
 10
7.9881048286
 20
-55.4843411931
 10
7.9881460658
 20
-55.4855942436
  0
LWPOLYLINE
  5
323
100
AcDbEntity
  8
_14133
100
AcDbPolyline
 62
253
  6
CONTINUOUS
 90
10
 70
0
 10
8.5058996639
 20
-56.124773053
 10
8.5256132377
 20
-56.2996544087
 10
8.5315056328
 20
-56.4629333503
 10
8.5235704744
 20
-56.614614682
 10
8.5015793093
 20
-56.7555395199
 10
8.465749364
 20
-56.8848752162
 10
8.4167380328
 20
-57.0001195832
 10
8.354755443
 20
-57.1004454353
 10
8.279569967
 20
-57.1866963627
 10
8.1911721068
 20
-57.2588796249
  0
LWPOLYLINE
  5
324
100
AcDbEntity
  8
_14133
100
AcDbPolyline
 62
253
  6
CONTINUOUS
 90
8
 70
0
 10
3.1414520371
 20
-63.6923976296
 10
3.136627927
 20
-63.7403996603
 10
3.1395921806
 20
-63.7967983874
 10
3.1515261764
 20
-63.8530715159
 10
3.1726024795
 20
-63.9090491372
 10
3.2030900502
 20
-63.9632280928
 10
3.2419893962
 20
-64.0135958782
 10
3.2877831787
 20
-64.0587779376
  0
LINE
  5
325
100
AcDbEntity
  8
_14133
100
AcDbLine
 62
253
  6
CONTINUOUS
 10
3.3086803601
 20
-63.858588702
 11
3.2877831787
 21
-64.0587779376
  0
LWPOLYLINE
  5
326
100
AcDbEntity
  8
_14133
100
AcDbPolyline
 62
253
  6
CONTINUOUS
 90
16
 70
0
 10
5.5528027894
 20
-29.0706033576
 10
5.5139557941
 20
-29.2201091614
 10
5.4595783491
 20
-29.3605070227
 10
5.3917806819
 20
-29.4850956485
 10
5.310177453
 20
-29.5936188055
 10
5.2151304809
 20
-29.6863482045
 10
5.1088709366
 20
-29.7611924768
 10
4.9912680312
 20
-29.8177554396
 10
4.8624248914
 20
-29.8564515849
 10
4.7249182372
 20
-29.8764091087
 10
4.5785395643
 20
-29.8773498628
 10
4.4234737563
 20
-29.8595676858
 10
4.2628865105
 20
-29.8230495005
 10
4.0978279018
 20
-29.7677943816
 10
3.9272337515
 20
-29.6938126429
 10
3.7511005133
 20
-29.6011066464
  0
LWPOLYLINE
  5
327
100
AcDbEntity
  8
_14133
100
AcDbPolyline
 62
253
  6
CONTINUOUS
 90
16
 70
0
 10
-11.388659844
 20
-17.1631274636
 10
-11.5294242016
 20
-17.2470208366
 10
-11.6810990371
 20
-17.3210741985
 10
-11.8416667369
 20
-17.384778255
 10
-12.0080438428
 20
-17.4374741911
 10
-12.1792251543
 20
-17.4793724244
 10
-12.3566704672
 20
-17.5108863114
 10
-12.5397027817
 20
-17.5315214299
 10
-12.7254411902
 20
-17.5405817366
 10
-12.9121903881
 20
-17.5376850149
 10
-13.0980928333
 20
-17.5225073727
 10
-13.2807550139
 20
-17.4948828758
 10
-13.4575966688
 20
-17.454891479
 10
-13.6263144281
 20
-17.4027859561
 10
-13.7848684889
 20
-17.3389116675
 10
-13.9311474759
 20
-17.2637960364
  0
LINE
  5
328
100
AcDbEntity
  8
_14133
100
AcDbLine
 62
253
  6
CONTINUOUS
 10
-11.2468933888
 20
-17.0812732891
 11
-11.388659844
 21
-17.1631274636
  0
LINE
  5
329
100
AcDbEntity
  8
_14133
100
AcDbLine
 62
253
  6
CONTINUOUS
 10
-10.5362069775
 20
-18.3039513257
 11
-10.4894549653
 21
-18.2769572998
  0
LINE
  5
32A
100
AcDbEntity
  8
_14133
100
AcDbLine
 62
7
  6
CONTINUOUS
 10
3.141873589
 20
-63.6899973677
 11
3.1414520371
 21
-63.6923976296
  0
LWPOLYLINE
  5
32B
100
AcDbEntity
  8
_14133
100
AcDbPolyline
 62
253
  6
CONTINUOUS
 90
31
 70
0
 10
3.2877831787
 20
-64.0587779376
 10
3.2518929239
 20
-64.2322555691
 10
3.2055500759
 20
-64.3817370538
 10
3.1478339678
 20
-64.5078369396
 10
3.0771398154
 20
-64.6113337428
 10
2.9934319707
 20
-64.6926575184
 10
2.8980773098
 20
-64.7520421229
 10
2.7904589433
 20
-64.7903365361
 10
2.6696146215
 20
-64.8081105363
 10
2.5362467984
 20
-64.8053836746
 10
2.3893496811
 20
-64.782756936
 10
2.2286547657
 20
-64.7409276339
 10
2.0559191063
 20
-64.6801509578
 10
1.8700035737
 20
-64.6002745693
 10
1.6712634304
 20
-64.5023112824
 10
1.4637857297
 20
-64.3881787252
 10
1.247037682
 20
-64.2571964526
 10
1.0215543312
 20
-64.1100423745
 10
0.7932093671
 20
-63.9504659771
 10
0.5624644654
 20
-63.7778050174
 10
0.3296589837
 20
-63.591842711
 10
0.1005614558
 20
-63.3969227599
 10
-0.1234486749
 20
-63.1930868675
 10
-0.3424982811
 20
-62.9790194479
 10
-0.5531509388
 20
-62.7571418919
 10
-0.7548114035
 20
-62.526882383
 10
-0.9465497687
 20
-62.2874462849
 10
-1.1245350573
 20
-62.0410863572
 10
-1.2869625956
 20
-61.7881664496
 10
-1.4339385107
 20
-61.527058585
 10
-1.5645128733
 20
-61.2571230108
  0
LWPOLYLINE
  5
32C
100
AcDbEntity
  8
_14133
100
AcDbPolyline
 62
7
  6
CONTINUOUS
 90
7
 70
0
 10
3.1414723051
 20
-63.6923925658
 10
3.122935044
 20
-63.7806488686
 10
3.1012744276
 20
-63.8529808822
 10
3.0810346985
 20
-63.9018271328
 10
3.0644932745
 20
-63.9315791495
 10
3.0518948555
 20
-63.9485447915
 10
3.0462769572
 20
-63.9542168334
  0
LINE
  5
32D
100
AcDbEntity
  8
_55702
100
AcDbLine
 62
7
  6
CONTINUOUS
 10
-40.5183744696
 20
42.3920282192
 11
-20.8297969075
 21
31.0240902907
  0
LINE
  5
32E
100
AcDbEntity
  8
_55702
100
AcDbLine
 62
7
  6
CONTINUOUS
 10
-20.8297969075
 20
33.4802471409
 11
-40.5183744696
 21
44.8481850694
  0
LWPOLYLINE
  5
32F
100
AcDbEntity
  8
_55702
100
AcDbPolyline
 62
7
  6
CONTINUOUS
 90
25
 70
0
 10
-20.8297969075
 20
31.0240902907
 10
-20.0134964997
 20
30.5231323656
 10
-19.2065564116
 20
29.9716521755
 10
-18.4089766431
 20
29.3696497205
 10
-17.6179277287
 20
28.7145009209
 10
-16.836239134
 20
28.0088298563
 10
-16.0723992559
 20
27.260508766
 10
-15.3266083103
 20
26.4691053679
 10
-14.5986660813
 20
25.635051944
 10
-13.8964603188
 20
24.7675175794
 10
-13.2202630436
 20
23.8661548125
 10
-12.5698022349
 20
22.9313111049
 10
-11.9521495801
 20
21.9731979274
 10
-11.3676495674
 20
20.9915710659
 10
-10.8159577087
 20
19.9866747344
 10
-10.3031122263
 20
18.969453046
 10
-9.829518259
 20
17.9397734073
 10
-9.394770668
 20
16.8977684116
 10
-9.0036922606
 20
15.8547799518
 10
-8.6567332082
 20
14.8107792089
 10
-8.3534433393
 20
13.7657950018
 10
-8.0972949466
 20
12.7312556799
 10
-7.8894454609
 20
11.710970693
 10
-7.7287374514
 20
10.7011305912
 10
-7.6151709181
 20
9.7017353745
  0
LWPOLYLINE
  5
330
100
AcDbEntity
  8
_55702
100
AcDbPolyline
 62
7
  6
CONTINUOUS
 90
25
 70
0
 10
-19.7691367358
 20
34.0926590309
 10
-18.812372929
 20
33.5051224587
 10
-17.8668024583
 20
32.8578646889
 10
-16.9324253237
 20
32.1508857213
 10
-16.0058608216
 20
31.3810374084
 10
-15.0904896556
 20
30.5514678977
 10
-14.1964539361
 20
29.6716216325
 10
-13.3239978805
 20
28.7409788687
 10
-12.4728772714
 20
27.7600593502
 10
-11.6525015675
 20
26.7398667524
 10
-10.8632024627
 20
25.6799853586
 10
-10.1046482632
 20
24.5808308854
 10
-9.385253346
 20
23.4546541574
 10
-8.7054373018
 20
22.3011657737
 10
-8.06478054
 20
21.1206551353
 10
-7.4704386658
 20
19.9262412694
 10
-6.9229045565
 20
18.7177711622
 10
-6.4216853348
 20
17.4953978275
 10
-5.9724579733
 20
16.2726993347
 10
-5.5757695764
 20
15.0496495994
 10
-5.2310730397
 20
13.8262747059
 10
-4.9424040224
 20
12.6162309763
 10
-4.7111077444
 20
11.424070518
 10
-4.5358389858
 20
10.2452412235
 10
-4.4165977467
 20
9.0797430928
  0
LWPOLYLINE
  5
331
100
AcDbEntity
  8
_14133
100
AcDbPolyline
 62
253
  6
CONTINUOUS
 90
3
 70
0
 10
-8.2433285628
 20
-46.4481178113
 10
-8.1380228997
 20
-46.2998025388
 10
-8.024603983
 20
-46.1590814702
  0
LWPOLYLINE
  5
332
100
AcDbEntity
  8
_14133
100
AcDbPolyline
 62
253
  6
CONTINUOUS
 90
5
 70
0
 10
-8.024603983
 20
-46.1590814702
 10
-7.9043935302
 20
-46.0279650607
 10
-7.7786798484
 20
-45.9081326451
 10
-7.648655917
 20
-45.8009862631
 10
-7.515691505
 20
-45.7079324293
  0
LWPOLYLINE
  5
333
100
AcDbEntity
  8
_14133
100
AcDbPolyline
 62
253
  6
CONTINUOUS
 90
17
 70
0
 10
4.7875787485
 20
-27.4450128737
 10
4.6758665493
 20
-27.539556541
 10
4.5690043562
 20
-27.6418891012
 10
4.4669863025
 20
-27.7514260985
 10
4.3685501483
 20
-27.8694016424
 10
4.2740322873
 20
-27.9957744876
 10
4.1848576922
 20
-28.1290241263
 10
4.1016581962
 20
-28.2685534649
 10
4.0251397201
 20
-28.4136770175
 10
3.9563480197
 20
-28.5629646452
 10
3.8963254286
 20
-28.7145766609
 10
3.8458157267
 20
-28.8668860229
 10
3.805240942
 20
-29.0189210251
 10
3.7750289843
 20
-29.1697269589
 10
3.7556630445
 20
-29.3180387966
 10
3.7475825303
 20
-29.4623079137
 10
3.7511005133
 20
-29.6011066464
  0
LINE
  5
334
100
AcDbEntity
  8
_14133
100
AcDbLine
 62
253
  6
CONTINUOUS
 10
4.9026384998
 20
-27.360113785
 11
4.7875787485
 21
-27.4450128737
  0
LWPOLYLINE
  5
335
100
AcDbEntity
  8
_55702
100
AcDbPolyline
 62
7
  6
CONTINUOUS
 90
12
 70
0
 10
-40.5183744696
 20
44.8481850694
 10
-41.4751382764
 20
45.3654953592
 10
-42.4207087471
 20
45.8101586673
 10
-43.3550858817
 20
46.1821749938
 10
-44.2816503838
 20
46.4823001427
 10
-45.1970215498
 20
46.70977831
 10
-46.0910572692
 20
46.8623420838
 10
-46.9635133249
 20
46.9391897041
 10
-47.814633934
 20
46.941122931
 10
-48.6350096378
 20
46.8682796325
 10
-49.4243087426
 20
46.7198610604
 10
-50.1828629422
 20
46.496665963
  0
LINE
  5
336
100
AcDbEntity
  8
_55702
100
AcDbLine
 62
7
  6
CONTINUOUS
 10
-19.7691367358
 20
34.0926590309
 11
-39.4577142978
 21
45.4605969594
  0
LINE
  5
337
100
AcDbEntity
  8
_14133
100
AcDbLine
 62
253
  6
CONTINUOUS
 10
-8.0672320315
 20
-45.174258444
 11
-8.1795134504
 21
-45.2620946999
  0
LWPOLYLINE
  5
338
100
AcDbEntity
  8
_14133
100
AcDbPolyline
 62
253
  6
CONTINUOUS
 90
18
 70
0
 10
-8.1795134504
 20
-45.2620946999
 10
-8.2988222296
 20
-45.3532112039
 10
-8.4233584386
 20
-45.4462506645
 10
-8.5494826119
 20
-45.5385962798
 10
-8.6765668713
 20
-45.6299033073
 10
-8.8075513177
 20
-45.7223166355
 10
-8.9418810228
 20
-45.8153826565
 10
-9.0770208135
 20
-45.907295802
 10
-9.213312824
 20
-45.9982596232
 10
-9.3492242192
 20
-46.0871714185
 10
-9.4827166127
 20
-46.1726643612
 10
-9.6131444803
 20
-46.2542801352
 10
-9.7381565386
 20
-46.3305103813
 10
-9.8565158871
 20
-46.4006074674
 10
-9.9686167268
 20
-46.4647434146
 10
-10.0731391176
 20
-46.5220734928
 10
-10.1674414567
 20
-46.5710774011
 10
-10.2501713328
 20
-46.6110790468
  0
LINE
  5
339
100
AcDbEntity
  8
_14133
100
AcDbLine
 62
253
  6
CONTINUOUS
 10
4.9404030532
 20
-27.3362918833
 11
4.9026384998
 21
-27.360113785
  0
LINE
  5
33A
100
AcDbEntity
  8
_55702
100
AcDbLine
 62
7
  6
CONTINUOUS
 10
32.4452851958
 20
35.1334990735
 11
32.4452851958
 21
-63.8583922337
  0
LWPOLYLINE
  5
33B
100
AcDbEntity
  8
_14133
100
AcDbPolyline
 62
253
  6
CONTINUOUS
 90
7
 70
0
 10
-8.4808385215
 20
-44.6321767571
 10
-8.6202257958
 20
-44.7290788967
 10
-8.7705530661
 20
-44.815862179
 10
-8.9298166777
 20
-44.8918854461
 10
-9.0949535088
 20
-44.9562977733
 10
-9.2649614433
 20
-45.0092804392
 10
-9.4412898035
 20
-45.0513457409
  0
LINE
  5
33C
100
AcDbEntity
  8
_55702
100
AcDbLine
 62
7
  6
CONTINUOUS
 10
-17.6124146143
 20
-48.6507405625
 11
-13.9996743338
 21
-46.564827947
  0
LINE
  5
33D
100
AcDbEntity
  8
_14133
100
AcDbLine
 62
253
  6
CONTINUOUS
 10
-8.3375958318
 20
-44.5494702233
 11
-8.4808385215
 21
-44.6321767571
  0
LWPOLYLINE
  5
33E
100
AcDbEntity
  8
_14133
100
AcDbPolyline
 62
7
  6
CONTINUOUS
 90
5
 70
0
 10
25.3485867094
 20
-69.8808472103
 10
25.2471403826
 20
-70.1334370749
 10
25.018055829
 20
-70.5838088999
 10
24.7555980254
 20
-70.9986822076
 10
24.4631380631
 20
-71.3729399781
  0
LINE
  5
33F
100
AcDbEntity
  8
_14133
100
AcDbLine
 62
7
  6
CONTINUOUS
 10
3.0462769572
 20
-63.9542168334
 11
3.0452676276
 21
-63.9552509316
  0
LWPOLYLINE
  5
340
100
AcDbEntity
  8
_14133
100
AcDbPolyline
 62
253
  6
CONTINUOUS
 90
15
 70
0
 10
7.8886821052
 20
-54.7988001666
 10
7.7853244213
 20
-54.8834061244
 10
7.663972643
 20
-54.9978197268
 10
7.5490005019
 20
-55.1212269799
 10
7.4406232245
 20
-55.2527388492
 10
7.3378556371
 20
-55.3934506298
 10
7.241313059
 20
-55.5430250516
 10
7.1527113674
 20
-55.6993531423
 10
7.0730251158
 20
-55.8611908928
 10
7.0032635144
 20
-56.0270972342
 10
6.9444718567
 20
-56.1952933865
 10
6.8975829026
 20
-56.3638886194
 10
6.8633735521
 20
-56.5310113584
 10
6.8424813318
 20
-56.6948283488
 10
6.8354255858
 20
-56.8534340541
  0
LWPOLYLINE
  5
341
100
AcDbEntity
  8
_14133
100
AcDbPolyline
 62
253
  6
CONTINUOUS
 90
10
 70
0
 10
-0.8872671399
 20
-58.9912386707
 10
-0.9872515629
 20
-59.0609449591
 10
-1.0720217281
 20
-59.1499175834
 10
-1.1406775696
 20
-59.2574135763
 10
-1.1922106554
 20
-59.3822999227
 10
-1.2260229614
 20
-59.5236351458
 10
-1.2423843246
 20
-59.6806664636
 10
-1.241087993
 20
-59.8521783344
 10
-1.2214474781
 20
-60.0365051811
 10
-1.1832133729
 20
-60.2320284037
  0
LWPOLYLINE
  5
342
100
AcDbEntity
  8
_55702
100
AcDbPolyline
 62
253
  6
CONTINUOUS
 90
13
 70
0
 10
54.6716025853
 20
49.5250992742
 10
54.6698003813
 20
50.1850910384
 10
54.6310386913
 20
50.8620797632
 10
54.5553682531
 20
51.5531219217
 10
54.4429119893
 20
52.2551830858
 10
54.2941472288
 20
52.9652703605
 10
54.1099113374
 20
53.6804442649
 10
53.8909541844
 20
54.3976698209
 10
53.6381156218
 20
55.1138413727
 10
53.3526241248
 20
55.8259161849
 10
53.0357383843
 20
56.5308744501
 10
52.6887279048
 20
57.2257303832
 10
52.3130650414
 20
57.9075566774
  0
LINE
  5
343
100
AcDbEntity
  8
_55702
100
AcDbLine
 62
253
  6
CONTINUOUS
 10
54.6716025853
 20
49.5250992742
 11
54.6716025853
 21
-42.4823699946
  0
LINE
  5
344
100
AcDbEntity
  8
_55702
100
AcDbLine
 62
7
  6
CONTINUOUS
 10
55.5630187395
 20
-41.0289231684
 11
55.5630187395
 21
50.9785461004
  0
LINE
  5
345
100
AcDbEntity
  8
_55702
100
AcDbLine
 62
7
  6
CONTINUOUS
 10
55.5630186709
 20
50.9781183072
 11
55.5630187395
 21
50.9785461004
  0
LWPOLYLINE
  5
346
100
AcDbEntity
  8
_55702
100
AcDbPolyline
 62
7
  6
CONTINUOUS
 90
7
 70
0
 10
29.2722110302
 20
-66.5511508928
 10
29.0948152074
 20
-67.00120094
 10
28.8682529671
 20
-67.4513026961
 10
28.6090089991
 20
-67.8647950197
 10
28.3239262302
 20
-68.2358143936
 10
28.0150358788
 20
-68.5618794175
 10
27.8510054816
 20
-68.7087577501
  0
LINE
  5
347
100
AcDbEntity
  8
_14133
100
AcDbLine
 62
253
  6
CONTINUOUS
 10
-0.8828824654
 20
-58.9888078895
 11
-0.8872671399
 21
-58.9912386707
  0
LWPOLYLINE
  5
348
100
AcDbEntity
  8
_14133
100
AcDbPolyline
 62
253
  6
CONTINUOUS
 90
10
 70
0
 10
8.1911721068
 20
-57.2588796249
 10
8.0815655101
 20
-57.3174742832
 10
7.9613537485
 20
-57.3565405665
 10
7.8305201075
 20
-57.3760913189
 10
7.6878908376
 20
-57.376027476
 10
7.5346127224
 20
-57.3564688522
 10
7.3741515967
 20
-57.3177552804
 10
7.2076568324
 20
-57.2600045935
 10
7.0339628194
 20
-57.1831114791
 10
6.8530654921
 20
-57.0870790737
  0
LWPOLYLINE
  5
349
100
AcDbEntity
  8
_14133
100
AcDbPolyline
 62
7
  6
CONTINUOUS
 90
26
 70
0
 10
-0.8857334706
 20
-58.9906187214
 10
-0.864114495
 20
-58.9794072424
 10
-0.8128432125
 20
-58.9601491845
 10
-0.7507885901
 20
-58.9468353321
 10
-0.6705489014
 20
-58.9399908078
 10
-0.5696865335
 20
-58.9430084135
 10
-0.4504697089
 20
-58.9595128339
 10
-0.3143517415
 20
-58.9919471775
 10
-0.1611620112
 20
-59.0424628905
 10
0.0070035863
 20
-59.1121322603
 10
0.1843516747
 20
-59.2000617239
 10
0.3703831225
 20
-59.3070757438
 10
0.5645598702
 20
-59.4335466993
 10
0.7631362383
 20
-59.5776407733
 10
0.9631585621
 20
-59.7378194823
 10
1.163552623
 20
-59.9137143858
 10
1.3633256932
 20
-60.1046390364
 10
1.5597242178
 20
-60.3082556975
 10
1.7503034018
 20
-60.5221221488
 10
1.9335499879
 20
-60.744617182
 10
2.1091483329
 20
-60.9754762529
 10
2.2754656918
 20
-61.2124021232
 10
2.4302957632
 20
-61.4521902382
 10
2.5719744238
 20
-61.6923832061
 10
2.700827978
 20
-61.9334498806
 10
2.8155094309
 20
-62.1723673564
  0
LWPOLYLINE
  5
34A
100
AcDbEntity
  8
_55702
100
AcDbPolyline
 62
7
  6
CONTINUOUS
 90
13
 70
0
 10
55.56298824
 20
50.9778782432
 10
55.55595947
 20
51.3833481452
 10
55.5129090102
 20
52.0704821863
 10
55.4321984288
 20
52.7603174313
 10
55.3151914841
 20
53.4519636207
 10
55.163052947
 20
54.1436975011
 10
54.9771204953
 20
54.832439938
 10
54.7583808925
 20
55.5166490666
 10
54.5080922294
 20
56.1948404993
 10
54.2282928209
 20
56.8635266073
 10
53.9205786044
 20
57.5204111792
 10
53.5857378992
 20
58.164525854
 10
53.3830134567
 20
58.5254234045
  0
LINE
  5
34B
100
AcDbEntity
  8
_55702
100
AcDbLine
 62
253
  6
CONTINUOUS
 10
55.5630187395
 20
-41.0289231684
 11
55.5624675882
 21
-41.0672614628
  0
LWPOLYLINE
  5
34C
100
AcDbEntity
  8
_55702
100
AcDbPolyline
 62
253
  6
CONTINUOUS
 90
9
 70
0
 10
55.5624675882
 20
-41.0672614628
 10
55.543638417
 20
-41.2559965146
 10
55.4979198229
 20
-41.4439010905
 10
55.4254597609
 20
-41.6293920757
 10
55.326405682
 20
-41.8114735776
 10
55.2009470352
 20
-41.9891026792
 10
55.0494800662
 20
-42.1610425431
 10
54.872737589
 20
-42.3258954555
 10
54.6716025853
 20
-42.4823699946
  0
LINE
  5
34D
100
AcDbEntity
  8
_55702
100
AcDbLine
 62
7
  6
CONTINUOUS
 10
2.9686925734
 20
63.4547763742
 11
22.6572701354
 21
52.0868384457
  0
LWPOLYLINE
  5
34E
100
AcDbEntity
  8
_55702
100
AcDbPolyline
 62
7
  6
CONTINUOUS
 90
25
 70
0
 10
22.6572701354
 20
52.0868384457
 10
23.3035268029
 20
51.6883836876
 10
23.9412553491
 20
51.2474996735
 10
24.570455774
 20
50.7641864033
 10
25.1936897947
 20
50.2359973695
 10
25.8083956941
 20
49.6653790797
 10
26.406888321
 20
49.0596710563
 10
26.9889581266
 20
48.4184650003
 10
27.5548146597
 20
47.7421692108
 10
28.0974014161
 20
47.0393481064
 10
28.6164344691
 20
46.3096855844
 10
29.1121977453
 20
45.5534977476
 10
29.5784865206
 20
44.7802973239
 10
30.0149441184
 20
43.9898785566
 10
30.4219272154
 20
43.1824472025
 10
30.7943011173
 20
42.3681332589
 10
31.1316500046
 20
41.5468491597
 10
31.4343896968
 20
40.718682471
 10
31.6986329579
 20
39.8940258885
 10
31.9239213684
 20
39.0729023456
 10
32.1107133478
 20
38.2552889089
 10
32.256496918
 20
37.4515094738
 10
32.3604347531
 20
36.6650053387
 10
32.423364179
 20
35.8923352053
 10
32.4452851958
 20
35.1334990735
  0
LINE
  5
34F
100
AcDbEntity
  8
_14133
100
AcDbLine
 62
7
  6
CONTINUOUS
 10
24.4631380631
 20
-71.3729399781
 11
24.1403155356
 21
-71.7060899113
  0
LINE
  5
350
100
AcDbEntity
  8
_55702
100
AcDbLine
 62
253
  6
CONTINUOUS
 10
32.4452851958
 20
-61.3442387958
 11
54.6716025853
 21
-42.4823699946
  0
LINE
  5
351
100
AcDbEntity
  8
_55702
100
AcDbLine
 62
253
  6
CONTINUOUS
 10
28.4449105614
 20
72.8890698234
 11
28.0016575485
 21
72.7791027028
  0
LWPOLYLINE
  5
352
100
AcDbEntity
  8
_55702
100
AcDbPolyline
 62
253
  6
CONTINUOUS
 90
10
 70
0
 10
53.3526241249
 20
-47.0005615424
 10
53.6381156219
 20
-46.6322232925
 10
53.8909541845
 20
-46.2259290056
 10
54.1099113375
 20
-45.783504221
 10
54.2941472289
 20
-45.306715622
 10
54.4429119893
 20
-44.7975130008
 10
54.5553682531
 20
-44.2582175557
 10
54.6310386913
 20
-43.6910971455
 10
54.6698003813
 20
-43.0983516658
 10
54.6716025853
 20
-42.4823699946
  0
LWPOLYLINE
  5
353
100
AcDbEntity
  8
_55702
100
AcDbPolyline
 62
7
  6
CONTINUOUS
 90
11
 70
0
 10
53.3220834568
 20
-47.0584236231
 10
53.7297525667
 20
-46.6096692205
 10
54.1077768437
 20
-46.1125742771
 10
54.4505371299
 20
-45.5693031171
 10
54.7522098672
 20
-44.9840173646
 10
55.0092080375
 20
-44.3593245512
 10
55.2195450958
 20
-43.697329761
 10
55.3812334682
 20
-43.0011180203
 10
55.4927186575
 20
-42.2727953843
 10
55.5525721531
 20
-41.5137547221
 10
55.5629886863
 20
-41.0283458335
  0
LINE
  5
354
100
AcDbEntity
  8
_55702
100
AcDbLine
 62
253
  6
CONTINUOUS
 10
53.0357383844
 20
-47.3294031991
 11
53.3526241249
 21
-47.0005615424
  0
LINE
  5
355
100
AcDbEntity
  8
_55702
100
AcDbLine
 62
7
  6
CONTINUOUS
 10
52.8982583023
 20
-47.4494348352
 11
53.3220834568
 21
-47.0584236231
  0
LINE
  5
356
100
AcDbEntity
  8
_55702
100
AcDbLine
 62
253
  6
CONTINUOUS
 10
52.899277066
 20
-47.4506084534
 11
53.0357383844
 21
-47.3294031991
  0
LINE
  5
357
100
AcDbEntity
  8
_55702
100
AcDbLine
 62
7
  6
CONTINUOUS
 10
23.5454049268
 20
-71.411077235
 11
32.4452851958
 21
-63.8583922337
  0
LINE
  5
358
100
AcDbEntity
  8
_55702
100
AcDbLine
 62
7
  6
CONTINUOUS
 10
52.899312956
 20
-47.4505779961
 11
27.8503738263
 21
-68.7078018175
  0
LINE
  5
359
100
AcDbEntity
  8
_29304
100
AcDbLine
 62
7
  6
CONTINUOUS
 10
27.5339803945
 20
-68.9763020507
 11
24.370046076
 21
-71.6613043822
  0
LWPOLYLINE
  5
35A
100
AcDbEntity
  8
_14133
100
AcDbPolyline
 62
7
  6
CONTINUOUS
 90
3
 70
0
 10
24.1403155356
 20
-71.7060899113
 10
23.7874908493
 20
-71.9986243073
 10
23.7593848204
 20
-72.0170666938
  0
LINE
  5
35B
100
AcDbEntity
  8
_55702
100
AcDbLine
 62
7
  6
CONTINUOUS
 10
27.8510054816
 20
-68.7087577501
 11
27.6805052458
 21
-68.8453124962
  0
LWPOLYLINE
  5
35C
100
AcDbEntity
  8
_55702
100
AcDbPolyline
 62
7
  6
CONTINUOUS
 90
10
 70
0
 10
23.9971826641
 20
-72.6905084091
 10
23.9822362287
 20
-72.7008886971
 10
23.9672849113
 20
-72.7110913916
 10
23.9523287118
 20
-72.7211164927
 10
23.9373659122
 20
-72.7309651138
 10
23.9223982305
 20
-72.7406361416
 10
23.907430821
 20
-72.750126235
 10
23.8924654019
 20
-72.7594342805
 10
23.877500255
 20
-72.7685613918
 10
23.8625353804
 20
-72.7775075687
  0
LWPOLYLINE
  5
35D
100
AcDbEntity
  8
_55702
100
AcDbPolyline
 62
7
  6
CONTINUOUS
 90
12
 70
0
 10
34.7223845822
 20
71.8169396297
 10
34.2763754424
 20
72.0612549851
 10
33.5903077411
 20
72.3866493176
 10
32.9052675133
 20
72.6521391501
 10
32.2232179537
 20
72.8582894613
 10
31.5467121079
 20
73.0054579838
 10
30.8792763507
 20
73.0938826037
 10
30.2237160573
 20
73.1242612846
 10
29.5840391604
 20
73.0984223307
 10
28.9665677052
 20
73.0193061938
 10
28.3759052573
 20
72.8906399061
 10
27.8283348703
 20
72.719863373
  0
LWPOLYLINE
  5
35E
100
AcDbEntity
  8
_55702
100
AcDbPolyline
 62
253
  6
CONTINUOUS
 90
10
 70
0
 10
47.9367869693
 20
64.187143842
 10
47.903677956
 20
64.2056205598
 10
47.730824551
 20
64.2836633061
 10
47.5452456015
 20
64.3380039714
 10
47.3483860143
 20
64.3679792841
 10
47.1411819276
 20
64.3732190904
 10
46.9246312003
 20
64.3533661003
 10
46.7000030188
 20
64.3081451735
 10
46.4688741678
 20
64.2374922236
 10
46.2328044703
 20
64.1415263491
  0
LWPOLYLINE
  5
35F
100
AcDbEntity
  8
_55702
100
AcDbPolyline
 62
253
  6
CONTINUOUS
 90
10
 70
0
 10
33.0174691092
 20
71.7718953595
 10
32.4830932035
 20
72.0783583972
 10
31.9503596519
 20
72.3411972786
 10
31.4213627417
 20
72.5592613493
 10
30.8980691962
 20
72.731556949
 10
30.3826817969
 20
72.8573633649
 10
29.8776295338
 20
72.9362450209
 10
29.384976011
 20
72.967876254
 10
28.9066712527
 20
72.9521008733
 10
28.4449105614
 20
72.8890698234
  0
LINE
  5
360
100
AcDbEntity
  8
_55702
100
AcDbLine
 62
253
  6
CONTINUOUS
 10
33.0174691092
 20
71.7718953595
 11
46.2328044703
 21
64.1415263491
  0
LINE
  5
361
100
AcDbEntity
  8
_55702
100
AcDbLine
 62
7
  6
CONTINUOUS
 10
47.93724997
 20
64.1868766349
 11
34.7219146089
 21
71.8172456453
  0
LINE
  5
362
100
AcDbEntity
  8
_55702
100
AcDbLine
 62
7
  6
CONTINUOUS
 10
34.7219146089
 20
71.8172456453
 11
34.7226064248
 21
71.816845923
  0
LWPOLYLINE
  5
363
100
AcDbEntity
  8
_55702
100
AcDbPolyline
 62
253
  6
CONTINUOUS
 90
13
 70
0
 10
52.3130650414
 20
57.9075566774
 10
51.9104167892
 20
58.5738047782
 10
51.4821567742
 20
59.2217567298
 10
51.0300839486
 20
59.8486737685
 10
50.5561493373
 20
60.4519635591
 10
50.0623388469
 20
61.0290261009
 10
49.5506733602
 20
61.5772760768
 10
49.0234225585
 20
62.0944332726
 10
48.4828399144
 20
62.5783307253
 10
47.9310524665
 20
63.0267734173
 10
47.3704135265
 20
63.43785143
 10
46.8034895748
 20
63.8099410091
 10
46.2328044703
 20
64.1415263491
  0
LWPOLYLINE
  5
364
100
AcDbEntity
  8
_55702
100
AcDbPolyline
 62
7
  6
CONTINUOUS
 90
13
 70
0
 10
53.3830134576
 20
58.5254234045
 10
53.1581303599
 20
58.903884373
 10
52.7666067241
 20
59.5156532203
 10
52.3505224999
 20
60.1101642605
 10
51.9103251971
 20
60.6862504863
 10
51.4472088451
 20
61.2413838678
 10
50.9631791099
 20
61.7720590661
 10
50.4589057882
 20
62.2764572263
 10
49.9352376058
 20
62.7529690988
 10
49.3941629572
 20
63.1989110473
 10
48.8365832097
 20
63.6124196673
 10
48.2625874276
 20
63.9918667942
 10
47.936589371
 20
64.1872228036
  0
ELLIPSE
  5
365
100
AcDbEntity
  8
_29304
100
AcDbEllipse
 62
7
  6
CONTINUOUS
 10
20.8799238392
 20
-58.8844932666
 30
0.0
 11
-6.066202994
 21
10.5063166003
 31
0.0
 40
0.5710577163
 41
-3.0380077304
 42
-2.6900050039
  0
ELLIPSE
  5
366
100
AcDbEntity
  8
_29304
100
AcDbEllipse
 62
7
  6
CONTINUOUS
 10
17.7159895207
 20
-61.569495598
 30
0.0
 11
-6.066202994
 21
10.5063166003
 31
0.0
 40
0.5710577163
 41
3.1413910239
 42
3.5937081301
  0
ELLIPSE
  5
367
100
AcDbEntity
  8
_55702
100
AcDbEllipse
 62
7
  6
CONTINUOUS
 10
-47.7551382834
 20
42.2683651058
 30
0.0
 11
5.5554707667
 21
10.0706885062
 31
0.0
 40
0.603787745
 41
-3.7644716001
 42
-3.5896631826
  0
ELLIPSE
  5
368
100
AcDbEntity
  8
_55702
100
AcDbEllipse
 62
7
  6
CONTINUOUS
 10
-20.0433008841
 20
-45.7938874254
 30
0.0
 11
0.966168829
 21
1.751424088
 31
0.0
 40
0.603787745
 41
-3.5896631826
 42
-3.153379336
  0
ELLIPSE
  5
369
100
AcDbEntity
  8
_55702
100
AcDbEllipse
 62
7
  6
CONTINUOUS
 10
2.6704228736
 20
13.1532780745
 30
0.0
 11
5.1541549857
 21
8.5706922581
 31
0.0
 40
0.5506078244
 41
-3.7572013405
 42
-3.5680754455
  0
ELLIPSE
  5
36A
100
AcDbEntity
  8
_55702
100
AcDbEllipse
 62
7
  6
CONTINUOUS
 10
-0.2605605737
 20
14.8455911831
 30
0.0
 11
4.9228859041
 21
10.4248924218
 31
0.0
 40
0.5140737651
 41
-3.7921426855
 42
-3.6203305442
  0
ELLIPSE
  5
36B
100
AcDbEntity
  8
_55702
100
AcDbEllipse
 62
7
  6
CONTINUOUS
 10
21.6427836966
 20
-69.862910213
 30
0.0
 11
0.8561540703
 21
1.813024769
 31
0.0
 40
0.5140737651
 41
-3.6203305442
 42
-3.1840465747
  0
ELLIPSE
  5
36C
100
AcDbEntity
  8
_55702
100
AcDbEllipse
 62
7
  6
CONTINUOUS
 10
23.9103073025
 20
-71.1721499243
 30
0.0
 11
1.0308309971
 21
1.7141384516
 31
0.0
 40
0.5506078244
 41
-3.5680754455
 42
-2.3463449691
  0
ELLIPSE
  5
36D
100
AcDbEntity
  8
_55702
100
AcDbEllipse
 62
7
  6
CONTINUOUS
 10
-44.8241548362
 20
40.5760519972
 30
0.0
 11
6.751200993
 21
9.3535684143
 31
0.0
 40
0.6340898718
 41
-3.6851539066
 42
-3.5133417653
  0
ELLIPSE
  5
36E
100
AcDbEntity
  8
_55702
100
AcDbEllipse
 62
7
  6
CONTINUOUS
 10
-17.7757772782
 20
-47.1031271367
 30
0.0
 11
1.1741219118
 21
1.6267075503
 31
0.0
 40
0.6340898718
 41
-3.5133417653
 42
-2.1868915338
  0
ELLIPSE
  5
36F
100
AcDbEntity
  8
_55702
100
AcDbEllipse
 62
7
  6
CONTINUOUS
 10
1233.3557179155
 20
739.8270864296
 30
0.0
 11
1239.4117605696
 21
734.1289863501
 31
0.0
 40
0.0102645644
 41
3.0813682314
 42
3.0997699947
  0
ELLIPSE
  5
370
100
AcDbEntity
  8
_55702
100
AcDbEllipse
 62
7
  6
CONTINUOUS
 10
2.6704228736
 20
13.1532780745
 30
0.0
 11
5.9272782336
 21
9.8562960969
 31
0.0
 40
0.5506078244
 41
-3.742883863
 42
-3.5680754455
  0
ENDSEC
  0
SECTION
  2
OBJECTS
  0
DICTIONARY
  5
C
100
AcDbDictionary
280
0
281
1
  3
ACAD_GROUP
350
D
  3
ACAD_MLINESTYLE
350
17
  3
ACAD_LAYOUT
350
1A
  3
ACAD_PLOTSETTINGS
350
19
  3
ACAD_PLOTSTYLENAME
350
E
  0
DICTIONARY
  5
D
102
{ACAD_REACTORS
330
C
102
}
100
AcDbDictionary
280
0
281
1
  0
ACDBDICTIONARYWDFLT
  5
E
102
{ACAD_REACTORS
330
C
102
}
100
AcDbDictionary
281
1
  3
Normal
350
F
100
AcDbDictionaryWithDefault
340
F
  0
DICTIONARY
  5
17
102
{ACAD_REACTORS
330
C
102
}
100
AcDbDictionary
280
0
281
1
  3
Standard
350
18
  0
DICTIONARY
  5
19
102
{ACAD_REACTORS
330
C
102
}
100
AcDbDictionary
281
1
  0
DICTIONARY
  5
1A
102
{ACAD_REACTORS
330
C
102
}
100
AcDbDictionary
281
1
  3
Model
350
371
  3
Layout1
350
372
  0
ACDBPLACEHOLDER
  5
F
102
{ACAD_REACTORS
330
E
102
}
  0
MLINESTYLE
  5
18
102
{ACAD_REACTORS
330
17
102
}
100
AcDbMlineStyle
  2
STANDARD
 70
0
  3

 62
256
 51
90.0
 52
90.0
 71
2
 49
0.5
 62
256
  6
BYLAYER
 49
-0.5
 62
256
  6
BYLAYER
  0
LAYOUT
  5
371
102
{ACAD_REACTORS
330
1A
102
}
100
AcDbPlotSettings
  1

  2
none_device
  4
ISO_A4_(297.00_x_210.00_MM)
  6

 40
0.0
 41
0.0
 42
0.0
 43
0.0
 44
297.0
 45
210.0
 46
0.0
 47
0.0
 48
0.0
 49
0.0
140
0.0
141
0.0
142
1.0
143
1.0
 70
1024
 72
1
 73
0
 74
0
  7

 75
0
147
1.0
148
0.0
149
0.0
100
AcDbLayout
  1
Model
 70
0
 71
0
 10
0.0
 20
0.0
 11
297.0
 21
210.0
 12
0.0
 22
0.0
 32
0.0
 14
0.0
 24
0.0
 34
0.0
 15
0.0
 25
0.0
 35
0.0
146
0.0
 13
0.0
 23
0.0
 33
0.0
 16
1.0
 26
0.0
 36
0.0
 17
0.0
 27
1.0
 37
0.0
 76
0
330
23F
345
0
346
0
  0
LAYOUT
  5
372
102
{ACAD_REACTORS
330
1A
102
}
100
AcDbPlotSettings
  1

  2
none_device
  4
ISO_A4_(297.00_x_210.00_MM)
  6

 40
0.0
 41
0.0
 42
0.0
 43
0.0
 44
297.0
 45
210.0
 46
0.0
 47
0.0
 48
0.0
 49
0.0
140
0.0
141
0.0
142
1.0
143
1.0
 70
0
 72
1
 73
0
 74
0
  7

 75
0
147
1.0
148
0.0
149
0.0
100
AcDbLayout
  1
Layout1
 70
0
 71
1
 10
0.0
 20
0.0
 11
297.0
 21
210.0
 12
0.0
 22
0.0
 32
0.0
 14
0.0
 24
0.0
 34
0.0
 15
0.0
 25
0.0
 35
0.0
146
0.0
 13
0.0
 23
0.0
 33
0.0
 16
1.0
 26
0.0
 36
0.0
 17
0.0
 27
1.0
 37
0.0
 76
0
330
240
345
0
346
0
  0
ENDSEC
  0
EOF
