  0
SECTION
  2
HEADER
  9
$ACADVER
  1
AC1021
  9
$DWGCODEPAGE
  3
ANSI_1252
  9
$EXTMAX
 10
297.0
 20
210.0
 30
0.0
  9
$EXTMIN
 10
0.0
 20
0.0
 30
0.0
  9
$LIMMIN
 10
0.0
 20
0.0
  9
$LIMMAX
 10
297.0
 20
210.0
  9
$VIEWCTR
 10
148.5
 20
105.0
  9
$VIEWSIZE
 40
210.0
  9
$CLAYER
  8
0
  9
$LTSCALE
 40
16.335
  9
$CELTYPE
  6
BYLAYER
  9
$DIMSCALE
 40
1.0
  9
$DIMASZ
 40
3.0
  9
$DIMEXO
 40
0.5
  9
$DIMDLI
 40
11.286
  9
$DIMEXE
 40
1.5
  9
$DIMCEN
 40
2.673
  9
$DIMLFAC
 40
1.0
  9
$DIMBLK
  1
_FILLED
  9
$DIMALT
 70
0
  9
$DIMALTF
 40
0.0393700787
  9
$DIMTXT
 40
3.0
  9
$DIMTOL
 70
1
  9
$DIMLIM
 70
0
  9
$DIMTFAC
 40
1.0
  9
$DIMTP
 40
0.01
  9
$DIMTM
 40
0.01
  9
$DIMGAP
 40
0.625
  9
$DIMDSEP
 70
44
  9
$AUNITS
 70
0
  9
$PDMODE
 70
3
  9
$PDSIZE
 40
3.0
  9
$HANDSEED
  5
252
  9
$TILEMODE
 70
1
  9
$MEASUREMENT
 70
1
  9
$INSUNITS
 70
4
  0
ENDSEC
  0
SECTION
  2
CLASSES
  0
CLASS
  1
ACDBDICTIONARYWDFLT
  2
AcDbDictionaryWithDefault
  3
AutoCAD 2000
 90
0
 91
1
280
0
281
0
  0
CLASS
  1
ACDBPLACEHOLDER
  2
AcDbPlaceHolder
  3
AutoCAD 2000
 90
0
 91
1
280
0
281
0
  0
CLASS
  1
LAYOUT
  2
AcDbLayout
  3
AutoCAD 2000
 90
0
 91
0
280
0
281
0
  0
ENDSEC
  0
SECTION
  2
TABLES
  0
TABLE
  2
VPORT
  5
8
100
AcDbSymbolTable
 70
2
  0
VPORT
  5
1F4
100
AcDbSymbolTableRecord
100
AcDbViewportTableRecord
  2
*ACTIVE
 70
0
 10
0.0
 20
0.0
 11
1.0
 21
1.0
 12
148.5
 22
105.0
 13
0.0
 23
0.0
 14
1.0
 24
1.0
 15
0.0
 25
0.0
 16
0.0
 26
0.0
 36
1.0
 17
0.0
 27
0.0
 37
0.0
 40
210.0
 41
1.4142857143
 42
50.0
 43
0.0
 44
0.0
 50
0.0
 51
0.0
 71
0
 72
100
 73
1
 74
1
 75
0
 76
0
 77
0
 78
0
  0
ENDTAB
  0
TABLE
  2
LTYPE
  5
5
100
AcDbSymbolTable
 70
6
  0
LTYPE
  5
14
100
AcDbSymbolTableRecord
100
AcDbLinetypeTableRecord
  2
BYBLOCK
 70
0
  3

 72
65
 73
0
 40
0.0
  0
LTYPE
  5
15
100
AcDbSymbolTableRecord
100
AcDbLinetypeTableRecord
  2
BYLAYER
 70
0
  3

 72
65
 73
0
 40
0.0
  0
LTYPE
  5
16
100
AcDbSymbolTableRecord
100
AcDbLinetypeTableRecord
  2
CONTINUOUS
 70
64
  3
Solid line
 72
65
 73
0
 40
0.0
  0
LTYPE
  5
1F5
100
AcDbSymbolTableRecord
100
AcDbLinetypeTableRecord
  2
CENTER
 70
64
  3
____ _ ____ _ ____ _ ____ _ ____ _ ____ _ ____
 72
65
 73
4
 40
0.6
 49
0.375
 74
0
 49
-0.075
 74
0
 49
0.075
 74
0
 49
-0.075
 74
0
  0
LTYPE
  5
1F6
100
AcDbSymbolTableRecord
100
AcDbLinetypeTableRecord
  2
HIDDEN
 70
64
  3
- - - - - - - - - - - - - - - - - - - -
 72
65
 73
2
 40
0.2
 49
0.1
 74
0
 49
-0.1
 74
0
  0
LTYPE
  5
1F7
100
AcDbSymbolTableRecord
100
AcDbLinetypeTableRecord
  2
PHANTOM
 70
64
  3
_____ _ _ _____ _ _ _____ _ _ _____
 72
65
 73
6
 40
0.8
 49
0.45
 74
0
 49
-0.05
 74
0
 49
0.1
 74
0
 49
-0.05
 74
0
 49
0.1
 74
0
 49
-0.05
 74
0
  0
LTYPE
  5
1F8
100
AcDbSymbolTableRecord
100
AcDbLinetypeTableRecord
  2
DOT
 70
64
  3
. . . . . . . . . . . . . . . . . . . .
 72
65
 73
2
 40
0.2
 49
0.1
 74
0
 49
-0.1
 74
0
  0
LTYPE
  5
1F9
100
AcDbSymbolTableRecord
100
AcDbLinetypeTableRecord
  2
DASHED
 70
64
  3
- - - - - - - - - - - - - - - - - - - -
 72
65
 73
2
 40
0.2
 49
0.1
 74
0
 49
-0.1
 74
0
  0
ENDTAB
  0
TABLE
  2
LAYER
  5
2
100
AcDbSymbolTable
 70
36
  0
LAYER
  5
10
100
AcDbSymbolTableRecord
100
AcDbLayerTableRecord
  2
0
 70
0
 62
7
  6
CONTINUOUS
370
-3
390
F
  0
LAYER
  5
1FA
100
AcDbSymbolTableRecord
100
AcDbLayerTableRecord
  2
DEFAULT_1
 70
0
 62
7
  6
CENTER
370
-3
390
F
  0
LAYER
  5
1FB
100
AcDbSymbolTableRecord
100
AcDbLayerTableRecord
  2
DEFAULT_2
 70
0
 62
7
  6
HIDDEN
370
-3
390
F
  0
LAYER
  5
1FC
100
AcDbSymbolTableRecord
100
AcDbLayerTableRecord
  2
DEFAULT_3
 70
0
 62
7
  6
PHANTOM
370
-3
390
F
  0
LAYER
  5
1FD
100
AcDbSymbolTableRecord
100
AcDbLayerTableRecord
  2
ASSI
 70
0
 62
7
  6
CONTINUOUS
370
-3
390
F
  0
LAYER
  5
1FE
100
AcDbSymbolTableRecord
100
AcDbLayerTableRecord
  2
COORDINATE
 70
0
 62
7
  6
CONTINUOUS
370
-3
390
F
  0
LAYER
  5
1FF
100
AcDbSymbolTableRecord
100
AcDbLayerTableRecord
  2
COPY_PUBLISH
 70
0
 62
7
  6
CONTINUOUS
370
-3
390
F
  0
LAYER
  5
200
100
AcDbSymbolTableRecord
100
AcDbLayerTableRecord
  2
COSMETICI
 70
0
 62
7
  6
CONTINUOUS
370
-3
390
F
  0
LAYER
  5
201
100
AcDbSymbolTableRecord
100
AcDbLayerTableRecord
  2
CURVE
 70
0
 62
7
  6
CONTINUOUS
370
-3
390
F
  0
LAYER
  5
202
100
AcDbSymbolTableRecord
100
AcDbLayerTableRecord
  2
DRAFT
 70
0
 62
7
  6
CONTINUOUS
370
-3
390
F
  0
LAYER
  5
203
100
AcDbSymbolTableRecord
100
AcDbLayerTableRecord
  2
IMPORT_IGES
 70
0
 62
7
  6
CONTINUOUS
370
-3
390
F
  0
LAYER
  5
204
100
AcDbSymbolTableRecord
100
AcDbLayerTableRecord
  2
NOTE
 70
0
 62
7
  6
CONTINUOUS
370
-3
390
F
  0
LAYER
  5
205
100
AcDbSymbolTableRecord
100
AcDbLayerTableRecord
  2
PIANI
 70
0
 62
7
  6
CONTINUOUS
370
-3
390
F
  0
LAYER
  5
206
100
AcDbSymbolTableRecord
100
AcDbLayerTableRecord
  2
PUNTI
 70
0
 62
7
  6
CONTINUOUS
370
-3
390
F
  0
LAYER
  5
207
100
AcDbSymbolTableRecord
100
AcDbLayerTableRecord
  2
RACCORDO
 70
0
 62
7
  6
CONTINUOUS
370
-3
390
F
  0
LAYER
  5
208
100
AcDbSymbolTableRecord
100
AcDbLayerTableRecord
  2
SIMBOLI
 70
0
 62
7
  6
CONTINUOUS
370
-3
390
F
  0
LAYER
  5
209
100
AcDbSymbolTableRecord
100
AcDbLayerTableRecord
  2
SMUSSO
 70
0
 62
7
  6
CONTINUOUS
370
-3
390
F
  0
LAYER
  5
20A
100
AcDbSymbolTableRecord
100
AcDbLayerTableRecord
  2
SNAPLINE
 70
0
 62
7
  6
CONTINUOUS
370
-3
390
F
  0
LAYER
  5
20B
100
AcDbSymbolTableRecord
100
AcDbLayerTableRecord
  2
SUPERFICI
 70
0
 62
7
  6
CONTINUOUS
370
-3
390
F
  0
LAYER
  5
20C
100
AcDbSymbolTableRecord
100
AcDbLayerTableRecord
  2
TRASH
 70
0
 62
7
  6
CONTINUOUS
370
-3
390
F
  0
ENDTAB
  0
TABLE
  2
STYLE
  5
3
100
AcDbSymbolTable
 70
1
  0
STYLE
  5
11
100
AcDbSymbolTableRecord
100
AcDbTextStyleTableRecord
  2
STANDARD
 70
0
 40
0.0
 41
0.8
 50
0.0
 71
0
 42
0.2
  3
txt
  4

  0
STYLE
  5
20D
100
AcDbSymbolTableRecord
100
AcDbTextStyleTableRecord
  2
TEXTSTYLE_1
 70
0
 40
0.0
 41
0.8
 50
0.0
 71
0
 42
0.2
  3
gdt
  4

  0
ENDTAB
  0
TABLE
  2
VIEW
  5
6
100
AcDbSymbolTable
 70
0
  0
ENDTAB
  0
TABLE
  2
UCS
  5
7
100
AcDbSymbolTable
 70
0
  0
ENDTAB
  0
TABLE
  2
APPID
  5
9
100
AcDbSymbolTable
 70
1
  0
APPID
  5
20E
100
AcDbSymbolTableRecord
100
AcDbRegAppTableRecord
  2
ACAD
 70
0
  0
ENDTAB
  0
TABLE
  2
BLOCK_RECORD
  5
1
100
AcDbSymbolTable
 70
0
  0
BLOCK_RECORD
  5
20F
100
AcDbSymbolTableRecord
100
AcDbBlockTableRecord
  2
*Model_Space
  0
BLOCK_RECORD
  5
210
100
AcDbSymbolTableRecord
100
AcDbBlockTableRecord
  2
*Paper_Space
  0
ENDTAB
  0
TABLE
  2
DIMSTYLE
  5
A
100
AcDbSymbolTable
 70
1
100
AcDbDimStyleTable
 71
0
  0
DIMSTYLE
105
211
100
AcDbSymbolTableRecord
100
AcDbDimStyleTableRecord
  2
STANDARD
 70
0
  3

  4

 40
1.0
 41
3.0
 42
0.5
 43
0.38
 44
1.5
 45
0.0
 46
0.0
 47
0.01
 48
0.01
140
3.0
141
0.09
142
0.0
143
25.4
144
1.0
145
0.0
146
1.0
147
0.625
 71
1.0
 72
0.0
 73
0
 74
0
 75
0
 76
0
 77
1
 78
8
170
0
171
2
172
0
173
0
174
0
175
0
176
0
177
0
178
0
270
2
271
2
272
2
273
2
274
2
275
0
280
0
281
0
282
0
283
1
284
8
285
0
286
0
287
3
288
0
340
11
278
44
  0
ENDTAB
  0
ENDSEC
  0
SECTION
  2
BLOCKS
  0
BLOCK
  5
20
100
AcDbEntity
  8
0
100
AcDbBlockBegin
  2
*Model_Space
 70
0
 10
0.0
 20
0.0
 30
0.0
  3
*Model_Space
  1

  0
ENDBLK
  5
21
100
AcDbEntity
  8
0
100
AcDbBlockEnd
  0
BLOCK
  5
1C
100
AcDbEntity
  8
0
100
AcDbBlockBegin
  2
*Paper_Space
 70
0
 10
0.0
 20
0.0
 30
0.0
  3
*Paper_Space
  1

  0
ENDBLK
  5
1D
100
AcDbEntity
  8
0
100
AcDbBlockEnd
  0
ENDSEC
  0
SECTION
  2
ENTITIES
  0
LWPOLYLINE
  5
212
100
AcDbEntity
  8
RACCORDO
100
AcDbPolyline
 62
253
  6
CONTINUOUS
 90
19
 70
0
 10
-21.8881448223
 20
2.7969893014
 10
-21.8853726202
 20
2.7237674901
 10
-21.877404305
 20
2.6489995716
 10
-21.8642398767
 20
2.5726855459
 10
-21.8456976979
 20
2.4941681706
 10
-21.821959406
 20
2.414104688
 10
-21.7935699138
 20
2.3344668259
 10
-21.7604268409
 20
2.255322775
 10
-21.7226325677
 20
2.1766043444
 10
-21.6810391478
 20
2.1000786891
 10
-21.635562134
 20
2.0257939266
 10
-21.5862859735
 20
1.9537019393
 10
-21.5343160612
 20
1.885425529
 10
-21.4795431047
 20
1.8210202725
 10
-21.4220763965
 20
1.760430593
 10
-21.3633492088
 20
1.7051125619
 10
-21.303839299
 20
1.6555515365
 10
-21.2430689098
 20
1.6112621597
 10
-21.1810380411
 20
1.5722444313
  0
LWPOLYLINE
  5
213
100
AcDbEntity
  8
RACCORDO
100
AcDbPolyline
 62
253
  6
CONTINUOUS
 90
11
 70
0
 10
-21.1810380411
 20
1.5722444313
 10
-21.1780722202
 20
1.4824345089
 10
-21.1691913433
 20
1.3965516956
 10
-21.1544450762
 20
1.3150762832
 10
-21.1339158857
 20
1.238463915
 10
-21.1077185795
 20
1.1671430386
 10
-21.0759996635
 20
1.1015125092
 10
-21.0389365229
 20
1.0419393594
 10
-20.9967364296
 20
0.9887567463
 10
-20.9496353838
 20
0.9422620888
 10
-20.8983418337
 20
0.9030555727
  0
LWPOLYLINE
  5
214
100
AcDbEntity
  8
ASSI
100
AcDbPolyline
 62
7
  6
CONTINUOUS
 90
37
 70
0
 10
-21.6053021098
 20
6.716030848
 10
-21.5996585123
 20
6.5191812663
 10
-21.5833542821
 20
6.318624869
 10
-21.5563894191
 20
6.1143616563
 10
-21.5185577448
 20
5.9054877811
 10
-21.4700654378
 20
5.6929070904
 10
-21.4115310343
 20
5.479331125
 10
-21.3428258971
 20
5.2647471356
 10
-21.2640786635
 20
5.0491678715
 10
-21.1762937819
 20
4.8353431213
 10
-21.0793554817
 20
4.6232953601
 10
-20.9733795336
 20
4.4130021128
 10
-20.8597176976
 20
4.2071457431
 10
-20.7382715189
 20
4.0057830866
 10
-20.6091394525
 20
3.8088573077
 10
-20.4739686227
 20
3.6188802633
 10
-20.3326816741
 20
3.4359409655
 10
-20.1853559622
 20
3.2599504022
 10
-20.0338706778
 20
3.0931533944
 10
-19.8781725376
 20
2.9356677099
 10
-19.7183148248
 20
2.7873755808
 10
-19.5563365803
 20
2.6501685251
 10
-19.3922106405
 20
2.5241885404
 10
-19.225964169
 20
2.4092936291
 10
-19.0597176976
 20
2.3069493156
 10
-18.8934712261
 20
2.2173163709
 10
-18.7272247546
 20
2.1402340242
 10
-18.5630988149
 20
2.0766854876
 10
-18.4011205704
 20
2.0268441267
 10
-18.2412628576
 20
1.9905365759
 10
-18.0855647173
 20
1.9682259508
 10
-17.9340794329
 20
1.9600915492
 10
-17.786753721
 20
1.9659540733
 10
-17.6454667725
 20
1.9857387444
 10
-17.5102959427
 20
2.0196239027
 10
-17.3811638762
 20
2.0674312081
 10
-17.2596307211
 20
2.1286010761
  0
LINE
  5
215
100
AcDbEntity
  8
RACCORDO
100
AcDbLine
 62
7
  6
CONTINUOUS
 10
-22.3274846505
 20
12.3905742361
 11
-22.3274846505
 21
3.4094011914
  0
LINE
  5
216
100
AcDbEntity
  8
RACCORDO
100
AcDbLine
 62
253
  6
CONTINUOUS
 10
-21.8881448223
 20
11.7781623461
 11
-21.8881448223
 21
2.7969893014
  0
LWPOLYLINE
  5
217
100
AcDbEntity
  8
RACCORDO
100
AcDbPolyline
 62
253
  6
CONTINUOUS
 90
22
 70
0
 10
-21.1810380411
 20
12.1863580296
 10
-21.1780722202
 20
12.2795928077
 10
-21.1691913434
 20
12.3757310349
 10
-21.1544450762
 20
12.4742350671
 10
-21.1339158857
 20
12.5745540298
 10
-21.1077185795
 20
12.6761268987
 10
-21.0759996636
 20
12.7783856372
 10
-21.0389365229
 20
12.8807583728
 10
-20.9967364297
 20
12.9826725958
 10
-20.9496353839
 20
13.0835583604
 10
-20.8978967937
 20
13.1828514725
 10
-20.8418100023
 20
13.2799966447
 10
-20.7816886697
 20
13.3744506019
 10
-20.7178690189
 20
13.4656851193
 10
-20.6507079553
 20
13.5531899763
 10
-20.5805810706
 20
13.6364758103
 10
-20.507880543
 20
13.7150768532
 10
-20.4330129433
 20
13.788553536
 10
-20.3563969614
 20
13.8564949473
 10
-20.278461065
 20
13.9185211312
 10
-20.1996411032
 20
13.9742852122
 10
-20.1203778693
 20
14.0234753348
  0
LWPOLYLINE
  5
218
100
AcDbEntity
  8
RACCORDO
100
AcDbPolyline
 62
7
  6
CONTINUOUS
 90
16
 70
0
 10
-22.3274846505
 20
12.3905742361
 10
-22.3222218139
 20
12.5496722906
 10
-22.3067518886
 20
12.7036689316
 10
-22.281582435
 20
12.8521131109
 10
-22.2473644992
 20
12.9942316292
 10
-22.2046003245
 20
13.1301412466
 10
-22.1534319843
 20
13.2605784752
 10
-22.0943285683
 20
13.3850527004
 10
-22.0277867247
 20
13.5031731339
 10
-21.9537083665
 20
13.6154809105
 10
-21.8724919513
 20
13.7215152158
 10
-21.7846631598
 20
13.8207622544
 10
-21.6901086699
 20
13.9134111149
 10
-21.589080809
 20
13.9991287845
 10
-21.4823263972
 20
14.0772362834
 10
-21.3704382697
 20
14.147328279
  0
LINE
  5
219
100
AcDbEntity
  8
RACCORDO
100
AcDbLine
 62
7
  6
CONTINUOUS
 10
-21.3704382697
 20
14.147328279
 11
-13.9458170672
 21
18.4342115089
  0
LINE
  5
21A
100
AcDbEntity
  8
RACCORDO
100
AcDbLine
 62
253
  6
CONTINUOUS
 10
-20.1203778693
 20
14.0234753348
 11
-12.6957566669
 21
18.3103585647
  0
LWPOLYLINE
  5
21B
100
AcDbEntity
  8
RACCORDO
100
AcDbPolyline
 62
7
  6
CONTINUOUS
 90
13
 70
0
 10
-13.9458170672
 20
18.4342115088
 10
-13.8614190428
 20
18.4766905838
 10
-13.7717439967
 20
18.5098901014
 10
-13.6778753649
 20
18.5334214614
 10
-13.5797594284
 20
18.5471608163
 10
-13.4774499062
 20
18.5512320136
 10
-13.3722517921
 20
18.5455831236
 10
-13.2641280835
 20
18.5300896339
 10
-13.153115783
 20
18.504876057
 10
-13.040630891
 20
18.4702640009
 10
-12.9271454077
 20
18.4263606681
 10
-12.812187333
 20
18.373058856
 10
-12.6957566669
 20
18.3103585647
  0
LWPOLYLINE
  5
21C
100
AcDbEntity
  8
SMUSSO
100
AcDbPolyline
 62
7
  6
CONTINUOUS
 90
7
 70
0
 10
-20.1984162746
 20
7.5283490969
 10
-20.1929659729
 20
7.7174412974
 10
-20.1766384158
 20
7.8994298309
 10
-20.1495035335
 20
8.0735354027
 10
-20.1116775451
 20
8.2390124378
 10
-20.0633224348
 20
8.3951523919
 10
-20.0127005663
 20
8.5212251212
  0
LWPOLYLINE
  5
21D
100
AcDbEntity
  8
SMUSSO
100
AcDbPolyline
 62
7
  6
CONTINUOUS
 90
4
 70
0
 10
-18.2465448992
 20
7.2263740897
 10
-18.2428870612
 20
7.3371395446
 10
-18.2319339992
 20
7.4430616038
 10
-18.2159748322
 20
7.5312385613
  0
LWPOLYLINE
  5
21E
100
AcDbEntity
  8
ASSI
100
AcDbPolyline
 62
7
  6
CONTINUOUS
 90
13
 70
0
 10
-20.859804674
 20
8.3638835481
 10
-20.9733795336
 20
8.289331232
 10
-21.0793554817
 20
8.2014163532
 10
-21.1762937819
 20
8.1013105112
 10
-21.2640786635
 20
7.9888575419
 10
-21.3428258971
 20
7.8642136093
 10
-21.4115310343
 20
7.7289685902
 10
-21.4700654378
 20
7.5829866866
 10
-21.5185577448
 20
7.4264036966
 10
-21.5563894191
 20
7.2612168906
 10
-21.5833542821
 20
7.0880920257
 10
-21.5996585123
 20
6.9063633448
 10
-21.6053021098
 20
6.716030848
  0
LWPOLYLINE
  5
21F
100
AcDbEntity
  8
ASSI
100
AcDbPolyline
 62
7
  6
CONTINUOUS
 90
37
 70
0
 10
-16.5141332853
 20
3.7764537761
 10
-16.5197768828
 20
3.9733033578
 10
-16.5360811131
 20
4.1738597551
 10
-16.563045976
 20
4.3781229678
 10
-16.6008776503
 20
4.586996843
 10
-16.6493699574
 20
4.7995775338
 10
-16.7079043608
 20
5.0131534992
 10
-16.776609498
 20
5.2277374886
 10
-16.8553567316
 20
5.4433167527
 10
-16.9431416132
 20
5.6571415028
 10
-17.0400799134
 20
5.8691892641
 10
-17.1460558616
 20
6.0794825114
 10
-17.2597176976
 20
6.2853388811
 10
-17.3811638762
 20
6.4867015376
 10
-17.5102959427
 20
6.6836273165
 10
-17.6454667725
 20
6.8736043608
 10
-17.786753721
 20
7.0565436587
 10
-17.9340794329
 20
7.232534222
 10
-18.0855647173
 20
7.3993312297
 10
-18.2412628576
 20
7.5568169143
 10
-18.4011205704
 20
7.7051090433
 10
-18.5630988149
 20
7.842316099
 10
-18.7272247546
 20
7.9682960837
 10
-18.8934712261
 20
8.0831909951
 10
-19.0597176976
 20
8.1855353085
 10
-19.225964169
 20
8.2751682532
 10
-19.3922106405
 20
8.3522506
 10
-19.5563365803
 20
8.4157991366
 10
-19.7183148248
 20
8.4656404974
 10
-19.8781725376
 20
8.5019480482
 10
-20.0338706778
 20
8.5242586733
 10
-20.1853559622
 20
8.5323930749
 10
-20.3326816741
 20
8.5265305508
 10
-20.4739686227
 20
8.5067458797
 10
-20.6091394525
 20
8.4728607214
 10
-20.7382715189
 20
8.425053416
 10
-20.859804674
 20
8.3638835481
  0
LWPOLYLINE
  5
220
100
AcDbEntity
  8
ASSI
100
AcDbPolyline
 62
7
  6
CONTINUOUS
 90
12
 70
0
 10
0.0321653945
 20
16.4723337961
 10
-0.0831622408
 20
16.4003702714
 10
-0.1878753043
 20
16.3245558161
 10
-0.2819737961
 20
16.2448904305
 10
-0.3658637132
 20
16.1608873412
 10
-0.4391390586
 20
16.0730333215
 10
-0.5005818411
 20
15.9827886909
 10
-0.5499942826
 20
15.8901134909
 10
-0.5875741613
 20
15.79504768
 10
-0.6126968201
 20
15.699171453
 10
-0.62515404
 20
15.6024712638
 10
-0.6267111925
 20
15.5537159611
  0
LWPOLYLINE
  5
221
100
AcDbEntity
  8
SMUSSO
100
AcDbPolyline
 62
7
  6
CONTINUOUS
 90
31
 70
0
 10
12.2915144848
 20
-13.9556888933
 10
12.1567974697
 20
-13.9364509064
 10
11.9973918881
 20
-13.9002460459
 10
11.8351650356
 20
-13.8502545853
 10
11.6708115971
 20
-13.7866905999
 10
11.5050353556
 20
-13.7098262811
 10
11.3385461817
 20
-13.6199907708
 10
11.1720570074
 20
-13.5175687584
 10
11.006280765
 20
-13.4029988304
 10
10.8419273255
 20
-13.2767715862
 10
10.6797004716
 20
-13.1394275449
 10
10.5202948884
 20
-12.9915548361
 10
10.3643931795
 20
-12.8337866762
 10
10.2126629353
 20
-12.6667986463
 10
10.0657538942
 20
-12.4913058195
 10
9.9242951613
 20
-12.3080597065
 10
9.7888924924
 20
-12.1178450112
 10
9.6601256903
 20
-11.9214762514
 10
9.5385461425
 20
-11.7197942932
 10
9.4246744733
 20
-11.5136627749
 10
9.318998295
 20
-11.3039643781
 10
9.2219701138
 20
-11.0915970297
 10
9.134005406
 20
-10.8774700746
 10
9.0554808747
 20
-10.66250048
 10
8.986732807
 20
-10.4476088766
 10
8.9280556047
 20
-10.2337155478
 10
8.8797004934
 20
-10.0217363293
 10
8.8418745024
 20
-9.8125787895
 10
8.8147396168
 20
-9.6071385256
 10
8.7984120569
 20
-9.4062953226
 10
8.7929617541
 20
-9.2109092295
  0
LWPOLYLINE
  5
222
100
AcDbEntity
  8
ASSI
100
AcDbPolyline
 62
7
  6
CONTINUOUS
 90
13
 70
0
 10
-17.2596307211
 20
2.1286010761
 10
-17.1460558616
 20
2.2031533922
 10
-17.0400799134
 20
2.2910682709
 10
-16.9431416132
 20
2.3911741129
 10
-16.8553567316
 20
2.5036270822
 10
-16.776609498
 20
2.6282710148
 10
-16.7079043608
 20
2.7635160339
 10
-16.6493699574
 20
2.9094979375
 10
-16.6008776503
 20
3.0660809275
 10
-16.563045976
 20
3.2312677335
 10
-16.5360811131
 20
3.4043925985
 10
-16.5197768828
 20
3.5861212793
 10
-16.5141332853
 20
3.7764537761
  0
LWPOLYLINE
  5
223
100
AcDbEntity
  8
ASSI
100
AcDbPolyline
 62
7
  6
CONTINUOUS
 90
12
 70
0
 10
3.2141459098
 20
14.6350981261
 10
3.3294735451
 20
14.7070616509
 10
3.4341866086
 20
14.7828761061
 10
3.5282851004
 20
14.8625414918
 10
3.6121750175
 20
14.946544581
 10
3.6854503629
 20
15.0343986007
 10
3.7468931453
 20
15.1246432314
 10
3.7963055869
 20
15.2173184313
 10
3.8338854656
 20
15.3123842422
 10
3.8590081244
 20
15.4082604693
 10
3.8714653443
 20
15.5049606585
 10
3.8730224968
 20
15.5537159611
  0
LWPOLYLINE
  5
224
100
AcDbEntity
  8
RACCORDO
100
AcDbPolyline
 62
253
  6
CONTINUOUS
 90
19
 70
0
 10
12.0529806746
 20
-17.6166614551
 10
12.1150084313
 20
-17.6492745442
 10
12.1757768915
 20
-17.6751607701
 10
12.2352860553
 20
-17.6943201328
 10
12.2940143022
 20
-17.7068191124
 10
12.3514832528
 20
-17.7125912288
 10
12.4062577685
 20
-17.7114370418
 10
12.4582275972
 20
-17.7031746785
 10
12.5075029912
 20
-17.6879860117
 10
12.552979568
 20
-17.6662172201
 10
12.5945734275
 20
-17.6377223527
 10
12.6323684698
 20
-17.6026473604
 10
12.665512013
 20
-17.5617762745
 10
12.6939012732
 20
-17.5149235527
 10
12.7176390342
 20
-17.4622747372
 10
12.736180966
 20
-17.4051704856
 10
12.7493456252
 20
-17.3440576837
 10
12.7573144551
 20
-17.2784894457
 10
12.7600874558
 20
-17.2084657716
  0
LINE
  5
225
100
AcDbEntity
  8
RACCORDO
100
AcDbLine
 62
7
  6
CONTINUOUS
 10
-20.8704141096
 20
0.8856391396
 11
12.3636046062
 21
-18.3032667468
  0
LWPOLYLINE
  5
226
100
AcDbEntity
  8
RACCORDO
100
AcDbPolyline
 62
7
  6
CONTINUOUS
 90
19
 70
0
 10
-20.8704141096
 20
0.8856391396
 10
-21.0134564455
 20
0.9748439477
 10
-21.1505731168
 20
1.0734733981
 10
-21.2818203838
 20
1.1810847576
 10
-21.4081654937
 20
1.2982760235
 10
-21.5286926322
 20
1.4241817927
 10
-21.640918368
 20
1.5557643556
 10
-21.7444955216
 20
1.6917486256
 10
-21.8403559567
 20
1.8327024078
 10
-21.9281979534
 20
1.9777958518
 10
-22.0080948895
 20
2.1268901103
 10
-22.0799789457
 20
2.2798591028
 10
-22.1433690431
 20
2.4358206861
 10
-22.1983069649
 20
2.5953432162
 10
-22.2442628854
 20
2.7578639523
 10
-22.280322783
 20
2.9208315714
 10
-22.3062793576
 20
3.0833886085
 10
-22.3221140954
 20
3.2462971328
 10
-22.3274846505
 20
3.4094011914
  0
LWPOLYLINE
  5
227
100
AcDbEntity
  8
RACCORDO
100
AcDbPolyline
 62
253
  6
CONTINUOUS
 90
22
 70
0
 10
12.7600874558
 20
-17.2084657716
 10
12.8423165107
 20
-17.2525189416
 10
12.9300173493
 20
-17.2929008927
 10
13.0226995128
 20
-17.3293857927
 10
13.1198446852
 20
-17.3617696031
 10
13.2209095911
 20
-17.3898712206
 10
13.3253290347
 20
-17.4135334896
 10
13.43251906
 20
-17.432624081
 10
13.5418802169
 20
-17.4470362324
 10
13.6528009135
 20
-17.4566893454
 10
13.7646608362
 20
-17.4615294358
 10
13.876834419
 20
-17.4615294358
 10
13.9886943418
 20
-17.4566893454
 10
14.0996150384
 20
-17.4470362324
 10
14.2089761953
 20
-17.432624081
 10
14.3161662205
 20
-17.4135334896
 10
14.4205856641
 20
-17.3898712206
 10
14.52165057
 20
-17.3617696031
 10
14.6187957424
 20
-17.3293857927
 10
14.711477906
 20
-17.2929008927
 10
14.7991787445
 20
-17.2525189416
 10
14.8814077994
 20
-17.2084657716
  0
LINE
  5
228
100
AcDbEntity
  8
RACCORDO
100
AcDbLine
 62
253
  6
CONTINUOUS
 10
-21.1810380411
 20
1.5722444313
 11
12.0529806746
 21
-17.6166614551
  0
LWPOLYLINE
  5
229
100
AcDbEntity
  8
RACCORDO
100
AcDbPolyline
 62
253
  6
CONTINUOUS
 90
11
 70
0
 10
-21.8881448223
 20
2.7969893014
 10
-21.9644422352
 20
2.8444673271
 10
-22.0343813202
 20
2.8951046921
 10
-22.0975709494
 20
2.9486182118
 10
-22.1536577408
 20
3.0047086168
 10
-22.2023280343
 20
3.0630622269
 10
-22.243309646
 20
3.1233527049
 10
-22.27637339
 20
3.1852428821
 10
-22.3013343604
 20
3.2483866434
 10
-22.3180529654
 20
3.3124308635
 10
-22.3264357077
 20
3.3770173809
  0
LWPOLYLINE
  5
22A
100
AcDbEntity
  8
SMUSSO
100
AcDbPolyline
 62
7
  6
CONTINUOUS
 90
25
 70
0
 10
12.3324155151
 20
-11.9046801893
 10
12.2479497844
 20
-11.8743642935
 10
12.1507385807
 20
-11.8308828629
 10
12.052980676
 20
-11.7786622472
 10
11.955222771
 20
-11.7179944849
 10
11.8580115668
 20
-11.6492188541
 10
11.7618906825
 20
-11.5727199548
 10
11.6673976545
 20
-11.4889255832
 10
11.5750609387
 20
-11.3983043544
 10
11.4853969305
 20
-11.3013630643
 10
11.3989070689
 20
-11.1986438452
 10
11.3160750422
 20
-11.0907211427
 10
11.2373640909
 20
-10.9781985142
 10
11.1632143997
 20
-10.8617052322
 10
11.094040645
 20
-10.7418927745
 10
11.0302296821
 20
-10.6194311939
 10
10.9721383672
 20
-10.4950053464
 10
10.9200915701
 20
-10.3693110729
 10
10.8743803614
 20
-10.2430513209
 10
10.8352603739
 20
-10.1169321864
 10
10.8029503794
 20
-9.991658979
 10
10.7776310677
 20
-9.8679322906
 10
10.7594440297
 20
-9.7464440538
 10
10.7484909675
 20
-9.6278736725
 10
10.7448331294
 20
-9.5128842367
  0
LWPOLYLINE
  5
22B
100
AcDbEntity
  8
ASSI
100
AcDbPolyline
 62
7
  6
CONTINUOUS
 90
13
 70
0
 10
3.2141459098
 20
6.4703953582
 10
3.3219822319
 20
6.5373145511
 10
3.420655072
 20
6.6076696814
 10
3.51016443
 20
6.6814607492
 10
3.590855974
 20
6.7590794608
 10
3.6623840359
 20
6.8401341099
 10
3.7237116118
 20
6.9234495772
 10
3.7746900981
 20
7.0090587989
 10
3.8154680983
 20
7.0969288389
 10
3.8454544185
 20
7.1857857693
 10
3.8644918426
 20
7.2756439673
 10
3.8727375868
 20
7.3664890558
 10
3.8730986287
 20
7.3890132144
  0
LWPOLYLINE
  5
22C
100
AcDbEntity
  8
ASSI
100
AcDbPolyline
 62
7
  6
CONTINUOUS
 90
35
 70
0
 10
-0.6267873244
 20
7.389013172
 10
-0.6237608011
 20
7.3210224115
 10
-0.6100251363
 20
7.2308424716
 10
-0.5853782458
 20
7.1409927009
 10
-0.550177457
 20
7.0527757292
 10
-0.5042690178
 20
6.9662153435
 10
-0.4478066801
 20
6.8812877568
 10
-0.3816090273
 20
6.7992242376
 10
-0.3055342326
 20
6.7200665104
 10
-0.2197241228
 20
6.6437728506
 10
-0.1254227611
 20
6.5714493535
 10
-0.0225064447
 20
6.5031538572
 10
0.0889011237
 20
6.4388285235
 10
0.2071847723
 20
6.3794059322
 10
0.3324446737
 20
6.3249575078
 10
0.4645806553
 20
6.2754118259
 10
0.6016770277
 20
6.2314871929
 10
0.7438060553
 20
6.1932654978
 10
0.8908954737
 20
6.1606648517
 10
1.0408128007
 20
6.1341578942
 10
1.1935992339
 20
6.1138333999
 10
1.3492135757
 20
6.0996025943
 10
1.5053997506
 20
6.0916717936
 10
1.6621660892
 20
6.090132778
 10
1.8195042609
 20
6.0948937673
 10
1.9751331985
 20
6.1058857375
 10
2.1290280012
 20
6.1231994629
 10
2.2812135698
 20
6.1467441692
 10
2.4294835386
 20
6.1761785083
 10
2.5737808642
 20
6.2115882819
 10
2.71416259
 20
6.2528876884
 10
2.8485934809
 20
6.2994779746
 10
2.9763951254
 20
6.3511595561
 10
3.098245935
 20
6.4081320173
 10
3.2141459098
 20
6.4703953582
  0
LWPOLYLINE
  5
22D
100
AcDbEntity
  8
ASSI
100
AcDbPolyline
 62
7
  6
CONTINUOUS
 90
33
 70
0
 10
-0.6267111925
 20
15.5537159611
 10
-0.62515404
 20
15.5049606585
 10
-0.6126968201
 20
15.4082604693
 10
-0.5875741613
 20
15.3123842422
 10
-0.5499942826
 20
15.2173184313
 10
-0.5005818411
 20
15.1246432314
 10
-0.4391390586
 20
15.0343986007
 10
-0.3658637132
 20
14.946544581
 10
-0.2819737961
 20
14.8625414918
 10
-0.1872918876
 20
14.7824537002
 10
-0.0819954074
 20
14.7062168391
 10
0.0321653945
 20
14.6350981261
 10
0.1553386827
 20
14.5691831099
 10
0.2873762926
 20
14.5083862419
 10
0.42608348
 20
14.4537180946
 10
0.571571725
 20
14.4052811078
 10
0.7237295475
 20
14.3629728418
 10
0.8800277627
 20
14.3274965492
 10
1.0405355764
 20
14.2989664248
 10
1.2051837829
 20
14.2772682738
 10
1.3712355809
 20
14.2627627655
 10
1.5387144312
 20
14.2555701228
 10
1.7075968731
 20
14.2555701228
 10
1.8750757234
 20
14.2627627655
 10
2.0411275214
 20
14.2772682738
 10
2.2057757279
 20
14.2989664248
 10
2.3662835415
 20
14.3274965492
 10
2.5225817568
 20
14.3629728418
 10
2.6747395793
 20
14.4052811078
 10
2.8202278243
 20
14.4537180946
 10
2.9582034303
 20
14.5080493844
 10
3.0895094588
 20
14.5685093949
 10
3.2141459098
 20
14.6350981261
  0
LINE
  5
22E
100
AcDbEntity
  8
ASSI
100
AcDbLine
 62
7
  6
CONTINUOUS
 10
-0.6268443479
 20
7.3890131932
 11
-0.6268443479
 21
15.5537159611
  0
LWPOLYLINE
  5
22F
100
AcDbEntity
  8
SMUSSO
100
AcDbPolyline
 62
7
  6
CONTINUOUS
 90
25
 70
0
 10
-16.6589625135
 20
4.8345781372
 10
-16.7434282443
 20
4.8648940329
 10
-16.8406394479
 20
4.9083754636
 10
-16.9383973526
 20
4.9605960792
 10
-17.0361552576
 20
5.0212638415
 10
-17.1333664618
 20
5.0900394723
 10
-17.2294873461
 20
5.1665383716
 10
-17.3239803742
 20
5.2503327433
 10
-17.4163170899
 20
5.340953972
 10
-17.5059810981
 20
5.4378952621
 10
-17.5924709597
 20
5.5406144812
 10
-17.6753029864
 20
5.6485371838
 10
-17.7540139378
 20
5.7610598122
 10
-17.8281636289
 20
5.8775530942
 10
-17.8973373836
 20
5.997365552
 10
-17.9611483466
 20
6.1198271325
 10
-18.0192396614
 20
6.24425298
 10
-18.0712864585
 20
6.3699472535
 10
-18.1169976672
 20
6.4962070055
 10
-18.1561176548
 20
6.6223261401
 10
-18.1884276493
 20
6.7475993474
 10
-18.2137469609
 20
6.8713260358
 10
-18.231933999
 20
6.9928142727
 10
-18.2428870611
 20
7.111384654
 10
-18.2465448992
 20
7.2263740897
  0
LWPOLYLINE
  5
230
100
AcDbEntity
  8
RACCORDO
100
AcDbPolyline
 62
253
  6
CONTINUOUS
 90
22
 70
0
 10
12.7600874558
 20
-8.2272927269
 10
12.8423165107
 20
-8.2713458969
 10
12.9300173492
 20
-8.311727848
 10
13.0226995128
 20
-8.348212748
 10
13.1198446852
 20
-8.3805965584
 10
13.2209095911
 20
-8.4086981759
 10
13.3253290346
 20
-8.4323604448
 10
13.4325190599
 20
-8.4514510362
 10
13.5418802168
 20
-8.4658631877
 10
13.6528009134
 20
-8.4755163007
 10
13.7646608361
 20
-8.4803563911
 10
13.876834419
 20
-8.4803563911
 10
13.9886943417
 20
-8.4755163007
 10
14.0996150383
 20
-8.4658631877
 10
14.2089761952
 20
-8.4514510362
 10
14.3161662205
 20
-8.4323604449
 10
14.4205856641
 20
-8.4086981759
 10
14.52165057
 20
-8.3805965584
 10
14.6187957424
 20
-8.348212748
 10
14.711477906
 20
-8.311727848
 10
14.7991787445
 20
-8.2713458969
 10
14.8814077994
 20
-8.2272927269
  0
LINE
  5
231
100
AcDbEntity
  8
RACCORDO
100
AcDbLine
 62
253
  6
CONTINUOUS
 10
12.0529806746
 20
-7.0025478568
 11
-21.1810380411
 21
12.1863580296
  0
LWPOLYLINE
  5
232
100
AcDbEntity
  8
RACCORDO
100
AcDbPolyline
 62
253
  6
CONTINUOUS
 90
12
 70
0
 10
-21.8881448223
 20
11.7781623461
 10
-21.9644422352
 20
11.8256403718
 10
-22.0343813202
 20
11.8762777369
 10
-22.0975709494
 20
11.9297912565
 10
-22.1536577408
 20
11.9858816616
 10
-22.2023280343
 20
12.0442352716
 10
-22.243309646
 20
12.1045257496
 10
-22.27637339
 20
12.1664159268
 10
-22.3013343604
 20
12.2295596882
 10
-22.3180529654
 20
12.2936039082
 10
-22.3264357077
 20
12.3581904257
 10
-22.3274846505
 20
12.3905742361
  0
LWPOLYLINE
  5
233
100
AcDbEntity
  8
SMUSSO
100
AcDbPolyline
 62
7
  6
CONTINUOUS
 90
31
 70
0
 10
-16.6998635439
 20
2.7835694331
 10
-16.8345805589
 20
2.80280742
 10
-16.9939861406
 20
2.8390122806
 10
-17.156212993
 20
2.8890037411
 10
-17.3205664315
 20
2.9525677266
 10
-17.4863426731
 20
3.0294320453
 10
-17.652831847
 20
3.1192675556
 10
-17.8193210212
 20
3.2216895681
 10
-17.9850972636
 20
3.336259496
 10
-18.1494507032
 20
3.4624867402
 10
-18.311677557
 20
3.5998307815
 10
-18.4710831403
 20
3.7477034903
 10
-18.6269848492
 20
3.9054716502
 10
-18.7787150933
 20
4.0724596801
 10
-18.9256241345
 20
4.2479525069
 10
-19.0670828673
 20
4.4311986199
 10
-19.2024855363
 20
4.6214133153
 10
-19.3312523383
 20
4.817782075
 10
-19.4528318862
 20
5.0194640332
 10
-19.5667035553
 20
5.2255955516
 10
-19.6723797337
 20
5.4352939484
 10
-19.7694079148
 20
5.6476612968
 10
-19.8573726226
 20
5.8617882519
 10
-19.935897154
 20
6.0767578464
 10
-20.0046452217
 20
6.2916494499
 10
-20.0633224239
 20
6.5055427786
 10
-20.1116775353
 20
6.7175219971
 10
-20.1495035262
 20
6.926679537
 10
-20.1766384119
 20
7.1321198009
 10
-20.1929659718
 20
7.3329630038
 10
-20.1984162746
 20
7.5283490969
  0
LWPOLYLINE
  5
234
100
AcDbEntity
  8
RACCORDO
100
AcDbPolyline
 62
253
  6
CONTINUOUS
 90
19
 70
0
 10
-21.1810380411
 20
12.1863580296
 10
-21.2430657977
 20
12.2189711187
 10
-21.303834258
 20
12.2448573446
 10
-21.3633434218
 20
12.2640167073
 10
-21.4220716687
 20
12.2765156869
 10
-21.4795406193
 20
12.2822878033
 10
-21.5343151349
 20
12.2811336163
 10
-21.5862849637
 20
12.2728712529
 10
-21.6355603577
 20
12.2576825862
 10
-21.6810369344
 20
12.2359137946
 10
-21.7226307939
 20
12.2074189272
 10
-21.7604258363
 20
12.1723439349
 10
-21.7935693795
 20
12.131472849
 10
-21.8219586397
 20
12.0846201272
 10
-21.8456964007
 20
12.0319713117
 10
-21.8642383325
 20
11.97486706
 10
-21.8774029917
 20
11.9137542582
 10
-21.8853718216
 20
11.8481860202
 10
-21.8881448223
 20
11.7781623461
  0
LINE
  5
235
100
AcDbEntity
  8
RACCORDO
100
AcDbLine
 62
253
  6
CONTINUOUS
 10
13.1136408464
 20
-5.1654305516
 11
-20.1203778693
 21
14.0234753348
  0
LINE
  5
236
100
AcDbEntity
  8
ASSI
100
AcDbLine
 62
7
  6
CONTINUOUS
 10
3.8731556521
 20
7.3890131932
 11
3.8731556521
 21
15.5537159611
  0
LWPOLYLINE
  5
237
100
AcDbEntity
  8
RACCORDO
100
AcDbPolyline
 62
253
  6
CONTINUOUS
 90
13
 70
0
 10
-20.1203778693
 20
14.0234753348
 10
-20.2359953554
 20
14.0858611087
 10
-20.3511177499
 20
14.1392391102
 10
-20.4652520809
 20
14.1833807666
 10
-20.5779096066
 20
14.218097056
 10
-20.6886079115
 20
14.2432393185
 10
-20.7968729719
 20
14.2586998914
 10
-20.902241183
 20
14.2644125693
 10
-21.0042613384
 20
14.260352888
 10
-21.1024965664
 20
14.2465382316
 10
-21.1965262066
 20
14.2230277581
 10
-21.2859476124
 20
14.1899221432
 10
-21.3704382697
 20
14.147328279
  0
LWPOLYLINE
  5
238
100
AcDbEntity
  8
ASSI
100
AcDbPolyline
 62
7
  6
CONTINUOUS
 90
33
 70
0
 10
3.8730224968
 20
15.5537159611
 10
3.8714653443
 20
15.6024712638
 10
3.8590081244
 20
15.699171453
 10
3.8338854656
 20
15.79504768
 10
3.7963055869
 20
15.8901134909
 10
3.7468931453
 20
15.9827886909
 10
3.6854503629
 20
16.0730333215
 10
3.6121750175
 20
16.1608873412
 10
3.5282851004
 20
16.2448904305
 10
3.4336031919
 20
16.3249782221
 10
3.3283067117
 20
16.4012150832
 10
3.2141459098
 20
16.4723337961
 10
3.0909726216
 20
16.5382488124
 10
2.9589350117
 20
16.5990456804
 10
2.8202278243
 20
16.6537138277
 10
2.6747395793
 20
16.7021508144
 10
2.5225817568
 20
16.7444590805
 10
2.3662835415
 20
16.779935373
 10
2.2057757279
 20
16.8084654975
 10
2.0411275214
 20
16.8301636485
 10
1.8750757234
 20
16.8446691568
 10
1.7075968731
 20
16.8518617994
 10
1.5387144312
 20
16.8518617994
 10
1.3712355809
 20
16.8446691568
 10
1.2051837829
 20
16.8301636485
 10
1.0405355764
 20
16.8084654975
 10
0.8800277627
 20
16.779935373
 10
0.7237295475
 20
16.7444590805
 10
0.571571725
 20
16.7021508144
 10
0.42608348
 20
16.6537138277
 10
0.288107874
 20
16.5993825379
 10
0.1568018455
 20
16.5389225273
 10
0.0321653945
 20
16.4723337961
  0
LWPOLYLINE
  5
239
100
AcDbEntity
  8
ASSI
100
AcDbPolyline
 62
7
  6
CONTINUOUS
 90
37
 70
0
 10
7.3860759188
 20
-10.0232274784
 10
7.3917195164
 20
-10.2200770601
 10
7.4080237466
 20
-10.4206334574
 10
7.4349886095
 20
-10.6248966702
 10
7.4728202839
 20
-10.8337705454
 10
7.5213125909
 20
-11.0463512361
 10
7.5798469943
 20
-11.2599272015
 10
7.6485521315
 20
-11.4745111909
 10
7.7272993651
 20
-11.690090455
 10
7.8150842467
 20
-11.9039152051
 10
7.9120225469
 20
-12.1159629664
 10
8.0179984951
 20
-12.3262562137
 10
8.1316603311
 20
-12.5321125834
 10
8.2531065097
 20
-12.7334752399
 10
8.3822385762
 20
-12.9304010188
 10
8.517409406
 20
-13.1203780632
 10
8.6586963545
 20
-13.303317361
 10
8.8060220664
 20
-13.4793079243
 10
8.9575073508
 20
-13.646104932
 10
9.1132054911
 20
-13.8035906166
 10
9.2730632039
 20
-13.9518827456
 10
9.4350414484
 20
-14.0890898013
 10
9.5991673882
 20
-14.215069786
 10
9.7654138596
 20
-14.3299646974
 10
9.9316603311
 20
-14.4323090108
 10
10.0979068025
 20
-14.5219419555
 10
10.264153274
 20
-14.5990243023
 10
10.4282792138
 20
-14.6625728389
 10
10.5902574583
 20
-14.7124141998
 10
10.7501151711
 20
-14.7487217505
 10
10.9058133113
 20
-14.7710323756
 10
11.0572985957
 20
-14.7791667772
 10
11.2046243076
 20
-14.7733042531
 10
11.3459112562
 20
-14.753519582
 10
11.481082086
 20
-14.7196344237
 10
11.6102141525
 20
-14.6718271183
 10
11.7317473075
 20
-14.6106572504
  0
LWPOLYLINE
  5
23A
100
AcDbEntity
  8
SMUSSO
100
AcDbPolyline
 62
7
  6
CONTINUOUS
 90
7
 70
0
 10
8.7929617541
 20
-9.2109092295
 10
8.7984120557
 20
-9.021817029
 10
8.8147396128
 20
-8.8398284956
 10
8.8418744951
 20
-8.6657229237
 10
8.8797004835
 20
-8.5002458887
 10
8.9280555938
 20
-8.3441059345
 10
8.9786774624
 20
-8.2180332052
  0
LINE
  5
23B
100
AcDbEntity
  8
RACCORDO
100
AcDbLine
 62
7
  6
CONTINUOUS
 10
20.5382620489
 20
-0.8785473217
 11
3.8731556521
 21
8.743676249
  0
LINE
  5
23C
100
AcDbEntity
  8
RACCORDO
100
AcDbLine
 62
7
  6
CONTINUOUS
 10
-0.6268443479
 20
11.3419198507
 11
-12.6957566669
 21
18.3103585647
  0
LWPOLYLINE
  5
23D
100
AcDbEntity
  8
RACCORDO
100
AcDbPolyline
 62
253
  6
CONTINUOUS
 90
12
 70
0
 10
12.0529806746
 20
-17.6166614551
 10
12.0559464956
 20
-17.7064713775
 10
12.0648273724
 20
-17.7923541908
 10
12.0795736396
 20
-17.8738296032
 10
12.1001028301
 20
-17.9504419714
 10
12.1263001363
 20
-18.0217628478
 10
12.1580190522
 20
-18.0873933772
 10
12.1950821929
 20
-18.146966527
 10
12.2372822861
 20
-18.2001491401
 10
12.2843833319
 20
-18.2466437976
 10
12.3361219221
 20
-18.2861904826
 10
12.3636046062
 20
-18.3032667468
  0
LWPOLYLINE
  5
23E
100
AcDbEntity
  8
SMUSSO
100
AcDbPolyline
 62
7
  6
CONTINUOUS
 90
4
 70
0
 10
10.7448331294
 20
-9.5128842367
 10
10.7484909675
 20
-9.4021187818
 10
10.7594440294
 20
-9.2961967227
 10
10.7754031965
 20
-9.2080197652
  0
LWPOLYLINE
  5
23F
100
AcDbEntity
  8
ASSI
100
AcDbPolyline
 62
7
  6
CONTINUOUS
 90
13
 70
0
 10
8.1315733546
 20
-8.3753747784
 10
8.0179984951
 20
-8.4499270945
 10
7.9120225469
 20
-8.5378419732
 10
7.8150842467
 20
-8.6379478152
 10
7.7272993651
 20
-8.7504007845
 10
7.6485521315
 20
-8.8750447171
 10
7.5798469943
 20
-9.0102897363
 10
7.5213125909
 20
-9.1562716398
 10
7.4728202839
 20
-9.3128546299
 10
7.4349886095
 20
-9.4780414358
 10
7.4080237466
 20
-9.6511663008
 10
7.3917195164
 20
-9.8328949816
 10
7.3860759188
 20
-10.0232274784
  0
LINE
  5
240
100
AcDbEntity
  8
RACCORDO
100
AcDbLine
 62
253
  6
CONTINUOUS
 10
13.1136408464
 20
-5.1654305516
 11
20.5382620489
 21
-0.8785473217
  0
LWPOLYLINE
  5
241
100
AcDbEntity
  8
RACCORDO
100
AcDbPolyline
 62
7
  6
CONTINUOUS
 90
25
 70
0
 10
20.5382620489
 20
-0.8785473217
 10
20.654692715
 20
-0.9502982452
 10
20.7696507897
 20
-1.0297471363
 10
20.883136273
 20
-1.116893995
 10
20.995621165
 20
-1.2121766725
 10
21.1066334655
 20
-1.3151573177
 10
21.2147571741
 20
-1.4245223764
 10
21.3199552882
 20
-1.5403536318
 10
21.4222648104
 20
-1.6625693007
 10
21.5203807469
 20
-1.7896104798
 10
21.6142493787
 20
-1.9215389828
 10
21.7039244248
 20
-2.058292996
 10
21.7882620489
 20
-2.1981281741
 10
21.8671938794
 20
-2.3410839864
 10
21.9407882879
 20
-2.4871209637
 10
22.0081065519
 20
-2.6343763534
 10
22.0690682752
 20
-2.7828657632
 10
22.1237538541
 20
-2.9325735855
 10
22.171465755
 20
-3.0815902448
 10
22.2121146462
 20
-3.2299068875
 10
22.2457898595
 20
-3.3775323671
 10
22.2720618555
 20
-3.5225836694
 10
22.2907874548
 20
-3.6644331227
 10
22.3021098369
 20
-3.8037083985
 10
22.3060290018
 20
-3.940409497
  0
LWPOLYLINE
  5
242
100
AcDbEntity
  8
RACCORDO
100
AcDbPolyline
 62
253
  6
CONTINUOUS
 90
19
 70
0
 10
12.7600874558
 20
-8.2272927269
 10
12.7573152537
 20
-8.1540709156
 10
12.7493469385
 20
-8.0793029971
 10
12.7361825103
 20
-8.0029889714
 10
12.7176403314
 20
-7.9244715961
 10
12.6939020395
 20
-7.8444081136
 10
12.6655125473
 20
-7.7647702514
 10
12.6323694744
 20
-7.6856262005
 10
12.5945752012
 20
-7.6069077699
 10
12.5529817813
 20
-7.5303821146
 10
12.5075047676
 20
-7.4560973521
 10
12.458228607
 20
-7.3840053648
 10
12.4062586948
 20
-7.3157289546
 10
12.3514857383
 20
-7.251323698
 10
12.29401903
 20
-7.1907340185
 10
12.2352918423
 20
-7.1354159874
 10
12.1757819325
 20
-7.085854962
 10
12.1150115433
 20
-7.0415655852
 10
12.0529806746
 20
-7.0025478568
  0
LWPOLYLINE
  5
243
100
AcDbEntity
  8
ASSI
100
AcDbPolyline
 62
7
  6
CONTINUOUS
 90
37
 70
0
 10
12.4772447434
 20
-12.9628045504
 10
12.4716011458
 20
-12.7659549686
 10
12.4552969156
 20
-12.5653985713
 10
12.4283320527
 20
-12.3611353586
 10
12.3905003783
 20
-12.1522614834
 10
12.3420080713
 20
-11.9396807927
 10
12.2834736679
 20
-11.7261048273
 10
12.2147685307
 20
-11.5115208379
 10
12.136021297
 20
-11.2959415738
 10
12.0482364154
 20
-11.0821168236
 10
11.9512981153
 20
-10.8700690624
 10
11.8453221671
 20
-10.6597758151
 10
11.7316603311
 20
-10.4539194454
 10
11.6102141525
 20
-10.2525567889
 10
11.481082086
 20
-10.05563101
 10
11.3459112562
 20
-9.8656539656
 10
11.2046243076
 20
-9.6827146678
 10
11.0572985957
 20
-9.5067241045
 10
10.9058133113
 20
-9.3399270967
 10
10.7501151711
 20
-9.1824414122
 10
10.5902574583
 20
-9.0341492831
 10
10.4282792138
 20
-8.8969422274
 10
10.264153274
 20
-8.7709622427
 10
10.0979068025
 20
-8.6560673314
 10
9.9316603311
 20
-8.5537230179
 10
9.7654138596
 20
-8.4640900732
 10
9.5991673882
 20
-8.3870077265
 10
9.4350414484
 20
-8.3234591899
 10
9.2730632039
 20
-8.273617829
 10
9.1132054911
 20
-8.2373102782
 10
8.9575073508
 20
-8.2149996531
 10
8.8060220664
 20
-8.2068652516
 10
8.6586963545
 20
-8.2127277756
 10
8.517409406
 20
-8.2325124467
 10
8.3822385762
 20
-8.266397605
 10
8.2531065097
 20
-8.3142049104
 10
8.1315733546
 20
-8.3753747784
  0
LINE
  5
244
100
AcDbEntity
  8
RACCORDO
100
AcDbLine
 62
253
  6
CONTINUOUS
 10
12.7600874558
 20
-17.2084657716
 11
12.7600874558
 21
-8.2272927269
  0
LWPOLYLINE
  5
245
100
AcDbEntity
  8
RACCORDO
100
AcDbPolyline
 62
253
  6
CONTINUOUS
 90
22
 70
0
 10
12.0529806746
 20
-7.0025478568
 10
12.0559464956
 20
-6.9093130787
 10
12.0648273724
 20
-6.8131748515
 10
12.0795736396
 20
-6.7146708193
 10
12.1001028301
 20
-6.6143518566
 10
12.1263001363
 20
-6.5127789876
 10
12.1580190522
 20
-6.4105202492
 10
12.1950821929
 20
-6.3081475135
 10
12.2372822861
 20
-6.2062332906
 10
12.2843833319
 20
-6.105347526
 10
12.3361219221
 20
-6.0060544139
 10
12.3922087135
 20
-5.9089092416
 10
12.4523300461
 20
-5.8144552844
 10
12.5161496969
 20
-5.7232207671
 10
12.5833107605
 20
-5.6357159101
 10
12.6534376452
 20
-5.5524300761
 10
12.7261381728
 20
-5.4738290332
 10
12.8010057725
 20
-5.4003523504
 10
12.8776217544
 20
-5.3324109391
 10
12.9555576508
 20
-5.2703847551
 10
13.0343776125
 20
-5.2146206742
 10
13.1136408464
 20
-5.1654305516
  0
LWPOLYLINE
  5
246
100
AcDbEntity
  8
RACCORDO
100
AcDbPolyline
 62
253
  6
CONTINUOUS
 90
25
 70
0
 10
14.8814077994
 20
-8.2272927269
 10
14.8776228749
 20
-8.0916080865
 10
14.8662843092
 20
-7.9521337324
 10
14.8474406556
 20
-7.8094669152
 10
14.8211726058
 20
-7.6642185577
 10
14.7875926436
 20
-7.5170106341
 10
14.7468445619
 20
-7.3684735063
 10
14.6991028481
 20
-7.2192432287
 10
14.64457194
 20
-7.0699588326
 10
14.5834853501
 20
-6.9212595848
 10
14.5161046628
 20
-6.7737822422
 10
14.4427184115
 20
-6.6281583214
 10
14.3636408461
 20
-6.4850114034
 10
14.2792105887
 20
-6.3449544652
 10
14.1897891827
 20
-6.2085872522
 10
14.0957595424
 20
-6.076493707
 10
13.9975243142
 20
-5.9492394716
 10
13.8955041587
 20
-5.8273694721
 10
13.7901359477
 20
-5.711405581
 10
13.6818708875
 20
-5.6018443763
 10
13.571172583
 20
-5.4991550115
 10
13.4585150575
 20
-5.4037772144
 10
13.3443807267
 20
-5.3161194063
 10
13.2292583324
 20
-5.2365569525
 10
13.1136408464
 20
-5.1654305516
  0
LINE
  5
247
100
AcDbEntity
  8
RACCORDO
100
AcDbLine
 62
253
  6
CONTINUOUS
 10
14.8814077994
 20
-17.2084657716
 11
14.8814077994
 21
-8.2272927269
  0
LINE
  5
248
100
AcDbEntity
  8
RACCORDO
100
AcDbLine
 62
253
  6
CONTINUOUS
 10
14.8814077994
 20
-8.2272927269
 11
22.3060290018
 21
-3.940409497
  0
LWPOLYLINE
  5
249
100
AcDbEntity
  8
ASSI
100
AcDbPolyline
 62
7
  6
CONTINUOUS
 90
13
 70
0
 10
11.7317473075
 20
-14.6106572504
 10
11.8453221671
 20
-14.5361049343
 10
11.9512981153
 20
-14.4481900555
 10
12.0482364154
 20
-14.3480842135
 10
12.136021297
 20
-14.2356312442
 10
12.2147685307
 20
-14.1109873116
 10
12.2834736679
 20
-13.9757422925
 10
12.3420080713
 20
-13.8297603889
 10
12.3905003783
 20
-13.6731773989
 10
12.4283320527
 20
-13.5079905929
 10
12.4552969156
 20
-13.334865728
 10
12.4716011458
 20
-13.1531370471
 10
12.4772447434
 20
-12.9628045504
  0
LINE
  5
24A
100
AcDbEntity
  8
RACCORDO
100
AcDbLine
 62
7
  6
CONTINUOUS
 10
22.3060290018
 20
-12.9215825417
 11
22.3060290018
 21
-3.940409497
  0
LWPOLYLINE
  5
24B
100
AcDbEntity
  8
RACCORDO
100
AcDbPolyline
 62
7
  6
CONTINUOUS
 90
13
 70
0
 10
22.3060290018
 20
-12.9215825417
 10
22.3021098369
 20
-13.0537578867
 10
22.2907874548
 20
-13.1799583595
 10
22.2720618555
 20
-13.3001839602
 10
22.2457898595
 20
-13.4148970199
 10
22.2121146462
 20
-13.5236352074
 10
22.171465755
 20
-13.6250115293
 10
22.1237538541
 20
-13.7189316815
 10
22.0690682752
 20
-13.805489968
 10
22.0081065519
 20
-13.8835823078
 10
21.9407882879
 20
-13.9531002536
 10
21.8671938794
 20
-14.0141522528
 10
21.7883224492
 20
-14.0659246945
  0
LWPOLYLINE
  5
24C
100
AcDbEntity
  8
RACCORDO
100
AcDbPolyline
 62
253
  6
CONTINUOUS
 90
13
 70
0
 10
14.3637012468
 20
-18.3528079245
 10
14.4427184122
 20
-18.3010126677
 10
14.5161046635
 20
-18.2401333503
 10
14.5834853508
 20
-18.1704655361
 10
14.6445719407
 20
-18.092307551
 10
14.6991028488
 20
-18.0059940806
 10
14.7468445624
 20
-17.9118947373
 10
14.787592644
 20
-17.810412473
 10
14.821172606
 20
-17.7019818484
 10
14.8474406557
 20
-17.5870671766
 10
14.8662843092
 20
-17.4661605385
 10
14.8776228749
 20
-17.3397796761
 10
14.8814077994
 20
-17.2084657716
  0
LINE
  5
24D
100
AcDbEntity
  8
RACCORDO
100
AcDbLine
 62
253
  6
CONTINUOUS
 10
14.8814077994
 20
-17.2084657716
 11
22.3060290018
 21
-12.9215825417
  0
LINE
  5
24E
100
AcDbEntity
  8
RACCORDO
100
AcDbLine
 62
7
  6
CONTINUOUS
 10
14.3637012468
 20
-18.3528079245
 11
21.7883224492
 21
-14.0659246946
  0
LWPOLYLINE
  5
24F
100
AcDbEntity
  8
RACCORDO
100
AcDbPolyline
 62
7
  6
CONTINUOUS
 90
16
 70
0
 10
14.3637012468
 20
-18.3528079245
 10
14.2504673592
 20
-18.4130089085
 10
14.1322682835
 20
-18.4655741834
 10
14.0096341751
 20
-18.5100403773
 10
13.8833334512
 20
-18.5459547298
 10
13.7538118769
 20
-18.5730480736
 10
13.6211174625
 20
-18.5911124172
 10
13.4859061518
 20
-18.5998270823
 10
13.3488319473
 20
-18.5989482358
 10
13.2098353475
 20
-18.5882247883
 10
13.069465245
 20
-18.5673861253
 10
12.9284724861
 20
-18.5362535266
 10
12.7869067177
 20
-18.4945150192
 10
12.6450930267
 20
-18.4418590706
 10
12.5037942095
 20
-18.3781528343
 10
12.3636046062
 20
-18.3032667468
  0
ENDSEC
  0
SECTION
  2
OBJECTS
  0
DICTIONARY
  5
C
100
AcDbDictionary
280
0
281
1
  3
ACAD_GROUP
350
D
  3
ACAD_MLINESTYLE
350
17
  3
ACAD_LAYOUT
350
1A
  3
ACAD_PLOTSETTINGS
350
19
  3
ACAD_PLOTSTYLENAME
350
E
  0
DICTIONARY
  5
D
102
{ACAD_REACTORS
330
C
102
}
100
AcDbDictionary
280
0
281
1
  0
ACDBDICTIONARYWDFLT
  5
E
102
{ACAD_REACTORS
330
C
102
}
100
AcDbDictionary
281
1
  3
Normal
350
F
100
AcDbDictionaryWithDefault
340
F
  0
DICTIONARY
  5
17
102
{ACAD_REACTORS
330
C
102
}
100
AcDbDictionary
280
0
281
1
  3
Standard
350
18
  0
DICTIONARY
  5
19
102
{ACAD_REACTORS
330
C
102
}
100
AcDbDictionary
281
1
  0
DICTIONARY
  5
1A
102
{ACAD_REACTORS
330
C
102
}
100
AcDbDictionary
281
1
  3
Model
350
250
  3
Layout1
350
251
  0
ACDBPLACEHOLDER
  5
F
102
{ACAD_REACTORS
330
E
102
}
  0
MLINESTYLE
  5
18
102
{ACAD_REACTORS
330
17
102
}
100
AcDbMlineStyle
  2
STANDARD
 70
0
  3

 62
256
 51
90.0
 52
90.0
 71
2
 49
0.5
 62
256
  6
BYLAYER
 49
-0.5
 62
256
  6
BYLAYER
  0
LAYOUT
  5
250
102
{ACAD_REACTORS
330
1A
102
}
100
AcDbPlotSettings
  1

  2
none_device
  4
ISO_A4_(297.00_x_210.00_MM)
  6

 40
0.0
 41
0.0
 42
0.0
 43
0.0
 44
297.0
 45
210.0
 46
0.0
 47
0.0
 48
0.0
 49
0.0
140
0.0
141
0.0
142
1.0
143
1.0
 70
1024
 72
1
 73
0
 74
0
  7

 75
0
147
1.0
148
0.0
149
0.0
100
AcDbLayout
  1
Model
 70
0
 71
0
 10
0.0
 20
0.0
 11
297.0
 21
210.0
 12
0.0
 22
0.0
 32
0.0
 14
0.0
 24
0.0
 34
0.0
 15
0.0
 25
0.0
 35
0.0
146
0.0
 13
0.0
 23
0.0
 33
0.0
 16
1.0
 26
0.0
 36
0.0
 17
0.0
 27
1.0
 37
0.0
 76
0
330
20F
345
0
346
0
  0
LAYOUT
  5
251
102
{ACAD_REACTORS
330
1A
102
}
100
AcDbPlotSettings
  1

  2
none_device
  4
ISO_A4_(297.00_x_210.00_MM)
  6

 40
0.0
 41
0.0
 42
0.0
 43
0.0
 44
297.0
 45
210.0
 46
0.0
 47
0.0
 48
0.0
 49
0.0
140
0.0
141
0.0
142
1.0
143
1.0
 70
0
 72
1
 73
0
 74
0
  7

 75
0
147
1.0
148
0.0
149
0.0
100
AcDbLayout
  1
Layout1
 70
0
 71
1
 10
0.0
 20
0.0
 11
297.0
 21
210.0
 12
0.0
 22
0.0
 32
0.0
 14
0.0
 24
0.0
 34
0.0
 15
0.0
 25
0.0
 35
0.0
146
0.0
 13
0.0
 23
0.0
 33
0.0
 16
1.0
 26
0.0
 36
0.0
 17
0.0
 27
1.0
 37
0.0
 76
0
330
210
345
0
346
0
  0
ENDSEC
  0
EOF
