  0
SECTION
  2
HEADER
  9
$ACADVER
  1
AC1021
  9
$DWGCODEPAGE
  3
ANSI_1252
  9
$EXTMAX
 10
297.0
 20
210.0
 30
0.0
  9
$EXTMIN
 10
0.0
 20
0.0
 30
0.0
  9
$LIMMIN
 10
0.0
 20
0.0
  9
$LIMMAX
 10
297.0
 20
210.0
  9
$VIEWCTR
 10
148.5
 20
105.0
  9
$VIEWSIZE
 40
210.0
  9
$CLAYER
  8
0
  9
$LTSCALE
 40
16.335
  9
$CELTYPE
  6
BYLAYER
  9
$DIMSCALE
 40
1.0
  9
$DIMASZ
 40
3.0
  9
$DIMEXO
 40
0.5
  9
$DIMDLI
 40
11.286
  9
$DIMEXE
 40
1.5
  9
$DIMCEN
 40
2.673
  9
$DIMLFAC
 40
1.0
  9
$DIMBLK
  1
_FILLED
  9
$DIMALT
 70
0
  9
$DIMALTF
 40
0.0393700787
  9
$DIMTXT
 40
3.0
  9
$DIMTOL
 70
1
  9
$DIMLIM
 70
0
  9
$DIMTFAC
 40
1.0
  9
$DIMTP
 40
0.01
  9
$DIMTM
 40
0.01
  9
$DIMGAP
 40
0.625
  9
$DIMDSEP
 70
44
  9
$AUNITS
 70
0
  9
$PDMODE
 70
3
  9
$PDSIZE
 40
3.0
  9
$HANDSEED
  5
316
  9
$TILEMODE
 70
1
  9
$MEASUREMENT
 70
1
  9
$INSUNITS
 70
4
  0
ENDSEC
  0
SECTION
  2
CLASSES
  0
CLASS
  1
ACDBDICTIONARYWDFLT
  2
AcDbDictionaryWithDefault
  3
AutoCAD 2000
 90
0
 91
1
280
0
281
0
  0
CLASS
  1
ACDBPLACEHOLDER
  2
AcDbPlaceHolder
  3
AutoCAD 2000
 90
0
 91
1
280
0
281
0
  0
CLASS
  1
LAYOUT
  2
AcDbLayout
  3
AutoCAD 2000
 90
0
 91
0
280
0
281
0
  0
ENDSEC
  0
SECTION
  2
TABLES
  0
TABLE
  2
VPORT
  5
8
100
AcDbSymbolTable
 70
2
  0
VPORT
  5
1F4
100
AcDbSymbolTableRecord
100
AcDbViewportTableRecord
  2
*ACTIVE
 70
0
 10
0.0
 20
0.0
 11
1.0
 21
1.0
 12
148.5
 22
105.0
 13
0.0
 23
0.0
 14
1.0
 24
1.0
 15
0.0
 25
0.0
 16
0.0
 26
0.0
 36
1.0
 17
0.0
 27
0.0
 37
0.0
 40
210.0
 41
1.4142857143
 42
50.0
 43
0.0
 44
0.0
 50
0.0
 51
0.0
 71
0
 72
100
 73
1
 74
1
 75
0
 76
0
 77
0
 78
0
  0
ENDTAB
  0
TABLE
  2
LTYPE
  5
5
100
AcDbSymbolTable
 70
6
  0
LTYPE
  5
14
100
AcDbSymbolTableRecord
100
AcDbLinetypeTableRecord
  2
BYBLOCK
 70
0
  3

 72
65
 73
0
 40
0.0
  0
LTYPE
  5
15
100
AcDbSymbolTableRecord
100
AcDbLinetypeTableRecord
  2
BYLAYER
 70
0
  3

 72
65
 73
0
 40
0.0
  0
LTYPE
  5
16
100
AcDbSymbolTableRecord
100
AcDbLinetypeTableRecord
  2
CONTINUOUS
 70
64
  3
Solid line
 72
65
 73
0
 40
0.0
  0
LTYPE
  5
1F5
100
AcDbSymbolTableRecord
100
AcDbLinetypeTableRecord
  2
CENTER
 70
64
  3
____ _ ____ _ ____ _ ____ _ ____ _ ____ _ ____
 72
65
 73
4
 40
0.6
 49
0.375
 74
0
 49
-0.075
 74
0
 49
0.075
 74
0
 49
-0.075
 74
0
  0
LTYPE
  5
1F6
100
AcDbSymbolTableRecord
100
AcDbLinetypeTableRecord
  2
HIDDEN
 70
64
  3
- - - - - - - - - - - - - - - - - - - -
 72
65
 73
2
 40
0.2
 49
0.1
 74
0
 49
-0.1
 74
0
  0
LTYPE
  5
1F7
100
AcDbSymbolTableRecord
100
AcDbLinetypeTableRecord
  2
PHANTOM
 70
64
  3
_____ _ _ _____ _ _ _____ _ _ _____
 72
65
 73
6
 40
0.8
 49
0.45
 74
0
 49
-0.05
 74
0
 49
0.1
 74
0
 49
-0.05
 74
0
 49
0.1
 74
0
 49
-0.05
 74
0
  0
LTYPE
  5
1F8
100
AcDbSymbolTableRecord
100
AcDbLinetypeTableRecord
  2
DOT
 70
64
  3
. . . . . . . . . . . . . . . . . . . .
 72
65
 73
2
 40
0.2
 49
0.1
 74
0
 49
-0.1
 74
0
  0
LTYPE
  5
1F9
100
AcDbSymbolTableRecord
100
AcDbLinetypeTableRecord
  2
DASHED
 70
64
  3
- - - - - - - - - - - - - - - - - - - -
 72
65
 73
2
 40
0.2
 49
0.1
 74
0
 49
-0.1
 74
0
  0
ENDTAB
  0
TABLE
  2
LAYER
  5
2
100
AcDbSymbolTable
 70
36
  0
LAYER
  5
10
100
AcDbSymbolTableRecord
100
AcDbLayerTableRecord
  2
0
 70
0
 62
7
  6
CONTINUOUS
370
-3
390
F
  0
LAYER
  5
1FA
100
AcDbSymbolTableRecord
100
AcDbLayerTableRecord
  2
DEFAULT_1
 70
0
 62
7
  6
CENTER
370
-3
390
F
  0
LAYER
  5
1FB
100
AcDbSymbolTableRecord
100
AcDbLayerTableRecord
  2
DEFAULT_2
 70
0
 62
7
  6
HIDDEN
370
-3
390
F
  0
LAYER
  5
1FC
100
AcDbSymbolTableRecord
100
AcDbLayerTableRecord
  2
DEFAULT_3
 70
0
 62
7
  6
PHANTOM
370
-3
390
F
  0
LAYER
  5
1FD
100
AcDbSymbolTableRecord
100
AcDbLayerTableRecord
  2
ASSI
 70
0
 62
7
  6
CONTINUOUS
370
-3
390
F
  0
LAYER
  5
1FE
100
AcDbSymbolTableRecord
100
AcDbLayerTableRecord
  2
COORDINATE
 70
0
 62
7
  6
CONTINUOUS
370
-3
390
F
  0
LAYER
  5
1FF
100
AcDbSymbolTableRecord
100
AcDbLayerTableRecord
  2
COPY_PUBLISH
 70
0
 62
7
  6
CONTINUOUS
370
-3
390
F
  0
LAYER
  5
200
100
AcDbSymbolTableRecord
100
AcDbLayerTableRecord
  2
COSMETICI
 70
0
 62
7
  6
CONTINUOUS
370
-3
390
F
  0
LAYER
  5
201
100
AcDbSymbolTableRecord
100
AcDbLayerTableRecord
  2
CURVE
 70
0
 62
7
  6
CONTINUOUS
370
-3
390
F
  0
LAYER
  5
202
100
AcDbSymbolTableRecord
100
AcDbLayerTableRecord
  2
DRAFT
 70
0
 62
7
  6
CONTINUOUS
370
-3
390
F
  0
LAYER
  5
203
100
AcDbSymbolTableRecord
100
AcDbLayerTableRecord
  2
IMPORT_IGES
 70
0
 62
7
  6
CONTINUOUS
370
-3
390
F
  0
LAYER
  5
204
100
AcDbSymbolTableRecord
100
AcDbLayerTableRecord
  2
NOTE
 70
0
 62
7
  6
CONTINUOUS
370
-3
390
F
  0
LAYER
  5
205
100
AcDbSymbolTableRecord
100
AcDbLayerTableRecord
  2
PIANI
 70
0
 62
7
  6
CONTINUOUS
370
-3
390
F
  0
LAYER
  5
206
100
AcDbSymbolTableRecord
100
AcDbLayerTableRecord
  2
PUNTI
 70
0
 62
7
  6
CONTINUOUS
370
-3
390
F
  0
LAYER
  5
207
100
AcDbSymbolTableRecord
100
AcDbLayerTableRecord
  2
RACCORDO
 70
0
 62
7
  6
CONTINUOUS
370
-3
390
F
  0
LAYER
  5
208
100
AcDbSymbolTableRecord
100
AcDbLayerTableRecord
  2
SIMBOLI
 70
0
 62
7
  6
CONTINUOUS
370
-3
390
F
  0
LAYER
  5
209
100
AcDbSymbolTableRecord
100
AcDbLayerTableRecord
  2
SMUSSO
 70
0
 62
7
  6
CONTINUOUS
370
-3
390
F
  0
LAYER
  5
20A
100
AcDbSymbolTableRecord
100
AcDbLayerTableRecord
  2
SNAPLINE
 70
0
 62
7
  6
CONTINUOUS
370
-3
390
F
  0
LAYER
  5
20B
100
AcDbSymbolTableRecord
100
AcDbLayerTableRecord
  2
SUPERFICI
 70
0
 62
7
  6
CONTINUOUS
370
-3
390
F
  0
LAYER
  5
20C
100
AcDbSymbolTableRecord
100
AcDbLayerTableRecord
  2
TRASH
 70
0
 62
7
  6
CONTINUOUS
370
-3
390
F
  0
ENDTAB
  0
TABLE
  2
STYLE
  5
3
100
AcDbSymbolTable
 70
1
  0
STYLE
  5
11
100
AcDbSymbolTableRecord
100
AcDbTextStyleTableRecord
  2
STANDARD
 70
0
 40
0.0
 41
0.8
 50
0.0
 71
0
 42
0.2
  3
txt
  4

  0
STYLE
  5
20D
100
AcDbSymbolTableRecord
100
AcDbTextStyleTableRecord
  2
TEXTSTYLE_1
 70
0
 40
0.0
 41
0.8
 50
0.0
 71
0
 42
0.2
  3
gdt
  4

  0
ENDTAB
  0
TABLE
  2
VIEW
  5
6
100
AcDbSymbolTable
 70
0
  0
ENDTAB
  0
TABLE
  2
UCS
  5
7
100
AcDbSymbolTable
 70
0
  0
ENDTAB
  0
TABLE
  2
APPID
  5
9
100
AcDbSymbolTable
 70
1
  0
APPID
  5
20E
100
AcDbSymbolTableRecord
100
AcDbRegAppTableRecord
  2
ACAD
 70
0
  0
ENDTAB
  0
TABLE
  2
BLOCK_RECORD
  5
1
100
AcDbSymbolTable
 70
0
  0
BLOCK_RECORD
  5
20F
100
AcDbSymbolTableRecord
100
AcDbBlockTableRecord
  2
*Model_Space
  0
BLOCK_RECORD
  5
210
100
AcDbSymbolTableRecord
100
AcDbBlockTableRecord
  2
*Paper_Space
  0
ENDTAB
  0
TABLE
  2
DIMSTYLE
  5
A
100
AcDbSymbolTable
 70
1
100
AcDbDimStyleTable
 71
0
  0
DIMSTYLE
105
211
100
AcDbSymbolTableRecord
100
AcDbDimStyleTableRecord
  2
STANDARD
 70
0
  3

  4

 40
1.0
 41
3.0
 42
0.5
 43
0.38
 44
1.5
 45
0.0
 46
0.0
 47
0.01
 48
0.01
140
3.0
141
0.09
142
0.0
143
25.4
144
1.0
145
0.0
146
1.0
147
0.625
 71
1.0
 72
0.0
 73
0
 74
0
 75
0
 76
0
 77
1
 78
8
170
0
171
2
172
0
173
0
174
0
175
0
176
0
177
0
178
0
270
2
271
2
272
2
273
2
274
2
275
0
280
0
281
0
282
0
283
1
284
8
285
0
286
0
287
3
288
0
340
11
278
44
  0
ENDTAB
  0
ENDSEC
  0
SECTION
  2
BLOCKS
  0
BLOCK
  5
20
100
AcDbEntity
  8
0
100
AcDbBlockBegin
  2
*Model_Space
 70
0
 10
0.0
 20
0.0
 30
0.0
  3
*Model_Space
  1

  0
ENDBLK
  5
21
100
AcDbEntity
  8
0
100
AcDbBlockEnd
  0
BLOCK
  5
1C
100
AcDbEntity
  8
0
100
AcDbBlockBegin
  2
*Paper_Space
 70
0
 10
0.0
 20
0.0
 30
0.0
  3
*Paper_Space
  1

  0
ENDBLK
  5
1D
100
AcDbEntity
  8
0
100
AcDbBlockEnd
  0
ENDSEC
  0
SECTION
  2
ENTITIES
  0
LWPOLYLINE
  5
212
100
AcDbEntity
  8
IMPORT_IGES
100
AcDbPolyline
 62
7
  6
CONTINUOUS
 90
28
 70
0
 10
-12.0523146212
 20
53.9500986269
 10
-11.608264359
 20
54.1621134127
 10
-11.209649574
 20
54.3302747357
 10
-10.8186194575
 20
54.4759934431
 10
-10.4351482705
 20
54.6012331711
 10
-10.0618280102
 20
54.7070084991
 10
-9.6988301092
 20
54.7950789627
 10
-9.3469637309
 20
54.8669136314
 10
-9.007139501
 20
54.9239179888
 10
-8.6794641156
 20
54.9675710143
 10
-8.3652063201
 20
54.9991396164
 10
-8.0641632162
 20
55.0200163332
 10
-7.7740919136
 20
55.0315186856
 10
-7.4950180877
 20
55.0346339108
 10
-7.2275623345
 20
55.0303093856
 10
-6.970317613
 20
55.0193913503
 10
-6.7234095877
 20
55.0026587754
 10
-6.4871589805
 20
54.9808855516
 10
-6.2604443883
 20
54.9546573252
 10
-6.0435390732
 20
54.9246353191
 10
-5.8365316175
 20
54.8914476188
 10
-5.6380420312
 20
54.8554233251
 10
-5.4479647717
 20
54.8170271588
 10
-5.2667740906
 20
54.7768333584
 10
-5.093903167
 20
54.7351756341
 10
-4.9291550856
 20
54.6924288395
 10
-4.7727573113
 20
54.649061232
 10
-4.6246132336
 20
54.6054445503
  0
LWPOLYLINE
  5
213
100
AcDbEntity
  8
IMPORT_IGES
100
AcDbPolyline
 62
7
  6
CONTINUOUS
 90
14
 70
0
 10
-15.0889507109
 20
52.4073386806
 10
-14.8781336541
 20
52.5054332189
 10
-14.6613274978
 20
52.5886504002
 10
-14.4371325724
 20
52.6577847261
 10
-14.2066099117
 20
52.7125023904
 10
-13.9697297627
 20
52.7527359357
 10
-13.7265218785
 20
52.7785528194
 10
-13.4781365524
 20
52.7898216063
 10
-13.2245494257
 20
52.7864743507
 10
-12.9657848571
 20
52.7685789984
 10
-12.7030662169
 20
52.7362079519
 10
-12.4368012949
 20
52.6893853454
 10
-12.1665823012
 20
52.6280870448
 10
-11.8924092358
 20
52.5523130499
  0
LWPOLYLINE
  5
214
100
AcDbEntity
  8
IMPORT_IGES
100
AcDbPolyline
 62
253
  6
CONTINUOUS
 90
14
 70
0
 10
-12.0112886958
 20
53.9705839666
 10
-11.8015534838
 20
54.0645385213
 10
-11.5853771154
 20
54.1438424991
 10
-11.3631451251
 20
54.2084549162
 10
-11.1353869003
 20
54.2583338153
 10
-10.9025095665
 20
54.2935129812
 10
-10.664923155
 20
54.3140500979
 10
-10.4231867702
 20
54.3200268745
 10
-10.1777230848
 20
54.3115730425
 10
-9.9289535275
 20
54.2888402878
 10
-9.6774509078
 20
54.2520278516
 10
-9.423690914
 20
54.2013659118
 10
-9.1680436333
 20
54.1370862199
 10
-8.9109244702
 20
54.0594447535
  0
LWPOLYLINE
  5
215
100
AcDbEntity
  8
IMPORT_IGES
100
AcDbPolyline
 62
7
  6
CONTINUOUS
 90
6
 70
0
 10
-15.3215483725
 20
52.1037718173
 10
-15.5376756593
 20
52.0210204369
 10
-15.7463824785
 20
51.9241643962
 10
-15.9477020038
 20
51.8132677181
 10
-16.1406932315
 20
51.6888555011
 10
-16.2806801026
 20
51.5860618742
  0
LWPOLYLINE
  5
216
100
AcDbEntity
  8
IMPORT_IGES
100
AcDbPolyline
 62
7
  6
CONTINUOUS
 90
10
 70
0
 10
13.0962279545
 20
-55.9697155254
 10
13.5999216456
 20
-55.9545708058
 10
14.2788469659
 20
-55.9101703986
 10
14.9346966253
 20
-55.8395185697
 10
15.5672992427
 20
-55.7434205313
 10
16.1744344489
 20
-55.6229740828
 10
16.7523886926
 20
-55.480059976
 10
17.3008640008
 20
-55.3162996651
 10
17.8220116737
 20
-55.1327990845
 10
18.0073512946
 20
-55.0604940322
  0
LWPOLYLINE
  5
217
100
AcDbEntity
  8
IMPORT_IGES
100
AcDbPolyline
 62
253
  6
CONTINUOUS
 90
44
 70
0
 10
13.0082448055
 20
-55.3591476551
 10
11.9879217975
 20
-55.372803276
 10
10.9696301994
 20
-55.3695635604
 10
9.9531556162
 20
-55.3491287466
 10
8.9374538718
 20
-55.3111349562
 10
7.9231249044
 20
-55.2553093037
 10
6.9123698479
 20
-55.1816112929
 10
5.905730297
 20
-55.0899636392
 10
4.9026831639
 20
-54.9800847138
 10
3.9041195105
 20
-54.8517430764
 10
2.9114754663
 20
-54.7048206379
 10
1.9255528698
 20
-54.5391343771
 10
0.9469572602
 20
-54.3544501253
 10
-0.0224615419
 20
-54.1507351986
 10
-0.9802904188
 20
-53.9281824375
 10
-1.92601266
 20
-53.686784618
 10
-2.8603436954
 20
-53.4262032348
 10
-3.7818246765
 20
-53.1466755388
 10
-4.6875160184
 20
-52.8488602405
 10
-5.5768825751
 20
-52.532739798
 10
-6.4512631381
 20
-52.1976374269
 10
-7.3096293161
 20
-51.8439438302
 10
-8.1498470319
 20
-51.4726488208
 10
-8.9708878982
 20
-51.0842094424
 10
-9.772683181
 20
-50.6784462693
 10
-10.5544880959
 20
-50.2554143964
 10
-11.3135774781
 20
-49.816261212
 10
-12.0480139448
 20
-49.3620428502
 10
-12.7587705176
 20
-48.8923709523
 10
-13.4459753744
 20
-48.4074568647
 10
-14.1073726412
 20
-47.9091552529
 10
-14.7420174721
 20
-47.3982772642
 10
-15.3507145507
 20
-46.8742560343
 10
-15.9331938884
 20
-46.337584489
 10
-16.4879212163
 20
-45.7901870654
 10
-17.0141801687
 20
-45.2332208514
 10
-17.5123919821
 20
-44.6664689991
 10
-17.982963237
 20
-44.0894481832
 10
-18.4247306897
 20
-43.503533626
 10
-18.8364057193
 20
-42.9106747083
 10
-19.2177349259
 20
-42.3117617905
 10
-19.5689533629
 20
-41.7069528797
 10
-19.8898191795
 20
-41.0972045553
 10
-20.1213961609
 20
-40.6134134069
  0
LINE
  5
218
100
AcDbEntity
  8
IMPORT_IGES
100
AcDbLine
 62
7
  6
CONTINUOUS
 10
13.0962279545
 20
-55.9697155254
 11
13.0962586156
 21
-55.9697151951
  0
LWPOLYLINE
  5
219
100
AcDbEntity
  8
IMPORT_IGES
100
AcDbPolyline
 62
7
  6
CONTINUOUS
 90
19
 70
0
 10
-23.4596740981
 20
46.0262827365
 10
-23.5280089749
 20
45.9715254266
 10
-23.638826401
 20
45.875552062
 10
-23.7458321032
 20
45.773530147
 10
-23.8487095826
 20
45.6655082761
 10
-23.9476949454
 20
45.5508577625
 10
-24.0431740173
 20
45.4285599706
 10
-24.133267662
 20
45.3005021963
 10
-24.2152717467
 20
45.1708366751
 10
-24.2898908703
 20
45.0394317508
 10
-24.3569083603
 20
44.9078757238
 10
-24.4140612534
 20
44.7830811601
 10
-24.4622058564
 20
44.6669195206
 10
-24.5038786049
 20
44.556768922
 10
-24.5403047072
 20
44.452288199
 10
-24.5725000597
 20
44.3531977062
 10
-24.6020676491
 20
44.256679246
 10
-24.6306351097
 20
44.1588018398
 10
-24.6600367074
 20
44.0539408036
  0
LINE
  5
21A
100
AcDbEntity
  8
IMPORT_IGES
100
AcDbLine
 62
7
  6
CONTINUOUS
 10
-16.2806938218
 20
51.586083321
 11
-23.4596740981
 21
46.0262827365
  0
LINE
  5
21B
100
AcDbEntity
  8
IMPORT_IGES
100
AcDbLine
 62
253
  6
CONTINUOUS
 10
-12.0179418783
 20
51.8955100307
 11
-11.8462432179
 21
51.9946466853
  0
LINE
  5
21C
100
AcDbEntity
  8
IMPORT_IGES
100
AcDbLine
 62
7
  6
CONTINUOUS
 10
-15.0889685069
 20
52.4073708108
 11
-12.0523012814
 21
53.950105404
  0
LWPOLYLINE
  5
21D
100
AcDbEntity
  8
IMPORT_IGES
100
AcDbPolyline
 62
253
  6
CONTINUOUS
 90
18
 70
0
 10
-11.8924089331
 20
52.5523110941
 10
-8.6555025284
 20
54.1883876035
 10
-8.3986342585
 20
54.3056407325
 10
-8.1406476931
 20
54.4110544011
 10
-7.8818722931
 20
54.5044939912
 10
-7.6226385268
 20
54.585840176
 10
-7.3632774479
 20
54.6549890727
 10
-7.1041202726
 20
54.7118523748
 10
-6.8454979568
 20
54.7563574652
 10
-6.5877407734
 20
54.7884475089
 10
-6.3311778902
 20
54.8080815254
 10
-6.0761369502
 20
54.8152344411
 10
-5.8229436526
 20
54.8098971214
 10
-5.571921337
 20
54.7920763823
 10
-5.3233905708
 20
54.7617949817
 10
-5.0776687393
 20
54.7190915904
 10
-4.8350696409
 20
54.6640207427
 10
-4.6246132336
 20
54.6054445503
  0
LINE
  5
21E
100
AcDbEntity
  8
IMPORT_IGES
100
AcDbLine
 62
253
  6
CONTINUOUS
 10
-12.0521990492
 20
53.9501573416
 11
-12.0112886958
 21
53.9705839666
  0
LWPOLYLINE
  5
21F
100
AcDbEntity
  8
IMPORT_IGES
100
AcDbPolyline
 62
253
  6
CONTINUOUS
 90
31
 70
0
 10
2.4754594118
 20
-51.9952239249
 10
2.6269725794
 20
-52.01530393
 10
2.7755864103
 20
-52.0294070433
 10
2.9208032606
 20
-52.0377465405
 10
3.0620568377
 20
-52.0405761256
 10
3.1990536324
 20
-52.0380725915
 10
3.3317100134
 20
-52.0302840604
 10
3.4595525273
 20
-52.0173164721
 10
3.5822772376
 20
-51.9993899525
 10
3.7000135341
 20
-51.9766239002
 10
3.8124905824
 20
-51.9490684574
 10
3.9192830334
 20
-51.9168846294
 10
4.0203348513
 20
-51.8802875333
 10
4.1153899983
 20
-51.8393632957
 10
4.204114628
 20
-51.7942148648
 10
4.2863986712
 20
-51.745051046
 10
4.3622096401
 20
-51.6922334327
 10
4.4312335738
 20
-51.6359331737
 10
4.4931617291
 20
-51.5761617065
 10
4.5479591632
 20
-51.5132047395
 10
4.5957035097
 20
-51.4473852704
 10
4.6362149251
 20
-51.3787880285
 10
4.6693676087
 20
-51.3076932357
 10
4.6952055249
 20
-51.2344155671
 10
4.7137227861
 20
-51.1590800921
 10
4.7247012608
 20
-51.0818870372
 10
4.728229572
 20
-51.0031928056
 10
4.7247210889
 20
-50.9232948421
 10
4.7142689521
 20
-50.8424192479
 10
4.6966548275
 20
-50.7607735712
 10
4.6718142147
 20
-50.6785769693
  0
LWPOLYLINE
  5
220
100
AcDbEntity
  8
IMPORT_IGES
100
AcDbPolyline
 62
7
  6
CONTINUOUS
 90
6
 70
0
 10
-15.8711791847
 20
51.8554202437
 10
-15.8453410505
 20
51.8808366415
 10
-15.6684224582
 20
52.0330032053
 10
-15.4831584742
 20
52.1716183505
 10
-15.2895100517
 20
52.2966185374
 10
-15.0889507109
 20
52.4073386806
  0
LINE
  5
221
100
AcDbEntity
  8
IMPORT_IGES
100
AcDbLine
 62
253
  6
CONTINUOUS
 10
-16.1713419267
 20
49.2320421285
 11
-21.8539084022
 21
44.7725464763
  0
LINE
  5
222
100
AcDbEntity
  8
IMPORT_IGES
100
AcDbLine
 62
253
  6
CONTINUOUS
 10
-12.5580892397
 20
52.064925575
 11
-16.1713419267
 21
49.2320421285
  0
LWPOLYLINE
  5
223
100
AcDbEntity
  8
IMPORT_IGES
100
AcDbPolyline
 62
253
  6
CONTINUOUS
 90
34
 70
0
 10
2.6044834914
 20
-51.0579785456
 10
1.6239656957
 20
-50.89972435
 10
0.6550971013
 20
-50.7236408733
 10
-0.3021222917
 20
-50.5297281153
 10
-1.2484790149
 20
-50.3177787436
 10
-2.1831865367
 20
-50.0880000908
 10
-3.1038852628
 20
-49.8410141541
 10
-4.0105328709
 20
-49.5767813524
 10
-4.9031716832
 20
-49.2953412668
 10
-5.7795690716
 20
-48.9974346381
 10
-6.6396805362
 20
-48.6830129567
 10
-7.4835505769
 20
-48.3521247321
 10
-8.3090800644
 20
-48.0056562338
 10
-9.1162230415
 20
-47.6435682793
 10
-9.9050254653
 20
-47.265900051
 10
-10.6735260787
 20
-46.8736553654
 10
-11.4216521072
 20
-46.4668074757
 10
-12.1494763253
 20
-46.0453831288
 10
-12.8552557994
 20
-45.6104663813
 10
-13.5389479381
 20
-45.1620122935
 10
-14.2005953328
 20
-44.7000658051
 10
-14.8385828238
 20
-44.2258457932
 10
-15.4528375946
 20
-43.7393279273
 10
-16.0434324618
 20
-43.2405365378
 10
-16.6089707154
 20
-42.7307634923
 10
-17.149386018
 20
-42.2099816658
 10
-17.6647447071
 20
-41.6782181833
 10
-18.1538490859
 20
-41.1368462876
 10
-18.6166280874
 20
-40.585844604
 10
-19.0531527787
 20
-40.0252345071
 10
-19.4624386645
 20
-39.4564533643
 10
-19.8441575799
 20
-38.8799802978
 10
-20.1986376899
 20
-38.2953361854
 10
-20.5258789945
 20
-37.7025210269
  0
LWPOLYLINE
  5
224
100
AcDbEntity
  8
IMPORT_IGES
100
AcDbPolyline
 62
253
  6
CONTINUOUS
 90
10
 70
0
 10
4.3943884262
 20
-50.6029006084
 10
4.4203680634
 20
-50.6173243835
 10
4.4479089971
 20
-50.6304387943
 10
4.4768711053
 20
-50.6421290682
 10
4.5070292624
 20
-50.6522800993
 10
4.5382634632
 20
-50.660843292
 10
4.5705681316
 20
-50.6678016061
 10
4.6037981865
 20
-50.6731030632
 10
4.6376692207
 20
-50.6766985794
 10
4.6719533536
 20
-50.6785811489
  0
LWPOLYLINE
  5
225
100
AcDbEntity
  8
IMPORT_IGES
100
AcDbPolyline
 62
253
  6
CONTINUOUS
 90
19
 70
0
 10
-22.3374314113
 20
-35.1682828627
 10
-22.3021218584
 20
-35.1859209632
 10
-22.2642440396
 20
-35.200926807
 10
-22.2241621245
 20
-35.2131268699
 10
-22.1825223759
 20
-35.2223618599
 10
-22.1395519675
 20
-35.2286517896
 10
-22.094951988
 20
-35.2320357691
 10
-22.0490690376
 20
-35.2324297759
 10
-22.0024176809
 20
-35.2298023767
 10
-21.9549014879
 20
-35.2241046356
 10
-21.9070093434
 20
-35.2153303609
 10
-21.8592448407
 20
-35.2035404462
 10
-21.8115859272
 20
-35.1886805633
 10
-21.7647167409
 20
-35.1709134996
 10
-21.7190414873
 20
-35.150383173
 10
-21.6742900556
 20
-35.1268987885
 10
-21.6308688425
 20
-35.100532369
 10
-21.589663915
 20
-35.0717431544
 10
-21.5512069255
 20
-35.0409264629
  0
LWPOLYLINE
  5
226
100
AcDbEntity
  8
IMPORT_IGES
100
AcDbPolyline
 62
253
  6
CONTINUOUS
 90
61
 70
0
 10
-19.9545196363
 20
-40.200317514
 10
-19.7487719947
 20
-40.4917502007
 10
-19.5357468716
 20
-40.7814097726
 10
-19.3156236692
 20
-41.0690449691
 10
-19.0884739154
 20
-41.3545611148
 10
-18.8543199411
 20
-41.6379242625
 10
-18.6132893893
 20
-41.9189808821
 10
-18.3653990421
 20
-42.1977098694
 10
-18.1107385389
 20
-42.4740054926
 10
-17.8495677258
 20
-42.7475955903
 10
-17.5820701425
 20
-43.0183105989
 10
-17.3082079046
 20
-43.2862079148
 10
-17.0279208084
 20
-43.5513546918
 10
-16.7412552319
 20
-43.8137076614
 10
-16.4483121021
 20
-44.0731717748
 10
-16.1491072644
 20
-44.3297266416
 10
-15.8436370898
 20
-44.5833632072
 10
-15.5320454291
 20
-44.8339462847
 10
-15.2145754048
 20
-45.0812693913
 10
-14.8912474761
 20
-45.3253122342
 10
-14.5621837415
 20
-45.565971078
 10
-14.227779225
 20
-45.8029467812
 10
-13.8881114449
 20
-46.0361932956
 10
-13.543184177
 20
-46.2657151979
 10
-13.1933078027
 20
-46.491311438
 10
-12.8389413531
 20
-46.7127180938
 10
-12.479741891
 20
-46.9301824537
 10
-12.114785124
 20
-47.1442505095
 10
-11.7438379503
 20
-47.3550170769
 10
-11.3671036797
 20
-47.5623658312
 10
-10.9842567892
 20
-47.7664896888
 10
-10.5948909748
 20
-47.9675908469
 10
-10.1993421117
 20
-48.1654770802
 10
-9.7985694863
 20
-48.3596679621
 10
-9.393131895
 20
-48.5498983186
 10
-8.9829599321
 20
-48.7361974211
 10
-8.5681542885
 20
-48.9185113695
 10
-8.1489269259
 20
-49.0967589133
 10
-7.7254016238
 20
-49.2709026974
 10
-7.2974981202
 20
-49.440979329
 10
-6.8652780587
 20
-49.6069680485
 10
-6.428974095
 20
-49.7687792508
 10
-5.9887560484
 20
-49.9263398787
 10
-5.5446329528
 20
-50.0796379237
 10
-5.0968880199
 20
-50.2285753938
 10
-4.6460317241
 20
-50.372985876
 10
-4.1921154783
 20
-50.5128586756
 10
-3.7350763107
 20
-50.6482131607
 10
-3.275194019
 20
-50.7789698981
 10
-2.8126998711
 20
-50.9050793008
 10
-2.3473635502
 20
-51.0266202712
 10
-1.8787697165
 20
-51.1437027029
 10
-1.4067332884
 20
-51.2563673977
 10
-0.9314164428
 20
-51.3645718581
 10
-0.4529179714
 20
-51.4682923513
 10
0.0290776967
 20
-51.5675936522
 10
0.5142748386
 20
-51.6624128895
 10
1.0016329381
 20
-51.7525661517
 10
1.4907851867
 20
-51.8380260374
 10
1.9820633234
 20
-51.9188902064
 10
2.4754520152
 20
-51.995190572
  0
LWPOLYLINE
  5
227
100
AcDbEntity
  8
IMPORT_IGES
100
AcDbPolyline
 62
7
  6
CONTINUOUS
 90
5
 70
0
 10
-24.6588955253
 20
44.0579111967
 10
-25.3825392331
 20
41.3370825106
 10
-26.3044833377
 20
37.5647451124
 10
-27.1209862628
 20
33.836954442
 10
-27.5823520656
 20
31.5091426277
  0
LINE
  5
228
100
AcDbEntity
  8
IMPORT_IGES
100
AcDbLine
 62
253
  6
CONTINUOUS
 10
-24.6413627846
 20
44.1205415004
 11
-24.6306351097
 21
44.1588018398
  0
LWPOLYLINE
  5
229
100
AcDbEntity
  8
IMPORT_IGES
100
AcDbPolyline
 62
253
  6
CONTINUOUS
 90
18
 70
0
 10
-24.6224457028
 20
44.1850585059
 10
-24.604827199
 20
44.2414365811
 10
-24.5883038258
 20
44.2897991532
 10
-24.5727759487
 20
44.3298603381
 10
-24.5581450386
 20
44.3612399474
 10
-24.5442078428
 20
44.3836642566
 10
-24.5308301193
 20
44.3965909951
 10
-24.5177453783
 20
44.3998723662
 10
-24.5044808486
 20
44.3936715264
 10
-24.4906248675
 20
44.3779908491
 10
-24.475982498
 20
44.3522881483
 10
-24.4603204158
 20
44.3158284802
 10
-24.4434614787
 20
44.2679267199
 10
-24.4252575073
 20
44.2078045642
 10
-24.4054856693
 20
44.134372078
 10
-24.3839378359
 20
44.0469939384
 10
-24.3603282096
 20
43.9448678649
 10
-24.3342250932
 20
43.8263983057
  0
LWPOLYLINE
  5
22A
100
AcDbEntity
  8
IMPORT_IGES
100
AcDbPolyline
 62
253
  6
CONTINUOUS
 90
7
 70
0
 10
-21.0325488628
 20
-38.422005445
 10
-20.8718480228
 20
-38.721097262
 10
-20.7035567781
 20
-39.0192029764
 10
-20.5276760205
 20
-39.3162509685
 10
-20.3441311065
 20
-39.6122896178
 10
-20.1529955765
 20
-39.9071226279
 10
-19.9545196363
 20
-40.200317514
  0
LWPOLYLINE
  5
22B
100
AcDbEntity
  8
IMPORT_IGES
100
AcDbPolyline
 62
7
  6
CONTINUOUS
 90
47
 70
0
 10
-20.1213961609
 20
-40.6134134069
 10
-19.9765875876
 20
-40.921828782
 10
-19.7400240028
 20
-41.3945704828
 10
-19.4856256635
 20
-41.8669733034
 10
-19.2116649585
 20
-42.3411525005
 10
-18.9167945792
 20
-42.8180167472
 10
-18.6012710515
 20
-43.2957810488
 10
-18.2657730575
 20
-43.7723812003
 10
-17.9103081823
 20
-44.2470040343
 10
-17.5342370806
 20
-44.7197460213
 10
-17.137461055
 20
-45.1899816216
 10
-16.7196410352
 20
-45.657396705
 10
-16.2805739748
 20
-46.1215236175
 10
-15.8207630686
 20
-46.5812136847
 10
-15.3405124698
 20
-47.0355667614
 10
-14.8401852933
 20
-47.4836201962
 10
-14.3205601731
 20
-47.9241162736
 10
-13.7816286968
 20
-48.3567346296
 10
-13.2232957164
 20
-48.7812967567
 10
-12.6460033496
 20
-49.1972525529
 10
-12.0496291235
 20
-49.6044249455
 10
-11.4335611834
 20
-50.002737292
 10
-10.7975491914
 20
-50.3918464784
 10
-10.1420691032
 20
-50.7710442635
 10
-9.4660620315
 20
-51.1406611903
 10
-8.7671988306
 20
-51.5016235232
 10
-8.0467378573
 20
-51.8528178972
 10
-7.3046012605
 20
-52.1937960695
 10
-6.536071782
 20
-52.5259662799
 10
-5.7415754895
 20
-52.8481387478
 10
-4.921732636
 20
-53.1590244941
 10
-4.0710163512
 20
-53.4595558111
 10
-3.1879195046
 20
-53.749054871
 10
-2.2713459679
 20
-54.02671439
 10
-1.3151725125
 20
-54.2929786045
 10
-0.3176379287
 20
-54.546457541
 10
0.7215223089
 20
-54.7852602857
 10
1.8053508941
 20
-55.0081532889
 10
2.9334643883
 20
-55.2132078205
 10
4.1023193791
 20
-55.3978971312
 10
5.3092787779
 20
-55.5600781676
 10
6.5540895697
 20
-55.6981592034
 10
7.8352431647
 20
-55.8103730228
 10
9.1505558964
 20
-55.8948421501
 10
10.5004997398
 20
-55.949997897
 10
11.8876743316
 20
-55.9743644721
 10
13.0962586282
 20
-55.9697150145
  0
LINE
  5
22C
100
AcDbEntity
  8
IMPORT_IGES
100
AcDbLine
 62
7
  6
CONTINUOUS
 10
-20.1213961609
 20
-40.6134134069
 11
-20.1332525077
 21
-40.5874649775
  0
LWPOLYLINE
  5
22D
100
AcDbEntity
  8
IMPORT_IGES
100
AcDbPolyline
 62
253
  6
CONTINUOUS
 90
10
 70
0
 10
-21.50664609
 20
-37.4196715911
 10
-21.4525534777
 20
-37.5416396894
 10
-21.3986040078
 20
-37.6616752891
 10
-21.3447861667
 20
-37.7797076662
 10
-21.2912800076
 20
-37.8952303379
 10
-21.238247031
 20
-38.0077854523
 10
-21.18567411
 20
-38.117281049
 10
-21.1336926964
 20
-38.2232906122
 10
-21.082578418
 20
-38.3250721495
 10
-21.0325549389
 20
-38.4219910634
  0
LINE
  5
22E
100
AcDbEntity
  8
IMPORT_IGES
100
AcDbLine
 62
7
  6
CONTINUOUS
 10
-21.1525754792
 20
-38.2792435712
 11
-20.1327210295
 21
-40.5887267694
  0
LINE
  5
22F
100
AcDbEntity
  8
IMPORT_IGES
100
AcDbLine
 62
253
  6
CONTINUOUS
 10
-21.6148158158
 20
-37.1712403263
 11
-21.50664609
 21
-37.4196715911
  0
LWPOLYLINE
  5
230
100
AcDbEntity
  8
IMPORT_IGES
100
AcDbPolyline
 62
253
  6
CONTINUOUS
 90
10
 70
0
 10
-22.4965230136
 20
-34.9918481886
 10
-22.4862360991
 20
-35.0157107831
 10
-22.4739195346
 20
-35.0387598829
 10
-22.4596498259
 20
-35.0608376442
 10
-22.4436168961
 20
-35.0817031177
 10
-22.4258996571
 20
-35.1013343715
 10
-22.4063564355
 20
-35.1198993052
 10
-22.3849690163
 20
-35.1373627156
 10
-22.3619474038
 20
-35.1535215099
 10
-22.3374314113
 20
-35.1682828627
  0
LINE
  5
231
100
AcDbEntity
  8
IMPORT_IGES
100
AcDbLine
 62
253
  6
CONTINUOUS
 10
-21.7220809943
 20
-36.9192376076
 11
-21.6148158158
 21
-37.1712403263
  0
LINE
  5
232
100
AcDbEntity
  8
IMPORT_IGES
100
AcDbLine
 62
7
  6
CONTINUOUS
 10
-21.9233209752
 20
-36.4256339079
 11
-21.1525754792
 21
-38.2792435712
  0
LINE
  5
233
100
AcDbEntity
  8
IMPORT_IGES
100
AcDbLine
 62
253
  6
CONTINUOUS
 10
-21.8276484253
 20
-36.6661535842
 11
-21.7220809943
 21
-36.9192376076
  0
LINE
  5
234
100
AcDbEntity
  8
IMPORT_IGES
100
AcDbLine
 62
253
  6
CONTINUOUS
 10
-21.9259829004
 20
-36.4267407573
 11
-21.8276484253
 21
-36.6661535842
  0
LINE
  5
235
100
AcDbEntity
  8
IMPORT_IGES
100
AcDbLine
 62
7
  6
CONTINUOUS
 10
-22.0798497335
 20
-36.0464614897
 11
-21.9259829004
 21
-36.4267407573
  0
LINE
  5
236
100
AcDbEntity
  8
IMPORT_IGES
100
AcDbLine
 62
7
  6
CONTINUOUS
 10
-22.26383226
 20
-35.5843089113
 11
-22.0798497335
 21
-36.0464614897
  0
LWPOLYLINE
  5
237
100
AcDbEntity
  8
IMPORT_IGES
100
AcDbPolyline
 62
253
  6
CONTINUOUS
 90
10
 70
0
 10
-21.0325549389
 20
-38.4219910634
 10
-21.0385967535
 20
-38.4066551288
 10
-21.043913395
 20
-38.3910019413
 10
-21.0484929878
 20
-38.3750738176
 10
-21.0523204089
 20
-38.358944692
 10
-21.0554013504
 20
-38.3426217006
 10
-21.0577477453
 20
-38.3260355762
 10
-21.0593536754
 20
-38.3091829955
 10
-21.0602115341
 20
-38.2921402494
 10
-21.0603215313
 20
-38.2749481248
  0
LINE
  5
238
100
AcDbEntity
  8
IMPORT_IGES
100
AcDbLine
 62
7
  6
CONTINUOUS
 10
-22.4964879918
 20
-34.9919397741
 11
-22.26383226
 21
-35.5843089113
  0
LINE
  5
239
100
AcDbEntity
  8
IMPORT_IGES
100
AcDbLine
 62
7
  6
CONTINUOUS
 10
-22.4951617957
 20
-34.9918145214
 11
-22.7620576123
 21
-34.3011602122
  0
LWPOLYLINE
  5
23A
100
AcDbEntity
  8
IMPORT_IGES
100
AcDbPolyline
 62
253
  6
CONTINUOUS
 90
3
 70
0
 10
-22.7620576123
 20
-34.3011602122
 10
-23.0197790739
 20
-33.6179042686
 10
-23.5224231675
 20
-32.2351527379
  0
LWPOLYLINE
  5
23B
100
AcDbEntity
  8
IMPORT_IGES
100
AcDbPolyline
 62
7
  6
CONTINUOUS
 90
13
 70
0
 10
-29.1639979188
 20
21.2021745366
 10
-29.3661818182
 20
19.3519036165
 10
-29.6800467817
 20
15.8329612607
 10
-29.897788671
 20
12.3533584023
 10
-30.0206702798
 20
8.9130926496
 10
-30.0499421705
 20
5.5116502559
 10
-29.9868163704
 20
2.1495150754
 10
-29.8324833224
 20
-1.1737346966
 10
-29.5879561184
 20
-4.4596452227
 10
-29.2543410556
 20
-7.707119025
 10
-28.8325661969
 20
-10.9168390126
 10
-28.3229272044
 20
-14.0927569924
 10
-27.7260237321
 20
-17.2352239955
  0
LWPOLYLINE
  5
23C
100
AcDbEntity
  8
IMPORT_IGES
100
AcDbPolyline
 62
253
  6
CONTINUOUS
 90
8
 70
0
 10
-27.5823520656
 20
31.5091426277
 10
-27.6439732437
 20
31.1830282734
 10
-27.9690021275
 20
29.3922466488
 10
-28.2712107523
 20
27.6025276876
 10
-28.5499553516
 20
25.8174397806
 10
-28.8049387768
 20
24.0389286665
 10
-29.0362816031
 20
22.2659299816
 10
-29.1639979188
 20
21.2021745366
  0
LINE
  5
23D
100
AcDbEntity
  8
IMPORT_IGES
100
AcDbLine
 62
7
  6
CONTINUOUS
 10
-2.4483046034
 20
-31.7977483324
 11
-2.4491302552
 21
-31.7975879537
  0
LINE
  5
23E
100
AcDbEntity
  8
IMPORT_IGES
100
AcDbLine
 62
7
  6
CONTINUOUS
 10
-3.9100431739
 20
-31.4720510863
 11
-2.4491302552
 21
-31.7975879537
  0
LINE
  5
23F
100
AcDbEntity
  8
IMPORT_IGES
100
AcDbLine
 62
253
  6
CONTINUOUS
 10
-2.5013072123
 20
-31.6113757549
 11
-2.3503329218
 21
-31.6458458523
  0
LWPOLYLINE
  5
240
100
AcDbEntity
  8
IMPORT_IGES
100
AcDbPolyline
 62
7
  6
CONTINUOUS
 90
20
 70
0
 10
-2.4482156123
 20
-31.7980357892
 10
-2.2693149506
 20
-31.8399825573
 10
-2.0748234511
 20
-31.8954519769
 10
-1.8783475677
 20
-31.9618254778
 10
-1.6817103581
 20
-32.0387795371
 10
-1.4877406166
 20
-32.1253860264
 10
-1.298187692
 20
-32.2209310018
 10
-1.114294542
 20
-32.3249039305
 10
-0.9380328864
 20
-32.4363681606
 10
-0.7710727942
 20
-32.5545483722
 10
-0.6149686327
 20
-32.6781639786
 10
-0.4710967379
 20
-32.8054777868
 10
-0.339939141
 20
-32.9356729069
 10
-0.2227140518
 20
-33.0675544842
 10
-0.1212992232
 20
-33.1985628072
 10
-0.0359871517
 20
-33.3274571237
 10
0.0328417312
 20
-33.4525402331
 10
0.0843982411
 20
-33.5701903547
 10
0.1195555965
 20
-33.678237008
 10
0.1392425575
 20
-33.7703378573
  0
LWPOLYLINE
  5
241
100
AcDbEntity
  8
IMPORT_IGES
100
AcDbPolyline
 62
253
  6
CONTINUOUS
 90
12
 70
0
 10
-2.4491302552
 20
-31.7975879537
 10
-2.4509711442
 20
-31.7971303942
 10
-2.4596451685
 20
-31.7928676042
 10
-2.4675851617
 20
-31.7851433983
 10
-2.4747342114
 20
-31.7740531259
 10
-2.4811041873
 20
-31.7596977592
 10
-2.4866466597
 20
-31.7422664709
 10
-2.4913353703
 20
-31.7219026412
 10
-2.4951672831
 20
-31.6985171135
 10
-2.4980761532
 20
-31.6721401671
 10
-2.4999678016
 20
-31.6430234908
 10
-2.5007612656
 20
-31.6113751023
  0
LINE
  5
242
100
AcDbEntity
  8
IMPORT_IGES
100
AcDbLine
 62
253
  6
CONTINUOUS
 10
-2.3503329218
 20
-31.6458458523
 11
-2.1998186775
 21
-31.6853258756
  0
LWPOLYLINE
  5
243
100
AcDbEntity
  8
IMPORT_IGES
100
AcDbPolyline
 62
253
  6
CONTINUOUS
 90
29
 70
0
 10
-2.1998186775
 20
-31.6853258756
 10
-2.0497728472
 20
-31.7298248525
 10
-1.8997132805
 20
-31.77957728
 10
-1.7501345547
 20
-31.8343625827
 10
-1.6025142552
 20
-31.8935161478
 10
-1.456962602
 20
-31.9570656651
 10
-1.3133879199
 20
-32.0250154848
 10
-1.1729729902
 20
-32.0966821776
 10
-1.0358099404
 20
-32.172100184
 10
-0.9018258331
 20
-32.2512761724
 10
-0.7719613144
 20
-32.333496521
 10
-0.6462343943
 20
-32.4188021511
 10
-0.5246444859
 20
-32.5071967084
 10
-0.4081085767
 20
-32.5979192645
 10
-0.2966673423
 20
-32.6909891129
 10
-0.1902955301
 20
-32.7864325438
 10
-0.0898148479
 20
-32.8835057536
 10
0.0047198982
 20
-32.982276269
 10
0.0933508699
 20
-33.0827191725
 10
0.1753986948
 20
-33.1839562791
 10
0.2507944921
 20
-33.2861157278
 10
0.3195972229
 20
-33.3891052835
 10
0.3813157889
 20
-33.4917187073
 10
0.4358270399
 20
-33.5939369752
 10
0.4832452839
 20
-33.695806228
 10
0.5234319682
 20
-33.7962188977
 10
0.5563373744
 20
-33.8948119253
 10
0.5820033224
 20
-33.9919646697
 10
0.6004276238
 20
-34.0876813922
  0
LWPOLYLINE
  5
244
100
AcDbEntity
  8
IMPORT_IGES
100
AcDbPolyline
 62
253
  6
CONTINUOUS
 90
10
 70
0
 10
0.3144261632
 20
-34.0050710117
 10
0.3408787675
 20
-34.0196927334
 10
0.3690226965
 20
-34.0331652829
 10
0.3987171762
 20
-34.0453761917
 10
0.4297325629
 20
-34.0562215242
 10
0.4619316467
 20
-34.0656473747
 10
0.4952775998
 20
-34.0736192755
 10
0.5296178316
 20
-34.0800804101
 10
0.5646684845
 20
-34.0849814516
 10
0.6001736525
 20
-34.0883058166
  0
LWPOLYLINE
  5
245
100
AcDbEntity
  8
IMPORT_IGES
100
AcDbPolyline
 62
7
  6
CONTINUOUS
 90
12
 70
0
 10
-27.1216007045
 20
-17.2992884153
 10
-27.1245490028
 20
-17.2964965433
 10
-27.1259616056
 20
-17.2951072382
 10
-27.1215512079
 20
-17.3001305054
 10
-27.1118268335
 20
-17.3120585699
 10
-27.0983548703
 20
-17.3297328125
 10
-27.0814803802
 20
-17.3531969875
 10
-27.0612759466
 20
-17.3827840594
 10
-27.0387164505
 20
-17.4173737414
 10
-27.0139889142
 20
-17.4568593863
 10
-26.9871444229
 20
-17.5013143362
 10
-26.9589183231
 20
-17.549606946
  0
LWPOLYLINE
  5
246
100
AcDbEntity
  8
IMPORT_IGES
100
AcDbPolyline
 62
7
  6
CONTINUOUS
 90
25
 70
0
 10
-25.5460571878
 20
-16.9616176445
 10
-25.0590725167
 20
-17.625352949
 10
-24.5482281152
 20
-18.2701310955
 10
-24.0136166645
 20
-18.8957724075
 10
-23.4554082609
 20
-19.5020106258
 10
-22.8736257197
 20
-20.0887534495
 10
-22.2681434264
 20
-20.6560688912
 10
-21.6390719384
 20
-21.2037563156
 10
-20.9865067935
 20
-21.7316266577
 10
-20.3103022336
 20
-22.2397379562
 10
-19.6092569715
 20
-22.7286978999
 10
-18.8847938854
 20
-23.1974379957
 10
-18.1407099948
 20
-23.6436442373
 10
-17.3774737796
 20
-24.0670760874
 10
-16.5948535651
 20
-24.4678784658
 10
-15.7955963347
 20
-24.8445912278
 10
-14.9806376766
 20
-25.1968393894
 10
-14.1492642018
 20
-25.5251618411
 10
-13.3017430785
 20
-25.829594005
 10
-12.4381684029
 20
-26.1102222352
 10
-11.5586510886
 20
-26.3671253703
 10
-10.6634784348
 20
-26.6003433279
 10
-9.7528081043
 20
-26.8099567247
 10
-8.8266687234
 20
-26.9960793253
 10
-7.8851490903
 20
-27.1588108118
  0
LWPOLYLINE
  5
247
100
AcDbEntity
  8
0
100
AcDbPolyline
 62
7
  6
CONTINUOUS
 90
25
 70
0
 10
-25.1673510895
 20
-16.7429574897
 10
-24.714997537
 20
-17.3717879091
 10
-24.223599337
 20
-17.9992633529
 10
-23.6931503071
 20
-18.6244743498
 10
-23.119159612
 20
-19.2522484669
 10
-22.5061389854
 20
-19.8756344037
 10
-21.8676838571
 20
-20.476836259
 10
-21.2013700986
 20
-21.0546891272
 10
-20.5098700776
 20
-21.6099578224
 10
-19.8145440353
 20
-22.1295055983
 10
-19.1271036723
 20
-22.6058569789
 10
-18.4361323886
 20
-23.0482819204
 10
-17.7283055847
 20
-23.4689880203
 10
-17.006202993
 20
-23.8688460397
 10
-16.2674458296
 20
-24.2470422061
 10
-15.4912713353
 20
-24.6118179219
 10
-14.6645245955
 20
-24.9683584849
 10
-13.8006419291
 20
-25.3095822283
 10
-12.9187419578
 20
-25.6254042734
 10
-12.017307174
 20
-25.9146432145
 10
-11.098088628
 20
-26.1786133797
 10
-10.1849985004
 20
-26.4126693122
 10
-9.2859920494
 20
-26.6162098241
 10
-8.3931408539
 20
-26.791756254
 10
-7.5064430793
 20
-26.9401507074
  0
LWPOLYLINE
  5
248
100
AcDbEntity
  8
IMPORT_IGES
100
AcDbPolyline
 62
7
  6
CONTINUOUS
 90
21
 70
0
 10
-26.9307518857
 20
-17.597182498
 10
-26.4525064764
 20
-18.3932497277
 10
-25.8350594176
 20
-19.2911630095
 10
-25.1443190998
 20
-20.1731449316
 10
-24.3793038513
 20
-21.0404516048
 10
-23.5399976153
 20
-21.8922454489
 10
-22.6291044176
 20
-22.7256083535
 10
-21.6508703891
 20
-23.537394308
 10
-20.6073424434
 20
-24.3264016451
 10
-19.5005538113
 20
-25.0910957847
 10
-18.3348869132
 20
-25.8285303746
 10
-17.1117026757
 20
-26.5374895549
 10
-15.8316409722
 20
-27.2176389987
 10
-14.4978008258
 20
-27.8676649284
 10
-13.1115616391
 20
-28.4871690265
 10
-11.6756329995
 20
-29.075009581
 10
-10.1937917098
 20
-29.6292649258
 10
-8.6724291162
 20
-30.1471383148
 10
-7.1170333052
 20
-30.6269634136
 10
-5.5300975861
 20
-31.0684141392
 10
-3.9100431739
 20
-31.4720510863
  0
LINE
  5
249
100
AcDbEntity
  8
IMPORT_IGES
100
AcDbLine
 62
253
  6
CONTINUOUS
 10
-27.0613757256
 20
-17.3304581784
 11
-27.018718762
 21
-17.4023260979
  0
LWPOLYLINE
  5
24A
100
AcDbEntity
  8
IMPORT_IGES
100
AcDbPolyline
 62
253
  6
CONTINUOUS
 90
34
 70
0
 10
-26.9740781332
 20
-17.4805823071
 10
-26.6395542126
 20
-18.0486254985
 10
-26.273952988
 20
-18.6127858982
 10
-25.8778867666
 20
-19.172307609
 10
-25.4522196475
 20
-19.7260983677
 10
-24.9973830476
 20
-20.2737323178
 10
-24.5133113116
 20
-20.8154397013
 10
-24.0007012992
 20
-21.3504849896
 10
-23.4602986345
 20
-21.8781078345
 10
-22.8919925205
 20
-22.3984370138
 10
-22.2965100764
 20
-22.9107048015
 10
-21.6746224257
 20
-23.4143073639
 10
-21.0261262976
 20
-23.9095209365
 10
-20.3513038555
 20
-24.3959630108
 10
-19.6518729441
 20
-24.8723563411
 10
-18.9301229041
 20
-25.3374465297
 10
-18.1834146001
 20
-25.7928775893
 10
-17.4113533473
 20
-26.2386525861
 10
-16.618893601
 20
-26.6719109266
 10
-15.8057715628
 20
-27.0930298567
 10
-14.9691282276
 20
-27.5035399993
 10
-14.1113648734
 20
-27.9019873228
 10
-13.2346066948
 20
-28.2874298896
 10
-12.339405818
 20
-28.6597684865
 10
-11.4254904234
 20
-29.019001347
 10
-10.4938405457
 20
-29.3647212015
 10
-9.5457003596
 20
-29.6965575604
 10
-8.5810314012
 20
-30.0144681269
 10
-7.6010554443
 20
-30.3180617263
 10
-6.6070349098
 20
-30.6069553612
 10
-5.5988988678
 20
-30.8810539163
 10
-4.5774815781
 20
-31.1400858146
 10
-3.5445242436
 20
-31.3836346004
 10
-2.5013072123
 20
-31.6113757549
  0
LINE
  5
24B
100
AcDbEntity
  8
IMPORT_IGES
100
AcDbLine
 62
253
  6
CONTINUOUS
 10
-27.018718762
 20
-17.4023260979
 11
-26.9740781332
 21
-17.4805823071
  0
LINE
  5
24C
100
AcDbEntity
  8
IMPORT_IGES
100
AcDbLine
 62
7
  6
CONTINUOUS
 10
-26.9589183231
 20
-17.549606946
 11
-26.9307493279
 21
-17.5991993432
  0
LINE
  5
24D
100
AcDbEntity
  8
IMPORT_IGES
100
AcDbLine
 62
7
  6
CONTINUOUS
 10
-26.9307493279
 20
-17.5991993432
 11
-26.9319321989
 21
-17.5970723774
  0
LWPOLYLINE
  5
24E
100
AcDbEntity
  8
IMPORT_IGES
100
AcDbPolyline
 62
253
  6
CONTINUOUS
 90
5
 70
0
 10
-26.9319321989
 20
-17.5970723774
 10
-26.937697365
 20
-17.586228147
 10
-26.9529602328
 20
-17.5525398308
 10
-26.9650251834
 20
-17.5173907809
 10
-26.9738023481
 20
-17.4811118474
  0
LWPOLYLINE
  5
24F
100
AcDbEntity
  8
IMPORT_IGES
100
AcDbPolyline
 62
253
  6
CONTINUOUS
 90
10
 70
0
 10
-27.3565357152
 20
-17.9464522166
 10
-27.3467832143
 20
-17.9692682527
 10
-27.3348419485
 20
-17.991476172
 10
-27.3207871082
 20
-18.0129120492
 10
-27.3047943495
 20
-18.0333438246
 10
-27.2869494742
 20
-18.0527447497
 10
-27.2671367765
 20
-18.0712660244
 10
-27.2453393068
 20
-18.0888681183
 10
-27.2217498142
 20
-18.1053450076
 10
-27.1965095356
 20
-18.120601168
  0
LWPOLYLINE
  5
250
100
AcDbEntity
  8
IMPORT_IGES
100
AcDbPolyline
 62
253
  6
CONTINUOUS
 90
14
 70
0
 10
-21.0987011529
 20
-36.1001945799
 10
-21.1353960987
 20
-36.0046763217
 10
-21.172078914
 20
-35.910685755
 10
-21.2086269922
 20
-35.8184553608
 10
-21.2449617939
 20
-35.7282126474
 10
-21.281067904
 20
-35.6401712921
 10
-21.3168509847
 20
-35.5545715997
 10
-21.3521374123
 20
-35.47166952
 10
-21.3869144972
 20
-35.3917196419
 10
-21.4211640838
 20
-35.3148699825
 10
-21.4547260699
 20
-35.2412016777
 10
-21.4875514688
 20
-35.170858437
 10
-21.5197038964
 20
-35.1040455571
 10
-21.5512027962
 20
-35.04092292
  0
LINE
  5
251
100
AcDbEntity
  8
IMPORT_IGES
100
AcDbLine
 62
253
  6
CONTINUOUS
 10
-21.0253613612
 20
-36.2947881109
 11
-21.0987011529
 21
-36.1001945799
  0
LINE
  5
252
100
AcDbEntity
  8
IMPORT_IGES
100
AcDbLine
 62
253
  6
CONTINUOUS
 10
-20.952405029
 20
-36.4923905716
 11
-21.0253613612
 21
-36.2947881109
  0
LINE
  5
253
100
AcDbEntity
  8
IMPORT_IGES
100
AcDbLine
 62
253
  6
CONTINUOUS
 10
-20.8804060313
 20
-36.6909026433
 11
-20.952405029
 21
-36.4923905716
  0
LINE
  5
254
100
AcDbEntity
  8
IMPORT_IGES
100
AcDbLine
 62
253
  6
CONTINUOUS
 10
-20.7756047749
 20
-36.9854411596
 11
-20.8804060313
 21
-36.6909026433
  0
LWPOLYLINE
  5
255
100
AcDbEntity
  8
IMPORT_IGES
100
AcDbPolyline
 62
253
  6
CONTINUOUS
 90
3
 70
0
 10
-20.5259370341
 20
-37.7025545377
 10
-20.5536683698
 20
-37.6216340205
 10
-20.7756047749
 20
-36.9854411596
  0
LWPOLYLINE
  5
256
100
AcDbEntity
  8
IMPORT_IGES
100
AcDbPolyline
 62
253
  6
CONTINUOUS
 90
10
 70
0
 10
-24.0031800913
 20
-30.8435927774
 10
-24.4621830562
 20
-29.4431069721
 10
-24.8994627028
 20
-28.033878577
 10
-25.3149695256
 20
-26.6164016822
 10
-25.7088063445
 20
-25.1907127217
 10
-26.0810712102
 20
-23.7568654571
 10
-26.4317478455
 20
-22.3154000347
 10
-26.7609199051
 20
-20.8665389226
 10
-27.0687464738
 20
-19.4101758994
 10
-27.3553445504
 20
-17.9463689124
  0
LWPOLYLINE
  5
257
100
AcDbEntity
  8
IMPORT_IGES
100
AcDbPolyline
 62
7
  6
CONTINUOUS
 90
7
 70
0
 10
-27.7260237321
 20
-17.2352239955
 10
-27.0427097849
 20
-20.3431319411
 10
-26.2732262801
 20
-23.4179703814
 10
-25.4180592085
 20
-26.4595602365
 10
-24.4779270847
 20
-29.4668418527
 10
-23.4532482498
 20
-32.439714498
 10
-22.7620576123
 20
-34.3011602122
  0
LWPOLYLINE
  5
258
100
AcDbEntity
  8
IMPORT_IGES
100
AcDbPolyline
 62
253
  6
CONTINUOUS
 90
13
 70
0
 10
-26.27801421
 20
-18.6470025334
 10
-26.106187299
 20
-19.5248923867
 10
-25.7977812479
 20
-20.9833993409
 10
-25.4683058382
 20
-22.4323663319
 10
-25.117798177
 20
-23.8718218972
 10
-24.7462211573
 20
-25.3017374994
 10
-24.3534634581
 20
-26.7220275262
 10
-23.9395138079
 20
-28.1326833093
 10
-23.5043834783
 20
-29.533713517
 10
-23.0479949629
 20
-30.9250585426
 10
-22.5703224264
 20
-32.3066985172
 10
-22.0713917041
 20
-33.6786533096
 10
-21.5512027962
 20
-35.04092292
  0
LWPOLYLINE
  5
259
100
AcDbEntity
  8
IMPORT_IGES
100
AcDbPolyline
 62
253
  6
CONTINUOUS
 90
29
 70
0
 10
-27.3553445504
 20
-17.9463689124
 10
-27.3728722793
 20
-17.8508156132
 10
-27.3887312037
 20
-17.7590102871
 10
-27.4029139828
 20
-17.670951759
 10
-27.4154900193
 20
-17.5862099957
 10
-27.4263616077
 20
-17.5052107014
 10
-27.4352677941
 20
-17.4292370874
 10
-27.4421459155
 20
-17.3584314099
 10
-27.4470119646
 20
-17.2926472074
 10
-27.4497241821
 20
-17.2327367666
 10
-27.4502159982
 20
-17.1788326204
 10
-27.4484904736
 20
-17.1307970876
 10
-27.4445142483
 20
-17.0890790061
 10
-27.4382432452
 20
-17.0537153617
 10
-27.4296470964
 20
-17.0246626603
 10
-27.4187200617
 20
-17.0022507788
 10
-27.4054116082
 20
-16.9865056292
 10
-27.3896912373
 20
-16.9773931283
 10
-27.3715936396
 20
-16.9751550808
 10
-27.3510579651
 20
-16.9798466136
 10
-27.3280641559
 20
-16.9914030328
 10
-27.3027238176
 20
-17.0098889163
 10
-27.2749756611
 20
-17.0353683633
 10
-27.2448090013
 20
-17.0677670811
 10
-27.2124341295
 20
-17.1069455599
 10
-27.1778004845
 20
-17.1529781493
 10
-27.1409059555
 20
-17.2057811735
 10
-27.1020631967
 20
-17.264982787
 10
-27.0613757256
 20
-17.3304581784
  0
LINE
  5
25A
100
AcDbEntity
  8
IMPORT_IGES
100
AcDbLine
 62
7
  6
CONTINUOUS
 10
-25.84450737
 20
-16.1338408975
 11
-25.8408696506
 21
-16.1679990698
  0
LINE
  5
25B
100
AcDbEntity
  8
0
100
AcDbLine
 62
7
  6
CONTINUOUS
 10
-7.5064430793
 20
-26.9401507074
 11
-7.4526198028
 21
-26.9462882774
  0
LWPOLYLINE
  5
25C
100
AcDbEntity
  8
IMPORT_IGES
100
AcDbPolyline
 62
7
  6
CONTINUOUS
 90
9
 70
0
 10
-7.8851490903
 20
-27.1588108118
 10
-7.8395076312
 20
-27.164462276
 10
-7.7954822318
 20
-27.1669032693
 10
-7.7532807124
 20
-27.1661465067
 10
-7.7130774877
 20
-27.1622071724
 10
-7.6750687777
 20
-27.1551740325
 10
-7.6394808874
 20
-27.1451844208
 10
-7.6064795678
 20
-27.1323277211
 10
-7.578213907
 20
-27.1178754098
  0
LWPOLYLINE
  5
25D
100
AcDbEntity
  8
IMPORT_IGES
100
AcDbPolyline
 62
253
  6
CONTINUOUS
 90
15
 70
0
 10
-27.1965095356
 20
-18.120601168
 10
-27.1610025754
 20
-18.1387410191
 10
-27.1228529161
 20
-18.154685826
 10
-27.0823713951
 20
-18.1682359216
 10
-27.0402174367
 20
-18.1792249132
 10
-26.9966547309
 20
-18.1876723893
 10
-26.9513776226
 20
-18.1936051961
 10
-26.9047176248
 20
-18.1969070747
 10
-26.8571999388
 20
-18.1975571963
 10
-26.8087355703
 20
-18.1955190565
 10
-26.7598342469
 20
-18.1907186137
 10
-26.7109796011
 20
-18.1831950304
 10
-26.6621314361
 20
-18.1729189344
 10
-26.6140310786
 20
-18.1599757073
 10
-26.5961897908
 20
-18.1540805149
  0
LWPOLYLINE
  5
25E
100
AcDbEntity
  8
IMPORT_IGES
100
AcDbPolyline
 62
7
  6
CONTINUOUS
 90
6
 70
0
 10
-25.7210208545
 20
-15.9553355393
 10
-25.7396833608
 20
-15.9450280023
 10
-25.7572435461
 20
-15.9386519856
 10
-25.7735108595
 20
-15.936145232
 10
-25.7882297877
 20
-15.9373747703
 10
-25.8022952695
 20
-15.9428247354
  0
LINE
  5
25F
100
AcDbEntity
  8
IMPORT_IGES
100
AcDbLine
 62
7
  6
CONTINUOUS
 10
-7.8793572204
 20
-26.2568947573
 11
-10.0827012894
 21
-25.0240956948
  0
LINE
  5
260
100
AcDbEntity
  8
IMPORT_IGES
100
AcDbLine
 62
7
  6
CONTINUOUS
 10
-10.0827012894
 20
-25.0240956948
 11
-11.4808590102
 21
-24.2377891955
  0
LINE
  5
261
100
AcDbEntity
  8
IMPORT_IGES
100
AcDbLine
 62
7
  6
CONTINUOUS
 10
-11.4808590102
 20
-24.2377891955
 11
-12.8275027956
 21
-23.4771970537
  0
LINE
  5
262
100
AcDbEntity
  8
IMPORT_IGES
100
AcDbLine
 62
7
  6
CONTINUOUS
 10
-12.8275027956
 20
-23.4771970537
 11
-14.1244251056
 21
-22.7412931286
  0
LINE
  5
263
100
AcDbEntity
  8
IMPORT_IGES
100
AcDbLine
 62
7
  6
CONTINUOUS
 10
-14.1244251056
 20
-22.7412931286
 11
-15.9841308992
 21
-21.6805576319
  0
LINE
  5
264
100
AcDbEntity
  8
IMPORT_IGES
100
AcDbLine
 62
7
  6
CONTINUOUS
 10
-15.9841308992
 20
-21.6805576319
 11
-17.7323277062
 21
-20.6786722763
  0
LINE
  5
265
100
AcDbEntity
  8
IMPORT_IGES
100
AcDbLine
 62
7
  6
CONTINUOUS
 10
-17.7323277062
 20
-20.6786722763
 11
-18.8293372687
 21
-20.0462442223
  0
LINE
  5
266
100
AcDbEntity
  8
IMPORT_IGES
100
AcDbLine
 62
7
  6
CONTINUOUS
 10
-18.8293372687
 20
-20.0462442223
 11
-19.8775037223
 21
-19.4383925557
  0
LINE
  5
267
100
AcDbEntity
  8
IMPORT_IGES
100
AcDbLine
 62
7
  6
CONTINUOUS
 10
-19.8775037223
 20
-19.4383925557
 11
-20.8771377085
 21
-18.8554911658
  0
LINE
  5
268
100
AcDbEntity
  8
IMPORT_IGES
100
AcDbLine
 62
7
  6
CONTINUOUS
 10
-20.8771377085
 20
-18.8554911658
 11
-21.8267316707
 21
-18.2990882141
  0
LINE
  5
269
100
AcDbEntity
  8
IMPORT_IGES
100
AcDbLine
 62
7
  6
CONTINUOUS
 10
-21.8267316707
 20
-18.2990882141
 11
-22.7210910559
 21
-17.7715800732
  0
LINE
  5
26A
100
AcDbEntity
  8
IMPORT_IGES
100
AcDbLine
 62
7
  6
CONTINUOUS
 10
-22.7210910559
 20
-17.7715800732
 11
-23.5578768414
 21
-17.2737620924
  0
LINE
  5
26B
100
AcDbEntity
  8
IMPORT_IGES
100
AcDbLine
 62
7
  6
CONTINUOUS
 10
-23.5578768414
 20
-17.2737620924
 11
-24.3364082121
 21
-16.8055627208
  0
LINE
  5
26C
100
AcDbEntity
  8
IMPORT_IGES
100
AcDbLine
 62
7
  6
CONTINUOUS
 10
-24.3364082121
 20
-16.8055627208
 11
-25.0580474458
 21
-16.3653898286
  0
LINE
  5
26D
100
AcDbEntity
  8
IMPORT_IGES
100
AcDbLine
 62
7
  6
CONTINUOUS
 10
-25.0580474458
 20
-16.3653898286
 11
-25.7210208545
 21
-15.9553355393
  0
LINE
  5
26E
100
AcDbEntity
  8
0
100
AcDbLine
 62
7
  6
CONTINUOUS
 10
-17.2872841663
 20
-37.6096909937
 11
-20.7384122182
 21
-24.2273003087
  0
LWPOLYLINE
  5
26F
100
AcDbEntity
  8
0
100
AcDbPolyline
 62
7
  6
CONTINUOUS
 90
14
 70
0
 10
-25.4288604379
 20
-16.1366498733
 10
-25.4271741354
 20
-16.1441919231
 10
-25.4141658738
 20
-16.1946728078
 10
-25.3991020381
 20
-16.2465749409
 10
-25.3820690725
 20
-16.2995120053
 10
-25.3632279349
 20
-16.3530793302
 10
-25.342713158
 20
-16.40675641
 10
-25.3206129178
 20
-16.4599753699
 10
-25.297205159
 20
-16.5122885914
 10
-25.2727089897
 20
-16.5632232302
 10
-25.247173042
 20
-16.6121876346
 10
-25.220832552
 20
-16.6587061416
 10
-25.1941060146
 20
-16.7024225681
 10
-25.1673510895
 20
-16.7429574897
  0
LWPOLYLINE
  5
270
100
AcDbEntity
  8
IMPORT_IGES
100
AcDbPolyline
 62
7
  6
CONTINUOUS
 90
19
 70
0
 10
-25.8337254713
 20
-16.2251981681
 10
-25.8284563804
 20
-16.2617217727
 10
-25.8216151681
 20
-16.3000831368
 10
-25.813221697
 20
-16.34004091
 10
-25.8033111246
 20
-16.381348868
 10
-25.7919340855
 20
-16.4237517651
 10
-25.7791574353
 20
-16.4669867034
 10
-25.7650923871
 20
-16.5107668739
 10
-25.749808098
 20
-16.5548607124
 10
-25.7333146986
 20
-16.599084479
 10
-25.7157316297
 20
-16.6431780034
 10
-25.6971696063
 20
-16.6868785232
 10
-25.6776168639
 20
-16.7299869429
 10
-25.6572224624
 20
-16.7722355124
 10
-25.6361269095
 20
-16.8133575166
 10
-25.614301965
 20
-16.8531312378
 10
-25.5918540343
 20
-16.891289372
 10
-25.5690370014
 20
-16.9275410001
 10
-25.5460571878
 20
-16.9616176445
  0
LINE
  5
271
100
AcDbEntity
  8
IMPORT_IGES
100
AcDbLine
 62
7
  6
CONTINUOUS
 10
-25.8408696506
 20
-16.1679990698
 11
-25.8337254713
 21
-16.2251981681
  0
LINE
  5
272
100
AcDbEntity
  8
IMPORT_IGES
100
AcDbLine
 62
253
  6
CONTINUOUS
 10
18.0616256725
 20
35.2572269251
 11
20.8265076544
 21
36.8894242213
  0
LINE
  5
273
100
AcDbEntity
  8
IMPORT_IGES
100
AcDbLine
 62
253
  6
CONTINUOUS
 10
18.0154600643
 20
34.752873465
 11
17.6346521227
 21
34.5329997322
  0
LINE
  5
274
100
AcDbEntity
  8
IMPORT_IGES
100
AcDbLine
 62
253
  6
CONTINUOUS
 10
6.0764049712
 20
28.6459335836
 11
17.3130925237
 21
34.8176795987
  0
LWPOLYLINE
  5
275
100
AcDbEntity
  8
IMPORT_IGES
100
AcDbPolyline
 62
253
  6
CONTINUOUS
 90
19
 70
0
 10
-21.0603215313
 20
-38.2749481248
 10
-21.0578126689
 20
-38.2356151662
 10
-21.0514502073
 20
-38.1957383311
 10
-21.0413220589
 20
-38.1557494609
 10
-21.027694499
 20
-38.1163544664
 10
-21.010696097
 20
-38.0776771253
 10
-20.9901793912
 20
-38.0392920403
 10
-20.9662237494
 20
-38.0014819084
 10
-20.9390560993
 20
-37.9647500296
 10
-20.9085883866
 20
-37.9290284063
 10
-20.8750555819
 20
-37.8946942608
 10
-20.8387712366
 20
-37.862181976
 10
-20.7997381529
 20
-37.8315372559
 10
-20.758470026
 20
-37.8032093549
 10
-20.7153108954
 20
-37.7774756299
 10
-20.6699882563
 20
-37.7542194926
 10
-20.6227971348
 20
-37.7337250219
 10
-20.574581994
 20
-37.7164426529
 10
-20.5259370885
 20
-37.7025545654
  0
LWPOLYLINE
  5
276
100
AcDbEntity
  8
IMPORT_IGES
100
AcDbPolyline
 62
253
  6
CONTINUOUS
 90
13
 70
0
 10
13.1243337809
 20
22.0556306598
 10
13.2373217654
 20
22.1158952035
 10
13.3493117383
 20
22.1783267487
 10
13.4599913358
 20
22.2427579521
 10
13.5688885413
 20
22.3089137679
 10
13.6758842952
 20
22.3766986787
 10
13.7811813767
 20
22.4462442263
 10
13.8845544803
 20
22.5174285137
 10
13.9856401165
 20
22.5900039795
 10
14.0843887981
 20
22.6639445298
 10
14.1805809259
 20
22.7391109811
 10
14.2738772967
 20
22.8152378454
 10
14.3640228534
 20
22.8921111326
  0
LWPOLYLINE
  5
277
100
AcDbEntity
  8
IMPORT_IGES
100
AcDbPolyline
 62
253
  6
CONTINUOUS
 90
46
 70
0
 10
19.2921066505
 20
-51.8098113678
 10
18.5218397412
 20
-50.6811113937
 10
17.7764881703
 20
-49.5215039814
 10
17.0571353145
 20
-48.3310732877
 10
16.365638642
 20
-47.1095407653
 10
15.7021738275
 20
-45.8572873581
 10
15.0651696659
 20
-44.5753249584
 10
14.4552944007
 20
-43.2633596334
 10
13.8735383873
 20
-41.9215785286
 10
13.3186302209
 20
-40.5516684821
 10
12.7907602994
 20
-39.1532078557
 10
12.2910762769
 20
-37.7263989455
 10
11.8195425087
 20
-36.2739108561
 10
11.3760360506
 20
-34.7944972804
 10
10.9617084311
 20
-33.2891797027
 10
10.5781185421
 20
-31.7642460052
 10
10.2260319845
 20
-30.2215987412
 10
9.9051196174
 20
-28.6594181458
 10
9.6150419043
 20
-27.0785810033
 10
9.3557672183
 20
-25.4785466314
 10
9.1276140016
 20
-23.8598209243
 10
8.9306339346
 20
-22.2249107683
 10
8.7647443799
 20
-20.5741591292
 10
8.6300165412
 20
-18.9072336759
 10
8.5265804968
 20
-17.2257119325
 10
8.4541326192
 20
-15.5293645771
 10
8.4127524347
 20
-13.8184073429
 10
8.402996074
 20
-12.0951618039
 10
8.4246857724
 20
-10.3588191998
 10
8.4775121413
 20
-8.6101840295
 10
8.5615967257
 20
-6.8541516552
 10
8.6763643841
 20
-5.090966984
 10
8.8214864534
 20
-3.3205409632
 10
8.9971641581
 20
-1.5474670813
 10
9.2024287495
 20
0.2279031412
 10
9.4369710358
 20
2.0056522293
 10
9.7017039812
 20
3.7816836999
 10
9.9955597575
 20
5.5550907477
 10
10.3179459705
 20
7.3264538878
 10
10.6702460302
 20
9.0938480133
 10
11.0512689999
 20
10.8568931358
 10
11.4602286372
 20
12.6157379166
 10
11.8988939258
 20
14.3692897736
 10
12.3670252587
 20
16.1171746773
 10
12.8624737297
 20
17.8597111823
 10
13.3839912844
 20
19.5968986687
  0
LWPOLYLINE
  5
278
100
AcDbEntity
  8
IMPORT_IGES
100
AcDbPolyline
 62
253
  6
CONTINUOUS
 90
9
 70
0
 10
4.2277220886
 20
-50.4057461307
 10
4.2367197214
 20
-50.4288401979
 10
4.2509778431
 20
-50.457953445
 10
4.2681863652
 20
-50.4860318281
 10
4.2882247304
 20
-50.5127685766
 10
4.311036185
 20
-50.5380239363
 10
4.3364902178
 20
-50.5616032052
 10
4.3643559756
 20
-50.5832825127
 10
4.3943884262
 20
-50.6029006084
  0
LWPOLYLINE
  5
279
100
AcDbEntity
  8
IMPORT_IGES
100
AcDbPolyline
 62
7
  6
CONTINUOUS
 90
14
 70
0
 10
-7.4717807028
 20
-26.7111284976
 10
-7.4847971938
 20
-26.6738153948
 10
-7.5013584629
 20
-26.6359101932
 10
-7.5214090097
 20
-26.5976803184
 10
-7.5447242725
 20
-26.5594562879
 10
-7.5712223573
 20
-26.5215906244
 10
-7.6008385619
 20
-26.48428458
 10
-7.6333309273
 20
-26.4476571961
 10
-7.6686241852
 20
-26.4119960281
 10
-7.7065701802
 20
-26.3775994982
 10
-7.7468026269
 20
-26.3446110133
 10
-7.7890910604
 20
-26.3132767331
 10
-7.8333389406
 20
-26.2839416397
 10
-7.8793572204
 20
-26.2568947573
  0
LINE
  5
27A
100
AcDbEntity
  8
IMPORT_IGES
100
AcDbLine
 62
7
  6
CONTINUOUS
 10
4.2269753746
 20
-50.4035774828
 11
4.2277220886
 21
-50.4057461307
  0
LINE
  5
27B
100
AcDbEntity
  8
IMPORT_IGES
100
AcDbLine
 62
253
  6
CONTINUOUS
 10
-24.1496895539
 20
42.9559418455
 11
-24.0974244379
 21
42.7201880873
  0
LWPOLYLINE
  5
27C
100
AcDbEntity
  8
IMPORT_IGES
100
AcDbPolyline
 62
253
  6
CONTINUOUS
 90
3
 70
0
 10
-24.3342250932
 20
43.8263983057
 10
-24.236850896
 20
43.3640654482
 10
-24.1496895539
 20
42.9559418455
  0
LINE
  5
27D
100
AcDbEntity
  8
IMPORT_IGES
100
AcDbLine
 62
7
  6
CONTINUOUS
 10
-7.4462497472
 20
-26.8752124023
 11
-7.4489547555
 21
-26.8403408251
  0
LWPOLYLINE
  5
27E
100
AcDbEntity
  8
IMPORT_IGES
100
AcDbPolyline
 62
253
  6
CONTINUOUS
 90
13
 70
0
 10
26.2574363583
 20
25.9576822305
 10
26.5277460734
 20
26.1316805195
 10
26.7855914703
 20
26.3116156671
 10
27.0305510274
 20
26.4971913721
 10
27.2622242015
 20
26.6881019049
 10
27.480232951
 20
26.8840333216
 10
27.6842221771
 20
27.084664043
 10
27.8738590183
 20
27.2896641885
 10
28.0488341648
 20
27.4986967015
 10
28.2088629566
 20
27.7114186975
 10
28.3536848432
 20
27.9274809007
 10
28.4830639593
 20
28.146528179
 10
28.5967899991
 20
28.3682007984
  0
LINE
  5
27F
100
AcDbEntity
  8
IMPORT_IGES
100
AcDbLine
 62
253
  6
CONTINUOUS
 10
26.2574363583
 20
25.9576822305
 11
23.4832135999
 21
24.3334523726
  0
LINE
  5
280
100
AcDbEntity
  8
IMPORT_IGES
100
AcDbLine
 62
253
  6
CONTINUOUS
 10
22.6965714313
 20
24.4635085159
 11
23.0249815305
 21
24.6531283912
  0
LINE
  5
281
100
AcDbEntity
  8
IMPORT_IGES
100
AcDbLine
 62
253
  6
CONTINUOUS
 10
22.7204484701
 20
23.9261872285
 11
14.795923846
 21
19.490855308
  0
LWPOLYLINE
  5
282
100
AcDbEntity
  8
IMPORT_IGES
100
AcDbPolyline
 62
253
  6
CONTINUOUS
 90
43
 70
0
 10
19.2920859546
 20
-51.8098329069
 10
19.3525387017
 20
-51.9053037405
 10
19.4037595992
 20
-52.0018454534
 10
19.4455057997
 20
-52.099002705
 10
19.4770781088
 20
-52.1961230913
 10
19.4990201818
 20
-52.292998325
 10
19.5127438562
 20
-52.3901059517
 10
19.5184266543
 20
-52.4875564612
 10
19.5153879923
 20
-52.5850168916
 10
19.5037411905
 20
-52.6824226789
 10
19.4841144242
 20
-52.7792865445
 10
19.4564810413
 20
-52.8755858227
 10
19.4198961105
 20
-52.9718028118
 10
19.3746834067
 20
-53.0671351847
 10
19.3212401627
 20
-53.1614906795
 10
19.2582360382
 20
-53.2561495948
 10
19.1854587651
 20
-53.3505115294
 10
19.1033679789
 20
-53.4444022898
 10
19.0107890688
 20
-53.5395822657
 10
18.9075604526
 20
-53.6359775342
 10
18.7935724298
 20
-53.7329347805
 10
18.6671021836
 20
-53.8311500761
 10
18.5274874544
 20
-53.9303469444
 10
18.3750530585
 20
-54.0297570153
 10
18.2095212137
 20
-54.1290837795
 10
18.0310943645
 20
-54.2276131024
 10
17.8403942638
 20
-54.3246022397
 10
17.6379182336
 20
-54.4197354957
 10
17.4244959432
 20
-54.5125168557
 10
17.1997927913
 20
-54.6027320102
 10
16.9626140583
 20
-54.6905056789
 10
16.712893068
 20
-54.7754489925
 10
16.4504581096
 20
-54.8569682362
 10
16.1739896029
 20
-54.9346719334
 10
15.8837767326
 20
-55.0078171776
 10
15.5796985567
 20
-55.0758708757
 10
15.2597826205
 20
-55.1385529019
 10
14.9244430332
 20
-55.1949998135
 10
14.5740181035
 20
-55.2444830016
 10
14.2065351034
 20
-55.2865758463
 10
13.8219141167
 20
-55.3204119765
 10
13.4220496827
 20
-55.3449069947
 10
13.0082448055
 20
-55.3591476551
  0
LINE
  5
283
100
AcDbEntity
  8
IMPORT_IGES
100
AcDbLine
 62
253
  6
CONTINUOUS
 10
4.2323386517
 20
-49.3529840884
 11
4.6721255802
 21
-50.6778657514
  0
LWPOLYLINE
  5
284
100
AcDbEntity
  8
IMPORT_IGES
100
AcDbPolyline
 62
7
  6
CONTINUOUS
 90
10
 70
0
 10
4.2277453593
 20
-50.4057457428
 10
4.234669234
 20
-50.4271864998
 10
4.2476707501
 20
-50.4839685751
 10
4.2514772727
 20
-50.5323949626
 10
4.2478219047
 20
-50.5731194668
 10
4.2374337881
 20
-50.609927238
 10
4.2186608194
 20
-50.6477154246
 10
4.1893419746
 20
-50.6877274203
 10
4.1477841051
 20
-50.729428954
 10
4.131375153
 20
-50.7431390788
  0
LWPOLYLINE
  5
285
100
AcDbEntity
  8
IMPORT_IGES
100
AcDbPolyline
 62
253
  6
CONTINUOUS
 90
46
 70
0
 10
-21.8539084022
 20
44.7725464763
 10
-21.7262801046
 20
44.3416142066
 10
-21.571149263
 20
43.9125075401
 10
-21.3884758321
 20
43.4848698866
 10
-21.1782379779
 20
43.0581995862
 10
-20.9403840632
 20
42.6322626636
 10
-20.6748333235
 20
42.2071060267
 10
-20.3814091158
 20
41.7823029896
 10
-20.0602318429
 20
41.357530383
 10
-19.7116730604
 20
40.9330212853
 10
-19.3350448486
 20
40.5077949545
 10
-18.9310019562
 20
40.0820869591
 10
-18.5019444493
 20
39.6581103464
 10
-18.0481369228
 20
39.2359025671
 10
-17.5693183212
 20
38.8149651182
 10
-17.0671150363
 20
38.3969331156
 10
-16.5420012769
 20
37.9822068616
 10
-15.9935272685
 20
37.570115797
 10
-15.4219398191
 20
37.1607952918
 10
-14.8267788351
 20
36.7538706828
 10
-14.2085400681
 20
36.3494423096
 10
-13.5689083332
 20
35.9484376854
 10
-12.9071960125
 20
35.5504117525
 10
-12.2241383436
 20
35.1556621971
 10
-11.5235571416
 20
34.7664411677
 10
-10.8060323829
 20
34.383213964
 10
-10.0710321956
 20
34.0056851536
 10
-9.3207077284
 20
33.6351840869
 10
-8.555585655
 20
33.2722104027
 10
-7.7751755849
 20
32.9165735907
 10
-6.9800983953
 20
32.5686575841
 10
-6.1694863644
 20
32.2283617224
 10
-5.3442319002
 20
31.8960883057
 10
-4.507589718
 20
31.5730729586
 10
-3.6587827183
 20
31.2592612412
 10
-2.7985927923
 20
30.9551574267
 10
-1.9325978939
 20
30.6630518081
 10
-1.0622967623
 20
30.3839060488
 10
-0.1861565684
 20
30.1174849088
 10
0.6948073374
 20
29.8644316767
 10
1.5804657965
 20
29.6252228776
 10
2.4710049652
 20
29.4000744635
 10
3.3658886874
 20
29.1892537288
 10
4.2649627937
 20
28.9930682278
 10
5.1684548662
 20
28.8118583419
 10
6.0764049712
 20
28.6459335836
  0
LWPOLYLINE
  5
286
100
AcDbEntity
  8
IMPORT_IGES
100
AcDbPolyline
 62
253
  6
CONTINUOUS
 90
10
 70
0
 10
2.4754520152
 20
-51.995190572
 10
2.4726456751
 20
-51.9817182734
 10
2.4700602428
 20
-51.967614815
 10
2.4677019352
 20
-51.952931752
 10
2.4655795573
 20
-51.9377492714
 10
2.4636919612
 20
-51.9220883265
 10
2.4620321277
 20
-51.9058962119
 10
2.460602501
 20
-51.8891712074
 10
2.4594109948
 20
-51.8719770594
 10
2.4584612251
 20
-51.8543449804
  0
LWPOLYLINE
  5
287
100
AcDbEntity
  8
IMPORT_IGES
100
AcDbPolyline
 62
7
  6
CONTINUOUS
 90
3
 70
0
 10
-7.4560989346
 20
-26.7831417268
 10
-7.4622264053
 20
-26.7476415835
 10
-7.4717807028
 20
-26.7111284976
  0
LINE
  5
288
100
AcDbEntity
  8
IMPORT_IGES
100
AcDbLine
 62
7
  6
CONTINUOUS
 10
-7.4489547555
 20
-26.8403408251
 11
-7.4560989346
 21
-26.7831417268
  0
LWPOLYLINE
  5
289
100
AcDbEntity
  8
IMPORT_IGES
100
AcDbPolyline
 62
253
  6
CONTINUOUS
 90
11
 70
0
 10
0.139361217
 20
-33.7710790557
 10
0.1422464243
 20
-33.7862648263
 10
0.1498772339
 20
-33.8142103782
 10
0.1604068239
 20
-33.8414992804
 10
0.1739495246
 20
-33.8681897921
 10
0.1905204829
 20
-33.8941188697
 10
0.209967971
 20
-33.9190216685
 10
0.2322324172
 20
-33.9427659726
 10
0.2572158644
 20
-33.9651453203
 10
0.2846994734
 20
-33.9859569185
 10
0.3144261632
 20
-34.0050710117
  0
LWPOLYLINE
  5
28A
100
AcDbEntity
  8
IMPORT_IGES
100
AcDbPolyline
 62
7
  6
CONTINUOUS
 90
10
 70
0
 10
0.1393457494
 20
-33.7710822065
 10
0.4422973765
 20
-35.56427895
 10
0.8034339727
 20
-37.4986712938
 10
1.1977424914
 20
-39.4157865895
 10
1.6256558523
 20
-41.3160714266
 10
2.0873104864
 20
-43.198648375
 10
2.5824403137
 20
-45.0614251966
 10
3.1110211323
 20
-46.903714743
 10
3.6733774082
 20
-48.7261260811
 10
4.2269753746
 20
-50.4035774828
  0
LWPOLYLINE
  5
28B
100
AcDbEntity
  8
IMPORT_IGES
100
AcDbPolyline
 62
253
  6
CONTINUOUS
 90
12
 70
0
 10
0.6004276238
 20
-34.0876813922
 10
0.8402364807
 20
-35.5244151693
 10
1.0978760129
 20
-36.9517671667
 10
1.3734524489
 20
-38.3696720935
 10
1.6671117838
 20
-39.7782340694
 10
1.9789213765
 20
-41.177213257
 10
2.3088505282
 20
-42.5660410085
 10
2.6569702265
 20
-43.9446493892
 10
3.0233774508
 20
-45.3129969791
 10
3.4080449711
 20
-46.6705801426
 10
3.810999251
 20
-48.0172071385
 10
4.2323386517
 20
-49.3529840884
  0
LINE
  5
28C
100
AcDbEntity
  8
IMPORT_IGES
100
AcDbLine
 62
7
  6
CONTINUOUS
 10
0.1392425575
 20
-33.7703378573
 11
0.139361217
 21
-33.7710790557
  0
LWPOLYLINE
  5
28D
100
AcDbEntity
  8
IMPORT_IGES
100
AcDbPolyline
 62
7
  6
CONTINUOUS
 90
10
 70
0
 10
-25.8022952695
 20
-15.9428247354
 10
-25.8128894958
 20
-15.9508630137
 10
-25.8228188677
 20
-15.9629864331
 10
-25.8309926264
 20
-15.9784732964
 10
-25.8375232442
 20
-15.9972670645
 10
-25.8423640898
 20
-16.0192130786
 10
-25.8454232564
 20
-16.0440716172
 10
-25.8467851255
 20
-16.0716264649
 10
-25.8464888309
 20
-16.1016331045
 10
-25.84450737
 20
-16.1338408975
  0
LWPOLYLINE
  5
28E
100
AcDbEntity
  8
IMPORT_IGES
100
AcDbPolyline
 62
253
  6
CONTINUOUS
 90
19
 70
0
 10
2.4584612251
 20
-51.8543449804
 10
2.4572171566
 20
-51.8129041399
 10
2.4572491441
 20
-51.769296422
 10
2.4585291658
 20
-51.7240421188
 10
2.4609707042
 20
-51.6780723504
 10
2.4645131069
 20
-51.6316399074
 10
2.4692017062
 20
-51.5842402162
 10
2.4750624696
 20
-51.5361538602
 10
2.4820792965
 20
-51.4879446432
 10
2.4902696755
 20
-51.4394674003
 10
2.4995500591
 20
-51.3911561963
 10
2.5098154943
 20
-51.3435450908
 10
2.5210657416
 20
-51.2967395555
 10
2.53316586
 20
-51.2514981495
 10
2.5460249472
 20
-51.2083262945
 10
2.5597332139
 20
-51.1669473916
 10
2.574223612
 20
-51.1276403561
 10
2.5892428163
 20
-51.0911412765
 10
2.6045680192
 20
-51.0579941934
  0
LINE
  5
28F
100
AcDbEntity
  8
IMPORT_IGES
100
AcDbLine
 62
253
  6
CONTINUOUS
 10
5.571195429
 20
25.5898874534
 11
5.6891218005
 21
26.341995344
  0
LINE
  5
290
100
AcDbEntity
  8
IMPORT_IGES
100
AcDbLine
 62
253
  6
CONTINUOUS
 10
5.6891218005
 20
26.341995344
 11
5.8135972161
 21
27.110064354
  0
LINE
  5
291
100
AcDbEntity
  8
IMPORT_IGES
100
AcDbLine
 62
253
  6
CONTINUOUS
 10
5.8135972161
 20
27.110064354
 11
5.9139990016
 21
27.7117390656
  0
LINE
  5
292
100
AcDbEntity
  8
IMPORT_IGES
100
AcDbLine
 62
253
  6
CONTINUOUS
 10
5.9139990016
 20
27.7117390656
 11
6.0102215948
 21
28.272027576
  0
LINE
  5
293
100
AcDbEntity
  8
IMPORT_IGES
100
AcDbLine
 62
253
  6
CONTINUOUS
 10
6.0102215948
 20
28.272027576
 11
6.0763904546
 21
28.6458528247
  0
LINE
  5
294
100
AcDbEntity
  8
0
100
AcDbLine
 62
253
  6
CONTINUOUS
 10
-25.8408696506
 20
-16.1679990698
 11
-25.6012662543
 21
-16.0296550718
  0
LINE
  5
295
100
AcDbEntity
  8
0
100
AcDbLine
 62
253
  6
CONTINUOUS
 10
-25.5500769613
 20
-16.0614230733
 11
-25.8337254713
 21
-16.2251981681
  0
LINE
  5
296
100
AcDbEntity
  8
0
100
AcDbLine
 62
253
  6
CONTINUOUS
 10
-25.1673510895
 20
-16.7429574897
 11
-25.5460571878
 21
-16.9616176445
  0
LWPOLYLINE
  5
297
100
AcDbEntity
  8
IMPORT_IGES
100
AcDbPolyline
 62
253
  6
CONTINUOUS
 90
14
 70
0
 10
13.0082448055
 20
-55.3591476551
 10
13.0151569823
 20
-55.4515936026
 10
13.0221771848
 20
-55.5370557459
 10
13.0292703886
 20
-55.6152058747
 10
13.0363822649
 20
-55.6855590829
 10
13.0435035463
 20
-55.7481222415
 10
13.0506723707
 20
-55.8032004681
 10
13.0578660631
 20
-55.8506463348
 10
13.0650461303
 20
-55.8902846873
 10
13.0722274764
 20
-55.9221839908
 10
13.0793807906
 20
-55.9460942852
 10
13.086475356
 20
-55.9617634213
 10
13.0935242264
 20
-55.9691135299
 10
13.0962279545
 20
-55.9697155254
  0
LWPOLYLINE
  5
298
100
AcDbEntity
  8
IMPORT_IGES
100
AcDbPolyline
 62
253
  6
CONTINUOUS
 90
85
 70
0
 10
14.795923846
 20
19.490855308
 10
14.5345325981
 20
18.5797757134
 10
14.2804104462
 20
17.6667574511
 10
14.0335573904
 20
16.7518005209
 10
13.7939230487
 20
15.8348612873
 10
13.5615578031
 20
14.9159833859
 10
13.3366127995
 20
13.9952977238
 10
13.1190944384
 20
13.0727991327
 10
12.9089963192
 20
12.1484927808
 10
12.7064503863
 20
11.2225250802
 10
12.5114665542
 20
10.2948741134
 10
12.3240349083
 20
9.365561798
 10
12.1442576501
 20
8.4348002979
 10
11.9721429028
 20
7.5025191418
 10
11.807682543
 20
6.5687888011
 10
11.6509544018
 20
5.6340328537
 10
11.5019396216
 20
4.6982167021
 10
11.36065706
 20
3.7613749439
 10
11.2272411209
 20
2.8240349497
 10
11.101668039
 20
1.8860658081
 10
10.9839615797
 20
0.9475984304
 10
10.8743274427
 20
0.0095529222
 10
10.7727599268
 20
-0.9281352208
 10
10.6792647331
 20
-1.8654014944
 10
10.5940646653
 20
-2.8011322812
 10
10.5171851464
 20
-3.7351971447
 10
10.4486007534
 20
-4.6677265214
 10
10.3884580214
 20
-5.5979981026
 10
10.3368097412
 20
-6.5259625001
 10
10.2936031219
 20
-7.451669102
 10
10.2588263255
 20
-8.3745437643
 10
10.2324779611
 20
-9.2945192455
 10
10.2145594195
 20
-10.2116627871
 10
10.2050630347
 20
-11.1256019685
 10
10.2039619022
 20
-12.0363521422
 10
10.2112829264
 20
-12.9438979558
 10
10.2270991545
 20
-13.8478209313
 10
10.2514272882
 20
-14.7481483833
 10
10.2842506257
 20
-15.6448529973
 10
10.3255921091
 20
-16.5374343514
 10
10.3754758287
 20
-17.4258563033
 10
10.4338776942
 20
-18.3101549955
 10
10.5007483766
 20
-19.1899384331
 10
10.5760773635
 20
-20.0651747278
 10
10.6598751673
 20
-20.9358957681
 10
10.7521239957
 20
-21.8018052246
 10
10.8528233028
 20
-22.6628663781
 10
10.9619736346
 20
-23.5191159478
 10
11.0795588363
 20
-24.3703677621
 10
11.2055714826
 20
-25.216536167
 10
11.3400189988
 20
-26.0577068164
 10
11.482907507
 20
-26.8939505009
 10
11.6342207304
 20
-27.7252731322
 10
11.7939749458
 20
-28.5516687985
 10
11.9622251059
 20
-29.3731905542
 10
12.1389757652
 20
-30.1899292075
 10
12.3242223691
 20
-31.0017939502
 10
12.5180062061
 20
-31.8085654126
 10
12.7203995432
 20
-32.6103545215
 10
12.9313301133
 20
-33.4070503502
 10
13.1506224042
 20
-34.1981007481
 10
13.3783554611
 20
-34.983686374
 10
13.6144502387
 20
-35.7636265691
 10
13.8584940886
 20
-36.536827208
 10
14.1104880168
 20
-37.3033178686
 10
14.3704310172
 20
-38.0630689729
 10
14.6379074234
 20
-38.8148976607
 10
14.912888002
 20
-39.5586885199
 10
15.1954019865
 20
-40.2945569625
 10
15.4851214104
 20
-41.0216663649
 10
15.7820081927
 20
-41.7398553522
 10
16.0861004145
 20
-42.4492852992
 10
16.3971843529
 20
-43.1496037062
 10
16.7152016029
 20
-43.840645421
 10
17.0402105695
 20
-44.5225755959
 10
17.3721727447
 20
-45.1955371882
 10
17.7110703157
 20
-45.85950836
 10
18.0569210952
 20
-46.5145109492
 10
18.4097400137
 20
-47.1607534274
 10
18.7695190492
 20
-47.7982407587
 10
19.1362662236
 20
-48.4269679789
 10
19.5100205332
 20
-49.0471286669
 10
19.8907949766
 20
-49.658787349
 10
20.2785765552
 20
-50.2618794989
 10
20.6733652689
 20
-50.8564051166
  0
LWPOLYLINE
  5
299
100
AcDbEntity
  8
IMPORT_IGES
100
AcDbPolyline
 62
253
  6
CONTINUOUS
 90
32
 70
0
 10
-21.8539084022
 20
44.7725464763
 10
-21.9254978089
 20
44.8832584866
 10
-21.9958210205
 20
44.9898443677
 10
-22.0649003389
 20
45.0922095513
 10
-22.1328612877
 20
45.1904120575
 10
-22.1996192147
 20
45.2841964464
 10
-22.2648950093
 20
45.3730600971
 10
-22.3286878082
 20
45.4569266834
 10
-22.3910692175
 20
45.5358301792
 10
-22.4518903587
 20
45.6095388714
 10
-22.5111239672
 20
45.6779994513
 10
-22.5688804093
 20
45.7413361909
 10
-22.625223186
 20
45.7996234304
 10
-22.6801914963
 20
45.8528935144
 10
-22.7338191834
 20
45.9011889812
 10
-22.7861595075
 20
45.9445891466
 10
-22.837246388
 20
45.9831375659
 10
-22.8871145533
 20
46.0168695891
 10
-22.9358162779
 20
46.0458433857
 10
-22.9834011207
 20
46.070125721
 10
-23.0298812682
 20
46.0897339247
 10
-23.0752505765
 20
46.1046737141
 10
-23.1195289237
 20
46.115033694
 10
-23.1627430244
 20
46.1209035659
 10
-23.2048920535
 20
46.1223456195
 10
-23.2460388348
 20
46.1194653383
 10
-23.2861809593
 20
46.1123419688
 10
-23.3252210823
 20
46.1010814836
 10
-23.3632080892
 20
46.0858047475
 10
-23.4001813094
 20
46.0666537454
 10
-23.4360561512
 20
46.0437829521
 10
-23.456250603
 20
46.0289434383
  0
LWPOLYLINE
  5
29A
100
AcDbEntity
  8
IMPORT_IGES
100
AcDbPolyline
 62
253
  6
CONTINUOUS
 90
28
 70
0
 10
14.7959237737
 20
19.4908553439
 10
14.8193431618
 20
19.6182485433
 10
14.8397371768
 20
19.7468458032
 10
14.8570869855
 20
19.8765529965
 10
14.8714119905
 20
20.0074846243
 10
14.8826445196
 20
20.1393398842
 10
14.8906798191
 20
20.2713873889
 10
14.8955378033
 20
20.4033963602
 10
14.8972554916
 20
20.5353841708
 10
14.8958175218
 20
20.6669752374
 10
14.8912681511
 20
20.7979215325
 10
14.8836583747
 20
20.9282622897
 10
14.8729906735
 20
21.0580496837
 10
14.8592921816
 20
21.1871765758
 10
14.842603183
 20
21.3155542493
 10
14.8229228364
 20
21.4432627439
 10
14.800265444
 20
21.570201508
 10
14.7746605763
 20
21.6962839595
 10
14.7461051326
 20
21.8216116755
 10
14.7145619452
 20
21.9462427271
 10
14.6800792992
 20
22.069936508
 10
14.6427881395
 20
22.192355707
 10
14.6026987695
 20
22.3134692961
 10
14.5598548873
 20
22.433151746
 10
14.5144854969
 20
22.550949174
 10
14.4667177712
 20
22.6666794901
 10
14.4165447163
 20
22.7804169194
 10
14.3640228037
 20
22.8921111309
  0
LWPOLYLINE
  5
29B
100
AcDbEntity
  8
IMPORT_IGES
100
AcDbPolyline
 62
253
  6
CONTINUOUS
 90
10
 70
0
 10
28.5967899991
 20
28.3682007984
 10
28.6693536484
 20
28.5303632535
 10
28.7335298598
 20
28.6935776741
 10
28.7892635937
 20
28.8577032647
 10
28.8365070893
 20
29.0225984322
 10
28.875219923
 20
29.1881209692
 10
28.9053690323
 20
29.3541281778
 10
28.9269287243
 20
29.5204769098
 10
28.939880708
 20
29.6870236896
 10
28.9442141197
 20
29.8536249
  0
LWPOLYLINE
  5
29C
100
AcDbEntity
  8
IMPORT_IGES
100
AcDbPolyline
 62
7
  6
CONTINUOUS
 90
10
 70
0
 10
-7.578213907
 20
-27.1178754098
 10
-7.5488097816
 20
-27.0984460754
 10
-7.5244490765
 20
-27.0776935553
 10
-7.5032105345
 20
-27.0545775784
 10
-7.4852044148
 20
-27.0292387264
 10
-7.4705279399
 20
-27.0018301203
 10
-7.4592478611
 20
-26.9725296843
 10
-7.4514164718
 20
-26.9415241219
 10
-7.4470741452
 20
-26.9090141031
 10
-7.4462497472
 20
-26.8752124023
  0
LINE
  5
29D
100
AcDbEntity
  8
0
100
AcDbLine
 62
253
  6
CONTINUOUS
 10
-21.5512027962
 20
-35.04092292
 11
-18.4164851157
 21
-33.2310043616
  0
LINE
  5
29E
100
AcDbEntity
  8
0
100
AcDbLine
 62
253
  6
CONTINUOUS
 10
-7.5064430793
 20
-26.9401507074
 11
-7.8851490903
 21
-27.1588108118
  0
LINE
  5
29F
100
AcDbEntity
  8
IMPORT_IGES
100
AcDbLine
 62
253
  6
CONTINUOUS
 10
27.358744913
 20
-47.4707843147
 11
27.3572863717
 21
-47.4331312568
  0
LINE
  5
2A0
100
AcDbEntity
  8
IMPORT_IGES
100
AcDbLine
 62
253
  6
CONTINUOUS
 10
27.3596071418
 20
-47.4958262288
 11
27.358744913
 21
-47.4707843147
  0
LWPOLYLINE
  5
2A1
100
AcDbEntity
  8
IMPORT_IGES
100
AcDbPolyline
 62
7
  6
CONTINUOUS
 90
32
 70
0
 10
22.7204484701
 20
23.9261872285
 10
22.7097817322
 20
24.2590346977
 10
22.6879875148
 20
24.5963734834
 10
22.655065818
 20
24.9382035857
 10
22.6109232959
 20
25.285073164
 10
22.5556532944
 20
25.6364340589
 10
22.4895358511
 20
25.9906417921
 10
22.4125227002
 20
26.3477092661
 10
22.3246621075
 20
26.7076235785
 10
22.2263789075
 20
27.0687015436
 10
22.1176260602
 20
27.4309489627
 10
21.9984506056
 20
27.7943600346
 10
21.8694184976
 20
28.1572341701
 10
21.7304845142
 20
28.5195699939
 10
21.5816938773
 20
28.8813688814
 10
21.4237482065
 20
29.2409343686
 10
21.2566057563
 20
29.5982559932
 10
21.0803082721
 20
29.9533442177
 10
20.8956826097
 20
30.3045339646
 10
20.7026906971
 20
30.6518074591
 10
20.5013706063
 20
30.9951824761
 10
20.2926634087
 20
31.3330472634
 10
20.0765359318
 20
31.6653760975
 10
19.8530213481
 20
31.9921947019
 10
19.6231602467
 20
32.3119684937
 10
19.386924407
 20
32.6246652506
 10
19.1443420496
 20
32.9303171951
 10
18.896538425
 20
33.2274864121
 10
18.6434896556
 20
33.5161309673
 10
18.3852196191
 20
33.7962927951
 10
18.1229251992
 20
34.0666597833
 10
17.8570053574
 20
34.3267945613
  0
LINE
  5
2A2
100
AcDbEntity
  8
IMPORT_IGES
100
AcDbLine
 62
7
  6
CONTINUOUS
 10
23.8221684903
 20
-49.5893927109
 11
22.7204484701
 21
23.9261872285
  0
LINE
  5
2A3
100
AcDbEntity
  8
IMPORT_IGES
100
AcDbLine
 62
7
  6
CONTINUOUS
 10
23.0249815305
 20
24.6531283912
 11
24.1298299124
 21
-49.0712008856
  0
LINE
  5
2A4
100
AcDbEntity
  8
IMPORT_IGES
100
AcDbLine
 62
7
  6
CONTINUOUS
 10
24.5859762445
 20
-49.2516998148
 11
23.4832135999
 21
24.3334523726
  0
LWPOLYLINE
  5
2A5
100
AcDbEntity
  8
IMPORT_IGES
100
AcDbPolyline
 62
7
  6
CONTINUOUS
 90
20
 70
0
 10
24.5859762445
 20
-49.2516998148
 10
24.585300952
 20
-49.5154863454
 10
24.5754919963
 20
-49.7728606832
 10
24.5565493775
 20
-50.0238228284
 10
24.5284102281
 20
-50.2687544925
 10
24.4911374156
 20
-50.507273964
 10
24.444919542
 20
-50.7382361076
 10
24.3897141448
 20
-50.9616047978
 10
24.3255636865
 20
-51.1774161602
 10
24.2527841567
 20
-51.3846334364
 10
24.1713346471
 20
-51.5832153866
 10
24.0812560661
 20
-51.7732032506
 10
23.9829871286
 20
-51.9536839888
 10
23.8764885058
 20
-52.1246126202
 10
23.7617995266
 20
-52.2860341257
 10
23.6394768927
 20
-52.4371704095
 10
23.5094842355
 20
-52.5779720405
 10
23.3718579236
 20
-52.7084884498
 10
23.2272637648
 20
-52.8280898343
 10
23.0612185522
 20
-52.9462700772
  0
LWPOLYLINE
  5
2A6
100
AcDbEntity
  8
IMPORT_IGES
100
AcDbPolyline
 62
7
  6
CONTINUOUS
 90
13
 70
0
 10
24.1298299124
 20
-49.0712008856
 10
24.128753649
 20
-49.33187242
 10
24.1178389789
 20
-49.5855036238
 10
24.097085902
 20
-49.8320944969
 10
24.0664115386
 20
-50.0720867605
 10
24.0258987684
 20
-50.3050386934
 10
23.9757962302
 20
-50.5296251321
 10
23.9160504196
 20
-50.7457979548
 10
23.846714841
 20
-50.9536052833
 10
23.7681986463
 20
-51.15186632
 10
23.6804506897
 20
-51.3405269572
 10
23.583522117
 20
-51.5196413026
 10
23.5302826705
 20
-51.6046604924
  0
LINE
  5
2A7
100
AcDbEntity
  8
0
100
AcDbLine
 62
253
  6
CONTINUOUS
 10
-17.6861706445
 20
-36.06293451
 11
-20.5258789945
 21
-37.7025210269
  0
LWPOLYLINE
  5
2A8
100
AcDbEntity
  8
IMPORT_IGES
100
AcDbPolyline
 62
253
  6
CONTINUOUS
 90
13
 70
0
 10
13.3839603993
 20
19.5968603976
 10
13.5135180667
 20
19.5736655418
 10
13.6419247969
 20
19.5529562637
 10
13.7687684649
 20
19.5347838849
 10
13.8934324125
 20
19.5192227491
 10
14.015744448
 20
19.5062871581
 10
14.1359406374
 20
19.495976534
 10
14.2537158142
 20
19.4883572043
 10
14.368627209
 20
19.4834451454
 10
14.4806418582
 20
19.4812269673
 10
14.5894940549
 20
19.4817145546
 10
14.6947137104
 20
19.484920888
 10
14.7959237737
 20
19.4908553439
  0
LWPOLYLINE
  5
2A9
100
AcDbEntity
  8
IMPORT_IGES
100
AcDbPolyline
 62
253
  6
CONTINUOUS
 90
16
 70
0
 10
13.1243337834
 20
22.0556306868
 10
13.2042124187
 20
21.9120006943
 10
13.2756536827
 20
21.763915809
 10
13.3385225766
 20
21.611622506
 10
13.3927161892
 20
21.455217516
 10
13.4380505962
 20
21.2951333286
 10
13.4743556724
 20
21.1321548654
 10
13.5016347942
 20
20.9666842315
 10
13.519802969
 20
20.7989431128
 10
13.5286826765
 20
20.6294965003
 10
13.528307133
 20
20.4588324528
 10
13.5186487105
 20
20.2871745831
 10
13.4994472959
 20
20.1147533853
 10
13.4705800147
 20
19.941929457
 10
13.4320953165
 20
19.7691597107
 10
13.3839603993
 20
19.5968603976
  0
LWPOLYLINE
  5
2AA
100
AcDbEntity
  8
IMPORT_IGES
100
AcDbPolyline
 62
253
  6
CONTINUOUS
 90
52
 70
0
 10
14.3640228534
 20
22.8921111326
 10
14.303609356
 20
23.013770568
 10
14.2395728676
 20
23.135735193
 10
14.1718739816
 20
23.2579408176
 10
14.1005202355
 20
23.3802506314
 10
14.0254456591
 20
23.5026735468
 10
13.9464956702
 20
23.6253549691
 10
13.8636652298
 20
23.7481904876
 10
13.7769113464
 20
23.8711362575
 10
13.6860010624
 20
23.9944060679
 10
13.5909700621
 20
24.1178252315
 10
13.4917502091
 20
24.241390828
 10
13.3879162868
 20
24.3655361055
 10
13.2793937697
 20
24.4901837947
 10
13.1662297413
 20
24.6151562563
 10
13.0481489238
 20
24.7406945561
 10
12.9250800257
 20
24.8667576509
 10
12.7971263148
 20
24.9930653087
 10
12.664275636
 20
25.1194904692
 10
12.5266023336
 20
25.2459632936
 10
12.3841298895
 20
25.3724152644
 10
12.2367819256
 20
25.4987696682
 10
12.0845113335
 20
25.6250460392
 10
11.9275097927
 20
25.7511001984
 10
11.7660202517
 20
25.8765927419
 10
11.5999422695
 20
26.0014526726
 10
11.4292988049
 20
26.1255697663
 10
11.2545359439
 20
26.2485873427
 10
11.0756450923
 20
26.3704562298
 10
10.8926017026
 20
26.4911218222
 10
10.7058564048
 20
26.6102726333
 10
10.5153919442
 20
26.7278908948
 10
10.3212525706
 20
26.8438970913
 10
10.1240111515
 20
26.9579355426
 10
9.9239404629
 20
27.0698423309
 10
9.7208579199
 20
27.1797044331
 10
9.5146678437
 20
27.2875622384
 10
9.3054829812
 20
27.3933423249
 10
9.0932941594
 20
27.4970291193
 10
8.8778179722
 20
27.59873832
 10
8.6590754367
 20
27.6984409654
 10
8.4371559381
 20
27.7960800834
 10
8.2118757048
 20
27.8917124813
 10
7.9829657179
 20
27.9854232457
 10
7.7508292758
 20
28.0770248832
 10
7.516304217
 20
28.1661886239
 10
7.2793453626
 20
28.2529495408
 10
7.0401807467
 20
28.3372482782
 10
6.800079302
 20
28.4186921315
 10
6.5595386988
 20
28.4971953779
 10
6.318277436
 20
28.5729295565
 10
6.0764049681
 20
28.6459335642
  0
LWPOLYLINE
  5
2AB
100
AcDbEntity
  8
IMPORT_IGES
100
AcDbPolyline
 62
253
  6
CONTINUOUS
 90
4
 70
0
 10
29.4994310585
 20
-7.0763938504
 10
29.5059624106
 20
-7.0921456588
 10
29.5168404632
 20
-7.1260693131
 10
29.5248637162
 20
-7.160935542
  0
LWPOLYLINE
  5
2AC
100
AcDbEntity
  8
IMPORT_IGES
100
AcDbPolyline
 62
7
  6
CONTINUOUS
 90
4
 70
0
 10
29.5162738422
 20
-7.6909358126
 10
29.5162499345
 20
-7.6906289126
 10
29.5161420905
 20
-7.6891585221
 10
29.5159642505
 20
-7.6865306429
  0
LWPOLYLINE
  5
2AD
100
AcDbEntity
  8
IMPORT_IGES
100
AcDbPolyline
 62
7
  6
CONTINUOUS
 90
4
 70
0
 10
29.531829044
 20
-7.2241258732
 10
29.5248400659
 20
-7.1318491928
 10
29.5043782314
 20
-7.0304364271
 10
29.4982300069
 20
-7.0119757701
  0
LINE
  5
2AE
100
AcDbEntity
  8
IMPORT_IGES
100
AcDbLine
 62
7
  6
CONTINUOUS
 10
29.5159642505
 20
-7.6865306429
 11
29.5154977299
 21
-7.6788090188
  0
LINE
  5
2AF
100
AcDbEntity
  8
IMPORT_IGES
100
AcDbLine
 62
7
  6
CONTINUOUS
 10
29.5154977299
 20
-7.6788090188
 11
29.5149158731
 21
-7.6678725013
  0
LINE
  5
2B0
100
AcDbEntity
  8
IMPORT_IGES
100
AcDbLine
 62
7
  6
CONTINUOUS
 10
29.5149158731
 20
-7.6678725013
 11
29.5142578472
 21
-7.6540436431
  0
LWPOLYLINE
  5
2B1
100
AcDbEntity
  8
IMPORT_IGES
100
AcDbPolyline
 62
253
  6
CONTINUOUS
 90
18
 70
0
 10
29.5149158731
 20
-7.6678725013
 10
29.5150422171
 20
-7.6781148207
 10
29.515868264
 20
-7.6947125333
 10
29.5166869015
 20
-7.7090877804
 10
29.5174981102
 20
-7.7212269039
 10
29.5183019095
 20
-7.7311435617
 10
29.5190958339
 20
-7.7386275908
 10
29.5198799072
 20
-7.7436766788
 10
29.5206541054
 20
-7.746293138
 10
29.5214158916
 20
-7.7462737423
 10
29.522165433
 20
-7.7436221144
 10
29.5229025623
 20
-7.7383346316
 10
29.52362424
 20
-7.7301971998
 10
29.5243306352
 20
-7.719210062
 10
29.5250215789
 20
-7.7053729752
 10
29.5256935246
 20
-7.6884711164
 10
29.5263467379
 20
-7.6684919123
 10
29.5275918282
 20
-7.6191620855
  0
LINE
  5
2B2
100
AcDbEntity
  8
IMPORT_IGES
100
AcDbLine
 62
253
  6
CONTINUOUS
 10
29.5142578472
 20
-7.6540436431
 11
29.5142112851
 21
-7.6595457799
  0
LINE
  5
2B3
100
AcDbEntity
  8
IMPORT_IGES
100
AcDbLine
 62
7
  6
CONTINUOUS
 10
29.5142578472
 20
-7.6540436431
 11
29.5131617126
 21
-7.6280047551
  0
LINE
  5
2B4
100
AcDbEntity
  8
IMPORT_IGES
100
AcDbLine
 62
253
  6
CONTINUOUS
 10
29.5131617126
 20
-7.6280047551
 11
29.5133756117
 21
-7.6390115937
  0
LINE
  5
2B5
100
AcDbEntity
  8
IMPORT_IGES
100
AcDbLine
 62
7
  6
CONTINUOUS
 10
29.5131617126
 20
-7.6280047551
 11
29.5115404803
 21
-7.5834350093
  0
LINE
  5
2B6
100
AcDbEntity
  8
IMPORT_IGES
100
AcDbLine
 62
253
  6
CONTINUOUS
 10
29.5115404803
 20
-7.5834350093
 11
29.5116917017
 21
-7.5922618269
  0
LINE
  5
2B7
100
AcDbEntity
  8
IMPORT_IGES
100
AcDbLine
 62
253
  6
CONTINUOUS
 10
28.9587493144
 20
30.528694568
 11
28.9680226118
 21
30.2308967813
  0
LINE
  5
2B8
100
AcDbEntity
  8
IMPORT_IGES
100
AcDbLine
 62
7
  6
CONTINUOUS
 10
29.5115404803
 20
-7.5834350093
 11
29.5092981849
 21
-7.5113247802
  0
LWPOLYLINE
  5
2B9
100
AcDbEntity
  8
IMPORT_IGES
100
AcDbPolyline
 62
253
  6
CONTINUOUS
 90
3
 70
0
 10
27.3610670599
 20
-47.5457541724
 10
27.3607351386
 20
-47.5332919447
 10
27.3596071418
 20
-47.4958262288
  0
LINE
  5
2BA
100
AcDbEntity
  8
IMPORT_IGES
100
AcDbLine
 62
7
  6
CONTINUOUS
 10
29.5092981849
 20
-7.5113247802
 11
29.5057899614
 21
-7.3771579246
  0
LINE
  5
2BB
100
AcDbEntity
  8
IMPORT_IGES
100
AcDbLine
 62
253
  6
CONTINUOUS
 10
30.0378764385
 20
-43.1192009028
 11
30.0376482141
 21
-43.1090517378
  0
LINE
  5
2BC
100
AcDbEntity
  8
IMPORT_IGES
100
AcDbLine
 62
7
  6
CONTINUOUS
 10
29.5057899614
 20
-7.3771579246
 11
29.5000796418
 21
-7.1102299297
  0
LINE
  5
2BD
100
AcDbEntity
  8
IMPORT_IGES
100
AcDbLine
 62
253
  6
CONTINUOUS
 10
27.3572867331
 20
-47.4331400026
 11
26.2574363583
 21
25.9576822305
  0
LINE
  5
2BE
100
AcDbEntity
  8
IMPORT_IGES
100
AcDbLine
 62
253
  6
CONTINUOUS
 10
28.9442141197
 20
29.8536249
 11
29.4830672595
 21
-6.0053782396
  0
LINE
  5
2BF
100
AcDbEntity
  8
IMPORT_IGES
100
AcDbLine
 62
253
  6
CONTINUOUS
 10
29.5000796418
 20
-7.1102299297
 11
30.0376482142
 21
-43.1090517377
  0
LINE
  5
2C0
100
AcDbEntity
  8
IMPORT_IGES
100
AcDbLine
 62
7
  6
CONTINUOUS
 10
29.4897302301
 20
-6.4924926042
 11
29.5000796418
 21
-7.1102299297
  0
LINE
  5
2C1
100
AcDbEntity
  8
IMPORT_IGES
100
AcDbLine
 62
7
  6
CONTINUOUS
 10
28.9679503825
 20
30.2406262433
 11
29.4493211753
 21
-1.8802868315
  0
LINE
  5
2C2
100
AcDbEntity
  8
IMPORT_IGES
100
AcDbLine
 62
7
  6
CONTINUOUS
 10
30.0091467317
 20
-39.0791721722
 11
29.5318281425
 21
-7.2239274328
  0
LINE
  5
2C3
100
AcDbEntity
  8
IMPORT_IGES
100
AcDbLine
 62
253
  6
CONTINUOUS
 10
30.0380216993
 20
-43.1293513564
 11
30.0378764385
 21
-43.1192009028
  0
LINE
  5
2C4
100
AcDbEntity
  8
IMPORT_IGES
100
AcDbLine
 62
253
  6
CONTINUOUS
 10
29.4494659322
 20
-1.8956953908
 11
29.4493211753
 21
-1.8802868315
  0
LINE
  5
2C5
100
AcDbEntity
  8
IMPORT_IGES
100
AcDbLine
 62
7
  6
CONTINUOUS
 10
29.4704991681
 20
-4.8875202101
 11
29.4897302301
 21
-6.4924926042
  0
LINE
  5
2C6
100
AcDbEntity
  8
IMPORT_IGES
100
AcDbLine
 62
7
  6
CONTINUOUS
 10
29.4494670661
 20
-1.8956944963
 11
29.4493261519
 21
-1.8807972007
  0
LINE
  5
2C7
100
AcDbEntity
  8
IMPORT_IGES
100
AcDbLine
 62
253
  6
CONTINUOUS
 10
30.0091467317
 20
-39.0791721722
 11
30.0087482276
 21
-39.0478538299
  0
LINE
  5
2C8
100
AcDbEntity
  8
IMPORT_IGES
100
AcDbLine
 62
253
  6
CONTINUOUS
 10
30.0094169362
 20
-39.1082487096
 11
30.0091594371
 21
-39.1051227816
  0
LINE
  5
2C9
100
AcDbEntity
  8
IMPORT_IGES
100
AcDbLine
 62
253
  6
CONTINUOUS
 10
28.9680226263
 20
30.2308967785
 11
28.9679582456
 21
30.2400864409
  0
LINE
  5
2CA
100
AcDbEntity
  8
IMPORT_IGES
100
AcDbLine
 62
7
  6
CONTINUOUS
 10
30.0091467317
 20
-39.0791721722
 11
30.0380558469
 21
-43.1333072175
  0
LINE
  5
2CB
100
AcDbEntity
  8
IMPORT_IGES
100
AcDbLine
 62
7
  6
CONTINUOUS
 10
29.452388335
 20
-2.5213320401
 11
29.4704991681
 21
-4.8875202101
  0
LINE
  5
2CC
100
AcDbEntity
  8
IMPORT_IGES
100
AcDbLine
 62
253
  6
CONTINUOUS
 10
29.5318719491
 20
-7.2317593346
 11
29.5318308725
 21
-7.2241123218
  0
LINE
  5
2CD
100
AcDbEntity
  8
IMPORT_IGES
100
AcDbLine
 62
7
  6
CONTINUOUS
 10
29.4494331168
 20
-1.8926652416
 11
29.452388335
 21
-2.5213320401
  0
LINE
  5
2CE
100
AcDbEntity
  8
IMPORT_IGES
100
AcDbLine
 62
253
  6
CONTINUOUS
 10
29.5302698934
 20
-7.4382116688
 11
29.5318719491
 21
-7.2317593346
  0
LINE
  5
2CF
100
AcDbEntity
  8
IMPORT_IGES
100
AcDbLine
 62
253
  6
CONTINUOUS
 10
29.5287435578
 20
-7.5568347741
 11
29.5302698934
 21
-7.4382116688
  0
LINE
  5
2D0
100
AcDbEntity
  8
IMPORT_IGES
100
AcDbLine
 62
253
  6
CONTINUOUS
 10
29.5275918282
 20
-7.6191620855
 11
29.5287435578
 21
-7.5568347741
  0
LINE
  5
2D1
100
AcDbEntity
  8
IMPORT_IGES
100
AcDbLine
 62
253
  6
CONTINUOUS
 10
28.9600373612
 20
30.1096865587
 11
28.9442141197
 21
29.8536249
  0
LINE
  5
2D2
100
AcDbEntity
  8
IMPORT_IGES
100
AcDbLine
 62
253
  6
CONTINUOUS
 10
28.9680226263
 20
30.2308967785
 11
28.9600373612
 21
30.1096865587
  0
LWPOLYLINE
  5
2D3
100
AcDbEntity
  8
IMPORT_IGES
100
AcDbPolyline
 62
253
  6
CONTINUOUS
 90
46
 70
0
 10
6.0431624186
 20
25.5105243427
 10
4.5898735807
 20
25.7566833079
 10
3.6118508952
 20
25.9392129219
 10
2.6387149312
 20
26.1374425449
 10
1.6732957709
 20
26.3513854366
 10
0.7155451538
 20
26.5805845686
 10
-0.2373821248
 20
26.8243587917
 10
-1.1842513912
 20
27.0828751853
 10
-2.1233439704
 20
27.3559974063
 10
-3.0566962955
 20
27.6427702566
 10
-3.9844998699
 20
27.9434600316
 10
-4.9035469998
 20
28.2574936616
 10
-5.8107914599
 20
28.5826061926
 10
-6.7041379481
 20
28.9178142469
 10
-7.5830729791
 20
29.2632112699
 10
-8.4470499408
 20
29.6180054547
 10
-9.2938540727
 20
29.9813250821
 10
-10.1233534055
 20
30.3530316694
 10
-10.9377752362
 20
30.7336038687
 10
-11.7370066316
 20
31.1231735621
 10
-12.5182140271
 20
31.5205469698
 10
-13.2788613748
 20
31.9239331373
 10
-14.0222446786
 20
32.3349681314
 10
-14.7477847712
 20
32.7536537319
 10
-15.4483373172
 20
33.1758578764
 10
-16.1238704258
 20
33.6012291987
 10
-16.7776805091
 20
34.0319344928
 10
-17.4074477341
 20
34.4669728893
 10
-18.0111971385
 20
34.9047894338
 10
-18.5892106116
 20
35.3453584249
 10
-19.1429702861
 20
35.7903578315
 10
-19.6722788285
 20
36.2397985294
 10
-20.1756467829
 20
36.6924315565
 10
-20.6523426535
 20
37.1482352651
 10
-21.1019879191
 20
37.6065305745
 10
-21.5235451361
 20
38.0665334505
 10
-21.9155428732
 20
38.5279772995
 10
-22.2771459764
 20
38.9891761909
 10
-22.6086671634
 20
39.4501196221
 10
-22.9104282786
 20
39.9130394678
 10
-23.1823399546
 20
40.377011875
 10
-23.4245442808
 20
40.8412374007
 10
-23.6374374967
 20
41.3081613169
 10
-23.8207907516
 20
41.778072491
 10
-23.9741393131
 20
42.2490584331
 10
-24.0971709513
 20
42.7202946255
  0
LWPOLYLINE
  5
2D4
100
AcDbEntity
  8
IMPORT_IGES
100
AcDbPolyline
 62
253
  6
CONTINUOUS
 90
30
 70
0
 10
6.0431624186
 20
25.5105243427
 10
6.497874388
 20
25.4251656341
 10
6.9343886287
 20
25.3343688081
 10
7.3510483348
 20
25.2390169195
 10
7.7482649371
 20
25.1395305011
 10
8.1284210426
 20
25.0356854874
 10
8.4916417951
 20
24.9278380203
 10
8.8373331996
 20
24.8168244832
 10
9.1668652562
 20
24.7029538386
 10
9.4801900225
 20
24.5868559739
 10
9.7773933841
 20
24.4690911313
 10
10.0600716838
 20
24.3496702056
 10
10.3283513736
 20
24.2290297253
 10
10.58250469
 20
24.1075222436
 10
10.8243094897
 20
23.9847849116
 10
11.0542394365
 20
23.8609899199
 10
11.2722295153
 20
23.7366317809
 10
11.4788293356
 20
23.6115554933
 10
11.673585462
 20
23.4860823357
 10
11.8565116472
 20
23.3601827186
 10
12.0285988095
 20
23.2331654197
 10
12.1896873959
 20
23.1053792992
 10
12.3397614948
 20
22.9772733894
 10
12.4799042592
 20
22.8481947057
 10
12.6101113895
 20
22.7183648829
 10
12.7304515446
 20
22.5880823458
 10
12.8419376395
 20
22.4566040729
 10
12.9448644664
 20
22.3237560258
 10
13.0389678066
 20
22.1900387971
 10
13.1243337809
 20
22.0556306598
  0
LWPOLYLINE
  5
2D5
100
AcDbEntity
  8
IMPORT_IGES
100
AcDbPolyline
 62
253
  6
CONTINUOUS
 90
3
 70
0
 10
29.5248637162
 20
-7.160935542
 10
29.5298864884
 20
-7.1962814498
 10
29.5318719491
 20
-7.2317593346
  0
LINE
  5
2D6
100
AcDbEntity
  8
IMPORT_IGES
100
AcDbLine
 62
253
  6
CONTINUOUS
 10
30.0317004999
 20
-43.3498129511
 11
30.0376482142
 21
-43.1090517377
  0
LINE
  5
2D7
100
AcDbEntity
  8
IMPORT_IGES
100
AcDbLine
 62
253
  6
CONTINUOUS
 10
25.0296853801
 20
37.96181972
 11
25.0086278943
 21
38.0633292475
  0
LINE
  5
2D8
100
AcDbEntity
  8
IMPORT_IGES
100
AcDbLine
 62
253
  6
CONTINUOUS
 10
25.0505189056
 20
37.8579821984
 11
25.0296853801
 21
37.96181972
  0
LINE
  5
2D9
100
AcDbEntity
  8
IMPORT_IGES
100
AcDbLine
 62
253
  6
CONTINUOUS
 10
25.0711199899
 20
37.751830264
 11
25.0505189056
 21
37.8579821984
  0
LWPOLYLINE
  5
2DA
100
AcDbEntity
  8
IMPORT_IGES
100
AcDbPolyline
 62
253
  6
CONTINUOUS
 90
3
 70
0
 10
25.1016270401
 20
37.5882453209
 10
25.0915155602
 20
37.6433495406
 10
25.0711199899
 20
37.751830264
  0
LINE
  5
2DB
100
AcDbEntity
  8
IMPORT_IGES
100
AcDbLine
 62
7
  6
CONTINUOUS
 10
17.5870611322
 20
34.5771344998
 11
17.3130925237
 21
34.8176795987
  0
LWPOLYLINE
  5
2DC
100
AcDbEntity
  8
IMPORT_IGES
100
AcDbPolyline
 62
7
  6
CONTINUOUS
 90
34
 70
0
 10
18.0156107516
 20
34.7535110193
 10
18.2690445071
 20
34.5306168614
 10
18.5188082936
 20
34.2985769073
 10
18.764902111
 20
34.0573911571
 10
19.0077016295
 20
33.8066453823
 10
19.246831179
 20
33.5467538113
 10
19.4811637492
 20
33.2789591297
 10
19.7106762721
 20
33.0032258024
 10
19.9353918156
 20
32.7195893644
 10
20.1542525732
 20
32.4293991064
 10
20.367231014
 20
32.1326254143
 10
20.5743546688
 20
31.8292979022
 10
20.774648323
 20
31.5208547032
 10
20.968080449
 20
31.2072720219
 10
21.1546825743
 20
30.8885736538
 10
21.3335740674
 20
30.566269119
 10
21.5047189503
 20
30.2403422389
 10
21.6681532009
 20
29.9108091922
 10
21.8231041209
 20
29.5792280347
 10
21.9695326721
 20
29.2455887589
 10
22.1074778926
 20
28.9099013724
 10
22.236284198
 20
28.5737539527
 10
22.3559092473
 20
28.23714451
 10
22.4663953815
 20
27.9000750342
 10
22.5672140387
 20
27.5641395727
 10
22.6583207766
 20
27.2293426152
 10
22.7397600375
 20
26.8956796719
 10
22.8111365871
 20
26.5647313207
 10
22.8724041233
 20
26.2365088804
 10
22.9236089482
 20
25.9110010321
 10
22.9644947341
 20
25.589754397
 10
22.9949760385
 20
25.2732845153
 10
23.015138304
 20
24.9610758467
 10
23.0249815305
 20
24.6531283912
  0
LINE
  5
2DD
100
AcDbEntity
  8
IMPORT_IGES
100
AcDbLine
 62
7
  6
CONTINUOUS
 10
17.8570053574
 20
34.3267945613
 11
17.5870611322
 21
34.5771344998
  0
LINE
  5
2DE
100
AcDbEntity
  8
0
100
AcDbLine
 62
253
  6
CONTINUOUS
 10
2.6044834914
 20
-51.0579785456
 11
4.0593919128
 21
-49.89578459
  0
LWPOLYLINE
  5
2DF
100
AcDbEntity
  8
IMPORT_IGES
100
AcDbPolyline
 62
7
  6
CONTINUOUS
 90
13
 70
0
 10
3.0846084232
 20
45.9444281113
 10
1.8252178546
 20
46.6573425313
 10
0.565827286
 20
47.3418058498
 10
-0.6921171244
 20
47.9970321519
 10
-1.9486137109
 20
48.6229878133
 10
-3.2036641393
 20
49.2197064584
 10
-4.4558272488
 20
49.7865030456
 10
-5.7050997135
 20
50.3233431618
 10
-6.9514848593
 20
50.83026122
 10
-8.1935515027
 20
51.3066754182
 10
-9.4308225827
 20
51.7523918222
 10
-10.6637751604
 20
52.1676043661
 10
-11.8924092358
 20
52.5523130499
  0
LINE
  5
2E0
100
AcDbEntity
  8
IMPORT_IGES
100
AcDbLine
 62
7
  6
CONTINUOUS
 10
4.3439989918
 20
45.2030298705
 11
3.0846084232
 21
45.9444281113
  0
LINE
  5
2E1
100
AcDbEntity
  8
IMPORT_IGES
100
AcDbLine
 62
7
  6
CONTINUOUS
 10
5.6033895604
 20
44.4331805281
 11
4.3439989918
 21
45.2030298705
  0
LWPOLYLINE
  5
2E2
100
AcDbEntity
  8
IMPORT_IGES
100
AcDbPolyline
 62
7
  6
CONTINUOUS
 90
10
 70
0
 10
5.595838985
 20
43.9094141347
 10
6.8500004956
 20
43.1141021462
 10
8.1027065474
 20
42.2911639415
 10
9.353958829
 20
41.4406315157
 10
10.6023086352
 20
40.5634897842
 10
11.8477525951
 20
39.6597078962
 10
13.0902940797
 20
38.7293167025
 10
14.3284944968
 20
37.7733936712
 10
15.5618743158
 20
36.7922979582
 10
16.7909130674
 20
35.7856704076
  0
LWPOLYLINE
  5
2E3
100
AcDbEntity
  8
IMPORT_IGES
100
AcDbPolyline
 62
7
  6
CONTINUOUS
 90
11
 70
0
 10
18.0616260822
 20
35.2572284695
 10
16.8329920068
 20
36.2913156191
 10
15.6000394291
 20
37.2998858069
 10
14.3627683491
 20
38.2829390328
 10
13.1207017056
 20
39.240832261
 10
11.8743165599
 20
40.1732085274
 10
10.6250440951
 20
41.0789969393
 10
9.3728809857
 20
41.9581669244
 10
8.1178305573
 20
42.810749055
 10
6.8613339708
 20
43.6357641565
 10
5.6033895604
 20
44.4331805281
  0
LINE
  5
2E4
100
AcDbEntity
  8
IMPORT_IGES
100
AcDbLine
 62
7
  6
CONTINUOUS
 10
16.7909130674
 20
35.7856704076
 11
18.0156107516
 21
34.7535110193
  0
LWPOLYLINE
  5
2E5
100
AcDbEntity
  8
IMPORT_IGES
100
AcDbPolyline
 62
7
  6
CONTINUOUS
 90
34
 70
0
 10
18.0616260822
 20
35.2572284695
 10
18.3357980438
 20
35.0163952955
 10
18.6060160318
 20
34.7656524862
 10
18.8722800463
 20
34.5050000418
 10
19.1349978771
 20
34.2339912019
 10
19.3937617343
 20
33.9530727268
 10
19.6473482484
 20
33.6635848972
 10
19.8957330626
 20
33.3654878945
 10
20.1389405338
 20
33.0588215372
 10
20.3758203626
 20
32.7450455616
 10
20.6063427979
 20
32.4241268666
 10
20.8305375908
 20
32.0960985533
 10
21.0473436959
 20
31.7625196611
 10
21.2567263111
 20
31.4233645013
 10
21.4587202384
 20
31.0786587627
 10
21.6523688383
 20
30.7300385504
 10
21.8376330655
 20
30.3774854123
 10
22.0145519652
 20
30.0210178005
 10
22.1822860332
 20
29.6623271773
 10
22.3407921812
 20
29.3014032364
 10
22.4901134975
 20
28.9382562841
 10
22.629539743
 20
28.574608701
 10
22.7590246962
 20
28.2104578061
 10
22.8786145786
 20
27.8458062804
 10
22.9877378156
 20
27.4823845478
 10
23.0863454721
 20
27.1201981581
 10
23.1744864832
 20
26.7592415614
 10
23.2517360796
 20
26.401228532
 10
23.3180434422
 20
26.0461725667
 10
23.3734593901
 20
25.6940601686
 10
23.417711611
 20
25.3465646217
 10
23.4507093342
 20
25.0042436874
 10
23.4725433306
 20
24.6665396044
 10
23.4832135999
 20
24.3334523726
  0
LWPOLYLINE
  5
2E6
100
AcDbEntity
  8
IMPORT_IGES
100
AcDbPolyline
 62
253
  6
CONTINUOUS
 90
33
 70
0
 10
21.0980372989
 20
36.6618304949
 10
21.3673884898
 20
36.4229826511
 10
21.634116234
 20
36.1731214962
 10
21.8978238922
 20
35.9124579823
 10
22.1580049461
 20
35.6413290427
 10
22.4140532461
 20
35.3602161393
 10
22.6655225666
 20
35.0694685494
 10
22.91196643
 20
34.7694583811
 10
23.1527986088
 20
34.4607652278
 10
23.3875892749
 20
34.1438163289
 10
23.6159127867
 20
33.8190587272
 10
23.8372198464
 20
33.4871572044
 10
24.0511109034
 20
33.1486060421
 10
24.25719487
 20
32.8039152622
 10
24.4549755599
 20
32.453818319
 10
24.6440968452
 20
32.0988626306
 10
24.8242147595
 20
31.7396067714
 10
24.9949005457
 20
31.3768339617
 10
25.1558532923
 20
31.0111283702
 10
25.3067870123
 20
30.6430809772
 10
25.4473520449
 20
30.2735051202
 10
25.577312384
 20
29.9030042181
 10
25.6964491213
 20
29.5321838621
 10
25.8045010445
 20
29.1618667819
 10
25.901304423
 20
28.7926574944
 10
25.986714187
 20
28.4251576814
 10
26.0605643397
 20
28.0601779891
 10
26.1227682179
 20
27.6983057395
 10
26.173258597
 20
27.3401204404
 10
26.2119684172
 20
26.9863994939
 10
26.2388859293
 20
26.6377634285
 10
26.2540316164
 20
26.2946821965
 10
26.2574363583
 20
25.9576822305
  0
LWPOLYLINE
  5
2E7
100
AcDbEntity
  8
IMPORT_IGES
100
AcDbPolyline
 62
253
  6
CONTINUOUS
 90
17
 70
0
 10
27.6005637158
 20
35.0462067117
 10
27.7489327771
 20
34.7831573045
 10
27.8896414646
 20
34.5155451238
 10
28.0218523339
 20
34.2446186214
 10
28.1451401623
 20
33.9716381119
 10
28.2598668887
 20
33.6962033875
 10
28.3660902265
 20
33.4184199748
 10
28.4637760836
 20
33.1386871751
 10
28.5531654953
 20
32.8565177884
 10
28.6340710069
 20
32.572597499
 10
28.7064560933
 20
32.287142682
 10
28.7705378608
 20
31.9990618571
 10
28.8260789573
 20
31.7088456593
 10
28.8728433326
 20
31.4170568085
 10
28.9107748143
 20
31.122800024
 10
28.939551989
 20
30.8262651737
 10
28.9587493144
 20
30.528694568
  0
LWPOLYLINE
  5
2E8
100
AcDbEntity
  8
IMPORT_IGES
100
AcDbPolyline
 62
253
  6
CONTINUOUS
 90
17
 70
0
 10
4.1317590634
 20
-50.7436867984
 10
4.0730593319
 20
-50.7864809173
 10
4.0085579035
 20
-50.8269908212
 10
3.9385265122
 20
-50.8649415899
 10
3.8631866026
 20
-50.9001137214
 10
3.782643085
 20
-50.9324031811
 10
3.6970481466
 20
-50.9616863026
 10
3.6067097469
 20
-50.9877267192
 10
3.5118945709
 20
-51.0104177153
 10
3.4126663421
 20
-51.0297165422
 10
3.3090204842
 20
-51.0454425779
 10
3.2010631716
 20
-51.0574973199
 10
3.0890453478
 20
-51.0657822878
 10
2.9731708454
 20
-51.0700538311
 10
2.8536529239
 20
-51.0701685648
 10
2.7307239061
 20
-51.0661172486
 10
2.6046354237
 20
-51.0578571807
  0
LWPOLYLINE
  5
2E9
100
AcDbEntity
  8
IMPORT_IGES
100
AcDbPolyline
 62
7
  6
CONTINUOUS
 90
15
 70
0
 10
-11.8463939052
 20
51.9954582493
 10
-10.621696221
 20
51.6133674501
 10
-9.3926574694
 20
51.2007318573
 10
-8.1592776504
 20
50.757551471
 10
-6.9210772333
 20
50.2836316972
 10
-5.6785357487
 20
49.7791671299
 10
-4.4330917888
 20
49.2447415512
 10
-3.1847419826
 20
48.6803202174
 10
-1.9334897011
 20
48.0859378723
 10
-0.6807836492
 20
47.4622825285
 10
0.5733778614
 20
46.8093202412
 10
1.8289931423
 20
46.1270849553
 10
3.0846084232
 20
45.4163665181
 10
4.3402237041
 20
44.6771319021
 10
5.595838985
 20
43.9094141347
  0
LWPOLYLINE
  5
2EA
100
AcDbEntity
  8
IMPORT_IGES
100
AcDbPolyline
 62
7
  6
CONTINUOUS
 90
25
 70
0
 10
-12.5580892397
 20
52.064925575
 10
-11.3327783928
 20
51.6806106289
 10
-10.1031776702
 20
51.2659390529
 10
-8.869287072
 20
50.8209108473
 10
-7.6306326887
 20
50.3453332003
 10
-6.3876884297
 20
49.8393989236
 10
-5.1418760234
 20
49.3036864517
 10
-3.8931921787
 20
48.7381616689
 10
-2.6416401867
 20
48.142858691
 10
-1.3886516485
 20
47.5184582989
 10
-0.1342249158
 20
46.8649271581
 10
1.1216383631
 20
46.1822986031
 10
2.377501642
 20
45.4713534194
 10
3.6333649209
 20
44.732059168
 10
4.8892281998
 20
43.9644482878
 10
6.1436549325
 20
43.169398881
 10
7.3966434707
 20
42.3468795164
 10
8.6481954627
 20
41.4969216253
 10
9.8968793074
 20
40.6204976035
 10
11.1426917137
 20
39.7175771361
 10
12.3856359727
 20
38.788190538
 10
13.624290356
 20
37.8334011511
 10
14.8581809542
 20
36.8535634225
 10
16.0877816768
 20
35.8483229051
 10
17.3130925237
 20
34.8176795987
  0
LWPOLYLINE
  5
2EB
100
AcDbEntity
  8
IMPORT_IGES
100
AcDbPolyline
 62
253
  6
CONTINUOUS
 90
22
 70
0
 10
25.1016270401
 20
37.5882453209
 10
24.9603726922
 20
37.6569153965
 10
24.8114364005
 20
37.7154910699
 10
24.6550083635
 20
37.7638975372
 10
24.4912883471
 20
37.8020729812
 10
24.3204854295
 20
37.82996865
 10
24.142817734
 20
37.8475489194
 10
23.9585121506
 20
37.8547913388
 10
23.7678040462
 20
37.8516866592
 10
23.5709369638
 20
37.8382388453
 10
23.3681623121
 20
37.8144650708
 10
23.1597390438
 20
37.7803956957
 10
22.9459333251
 20
37.7360742284
 10
22.7270181959
 20
37.6815572693
 10
22.5032732212
 20
37.6169144393
 10
22.2749841337
 20
37.5422282902
 10
22.0424424693
 20
37.4575941997
 10
21.8059451947
 20
37.3631202495
 10
21.5657943278
 20
37.2589270874
 10
21.3222965528
 20
37.1451477728
 10
21.0757628274
 20
37.0219276073
 10
20.8265079871
 20
36.8894239488
  0
LINE
  5
2EC
100
AcDbEntity
  8
IMPORT_IGES
100
AcDbLine
 62
253
  6
CONTINUOUS
 10
14.2385775269
 20
45.7776995742
 11
15.4445162832
 21
45.0258111942
  0
LWPOLYLINE
  5
2ED
100
AcDbEntity
  8
IMPORT_IGES
100
AcDbPolyline
 62
253
  6
CONTINUOUS
 90
10
 70
0
 10
9.7068198512
 20
45.1965208417
 10
10.954288633
 20
44.3780216585
 10
12.1998665609
 20
43.5326132972
 10
13.4430822637
 20
42.6606156908
 10
14.6834652638
 20
41.7623588344
 10
15.9205461557
 20
40.8381826608
 10
17.1538567837
 20
39.8884369112
 10
18.3829304188
 20
38.9134810037
 10
19.6073019353
 20
37.9136838965
 10
21.0980372989
 20
36.6618304949
  0
LINE
  5
2EE
100
AcDbEntity
  8
IMPORT_IGES
100
AcDbLine
 62
253
  6
CONTINUOUS
 10
16.649254423
 20
44.2468464718
 11
16.6743978292
 21
44.2315707343
  0
LINE
  5
2EF
100
AcDbEntity
  8
IMPORT_IGES
100
AcDbLine
 62
253
  6
CONTINUOUS
 10
17.8523123687
 20
43.4411154941
 11
19.0532112118
 21
42.6089390035
  0
LINE
  5
2F0
100
AcDbEntity
  8
IMPORT_IGES
100
AcDbLine
 62
253
  6
CONTINUOUS
 10
19.0532112118
 20
42.6089390035
 11
20.2514729031
 21
41.7506482695
  0
LWPOLYLINE
  5
2F1
100
AcDbEntity
  8
IMPORT_IGES
100
AcDbPolyline
 62
253
  6
CONTINUOUS
 90
5
 70
0
 10
20.2514729031
 20
41.7506482695
 10
21.4466204432
 20
40.8665849572
 10
22.6381780726
 20
39.957100991
 10
23.8256714605
 20
39.0225584147
 10
25.0086278943
 20
38.0633292475
  0
LWPOLYLINE
  5
2F2
100
AcDbEntity
  8
IMPORT_IGES
100
AcDbPolyline
 62
253
  6
CONTINUOUS
 90
3
 70
0
 10
25.0703395439
 20
38.0218872102
 10
25.0488485653
 20
38.038247683
 10
25.0086278943
 20
38.0633292475
  0
LWPOLYLINE
  5
2F3
100
AcDbEntity
  8
IMPORT_IGES
100
AcDbPolyline
 62
253
  6
CONTINUOUS
 90
25
 70
0
 10
25.1016270401
 20
37.5882453209
 10
25.3916688723
 20
37.3538027527
 10
25.6722996346
 20
37.1091244488
 10
25.9431699474
 20
36.8545976181
 10
26.2039611746
 20
36.5906053857
 10
26.4543414622
 20
36.317570375
 10
26.6939717529
 20
36.0359592174
 10
26.9223131826
 20
35.7465486
 10
27.1393948587
 20
35.4494514022
 10
27.3456501693
 20
35.1440745367
 10
27.5409288928
 20
34.8304811691
 10
27.7246922844
 20
34.5093674673
 10
27.8966862469
 20
34.1810236479
 10
28.0566273645
 20
33.8458012803
 10
28.2041831371
 20
33.5041926153
 10
28.3390426047
 20
33.1567161388
 10
28.4609321622
 20
32.8038751198
 10
28.5696261426
 20
32.446098884
 10
28.6649121212
 20
32.0838145594
 10
28.7466529408
 20
31.7171321736
 10
28.8145449016
 20
31.3469319312
 10
28.8682712381
 20
30.9748329308
 10
28.9077666052
 20
30.6017420854
 10
28.9330783334
 20
30.2278282651
 10
28.9442141197
 20
29.8536249
  0
LWPOLYLINE
  5
2F4
100
AcDbEntity
  8
IMPORT_IGES
100
AcDbPolyline
 62
7
  6
CONTINUOUS
 90
10
 70
0
 10
25.0714843512
 20
38.0209487494
 10
23.6866205779
 20
39.1411196079
 10
22.2949483338
 20
40.2280400333
 10
20.8971762926
 20
41.2811162234
 10
19.4940106307
 20
42.2997737686
 10
18.0861735116
 20
43.2834442864
 10
16.6743978292
 20
44.2315707343
 10
15.2594041462
 20
45.1436231316
 10
13.8419055074
 20
46.0190937611
 10
12.4226224523
 20
46.8574873154
  0
LINE
  5
2F5
100
AcDbEntity
  8
IMPORT_IGES
100
AcDbLine
 62
7
  6
CONTINUOUS
 10
25.0714843512
 20
38.0209487494
 11
25.0703395439
 21
38.0218872102
  0
LINE
  5
2F6
100
AcDbEntity
  8
IMPORT_IGES
100
AcDbLine
 62
253
  6
CONTINUOUS
 10
25.0086278875
 20
38.0633292349
 11
25.2506673978
 21
37.8613224082
  0
LWPOLYLINE
  5
2F7
100
AcDbEntity
  8
IMPORT_IGES
100
AcDbPolyline
 62
253
  6
CONTINUOUS
 90
10
 70
0
 10
25.1016270401
 20
37.5882453209
 10
23.7526342871
 20
38.7192638604
 10
22.3971953374
 20
39.8192895864
 10
21.035980156
 20
40.8877787794
 10
19.6696615626
 20
41.9242033079
 10
18.2989148997
 20
42.9280508891
 10
16.9244176983
 20
43.8988253423
 10
15.5468493434
 20
44.8360468344
 10
14.1668907379
 20
45.7392521164
 10
12.785223966
 20
46.6079947532
  0
LINE
  5
2F8
100
AcDbEntity
  8
IMPORT_IGES
100
AcDbLine
 62
7
  6
CONTINUOUS
 10
25.3023915991
 20
37.8242261385
 11
25.0701635052
 21
38.0217980063
  0
LWPOLYLINE
  5
2F9
100
AcDbEntity
  8
IMPORT_IGES
100
AcDbPolyline
 62
253
  6
CONTINUOUS
 90
13
 70
0
 10
25.2506673978
 20
37.8613224082
 10
25.4862940239
 20
37.652672865
 10
25.7150291157
 20
37.4381709144
 10
25.9360881117
 20
37.2189391256
 10
26.1494911227
 20
36.9953443044
 10
26.3559867203
 20
36.7668686802
 10
26.5551917441
 20
36.5341085195
 10
26.7468686575
 20
36.29751386
 10
26.9318704755
 20
36.056094804
 10
27.1100518921
 20
35.8099590231
 10
27.2808715202
 20
35.5597536664
 10
27.4444919677
 20
35.3050757371
 10
27.6005637158
 20
35.0462067117
  0
LWPOLYLINE
  5
2FA
100
AcDbEntity
  8
IMPORT_IGES
100
AcDbPolyline
 62
7
  6
CONTINUOUS
 90
16
 70
0
 10
22.8793296492
 20
-52.7679364309
 10
23.0011458966
 20
-52.6174011228
 10
23.1153589068
 20
-52.4565980018
 10
23.2214190637
 20
-52.2862891024
 10
23.3192881081
 20
-52.1064318495
 10
23.409004299
 20
-51.9170688183
 10
23.4901327974
 20
-51.7190897687
 10
23.5626346658
 20
-51.5124555829
 10
23.6265488416
 20
-51.2972053787
 10
23.6815572973
 20
-51.0743462694
 10
23.727620074
 20
-50.8438445567
 10
23.7647771305
 20
-50.6057339389
 10
23.7928303155
 20
-50.3611226246
 10
23.8117135786
 20
-50.1103800166
 10
23.8214929702
 20
-49.853136712
 10
23.8221684903
 20
-49.5893927109
  0
LWPOLYLINE
  5
2FB
100
AcDbEntity
  8
IMPORT_IGES
100
AcDbPolyline
 62
253
  6
CONTINUOUS
 90
22
 70
0
 10
-21.8540162334
 20
44.7725195962
 10
-22.0062829132
 20
44.7307758507
 10
-22.1562380123
 20
44.6821286397
 10
-22.3031929947
 20
44.62689068
 10
-22.4460964493
 20
44.5655633644
 10
-22.5848127919
 20
44.4982993504
 10
-22.720049767
 20
44.424725215
 10
-22.8513930497
 20
44.3450950982
 10
-22.9781925022
 20
44.2598874192
 10
-23.1007023348
 20
44.1689154115
 10
-23.2183597842
 20
44.0724588098
 10
-23.3305803031
 20
43.9708185151
 10
-23.4375113263
 20
43.8637314804
 10
-23.5388318071
 20
43.7514837465
 10
-23.6339508371
 20
43.6346691728
 10
-23.7225781854
 20
43.5135171189
 10
-23.8041531898
 20
43.3885698947
 10
-23.8782566092
 20
43.2602832894
 10
-23.9448784605
 20
43.1287589822
 10
-24.0038245605
 20
42.9944137732
 10
-24.0547598499
 20
42.8580028438
 10
-24.0974271586
 20
42.7201783004
  0
LWPOLYLINE
  5
2FC
100
AcDbEntity
  8
IMPORT_IGES
100
AcDbPolyline
 62
7
  6
CONTINUOUS
 90
3
 70
0
 10
-12.8384748119
 20
52.1942333321
 10
-12.5956774035
 20
52.1646000993
 10
-12.349585951
 20
52.1216029821
  0
LWPOLYLINE
  5
2FD
100
AcDbEntity
  8
IMPORT_IGES
100
AcDbPolyline
 62
7
  6
CONTINUOUS
 90
3
 70
0
 10
-12.349585951
 20
52.1216029821
 10
-12.0998247849
 20
52.0652223654
 10
-11.8463939052
 20
51.9954582493
  0
LWPOLYLINE
  5
2FE
100
AcDbEntity
  8
IMPORT_IGES
100
AcDbPolyline
 62
7
  6
CONTINUOUS
 90
12
 70
0
 10
-12.5580892397
 20
52.064925575
 10
-12.8320609009
 20
52.1407532561
 10
-13.102007836
 20
52.2021385478
 10
-13.3679300449
 20
52.2490814502
 10
-13.6302264759
 20
52.2816052614
 10
-13.8884981808
 20
52.2996866832
 10
-14.1415483144
 20
52.303255821
 10
-14.3893529941
 20
52.2922431711
 10
-14.6319361027
 20
52.2667182372
 10
-14.8681724431
 20
52.2268196352
 10
-15.0980337918
 20
52.1724825603
 10
-15.3215483725
 20
52.1037718173
  0
LWPOLYLINE
  5
2FF
100
AcDbEntity
  8
IMPORT_IGES
100
AcDbPolyline
 62
253
  6
CONTINUOUS
 90
16
 70
0
 10
-8.91092447
 20
54.0594447519
 10
-7.6917184182
 20
53.6757961115
 10
-6.4673469017
 20
53.2617196814
 10
-5.2382732667
 20
52.817372163
 10
-4.0049626386
 20
52.3429217133
 10
-2.7678817467
 20
51.8385478815
 10
-1.5274987466
 20
51.3044415407
 10
-0.2842830438
 20
50.7408048159
 10
0.9612948841
 20
50.1478510074
 10
2.2087636659
 20
49.5258045104
 10
3.4576512145
 20
48.8749007294
 10
4.707484906
 20
48.19538599
 10
5.9577917585
 20
47.4875174448
 10
7.2080986111
 20
46.7515629767
 10
8.4579323026
 20
45.9878010974
 10
9.7068198512
 20
45.1965208417
  0
LINE
  5
300
100
AcDbEntity
  8
IMPORT_IGES
100
AcDbLine
 62
7
  6
CONTINUOUS
 10
12.4226224523
 20
46.8574873154
 11
10.7050030822
 21
47.8490275437
  0
LINE
  5
301
100
AcDbEntity
  8
IMPORT_IGES
100
AcDbLine
 62
253
  6
CONTINUOUS
 10
12.4226224523
 20
46.8574873154
 11
13.0319182094
 21
46.502212303
  0
LINE
  5
302
100
AcDbEntity
  8
IMPORT_IGES
100
AcDbLine
 62
253
  6
CONTINUOUS
 10
13.0319182094
 20
46.502212303
 11
14.2385775269
 21
45.7776995742
  0
LWPOLYLINE
  5
303
100
AcDbEntity
  8
IMPORT_IGES
100
AcDbPolyline
 62
253
  6
CONTINUOUS
 90
3
 70
0
 10
12.785223966
 20
46.6079947532
 10
11.4025319566
 20
47.4418453437
 10
10.7050030822
 20
47.8490275437
  0
LINE
  5
304
100
AcDbEntity
  8
IMPORT_IGES
100
AcDbLine
 62
7
  6
CONTINUOUS
 10
22.7498749245
 20
-52.908155935
 11
22.8793296492
 21
-52.7679364309
  0
LWPOLYLINE
  5
305
100
AcDbEntity
  8
IMPORT_IGES
100
AcDbPolyline
 62
253
  6
CONTINUOUS
 90
21
 70
0
 10
24.5859762445
 20
-49.2516998148
 10
27.5957554216
 20
-47.2775385515
 10
27.8245522448
 20
-47.1154820232
 10
28.0433917981
 20
-46.9471730459
 10
28.2519714675
 20
-46.7728234301
 10
28.4500651343
 20
-46.592643686
 10
28.6375080513
 20
-46.4068370386
 10
28.8140721775
 20
-46.2156011798
 10
28.9795039112
 20
-46.0191784219
 10
29.1336025789
 20
-45.8178399501
 10
29.2761601143
 20
-45.6118150361
 10
29.4069806325
 20
-45.4013401716
 10
29.5258958106
 20
-45.1867017965
 10
29.6327320945
 20
-44.9681517443
 10
29.7273416749
 20
-44.7459256826
 10
29.8096052029
 20
-44.5202889673
 10
29.8793884311
 20
-44.2914984732
 10
29.9365783608
 20
-44.0598011431
 10
29.9810889145
 20
-43.8254493975
 10
30.0128256172
 20
-43.5886996012
 10
30.0317004999
 20
-43.3498129511
  0
LINE
  5
306
100
AcDbEntity
  8
IMPORT_IGES
100
AcDbLine
 62
253
  6
CONTINUOUS
 10
24.1298299124
 20
-49.0712008856
 11
23.8171086881
 21
-49.2517622012
  0
LWPOLYLINE
  5
307
100
AcDbEntity
  8
IMPORT_IGES
100
AcDbPolyline
 62
253
  6
CONTINUOUS
 90
13
 70
0
 10
19.2919635806
 20
-51.8098832289
 10
19.4200596021
 20
-51.7544342517
 10
19.546850002
 20
-51.6940158116
 10
19.6719019274
 20
-51.6288757689
 10
19.7945651489
 20
-51.5593918162
 10
19.914665138
 20
-51.4856842978
 10
20.0324602518
 20
-51.4075330866
 10
20.1476339201
 20
-51.3250439221
 10
20.2597217542
 20
-51.2385814448
 10
20.3686880072
 20
-51.1482113296
 10
20.4742552319
 20
-51.0541461237
 10
20.5759363465
 20
-50.9567799796
 10
20.6733392643
 20
-50.856432925
  0
LINE
  5
308
100
AcDbEntity
  8
IMPORT_IGES
100
AcDbLine
 62
253
  6
CONTINUOUS
 10
20.6733652689
 20
-50.8564051166
 11
23.8221684903
 21
-49.5893927109
  0
LWPOLYLINE
  5
309
100
AcDbEntity
  8
IMPORT_IGES
100
AcDbPolyline
 62
7
  6
CONTINUOUS
 90
3
 70
0
 10
-13.1544964155
 20
52.2114042886
 10
-13.0776025068
 20
52.2104830654
 10
-12.8384748119
 20
52.1942333321
  0
LWPOLYLINE
  5
30A
100
AcDbEntity
  8
IMPORT_IGES
100
AcDbPolyline
 62
7
  6
CONTINUOUS
 90
10
 70
0
 10
-4.6246132336
 20
54.6054445503
 10
-2.9241042261
 20
54.0639872676
 10
-1.2206746379
 20
53.4688313302
 10
0.4848651753
 20
52.8204750117
 10
2.1922007089
 20
52.1192136832
 10
3.9000735858
 20
51.3657216035
 10
5.6062371388
 20
50.5612168984
 10
7.3093957907
 20
49.7066078393
 10
9.0092450834
 20
48.8023266073
 10
10.7050030822
 20
47.8490275437
  0
LWPOLYLINE
  5
30B
100
AcDbEntity
  8
IMPORT_IGES
100
AcDbPolyline
 62
253
  6
CONTINUOUS
 90
18
 70
0
 10
25.8964241887
 20
-51.0858230097
 10
26.0661992693
 20
-50.9647493696
 10
26.2207836837
 20
-50.8357980434
 10
26.3672538547
 20
-50.6940967209
 10
26.5051258908
 20
-50.5398276959
 10
26.6339798274
 20
-50.373183524
 10
26.7536989924
 20
-50.1939480716
 10
26.8636425544
 20
-50.0026814342
 10
26.9628408001
 20
-49.8010199175
 10
27.0505660218
 20
-49.591069243
 10
27.1275197917
 20
-49.3718476571
 10
27.1946135283
 20
-49.1401436222
 10
27.2519366994
 20
-48.892884652
 10
27.2979960074
 20
-48.63313737
 10
27.3316314725
 20
-48.3671174818
 10
27.3530044093
 20
-48.0976795233
 10
27.3627089656
 20
-47.8236443742
 10
27.3610670599
 20
-47.5457541724
  0
LWPOLYLINE
  5
30C
100
AcDbEntity
  8
IMPORT_IGES
100
AcDbPolyline
 62
7
  6
CONTINUOUS
 90
19
 70
0
 10
25.8948796263
 20
-51.086785005
 10
26.0421238787
 20
-50.9880098787
 10
26.4342276149
 20
-50.7029086947
 10
26.8201722739
 20
-50.3885498718
 10
27.1940548709
 20
-50.0483455339
 10
27.5538016507
 20
-49.6828890679
 10
27.8999189549
 20
-49.2891952843
 10
28.2270524481
 20
-48.8698663412
 10
28.5310559681
 20
-48.4278346548
 10
28.8126672233
 20
-47.9605472905
 10
29.0679616489
 20
-47.4737840534
 10
29.2954625681
 20
-46.9704133578
 10
29.4967135581
 20
-46.4448934788
 10
29.6673775113
 20
-45.905652392
 10
29.8052877534
 20
-45.3594996911
 10
29.9120033977
 20
-44.7998753151
 10
29.9865038885
 20
-44.2300650658
 10
30.0280372461
 20
-43.6608842444
 10
30.0380530773
 20
-43.1329222884
  0
LINE
  5
30D
100
AcDbEntity
  8
IMPORT_IGES
100
AcDbLine
 62
7
  6
CONTINUOUS
 10
25.8964241887
 20
-51.0858230097
 11
23.0612358824
 21
-52.9462988168
  0
LWPOLYLINE
  5
30E
100
AcDbEntity
  8
IMPORT_IGES
100
AcDbPolyline
 62
7
  6
CONTINUOUS
 90
6
 70
0
 10
23.0612185522
 20
-52.9462700772
 10
22.9171052801
 20
-53.0344431565
 10
22.7523400142
 20
-53.120774037
 10
22.5813427342
 20
-53.1956622456
 10
22.4041433542
 20
-53.2591621859
 10
22.262532502
 20
-53.2993475347
  0
LWPOLYLINE
  5
30F
100
AcDbEntity
  8
IMPORT_IGES
100
AcDbPolyline
 62
7
  6
CONTINUOUS
 90
7
 70
0
 10
21.8372096564
 20
-53.5182104231
 10
21.9957614477
 20
-53.4484375818
 10
22.1598910091
 20
-53.3625461461
 10
22.3178250049
 20
-53.2653027317
 10
22.4688111004
 20
-53.1571734425
 10
22.6128169627
 20
-53.0381076261
 10
22.7498749245
 20
-52.908155935
  0
LWPOLYLINE
  5
310
100
AcDbEntity
  8
IMPORT_IGES
100
AcDbPolyline
 62
253
  6
CONTINUOUS
 90
53
 70
0
 10
18.0744045586
 20
-55.0332683632
 10
18.2192379516
 20
-54.9719066865
 10
18.3601549809
 20
-54.9086792117
 10
18.4972229026
 20
-54.8436410082
 10
18.6298024435
 20
-54.7772020978
 10
18.757467399
 20
-54.7096836274
 10
18.8804453624
 20
-54.6410810235
 10
18.9989745602
 20
-54.5713717673
 10
19.1128881567
 20
-54.5007716788
 10
19.2222382395
 20
-54.4293965591
 10
19.3275723308
 20
-54.3570297902
 10
19.4288941907
 20
-54.2837805134
 10
19.526069763
 20
-54.2098672473
 10
19.6194152663
 20
-54.1351636356
 10
19.7089521285
 20
-54.0597449749
 10
19.794615279
 20
-53.9837631358
 10
19.8765762937
 20
-53.907166628
 10
19.9548918481
 20
-53.8299946108
 10
20.0295222694
 20
-53.7523827729
 10
20.1004946772
 20
-53.6744109234
 10
20.1678305144
 20
-53.5961680787
 10
20.2315270533
 20
-53.5177654556
 10
20.2915870356
 20
-53.4393139576
 10
20.347930104
 20
-53.3610710455
 10
20.4006996759
 20
-53.2829844146
 10
20.4502032562
 20
-53.2046726279
 10
20.4963745012
 20
-53.1263441735
 10
20.5393279203
 20
-53.047987526
 10
20.5795197723
 20
-52.9688437023
 10
20.6169716595
 20
-52.8888685407
 10
20.6515874304
 20
-52.8083363529
 10
20.6835139176
 20
-52.7269185706
 10
20.712704003
 20
-52.6446163505
 10
20.7390490624
 20
-52.5616384078
 10
20.7625686493
 20
-52.4779423173
 10
20.7831918086
 20
-52.3936855902
 10
20.8009079593
 20
-52.3088806542
 10
20.8158039432
 20
-52.2232464139
 10
20.8278084203
 20
-52.1368522236
 10
20.8368376032
 20
-52.049798224
 10
20.8428969138
 20
-51.9618412816
 10
20.8459695043
 20
-51.8730012068
 10
20.8460099221
 20
-51.7833925555
 10
20.8429594681
 20
-51.6929143077
 10
20.8368106669
 20
-51.6015826463
 10
20.8275491379
 20
-51.509543297
 10
20.8150900186
 20
-51.4169139947
 10
20.7994317237
 20
-51.3237698202
 10
20.7805926807
 20
-51.2302532039
 10
20.7585317168
 20
-51.1366089696
 10
20.7332644543
 20
-51.0430125372
 10
20.7048575617
 20
-50.9495623137
 10
20.6733652674
 20
-50.8564051163
  0
LINE
  5
311
100
AcDbEntity
  8
IMPORT_IGES
100
AcDbLine
 62
253
  6
CONTINUOUS
 10
18.040613866
 20
-55.0470796173
 11
18.0744045586
 21
-55.0332683632
  0
LINE
  5
312
100
AcDbEntity
  8
IMPORT_IGES
100
AcDbLine
 62
7
  6
CONTINUOUS
 10
18.0073512946
 20
-55.0604940322
 11
21.8372218248
 21
-53.5182340118
  0
ELLIPSE
  5
313
100
AcDbEntity
  8
0
100
AcDbEllipse
 62
7
  6
CONTINUOUS
 10
6.5332630964
 20
-33.8690096445
 30
0.0
 11
24.0809067487
 21
2.2518177195
 31
0.0
 40
0.6245458946
 41
-3.0416838639
 42
-1.7432486318
  0
ENDSEC
  0
SECTION
  2
OBJECTS
  0
DICTIONARY
  5
C
100
AcDbDictionary
280
0
281
1
  3
ACAD_GROUP
350
D
  3
ACAD_MLINESTYLE
350
17
  3
ACAD_LAYOUT
350
1A
  3
ACAD_PLOTSETTINGS
350
19
  3
ACAD_PLOTSTYLENAME
350
E
  0
DICTIONARY
  5
D
102
{ACAD_REACTORS
330
C
102
}
100
AcDbDictionary
280
0
281
1
  0
ACDBDICTIONARYWDFLT
  5
E
102
{ACAD_REACTORS
330
C
102
}
100
AcDbDictionary
281
1
  3
Normal
350
F
100
AcDbDictionaryWithDefault
340
F
  0
DICTIONARY
  5
17
102
{ACAD_REACTORS
330
C
102
}
100
AcDbDictionary
280
0
281
1
  3
Standard
350
18
  0
DICTIONARY
  5
19
102
{ACAD_REACTORS
330
C
102
}
100
AcDbDictionary
281
1
  0
DICTIONARY
  5
1A
102
{ACAD_REACTORS
330
C
102
}
100
AcDbDictionary
281
1
  3
Model
350
314
  3
Layout1
350
315
  0
ACDBPLACEHOLDER
  5
F
102
{ACAD_REACTORS
330
E
102
}
  0
MLINESTYLE
  5
18
102
{ACAD_REACTORS
330
17
102
}
100
AcDbMlineStyle
  2
STANDARD
 70
0
  3

 62
256
 51
90.0
 52
90.0
 71
2
 49
0.5
 62
256
  6
BYLAYER
 49
-0.5
 62
256
  6
BYLAYER
  0
LAYOUT
  5
314
102
{ACAD_REACTORS
330
1A
102
}
100
AcDbPlotSettings
  1

  2
none_device
  4
ISO_A4_(297.00_x_210.00_MM)
  6

 40
0.0
 41
0.0
 42
0.0
 43
0.0
 44
297.0
 45
210.0
 46
0.0
 47
0.0
 48
0.0
 49
0.0
140
0.0
141
0.0
142
1.0
143
1.0
 70
1024
 72
1
 73
0
 74
0
  7

 75
0
147
1.0
148
0.0
149
0.0
100
AcDbLayout
  1
Model
 70
0
 71
0
 10
0.0
 20
0.0
 11
297.0
 21
210.0
 12
0.0
 22
0.0
 32
0.0
 14
0.0
 24
0.0
 34
0.0
 15
0.0
 25
0.0
 35
0.0
146
0.0
 13
0.0
 23
0.0
 33
0.0
 16
1.0
 26
0.0
 36
0.0
 17
0.0
 27
1.0
 37
0.0
 76
0
330
20F
345
0
346
0
  0
LAYOUT
  5
315
102
{ACAD_REACTORS
330
1A
102
}
100
AcDbPlotSettings
  1

  2
none_device
  4
ISO_A4_(297.00_x_210.00_MM)
  6

 40
0.0
 41
0.0
 42
0.0
 43
0.0
 44
297.0
 45
210.0
 46
0.0
 47
0.0
 48
0.0
 49
0.0
140
0.0
141
0.0
142
1.0
143
1.0
 70
0
 72
1
 73
0
 74
0
  7

 75
0
147
1.0
148
0.0
149
0.0
100
AcDbLayout
  1
Layout1
 70
0
 71
1
 10
0.0
 20
0.0
 11
297.0
 21
210.0
 12
0.0
 22
0.0
 32
0.0
 14
0.0
 24
0.0
 34
0.0
 15
0.0
 25
0.0
 35
0.0
146
0.0
 13
0.0
 23
0.0
 33
0.0
 16
1.0
 26
0.0
 36
0.0
 17
0.0
 27
1.0
 37
0.0
 76
0
330
210
345
0
346
0
  0
ENDSEC
  0
EOF
