  0
SECTION
  2
HEADER
  9
$ACADVER
  1
AC1021
  9
$DWGCODEPAGE
  3
ANSI_1252
  9
$EXTMAX
 10
297.0
 20
210.0
 30
0.0
  9
$EXTMIN
 10
0.0
 20
0.0
 30
0.0
  9
$LIMMIN
 10
0.0
 20
0.0
  9
$LIMMAX
 10
297.0
 20
210.0
  9
$VIEWCTR
 10
148.5
 20
105.0
  9
$VIEWSIZE
 40
210.0
  9
$CLAYER
  8
0
  9
$LTSCALE
 40
16.335
  9
$CELTYPE
  6
BYLAYER
  9
$DIMSCALE
 40
1.0
  9
$DIMASZ
 40
3.0
  9
$DIMEXO
 40
0.5
  9
$DIMDLI
 40
11.286
  9
$DIMEXE
 40
1.5
  9
$DIMCEN
 40
2.673
  9
$DIMLFAC
 40
1.0
  9
$DIMBLK
  1
_FILLED
  9
$DIMALT
 70
0
  9
$DIMALTF
 40
0.0393700787
  9
$DIMTXT
 40
3.0
  9
$DIMTOL
 70
1
  9
$DIMLIM
 70
0
  9
$DIMTFAC
 40
1.0
  9
$DIMTP
 40
0.01
  9
$DIMTM
 40
0.01
  9
$DIMGAP
 40
0.625
  9
$DIMDSEP
 70
44
  9
$AUNITS
 70
0
  9
$PDMODE
 70
3
  9
$PDSIZE
 40
3.0
  9
$HANDSEED
  5
26E
  9
$TILEMODE
 70
1
  9
$MEASUREMENT
 70
1
  9
$INSUNITS
 70
4
  0
ENDSEC
  0
SECTION
  2
CLASSES
  0
CLASS
  1
ACDBDICTIONARYWDFLT
  2
AcDbDictionaryWithDefault
  3
AutoCAD 2000
 90
0
 91
1
280
0
281
0
  0
CLASS
  1
ACDBPLACEHOLDER
  2
AcDbPlaceHolder
  3
AutoCAD 2000
 90
0
 91
1
280
0
281
0
  0
CLASS
  1
LAYOUT
  2
AcDbLayout
  3
AutoCAD 2000
 90
0
 91
0
280
0
281
0
  0
ENDSEC
  0
SECTION
  2
TABLES
  0
TABLE
  2
VPORT
  5
8
100
AcDbSymbolTable
 70
2
  0
VPORT
  5
1F4
100
AcDbSymbolTableRecord
100
AcDbViewportTableRecord
  2
*ACTIVE
 70
0
 10
0.0
 20
0.0
 11
1.0
 21
1.0
 12
148.5
 22
105.0
 13
0.0
 23
0.0
 14
1.0
 24
1.0
 15
0.0
 25
0.0
 16
0.0
 26
0.0
 36
1.0
 17
0.0
 27
0.0
 37
0.0
 40
210.0
 41
1.4142857143
 42
50.0
 43
0.0
 44
0.0
 50
0.0
 51
0.0
 71
0
 72
100
 73
1
 74
1
 75
0
 76
0
 77
0
 78
0
  0
ENDTAB
  0
TABLE
  2
LTYPE
  5
5
100
AcDbSymbolTable
 70
6
  0
LTYPE
  5
14
100
AcDbSymbolTableRecord
100
AcDbLinetypeTableRecord
  2
BYBLOCK
 70
0
  3

 72
65
 73
0
 40
0.0
  0
LTYPE
  5
15
100
AcDbSymbolTableRecord
100
AcDbLinetypeTableRecord
  2
BYLAYER
 70
0
  3

 72
65
 73
0
 40
0.0
  0
LTYPE
  5
16
100
AcDbSymbolTableRecord
100
AcDbLinetypeTableRecord
  2
CONTINUOUS
 70
64
  3
Solid line
 72
65
 73
0
 40
0.0
  0
LTYPE
  5
1F5
100
AcDbSymbolTableRecord
100
AcDbLinetypeTableRecord
  2
CENTER
 70
64
  3
____ _ ____ _ ____ _ ____ _ ____ _ ____ _ ____
 72
65
 73
4
 40
0.6
 49
0.375
 74
0
 49
-0.075
 74
0
 49
0.075
 74
0
 49
-0.075
 74
0
  0
LTYPE
  5
1F6
100
AcDbSymbolTableRecord
100
AcDbLinetypeTableRecord
  2
HIDDEN
 70
64
  3
- - - - - - - - - - - - - - - - - - - -
 72
65
 73
2
 40
0.2
 49
0.1
 74
0
 49
-0.1
 74
0
  0
LTYPE
  5
1F7
100
AcDbSymbolTableRecord
100
AcDbLinetypeTableRecord
  2
PHANTOM
 70
64
  3
_____ _ _ _____ _ _ _____ _ _ _____
 72
65
 73
6
 40
0.8
 49
0.45
 74
0
 49
-0.05
 74
0
 49
0.1
 74
0
 49
-0.05
 74
0
 49
0.1
 74
0
 49
-0.05
 74
0
  0
LTYPE
  5
1F8
100
AcDbSymbolTableRecord
100
AcDbLinetypeTableRecord
  2
DOT
 70
64
  3
. . . . . . . . . . . . . . . . . . . .
 72
65
 73
2
 40
0.2
 49
0.1
 74
0
 49
-0.1
 74
0
  0
LTYPE
  5
1F9
100
AcDbSymbolTableRecord
100
AcDbLinetypeTableRecord
  2
DASHED
 70
64
  3
- - - - - - - - - - - - - - - - - - - -
 72
65
 73
2
 40
0.2
 49
0.1
 74
0
 49
-0.1
 74
0
  0
ENDTAB
  0
TABLE
  2
LAYER
  5
2
100
AcDbSymbolTable
 70
36
  0
LAYER
  5
10
100
AcDbSymbolTableRecord
100
AcDbLayerTableRecord
  2
0
 70
0
 62
7
  6
CONTINUOUS
370
-3
390
F
  0
LAYER
  5
1FA
100
AcDbSymbolTableRecord
100
AcDbLayerTableRecord
  2
DEFAULT_1
 70
0
 62
7
  6
CENTER
370
-3
390
F
  0
LAYER
  5
1FB
100
AcDbSymbolTableRecord
100
AcDbLayerTableRecord
  2
DEFAULT_2
 70
0
 62
7
  6
HIDDEN
370
-3
390
F
  0
LAYER
  5
1FC
100
AcDbSymbolTableRecord
100
AcDbLayerTableRecord
  2
DEFAULT_3
 70
0
 62
7
  6
PHANTOM
370
-3
390
F
  0
LAYER
  5
1FD
100
AcDbSymbolTableRecord
100
AcDbLayerTableRecord
  2
ASSI
 70
0
 62
7
  6
CONTINUOUS
370
-3
390
F
  0
LAYER
  5
1FE
100
AcDbSymbolTableRecord
100
AcDbLayerTableRecord
  2
COORDINATE
 70
0
 62
7
  6
CONTINUOUS
370
-3
390
F
  0
LAYER
  5
1FF
100
AcDbSymbolTableRecord
100
AcDbLayerTableRecord
  2
COPY_PUBLISH
 70
0
 62
7
  6
CONTINUOUS
370
-3
390
F
  0
LAYER
  5
200
100
AcDbSymbolTableRecord
100
AcDbLayerTableRecord
  2
COSMETICI
 70
0
 62
7
  6
CONTINUOUS
370
-3
390
F
  0
LAYER
  5
201
100
AcDbSymbolTableRecord
100
AcDbLayerTableRecord
  2
CURVE
 70
0
 62
7
  6
CONTINUOUS
370
-3
390
F
  0
LAYER
  5
202
100
AcDbSymbolTableRecord
100
AcDbLayerTableRecord
  2
DRAFT
 70
0
 62
7
  6
CONTINUOUS
370
-3
390
F
  0
LAYER
  5
203
100
AcDbSymbolTableRecord
100
AcDbLayerTableRecord
  2
IMPORT_IGES
 70
0
 62
7
  6
CONTINUOUS
370
-3
390
F
  0
LAYER
  5
204
100
AcDbSymbolTableRecord
100
AcDbLayerTableRecord
  2
NOTE
 70
0
 62
7
  6
CONTINUOUS
370
-3
390
F
  0
LAYER
  5
205
100
AcDbSymbolTableRecord
100
AcDbLayerTableRecord
  2
PIANI
 70
0
 62
7
  6
CONTINUOUS
370
-3
390
F
  0
LAYER
  5
206
100
AcDbSymbolTableRecord
100
AcDbLayerTableRecord
  2
PUNTI
 70
0
 62
7
  6
CONTINUOUS
370
-3
390
F
  0
LAYER
  5
207
100
AcDbSymbolTableRecord
100
AcDbLayerTableRecord
  2
RACCORDO
 70
0
 62
7
  6
CONTINUOUS
370
-3
390
F
  0
LAYER
  5
208
100
AcDbSymbolTableRecord
100
AcDbLayerTableRecord
  2
SIMBOLI
 70
0
 62
7
  6
CONTINUOUS
370
-3
390
F
  0
LAYER
  5
209
100
AcDbSymbolTableRecord
100
AcDbLayerTableRecord
  2
SMUSSO
 70
0
 62
7
  6
CONTINUOUS
370
-3
390
F
  0
LAYER
  5
20A
100
AcDbSymbolTableRecord
100
AcDbLayerTableRecord
  2
SNAPLINE
 70
0
 62
7
  6
CONTINUOUS
370
-3
390
F
  0
LAYER
  5
20B
100
AcDbSymbolTableRecord
100
AcDbLayerTableRecord
  2
SUPERFICI
 70
0
 62
7
  6
CONTINUOUS
370
-3
390
F
  0
LAYER
  5
20C
100
AcDbSymbolTableRecord
100
AcDbLayerTableRecord
  2
TRASH
 70
0
 62
7
  6
CONTINUOUS
370
-3
390
F
  0
ENDTAB
  0
TABLE
  2
STYLE
  5
3
100
AcDbSymbolTable
 70
1
  0
STYLE
  5
11
100
AcDbSymbolTableRecord
100
AcDbTextStyleTableRecord
  2
STANDARD
 70
0
 40
0.0
 41
0.8
 50
0.0
 71
0
 42
0.2
  3
txt
  4

  0
STYLE
  5
20D
100
AcDbSymbolTableRecord
100
AcDbTextStyleTableRecord
  2
TEXTSTYLE_1
 70
0
 40
0.0
 41
0.8
 50
0.0
 71
0
 42
0.2
  3
gdt
  4

  0
ENDTAB
  0
TABLE
  2
VIEW
  5
6
100
AcDbSymbolTable
 70
0
  0
ENDTAB
  0
TABLE
  2
UCS
  5
7
100
AcDbSymbolTable
 70
0
  0
ENDTAB
  0
TABLE
  2
APPID
  5
9
100
AcDbSymbolTable
 70
1
  0
APPID
  5
20E
100
AcDbSymbolTableRecord
100
AcDbRegAppTableRecord
  2
ACAD
 70
0
  0
ENDTAB
  0
TABLE
  2
BLOCK_RECORD
  5
1
100
AcDbSymbolTable
 70
0
  0
BLOCK_RECORD
  5
20F
100
AcDbSymbolTableRecord
100
AcDbBlockTableRecord
  2
*Model_Space
  0
BLOCK_RECORD
  5
210
100
AcDbSymbolTableRecord
100
AcDbBlockTableRecord
  2
*Paper_Space
  0
ENDTAB
  0
TABLE
  2
DIMSTYLE
  5
A
100
AcDbSymbolTable
 70
1
100
AcDbDimStyleTable
 71
0
  0
DIMSTYLE
105
211
100
AcDbSymbolTableRecord
100
AcDbDimStyleTableRecord
  2
STANDARD
 70
0
  3

  4

 40
1.0
 41
3.0
 42
0.5
 43
0.38
 44
1.5
 45
0.0
 46
0.0
 47
0.01
 48
0.01
140
3.0
141
0.09
142
0.0
143
25.4
144
1.0
145
0.0
146
1.0
147
0.625
 71
1.0
 72
0.0
 73
0
 74
0
 75
0
 76
0
 77
1
 78
8
170
0
171
2
172
0
173
0
174
0
175
0
176
0
177
0
178
0
270
2
271
2
272
2
273
2
274
2
275
0
280
0
281
0
282
0
283
1
284
8
285
0
286
0
287
3
288
0
340
11
278
44
  0
ENDTAB
  0
ENDSEC
  0
SECTION
  2
BLOCKS
  0
BLOCK
  5
20
100
AcDbEntity
  8
0
100
AcDbBlockBegin
  2
*Model_Space
 70
0
 10
0.0
 20
0.0
 30
0.0
  3
*Model_Space
  1

  0
ENDBLK
  5
21
100
AcDbEntity
  8
0
100
AcDbBlockEnd
  0
BLOCK
  5
1C
100
AcDbEntity
  8
0
100
AcDbBlockBegin
  2
*Paper_Space
 70
0
 10
0.0
 20
0.0
 30
0.0
  3
*Paper_Space
  1

  0
ENDBLK
  5
1D
100
AcDbEntity
  8
0
100
AcDbBlockEnd
  0
ENDSEC
  0
SECTION
  2
ENTITIES
  0
LINE
  5
212
100
AcDbEntity
  8
RACCORDO
100
AcDbLine
 62
7
  6
CONTINUOUS
 10
-57.4820161318
 20
69.7201629387
 11
-34.7916392541
 21
85.7194620426
  0
LINE
  5
213
100
AcDbEntity
  8
RACCORDO
100
AcDbLine
 62
253
  6
CONTINUOUS
 10
-55.8642456774
 20
69.6503236409
 11
-33.2170390861
 21
85.6191827777
  0
LWPOLYLINE
  5
214
100
AcDbEntity
  8
RACCORDO
100
AcDbPolyline
 62
253
  6
CONTINUOUS
 90
19
 70
0
 10
-57.4820161318
 20
69.7201629387
 10
-57.441082548
 20
69.7475346582
 10
-57.3698139208
 20
69.788676316
 10
-57.2948959561
 20
69.8241285634
 10
-57.2164977759
 20
69.8538113697
 10
-57.1347963587
 20
69.8776577279
 10
-57.0499761398
 20
69.8956138065
 10
-56.9622285947
 20
69.9076390711
 10
-56.8717518077
 20
69.9137063754
 10
-56.7787500244
 20
69.9138020229
 10
-56.6834331906
 20
69.907925798
 10
-56.5860164768
 20
69.8960909661
 10
-56.4867197933
 20
69.8783242435
 10
-56.3857672945
 20
69.8546657369
 10
-56.2833868742
 20
69.825168854
 10
-56.1798096503
 20
69.7899001822
 10
-56.0752694414
 20
69.7489393384
 10
-55.9700022393
 20
69.7023787889
 10
-55.8642456774
 20
69.6503236409
  0
LWPOLYLINE
  5
215
100
AcDbEntity
  8
RACCORDO
100
AcDbPolyline
 62
253
  6
CONTINUOUS
 90
31
 70
0
 10
-55.8642456774
 20
69.6503236409
 10
-55.9765569783
 20
69.5874453732
 10
-56.0874381645
 20
69.5192607343
 10
-56.1971520044
 20
69.4458793022
 10
-56.3063259894
 20
69.3672762778
 10
-56.4147007035
 20
69.2834877449
 10
-56.52116202
 20
69.1948882929
 10
-56.6257184117
 20
69.1019070271
 10
-56.72857014
 20
69.0045632007
 10
-56.8288582122
 20
68.9029689448
 10
-56.9265466955
 20
68.7976065796
 10
-57.0217441299
 20
68.6887269407
 10
-57.1137322736
 20
68.5762866267
 10
-57.2024535525
 20
68.4608068326
 10
-57.2879787044
 20
68.3426932438
 10
-57.3696958299
 20
68.22181382
 10
-57.4475535619
 20
68.0986941961
 10
-57.5216053853
 20
67.9738319617
 10
-57.5913138981
 20
67.8470762313
 10
-57.6566465215
 20
67.718948717
 10
-57.7176587521
 20
67.5899823471
 10
-57.7738740423
 20
67.4600402299
 10
-57.8252889
 20
67.3296352449
 10
-57.8719716673
 20
67.1993027474
 10
-57.9134964925
 20
67.0689302544
 10
-57.9498976121
 20
66.9390208936
 10
-57.9812650042
 20
66.8100946189
 10
-58.0072138169
 20
66.6820579342
 10
-58.0276670213
 20
66.5552122824
 10
-58.0428947959
 20
66.4302480373
 10
-58.0530343518
 20
66.3076465344
  0
LWPOLYLINE
  5
216
100
AcDbEntity
  8
RACCORDO
100
AcDbPolyline
 62
7
  6
CONTINUOUS
 90
21
 70
0
 10
-58.7497539997
 20
67.4126288567
 10
-58.7443811087
 20
67.4985484935
 10
-58.7306599043
 20
67.6356287054
 10
-58.7106844716
 20
67.7717899021
 10
-58.6844924966
 20
67.9068600577
 10
-58.6520804913
 20
68.0407922309
 10
-58.6134709467
 20
68.1733522957
 10
-58.5687258871
 20
68.3042054877
 10
-58.5178953719
 20
68.433101177
 10
-58.4609797565
 20
68.5599061899
 10
-58.3981491253
 20
68.684130745
 10
-58.329817116
 20
68.8049817777
 10
-58.2565569895
 20
68.9216492212
 10
-58.1783081846
 20
69.0344320981
 10
-58.0944852296
 20
69.144137807
 10
-58.0048823963
 20
69.2508038153
 10
-57.909938161
 20
69.3536982066
 10
-57.8099371988
 20
69.4523894236
 10
-57.7051366825
 20
69.5465374956
 10
-57.5957421764
 20
69.63588711
 10
-57.4820161318
 20
69.7201629387
  0
LWPOLYLINE
  5
217
100
AcDbEntity
  8
RACCORDO
100
AcDbPolyline
 62
253
  6
CONTINUOUS
 90
15
 70
0
 10
-59.6446031947
 20
25.6295685363
 10
-59.6370935643
 20
25.5472014118
 10
-59.6228040558
 20
25.4651634558
 10
-59.60176707
 20
25.38362412
 10
-59.5740305461
 20
25.3027873237
 10
-59.539657943
 20
25.2228912928
 10
-59.4987278439
 20
25.1441728324
 10
-59.4513327885
 20
25.0667576646
 10
-59.397579372
 20
24.9907137441
 10
-59.3375890406
 20
24.916172842
 10
-59.2714982493
 20
24.8433474688
 10
-59.1994572096
 20
24.7724212316
 10
-59.121629444
 20
24.7035617917
 10
-59.0381913479
 20
24.6369205143
 10
-58.9493321356
 20
24.5726494131
  0
LWPOLYLINE
  5
218
100
AcDbEntity
  8
RACCORDO
100
AcDbPolyline
 62
253
  6
CONTINUOUS
 90
15
 70
0
 10
-58.7492864462
 20
-14.9124059885
 10
-58.7418386768
 20
-14.9963449191
 10
-58.7274472943
 20
-15.0830348448
 10
-58.7063124951
 20
-15.1689558964
 10
-58.6784830751
 20
-15.2541576582
 10
-58.6440141999
 20
-15.338062784
 10
-58.6029905385
 20
-15.4206282816
 10
-58.5555200897
 20
-15.5018799175
 10
-58.5016770421
 20
-15.5812870539
 10
-58.4416007827
 20
-15.6588108259
 10
-58.3754556238
 20
-15.7344636762
 10
-58.3033359634
 20
-15.8077511806
 10
-58.225396353
 20
-15.8784938067
 10
-58.1418823024
 20
-15.9468532138
 10
-58.0530343518
 20
-16.0128391201
  0
LWPOLYLINE
  5
219
100
AcDbEntity
  8
RACCORDO
100
AcDbPolyline
 62
253
  6
CONTINUOUS
 90
13
 70
0
 10
-58.0530343518
 20
-16.0128391201
 10
-58.2178207224
 20
-12.6387898032
 10
-58.3636879672
 20
-9.3089624578
 10
-58.491537792
 20
-6.0239431399
 10
-58.6013059545
 20
-2.8145226761
 10
-58.6951232439
 20
0.3488109516
 10
-58.7757791615
 20
3.5566689993
 10
-58.8426647409
 20
6.8163495231
 10
-58.8952429495
 20
10.1209547468
 10
-58.9339306039
 20
13.5410608044
 10
-58.9572358955
 20
17.1009248171
 10
-58.9629688641
 20
20.777875518
 10
-58.9493322012
 20
24.5726493897
  0
LINE
  5
21A
100
AcDbEntity
  8
RACCORDO
100
AcDbLine
 62
253
  6
CONTINUOUS
 10
-59.6458282703
 20
25.6733510133
 11
-59.6446031947
 21
25.6295685363
  0
LWPOLYLINE
  5
21B
100
AcDbEntity
  8
RACCORDO
100
AcDbPolyline
 62
253
  6
CONTINUOUS
 90
13
 70
0
 10
-58.9493321938
 20
24.5726493846
 10
-58.9613172497
 20
27.5627423358
 10
-58.9612137958
 20
30.6082120259
 10
-58.9483571472
 20
33.7093032902
 10
-58.9221420015
 20
36.8453605313
 10
-58.8820151428
 20
40.0374272315
 10
-58.8264674266
 20
43.3487146778
 10
-58.7535585273
 20
46.7854717166
 10
-58.6618137299
 20
50.3428077813
 10
-58.5487029902
 20
54.0679805821
 10
-58.4112816138
 20
57.9775704616
 10
-58.2470015875
 20
62.0571138989
 10
-58.0530343518
 20
66.3076465344
  0
LINE
  5
21C
100
AcDbEntity
  8
RACCORDO
100
AcDbLine
 62
7
  6
CONTINUOUS
 10
-59.6595053606
 20
30.1816614665
 11
-59.6458282703
 21
25.6733510133
  0
LWPOLYLINE
  5
21D
100
AcDbEntity
  8
RACCORDO
100
AcDbPolyline
 62
7
  6
CONTINUOUS
 90
10
 70
0
 10
-59.6458641875
 20
25.6854924992
 10
-59.6595050615
 20
21.160156605
 10
-59.6450977191
 20
16.5770871911
 10
-59.6021776495
 20
12.0123687972
 10
-59.5307456365
 20
7.4662624806
 10
-59.43080309
 20
2.9390276874
 10
-59.3023530324
 20
-1.569087034
 10
-59.1453994955
 20
-6.0578379223
 10
-58.9599492423
 20
-10.5269597164
 10
-58.7492837177
 20
-14.9124592328
  0
LWPOLYLINE
  5
21E
100
AcDbEntity
  8
RACCORDO
100
AcDbPolyline
 62
253
  6
CONTINUOUS
 90
17
 70
0
 10
-58.7497515943
 20
67.4126788096
 10
-58.7502767974
 20
67.3998131009
 10
-58.7494599325
 20
67.3225265439
 10
-58.7418386783
 20
67.2454357198
 10
-58.7274472959
 20
67.1680892633
 10
-58.7063124969
 20
67.0909556238
 10
-58.6784830771
 20
67.0145375171
 10
-58.644014202
 20
66.9384079809
 10
-58.6029905408
 20
66.8630067658
 10
-58.5555200923
 20
66.7888174052
 10
-58.5016770448
 20
66.715449502
 10
-58.4416007855
 20
66.6433184814
 10
-58.3754556266
 20
66.5728742799
 10
-58.3033359659
 20
66.503757292
 10
-58.2253963549
 20
66.4361184434
 10
-58.1418823035
 20
66.3706182886
 10
-58.0530343518
 20
66.3076465344
  0
LWPOLYLINE
  5
21F
100
AcDbEntity
  8
RACCORDO
100
AcDbPolyline
 62
7
  6
CONTINUOUS
 90
9
 70
0
 10
-58.7497544524
 20
67.4126194546
 10
-58.9605042848
 20
62.7547054211
 10
-59.1458045313
 20
58.0506937074
 10
-59.3026414253
 20
53.3631326404
 10
-59.4310011472
 20
48.6923226698
 10
-59.5308747881
 20
44.0385187056
 10
-59.6022543141
 20
39.4019665653
 10
-59.6451330625
 20
34.7829247989
 10
-59.6595053606
 20
30.1816614665
  0
LWPOLYLINE
  5
220
100
AcDbEntity
  8
RACCORDO
100
AcDbPolyline
 62
253
  6
CONTINUOUS
 90
31
 70
0
 10
38.9203172155
 20
-70.435538955
 10
39.0319937057
 20
-70.4852855925
 10
39.147910808
 20
-70.5320288594
 10
39.2677395789
 20
-70.5754305511
 10
39.3910481257
 20
-70.6149384278
 10
39.5175504682
 20
-70.6504777032
 10
39.6471300561
 20
-70.6824205776
 10
39.7794082148
 20
-70.7104413963
 10
39.9139917627
 20
-70.7342717553
 10
40.0507594766
 20
-70.7543289835
 10
40.189315147
 20
-70.7702964836
 10
40.3292409929
 20
-70.7819273402
 10
40.4704070472
 20
-70.7896914562
 10
40.6124211019
 20
-70.7932849045
 10
40.7548466286
 20
-70.7924763773
 10
40.8975261157
 20
-70.7877881635
 10
41.0401069497
 20
-70.7789384279
 10
41.1821447403
 20
-70.7657063571
 10
41.3234144833
 20
-70.7486587864
 10
41.4636605072
 20
-70.7275492046
 10
41.6024473141
 20
-70.7021622229
 10
41.7394064227
 20
-70.6730999394
 10
41.8744372646
 20
-70.6401643955
 10
42.0071590112
 20
-70.603140524
 10
42.1369919686
 20
-70.5626624284
 10
42.2640633113
 20
-70.5185734541
 10
42.3880741723
 20
-70.47064748
 10
42.5081149976
 20
-70.4195897257
 10
42.6240338971
 20
-70.3655987951
 10
42.7362232133
 20
-70.3081829268
 10
42.8447480385
 20
-70.2470716421
  0
LINE
  5
221
100
AcDbEntity
  8
RACCORDO
100
AcDbLine
 62
7
  6
CONTINUOUS
 10
-57.4514564156
 20
-17.2318007519
 11
-56.3961863752
 21
-17.9548977676
  0
LWPOLYLINE
  5
222
100
AcDbEntity
  8
RACCORDO
100
AcDbPolyline
 62
253
  6
CONTINUOUS
 90
15
 70
0
 10
-57.451374786
 20
-17.2318568032
 10
-57.5216053431
 20
-17.1797518358
 10
-57.591313854
 20
-17.1194150365
 10
-57.6566464757
 20
-17.0535135202
 10
-57.7176587047
 20
-16.9820779251
 10
-57.7738739934
 20
-16.9054685066
 10
-57.8252888497
 20
-16.8237951217
 10
-57.8719716158
 20
-16.7371555493
 10
-57.91349644
 20
-16.6459041316
 10
-57.9498975571
 20
-16.5501971474
 10
-57.9812649468
 20
-16.4501898055
 10
-58.0072137632
 20
-16.3462377587
 10
-58.0276669793
 20
-16.2385846206
 10
-58.0428947718
 20
-16.1273776519
 10
-58.0530343518
 20
-16.0128391201
  0
LWPOLYLINE
  5
223
100
AcDbEntity
  8
RACCORDO
100
AcDbPolyline
 62
7
  6
CONTINUOUS
 90
31
 70
0
 10
-49.9532099414
 20
-20.6130100112
 10
-49.9755203052
 20
-20.5953602732
 10
-49.9949095476
 20
-20.5781682491
 10
-50.0113476379
 20
-20.5614200141
 10
-50.0248502393
 20
-20.5450663527
 10
-50.0353393305
 20
-20.5291294561
 10
-50.0426481492
 20
-20.5137092712
 10
-50.0467300699
 20
-20.4988163784
 10
-50.047577742
 20
-20.4844307266
 10
-50.0450905336
 20
-20.4706167185
 10
-50.0392506682
 20
-20.4573909072
 10
-50.030029298
 20
-20.4447408382
 10
-50.0173060294
 20
-20.4326854802
 10
-50.0010294086
 20
-20.4212063536
 10
-49.9811870351
 20
-20.410313182
 10
-49.9577151685
 20
-20.400066502
 10
-49.9305457862
 20
-20.3904831632
 10
-49.8996931462
 20
-20.3815537908
 10
-49.8652311678
 20
-20.3733141446
 10
-49.8271634292
 20
-20.3658014981
 10
-49.7854566785
 20
-20.3590112724
 10
-49.740139407
 20
-20.3529258058
 10
-49.6913088202
 20
-20.3475591206
 10
-49.6388417584
 20
-20.3429344298
 10
-49.5824170311
 20
-20.3390340729
 10
-49.521982491
 20
-20.3358366831
 10
-49.4575209994
 20
-20.333373375
 10
-49.3887338078
 20
-20.3316855899
 10
-49.3154868972
 20
-20.3307861572
 10
-49.23782311
 20
-20.3306674529
 10
-47.0532976992
 20
-20.3420466531
  0
LWPOLYLINE
  5
224
100
AcDbEntity
  8
RACCORDO
100
AcDbPolyline
 62
253
  6
CONTINUOUS
 90
25
 70
0
 10
-49.1556981758
 20
-20.3313362716
 10
-45.8199436116
 20
-22.5404785568
 10
-42.4582840518
 20
-24.7376102331
 10
-39.070887022
 20
-26.9226321173
 10
-35.6580857786
 20
-29.0953413523
 10
-32.2198879028
 20
-31.2557458346
 10
-28.7559629686
 20
-33.4040577105
 10
-25.2659961876
 20
-35.5404643607
 10
-21.7506186111
 20
-37.6645706952
 10
-18.2109291853
 20
-39.775721181
 10
-14.6486982675
 20
-41.8728973063
 10
-11.062546775
 20
-43.9569522434
 10
-7.4487919188
 20
-46.0300049022
 10
-3.8122079731
 20
-48.0892830272
 10
-0.1483022982
 20
-50.1373306157
 10
3.5609394635
 20
-52.1839836363
 10
7.3225115253
 20
-54.2325344465
 10
11.129978104
 20
-56.278936044
 10
14.9815171088
 20
-58.3218214164
 10
18.8802737854
 20
-60.362403025
 10
22.8235019728
 20
-62.3987684124
 10
26.8002885858
 20
-64.4250168315
 10
30.8068781215
 20
-66.4391012132
 10
34.8469024056
 20
-68.442678891
 10
38.9203172155
 20
-70.435538955
  0
LWPOLYLINE
  5
225
100
AcDbEntity
  8
RACCORDO
100
AcDbPolyline
 62
7
  6
CONTINUOUS
 90
25
 70
0
 10
-49.9208611066
 20
-20.6360129322
 10
-46.8661620976
 20
-22.6711931466
 10
-43.4001871039
 20
-24.9508048873
 10
-39.9063283309
 20
-27.2176661143
 10
-36.384763301
 20
-29.4716657391
 10
-32.8356686201
 20
-31.7126936105
 10
-29.2592205609
 20
-33.9406406871
 10
-25.655599878
 20
-36.1553981641
 10
-22.0249878794
 20
-38.3568574603
 10
-18.3675648481
 20
-40.5449112111
 10
-14.683514206
 20
-42.7194531711
 10
-10.9730232561
 20
-44.8803756454
 10
-7.2362811091
 20
-47.0275703072
 10
-3.4734773208
 20
-49.1609314286
 10
0.3152013182
 20
-51.2803560234
 10
4.1295679723
 20
-53.3857412379
 10
7.9694271452
 20
-55.476982083
 10
11.8345856942
 20
-57.5539764523
 10
15.7248575993
 20
-59.6166259894
 10
19.6400502472
 20
-61.6648305746
 10
23.5799734934
 20
-63.6984932596
 10
27.5444465912
 20
-65.7175219125
 10
31.5332698454
 20
-67.7218163128
 10
35.5462139129
 20
-69.7112643877
 10
39.5261951674
 20
-71.6581303811
  0
LINE
  5
226
100
AcDbEntity
  8
RACCORDO
100
AcDbLine
 62
253
  6
CONTINUOUS
 10
-53.1700314602
 20
-19.3330670189
 11
-54.8040222992
 21
-18.2292912867
  0
LINE
  5
227
100
AcDbEntity
  8
RACCORDO
100
AcDbLine
 62
253
  6
CONTINUOUS
 10
-54.8040222992
 20
-18.2292912867
 11
-56.4316970471
 21
-17.1225448032
  0
LINE
  5
228
100
AcDbEntity
  8
RACCORDO
100
AcDbLine
 62
7
  6
CONTINUOUS
 10
-56.3961863752
 20
-17.9548977676
 11
-54.8915429788
 21
-18.9805887296
  0
LINE
  5
229
100
AcDbEntity
  8
RACCORDO
100
AcDbLine
 62
253
  6
CONTINUOUS
 10
-56.4316970471
 20
-17.1225448032
 11
-58.0530343518
 21
-16.0128391201
  0
LINE
  5
22A
100
AcDbEntity
  8
RACCORDO
100
AcDbLine
 62
7
  6
CONTINUOUS
 10
-49.9209005681
 20
-20.6359864809
 11
-49.9532099414
 21
-20.6130100112
  0
LWPOLYLINE
  5
22B
100
AcDbEntity
  8
RACCORDO
100
AcDbPolyline
 62
7
  6
CONTINUOUS
 90
7
 70
0
 10
-55.6382305266
 20
-19.1959241302
 10
-55.6216977055
 20
-19.200122919
 10
-55.5639381681
 20
-19.2126071867
 10
-55.498905605
 20
-19.2232930581
 10
-55.4264265055
 20
-19.2320865531
 10
-55.3466784219
 20
-19.2390704623
 10
-55.2596635244
 20
-19.2442387865
  0
LINE
  5
22C
100
AcDbEntity
  8
RACCORDO
100
AcDbLine
 62
7
  6
CONTINUOUS
 10
-51.6213724446
 20
-20.2416642547
 11
-49.8201957519
 21
-20.7030807963
  0
LINE
  5
22D
100
AcDbEntity
  8
RACCORDO
100
AcDbLine
 62
253
  6
CONTINUOUS
 10
-52.3241471683
 20
-20.0064101483
 11
-49.9532099414
 21
-20.6130100113
  0
LINE
  5
22E
100
AcDbEntity
  8
RACCORDO
100
AcDbLine
 62
7
  6
CONTINUOUS
 10
-53.1909761898
 20
-19.8358182203
 11
-51.6213724446
 21
-20.2416642547
  0
LWPOLYLINE
  5
22F
100
AcDbEntity
  8
RACCORDO
100
AcDbPolyline
 62
253
  6
CONTINUOUS
 90
3
 70
0
 10
-55.2596635255
 20
-19.2442387866
 10
-54.6750510881
 20
-19.3970205733
 10
-52.3241471683
 20
-20.0064101483
  0
LINE
  5
230
100
AcDbEntity
  8
RACCORDO
100
AcDbLine
 62
7
  6
CONTINUOUS
 10
-55.638318217
 20
-19.1959644675
 11
-53.1909761898
 21
-19.8358182203
  0
LWPOLYLINE
  5
231
100
AcDbEntity
  8
RACCORDO
100
AcDbPolyline
 62
7
  6
CONTINUOUS
 90
16
 70
0
 10
-53.6700321286
 20
-19.3042084097
 10
-53.796008148
 20
-19.2910711419
 10
-53.9146835841
 20
-19.2765386148
 10
-54.0260540937
 20
-19.260622658
 10
-54.1295232825
 20
-19.2433069455
 10
-54.2256790713
 20
-19.2246309409
 10
-54.3162950438
 20
-19.2046861812
 10
-54.4016300315
 20
-19.1835519589
 10
-54.4814202221
 20
-19.1611625903
 10
-54.5566573947
 20
-19.1373862046
 10
-54.6277688191
 20
-19.1121491724
 10
-54.6943244066
 20
-19.0855328118
 10
-54.7560304917
 20
-19.0576360451
 10
-54.8129018427
 20
-19.0284181788
 10
-54.8649203093
 20
-18.9979291906
 10
-54.8915209042
 20
-18.9805796914
  0
LWPOLYLINE
  5
232
100
AcDbEntity
  8
RACCORDO
100
AcDbPolyline
 62
7
  6
CONTINUOUS
 90
23
 70
0
 10
-55.5164937573
 20
-18.6650146355
 10
-55.5670660419
 20
-18.6983220384
 10
-55.613400331
 20
-18.7305954365
 10
-55.6554967512
 20
-18.7618344759
 10
-55.6932325802
 20
-18.7919564964
 10
-55.7267308894
 20
-18.8210431821
 10
-55.7563605494
 20
-18.8493405444
 10
-55.782266778
 20
-18.8768781708
 10
-55.8043049093
 20
-18.903624932
 10
-55.8224090895
 20
-18.9297354826
 10
-55.8367366761
 20
-18.9552501552
 10
-55.8471311813
 20
-18.9801261893
 10
-55.8530561988
 20
-19.0043929991
 10
-55.8546281476
 20
-19.0281298886
 10
-55.8517320238
 20
-19.0512536066
 10
-55.8434846095
 20
-19.0735488351
 10
-55.8298593011
 20
-19.0950604492
 10
-55.8108848258
 20
-19.1157376569
 10
-55.7857612664
 20
-19.1352207941
 10
-55.754425265
 20
-19.1534914592
 10
-55.7169429434
 20
-19.1705603663
 10
-55.6727088239
 20
-19.1861109148
 10
-55.6382305266
 20
-19.1959241302
  0
LWPOLYLINE
  5
233
100
AcDbEntity
  8
RACCORDO
100
AcDbPolyline
 62
7
  6
CONTINUOUS
 90
25
 70
0
 10
-53.170037748
 20
-19.3330667462
 10
-51.0562118217
 20
-19.373178946
 10
-48.9386690012
 20
-19.3788393489
 10
-46.8175466575
 20
-19.3500572303
 10
-44.6929792806
 20
-19.2868408994
 10
-42.5651053037
 20
-19.1892052973
 10
-40.4340672035
 20
-19.0571717197
 10
-38.3000006926
 20
-18.8907559136
 10
-36.1630395106
 20
-18.6899741002
 10
-34.0233224219
 20
-18.4548501377
 10
-31.8809835059
 20
-18.1854041823
 10
-29.7361544939
 20
-17.8816568794
 10
-27.5889698343
 20
-17.5436347112
 10
-25.4395620918
 20
-17.1713623064
 10
-23.2880607427
 20
-16.764864671
 10
-21.1345947931
 20
-16.3241707143
 10
-18.9792943138
 20
-15.8493093159
 10
-16.822287426
 20
-15.3403099535
 10
-14.6636993786
 20
-14.7972042881
 10
-12.5036590746
 20
-14.2200258005
 10
-10.3422917954
 20
-13.608808159
 10
-8.1797165142
 20
-12.9635851271
 10
-6.0160563245
 20
-12.2843930958
 10
-3.851438295
 20
-11.5712713759
 10
-1.685986395
 20
-10.8242601295
  0
LWPOLYLINE
  5
234
100
AcDbEntity
  8
RACCORDO
100
AcDbPolyline
 62
7
  6
CONTINUOUS
 90
7
 70
0
 10
-53.170037748
 20
-19.3330667462
 10
-53.2616320735
 20
-19.3300199905
 10
-53.34992325
 20
-19.3262636442
 10
-53.4349100385
 20
-19.3218010681
 10
-53.5165912294
 20
-19.3166355457
 10
-53.5949656429
 20
-19.3107702832
 10
-53.6700321286
 20
-19.3042084097
  0
LINE
  5
235
100
AcDbEntity
  8
RACCORDO
100
AcDbLine
 62
7
  6
CONTINUOUS
 10
-53.6700321286
 20
-19.3042084097
 11
-54.3768155464
 21
-19.2799770962
  0
LWPOLYLINE
  5
236
100
AcDbEntity
  8
RACCORDO
100
AcDbPolyline
 62
7
  6
CONTINUOUS
 90
3
 70
0
 10
-54.3768155464
 20
-19.2799770962
 10
-55.0831505852
 20
-19.2518708424
 10
-55.2596635244
 20
-19.2442387865
  0
LINE
  5
237
100
AcDbEntity
  8
SMUSSO
100
AcDbLine
 62
7
  6
CONTINUOUS
 10
-0.25894057
 20
-10.3133000368
 11
3.3635267033
 21
-10.7488494111
  0
LWPOLYLINE
  5
238
100
AcDbEntity
  8
RACCORDO
100
AcDbPolyline
 62
7
  6
CONTINUOUS
 90
10
 70
0
 10
2.0147985421
 20
-11.2655024228
 10
5.9016514659
 20
-13.3800986619
 10
9.8145531037
 20
-15.4786182004
 10
13.7533039984
 20
-17.5609540666
 10
17.717703393
 20
-19.6270000736
 10
21.7075491872
 20
-21.676650945
 10
25.7226379471
 20
-23.7098023216
 10
29.762764987
 20
-25.7263506052
 10
33.8277243814
 20
-27.7261929627
 10
37.9173089207
 20
-29.7092274531
  0
LWPOLYLINE
  5
239
100
AcDbEntity
  8
0
100
AcDbPolyline
 62
7
  6
CONTINUOUS
 90
7
 70
0
 10
-13.415142017
 20
-4.1985662904
 10
-11.4777615413
 20
-5.3131138487
 10
-9.5333549815
 20
-6.4235749396
 10
-7.5819481927
 20
-7.5299347971
 10
-5.6235671227
 20
-8.6321787098
 10
-3.6582378125
 20
-9.7302920212
 10
-1.685986395
 20
-10.8242601295
  0
LWPOLYLINE
  5
23A
100
AcDbEntity
  8
RACCORDO
100
AcDbPolyline
 62
7
  6
CONTINUOUS
 90
13
 70
0
 10
-13.415142017
 20
-4.1985662904
 10
-17.379059585
 20
-1.8926137898
 10
-21.3129020162
 20
0.4304450862
 10
-25.2164478767
 20
2.770479574
 10
-29.0894774377
 20
5.127357954
 10
-32.9317726886
 20
7.500947559
 10
-36.7431173484
 20
9.8911147806
 10
-40.5232968784
 20
12.2977250775
 10
-44.2720984942
 20
14.720642983
 10
-47.9893111783
 20
17.1597321126
 10
-51.6747256907
 20
19.6148551711
 10
-55.3281345812
 20
22.0858739609
 10
-58.9493322012
 20
24.5726493897
  0
LINE
  5
23B
100
AcDbEntity
  8
RACCORDO
100
AcDbLine
 62
253
  6
CONTINUOUS
 10
39.217240043
 20
14.7514654368
 11
64.3695111093
 21
29.2739317416
  0
LWPOLYLINE
  5
23C
100
AcDbEntity
  8
RACCORDO
100
AcDbPolyline
 62
253
  6
CONTINUOUS
 90
31
 70
0
 10
41.3356531908
 20
11.0822662372
 10
41.2270958599
 20
11.0358040898
 10
41.114872886
 20
10.9923336827
 10
40.9989188801
 20
10.9519410893
 10
40.8788405513
 20
10.9148107376
 10
40.7547898969
 20
10.8809510378
 10
40.6276778878
 20
10.850280559
 10
40.4978033733
 20
10.8231709244
 10
40.3650386865
 20
10.7997227952
 10
40.2299645986
 20
10.7795696542
 10
40.0929621111
 20
10.7630716482
 10
39.9541315308
 20
10.7504683536
 10
39.8138420784
 20
10.7412470382
 10
39.6725295297
 20
10.7357258757
 10
39.5304495208
 20
10.7341996519
 10
39.3878275366
 20
10.7361016433
 10
39.2451082689
 20
10.7416910517
 10
39.1026444512
 20
10.7512574684
 10
38.9605939302
 20
10.7642386074
 10
38.8193935238
 20
10.7808352823
 10
38.6794356301
 20
10.8012954687
 10
38.5408504769
 20
10.8250851605
 10
38.4040561051
 20
10.8523538501
 10
38.2694489264
 20
10.8832938303
 10
38.1371503856
 20
10.9174017482
 10
38.0075538852
 20
10.9547854043
 10
37.8810382801
 20
10.9955811157
 10
37.7577203156
 20
11.039307361
 10
37.6378861572
 20
11.0858606
 10
37.521967834
 20
11.1355101861
 10
37.4102944046
 20
11.1883169469
  0
LWPOLYLINE
  5
23D
100
AcDbEntity
  8
RACCORDO
100
AcDbPolyline
 62
7
  6
CONTINUOUS
 90
22
 70
0
 10
40.0618815894
 20
7.3006111796
 10
40.1904779812
 20
7.307189344
 10
40.320390831
 20
7.3179357757
 10
40.4513863149
 20
7.332906515
 10
40.5833078867
 20
7.3522086943
 10
40.7158260085
 20
7.3758353163
 10
40.8484388699
 20
7.4036457593
 10
40.9808718839
 20
7.4356649088
 10
41.1128905304
 20
7.471893711
 10
41.2440540529
 20
7.5121164379
 10
41.3740781559
 20
7.5563156196
 10
41.5027455024
 20
7.6044716466
 10
41.6297244903
 20
7.6563382187
 10
41.7547759693
 20
7.7118830625
 10
41.8776602002
 20
7.7710561621
 10
41.9980579654
 20
7.8335647408
 10
42.1157286928
 20
7.8993398709
 10
42.2304750005
 20
7.9683224058
 10
42.3420577544
 20
8.0402192834
 10
42.4502665075
 20
8.1148788722
 10
42.5549181309
 20
8.1922927036
 10
42.6558273407
 20
8.2723740652
  0
LWPOLYLINE
  5
23E
100
AcDbEntity
  8
RACCORDO
100
AcDbPolyline
 62
253
  6
CONTINUOUS
 90
31
 70
0
 10
39.217240043
 20
14.7514654368
 10
39.1241535153
 20
14.6774870261
 10
39.0317437414
 20
14.5986372251
 10
38.9401031854
 20
14.5148205054
 10
38.849303771
 20
14.4256082341
 10
38.7594307754
 20
14.3311370408
 10
38.6707671036
 20
14.2322614516
 10
38.5838520901
 20
14.1290942749
 10
38.4987746008
 20
14.0214878254
 10
38.4153986361
 20
13.9101287304
 10
38.3342715932
 20
13.795203997
 10
38.2557211191
 20
13.6767126116
 10
38.1793993385
 20
13.5552267358
 10
38.1058281788
 20
13.4309994525
 10
38.0354467529
 20
13.3041420659
 10
37.9678130972
 20
13.175131023
 10
37.9033920707
 20
13.0442532136
 10
37.8426493961
 20
12.9117064433
 10
37.7851326203
 20
12.7779113567
 10
37.7312467972
 20
12.6431746031
 10
37.6814268947
 20
12.5077459231
 10
37.6352423984
 20
12.372012151
 10
37.593042314
 20
12.2362866713
 10
37.555205569
 20
12.1008465913
 10
37.5213279067
 20
11.9660587222
 10
37.4917096873
 20
11.8322329996
 10
37.4666667692
 20
11.6996550525
 10
37.4458102045
 20
11.5686781679
 10
37.4291900718
 20
11.4396193494
 10
37.4172766902
 20
11.3127414165
 10
37.4102944046
 20
11.1883169469
  0
LINE
  5
23F
100
AcDbEntity
  8
RACCORDO
100
AcDbLine
 62
7
  6
CONTINUOUS
 10
38.6147870298
 20
9.2307149426
 11
37.7784566755
 21
8.6938309923
  0
LWPOLYLINE
  5
240
100
AcDbEntity
  8
RACCORDO
100
AcDbPolyline
 62
7
  6
CONTINUOUS
 90
5
 70
0
 10
37.7784566755
 20
8.6938309923
 10
35.6731523152
 20
7.3637509312
 10
33.5660648885
 20
6.0654296712
 10
31.4572918214
 20
4.7989455284
 10
29.3692426413
 20
3.5772558532
  0
LINE
  5
241
100
AcDbEntity
  8
RACCORDO
100
AcDbLine
 62
7
  6
CONTINUOUS
 10
38.6147870298
 20
9.2307149426
 11
38.8470813078
 21
9.377998201
  0
LINE
  5
242
100
AcDbEntity
  8
RACCORDO
100
AcDbLine
 62
7
  6
CONTINUOUS
 10
38.8470813078
 20
9.377998201
 11
39.0810787777
 21
9.5245464872
  0
LWPOLYLINE
  5
243
100
AcDbEntity
  8
RACCORDO
100
AcDbPolyline
 62
7
  6
CONTINUOUS
 90
25
 70
0
 10
38.6596551177
 20
6.875732855
 10
37.1948096803
 20
5.9621579761
 10
35.72918308
 20
5.0640526156
 10
34.2628065185
 20
4.1814091759
 10
32.7956900015
 20
3.3141787292
 10
31.3278869979
 20
2.4623948856
 10
29.8594931008
 20
1.626172863
 10
28.3905433864
 20
0.8055085577
 10
26.9210651135
 20
0.0003883116
 10
25.4511402967
 20
-0.78908866
 10
23.9808114147
 20
-1.5629245184
 10
22.5100977153
 20
-2.3211367547
 10
21.03904511
 20
-3.0636503477
 10
19.5677174833
 20
-3.7904607103
 10
18.0961128097
 20
-4.501593315
 10
16.6241785061
 20
-5.1970183001
 10
15.1519527014
 20
-5.8767465536
 10
13.6794620676
 20
-6.5407873644
 10
12.206638594
 20
-7.1891076231
 10
10.7335163166
 20
-7.8217208128
 10
9.2601292087
 20
-8.438632756
 10
7.7864110881
 20
-9.0397979187
 10
6.3123639481
 20
-9.6252070762
 10
4.838057142
 20
-10.1948878248
 10
3.3635267033
 20
-10.7488494111
  0
LINE
  5
244
100
AcDbEntity
  8
RACCORDO
100
AcDbLine
 62
7
  6
CONTINUOUS
 10
39.0810787777
 20
9.5245464872
 11
39.3168268966
 21
9.6705826793
  0
LINE
  5
245
100
AcDbEntity
  8
RACCORDO
100
AcDbLine
 62
7
  6
CONTINUOUS
 10
39.3168268966
 20
9.6705826793
 11
39.5558782835
 21
9.8171503086
  0
LINE
  5
246
100
AcDbEntity
  8
RACCORDO
100
AcDbLine
 62
7
  6
CONTINUOUS
 10
39.5558782835
 20
9.8171503086
 11
39.8006947653
 21
9.96575492
  0
LWPOLYLINE
  5
247
100
AcDbEntity
  8
RACCORDO
100
AcDbPolyline
 62
7
  6
CONTINUOUS
 90
19
 70
0
 10
38.6596553071
 20
6.8757331457
 10
38.7373455294
 20
6.9226698307
 10
38.8156369994
 20
6.9666341503
 10
38.8943828609
 20
7.0076071916
 10
38.9733976078
 20
7.045463076
 10
39.0525878928
 20
7.0802802149
 10
39.1319598973
 20
7.1123476512
 10
39.2114022684
 20
7.1416490784
 10
39.2907935587
 20
7.1681517857
 10
39.3701430612
 20
7.1921272876
 10
39.4494797012
 20
7.2135628883
 10
39.5285804605
 20
7.2324243387
 10
39.6070782
 20
7.2489406454
 10
39.6847110485
 20
7.2630209296
 10
39.7615517738
 20
7.27466778
 10
39.8377393053
 20
7.2842447784
 10
39.9132735473
 20
7.2918527747
 10
39.9880097905
 20
7.297320614
 10
40.0618815894
 20
7.3006111796
  0
LINE
  5
248
100
AcDbEntity
  8
RACCORDO
100
AcDbLine
 62
7
  6
CONTINUOUS
 10
39.8006947653
 20
9.96575492
 11
40.0541676599
 21
10.1180628103
  0
LINE
  5
249
100
AcDbEntity
  8
RACCORDO
100
AcDbLine
 62
7
  6
CONTINUOUS
 10
40.0541676599
 20
10.1180628103
 11
40.3192502434
 21
10.2756687292
  0
LINE
  5
24A
100
AcDbEntity
  8
RACCORDO
100
AcDbLine
 62
7
  6
CONTINUOUS
 10
40.3192502434
 20
10.2756687292
 11
40.5985253826
 21
10.4397930018
  0
LWPOLYLINE
  5
24B
100
AcDbEntity
  8
RACCORDO
100
AcDbPolyline
 62
7
  6
CONTINUOUS
 90
5
 70
0
 10
29.3322367408
 20
3.55588911
 10
30.7910547522
 20
4.4060449802
 10
32.9503160036
 20
5.6932538311
 10
35.1082030477
 20
7.0141102818
 10
37.2646018396
 20
8.3685458493
  0
LINE
  5
24C
100
AcDbEntity
  8
RACCORDO
100
AcDbLine
 62
7
  6
CONTINUOUS
 10
41.323868583
 20
10.8618871054
 11
40.5985253826
 21
10.4397930018
  0
LINE
  5
24D
100
AcDbEntity
  8
RACCORDO
100
AcDbLine
 62
253
  6
CONTINUOUS
 10
41.3356531908
 20
11.0822662373
 11
66.487924257
 21
25.6047325421
  0
LINE
  5
24E
100
AcDbEntity
  8
SMUSSO
100
AcDbLine
 62
7
  6
CONTINUOUS
 10
3.3635267033
 20
-10.7488494111
 11
2.6891611416
 21
-11.0088804867
  0
LINE
  5
24F
100
AcDbEntity
  8
SMUSSO
100
AcDbLine
 62
7
  6
CONTINUOUS
 10
2.6891611416
 20
-11.0088804867
 11
2.0147985421
 21
-11.2655024228
  0
LWPOLYLINE
  5
250
100
AcDbEntity
  8
RACCORDO
100
AcDbPolyline
 62
7
  6
CONTINUOUS
 90
16
 70
0
 10
-1.685986395
 20
-10.8242601295
 10
0.4802323463
 20
-10.0486358927
 10
2.6468219089
 20
-9.2385513439
 10
4.813656094
 20
-8.3940524162
 10
6.9806058276
 20
-7.5151884724
 10
9.147550202
 20
-6.6020068042
 10
11.3143763774
 20
-5.6545524264
 10
13.4809596455
 20
-4.672878267
 10
15.6471794147
 20
-3.6570371252
 10
17.8129300192
 20
-2.6070757345
 10
19.9780906091
 20
-1.5230507393
 10
22.1425414337
 20
-0.4050200691
 10
24.3061795001
 20
0.7469657099
 10
26.4688846658
 20
1.9328445141
 10
28.6305414196
 20
3.1525548095
 10
29.3322367408
 20
3.55588911
  0
LWPOLYLINE
  5
251
100
AcDbEntity
  8
RACCORDO
100
AcDbPolyline
 62
7
  6
CONTINUOUS
 90
24
 70
0
 10
2.0147985421
 20
-11.2655024228
 10
-0.1360935659
 20
-12.0296503144
 10
-2.2862988384
 20
-12.760324487
 10
-4.4357227017
 20
-13.4575615624
 10
-6.5843842684
 20
-14.1214964577
 10
-8.7320701545
 20
-14.7520659724
 10
-10.8783434202
 20
-15.3490139806
 10
-13.0229444661
 20
-15.9123324589
 10
-15.1659521174
 20
-16.4421113701
 10
-17.3074417594
 20
-16.9382448169
 10
-19.4474279025
 20
-17.4007975326
 10
-21.5857013244
 20
-17.8297805963
 10
-23.7220031033
 20
-18.2250086899
 10
-25.8562720129
 20
-18.5865182057
 10
-27.9883780603
 20
-18.9143517379
 10
-30.1179688584
 20
-19.2083386464
 10
-32.2448283027
 20
-19.4685033632
 10
-34.3689894511
 20
-19.6949051797
 10
-36.4904774642
 20
-19.8874278011
 10
-38.6093245735
 20
-20.0461192915
 10
-40.7253021689
 20
-20.1710085637
 10
-42.8380481844
 20
-20.2619525006
 10
-44.9473822348
 20
-20.3189317077
 10
-47.0532976992
 20
-20.3420466531
  0
LWPOLYLINE
  5
252
100
AcDbEntity
  8
RACCORDO
100
AcDbPolyline
 62
253
  6
CONTINUOUS
 90
28
 70
0
 10
-58.0530343518
 20
66.3076465344
 10
-54.7287458707
 20
64.0018193347
 10
-51.4331036777
 20
61.7487249652
 10
-48.1675966398
 20
59.547811533
 10
-44.9534153956
 20
57.4115870473
 10
-41.7725250664
 20
55.3262940254
 10
-38.5662283029
 20
53.2526449633
 10
-35.3135353768
 20
51.1773384558
 10
-32.0353055561
 20
49.1140572516
 10
-28.734380948
 20
47.0646208247
 10
-25.4122330149
 20
45.0299204191
 10
-22.0677002983
 20
43.009219543
 10
-18.6997097986
 20
41.0018782161
 10
-15.3059299849
 20
39.0065603645
 10
-11.8889093774
 20
37.024809065
 10
-8.4549923181
 20
35.0602470095
 10
-5.0262024392
 20
33.1250706658
 10
-1.5812783313
 20
31.2069678188
 10
1.9393458265
 20
29.2733860023
 10
5.5530503529
 20
27.316065542
 10
9.244378477
 20
25.3447976612
 10
13.0249418806
 20
23.3549139684
 10
16.9085186379
 20
21.3407518328
 10
20.8836180122
 20
19.3098562863
 10
24.9236293187
 20
17.2771917936
 10
29.019808254
 20
15.2479985882
 10
33.1818547551
 20
13.2181675099
 10
37.4102944046
 20
11.1883169469
  0
LWPOLYLINE
  5
253
100
AcDbEntity
  8
RACCORDO
100
AcDbPolyline
 62
253
  6
CONTINUOUS
 90
28
 70
0
 10
-55.8642456774
 20
69.6503236409
 10
-52.5508429878
 20
67.3546348679
 10
-49.2688773125
 20
65.1103694068
 10
-46.0183486514
 20
62.9175272575
 10
-42.8182381252
 20
60.7892971583
 10
-39.6495646132
 20
58.7124903709
 10
-36.4553847538
 20
56.6475406803
 10
-33.2156972559
 20
54.580590217
 10
-29.9505034106
 20
52.5254968506
 10
-26.6628637296
 20
50.4842679749
 10
-23.3540648148
 20
48.4577265524
 10
-20.0228200645
 20
46.4450496207
 10
-16.6683301843
 20
44.4457756854
 10
-13.2880997069
 20
42.4585092793
 10
-9.8846240997
 20
40.4846458698
 10
-6.4645904706
 20
38.527910364
 10
-3.0502082538
 20
36.6001086841
 10
0.380731985
 20
34.689434908
 10
3.8881714406
 20
32.7641961766
 10
7.4875962095
 20
30.8148477797
 10
11.1635201953
 20
28.8509344274
 10
14.9294263039
 20
26.8693973909
 10
18.798113034
 20
24.8637539419
 10
22.7567818869
 20
22.8404868086
 10
26.7805202733
 20
20.815985446
 10
30.8610239965
 20
18.7957130056
 10
35.0065972531
 20
16.7742063359
 10
39.217240043
 20
14.7514654368
  0
LWPOLYLINE
  5
254
100
AcDbEntity
  8
RACCORDO
100
AcDbPolyline
 62
253
  6
CONTINUOUS
 90
17
 70
0
 10
38.9203172155
 20
-70.435538955
 10
38.9273197341
 20
-70.5482063213
 10
38.9392491459
 20
-70.6574500476
 10
38.9558811133
 20
-70.7628394903
 10
38.9767454203
 20
-70.863800379
 10
39.0017919938
 20
-70.960104872
 10
39.0314096617
 20
-71.0518439869
 10
39.0652826752
 20
-71.1386285754
 10
39.1031107914
 20
-71.2201095277
 10
39.1452981531
 20
-71.296411663
 10
39.1914659992
 20
-71.3671793267
 10
39.2412655043
 20
-71.4321035158
 10
39.2951270831
 20
-71.4913475454
 10
39.3526159607
 20
-71.5445979239
 10
39.4133273285
 20
-71.5915859598
 10
39.4777135975
 20
-71.632511426
 10
39.5262701554
 20
-71.6581668142
  0
LWPOLYLINE
  5
255
100
AcDbEntity
  8
RACCORDO
100
AcDbPolyline
 62
253
  6
CONTINUOUS
 90
13
 70
0
 10
38.9203172155
 20
-70.435538955
 10
38.7362813993
 20
-67.0422641149
 10
38.572948245
 20
-63.6948711983
 10
38.4295592369
 20
-60.3940511135
 10
38.3064697036
 20
-57.171025037
 10
38.2015822372
 20
-53.9960842995
 10
38.1116434185
 20
-50.7776336323
 10
38.0366990896
 20
-47.5080550052
 10
37.9776675177
 20
-44.194460667
 10
37.9346998462
 20
-40.7658319011
 10
37.9092245815
 20
-37.1975971221
 10
37.9029221639
 20
-33.5123685795
 10
37.9173089225
 20
-29.7092274725
  0
LWPOLYLINE
  5
256
100
AcDbEntity
  8
RACCORDO
100
AcDbPolyline
 62
253
  6
CONTINUOUS
 90
13
 70
0
 10
42.8447480385
 20
-70.2470716422
 10
42.6626249134
 20
-66.864996753
 10
42.4996428608
 20
-63.5299775402
 10
42.3558018806
 20
-60.2420140037
 10
42.2322781049
 20
-57.0314093695
 10
42.1278954016
 20
-53.8678604115
 10
42.0391253742
 20
-50.6604574524
 10
41.9641041199
 20
-47.4028696524
 10
41.9046955415
 20
-44.1014278512
 10
41.8629629514
 20
-40.6842148906
 10
41.8395941202
 20
-37.1272583846
 10
41.8339012773
 20
-33.4545307193
 10
41.8458844227
 20
-29.6660318946
  0
LWPOLYLINE
  5
257
100
AcDbEntity
  8
RACCORDO
100
AcDbPolyline
 62
253
  6
CONTINUOUS
 90
10
 70
0
 10
37.9173089207
 20
-29.7092274531
 10
37.9022248143
 20
-25.7461526189
 10
37.9111517553
 20
-21.7452966971
 10
37.9444803808
 20
-17.7065610838
 10
38.0028869914
 20
-13.6134435882
 10
38.0866488828
 20
-9.4821510855
 10
38.1947922389
 20
-5.362165692
 10
38.3264035203
 20
-1.2704837722
 10
38.4814815596
 20
2.8089500087
 10
38.6596551177
 20
6.875732855
  0
LINE
  5
258
100
AcDbEntity
  8
RACCORDO
100
AcDbLine
 62
253
  6
CONTINUOUS
 10
37.4102944046
 20
11.1883169469
 11
37.2646008323
 21
8.3685452063
  0
LWPOLYLINE
  5
259
100
AcDbEntity
  8
RACCORDO
100
AcDbPolyline
 62
253
  6
CONTINUOUS
 90
34
 70
0
 10
39.217240043
 20
14.7514654368
 10
39.3127292722
 20
14.6873237871
 10
39.4082535647
 20
14.617949844
 10
39.5035972811
 20
14.5435002142
 10
39.59854519
 20
14.4641429622
 10
39.6928829528
 20
14.3800572315
 10
39.7863976078
 20
14.2914328404
 10
39.8788780519
 20
14.1984698528
 10
39.9701155173
 20
14.1013781257
 10
40.0599040431
 20
14.0003768355
 10
40.1480409383
 20
13.895693985
 10
40.2343272396
 20
13.7875658887
 10
40.318568161
 20
13.676236639
 10
40.4005735343
 20
13.5619575541
 10
40.4801582383
 20
13.4449866108
 10
40.557142616
 20
13.3255878629
 10
40.6313528805
 20
13.2040308449
 10
40.7026215074
 20
13.080589963
 10
40.7707876127
 20
12.9555438765
 10
40.8356973163
 20
12.8291748681
 10
40.8972040889
 20
12.7017682071
 10
40.9551690834
 20
12.5736115051
 10
41.0094614479
 20
12.4449940667
 10
41.0599586212
 20
12.3162062369
 10
41.1065466092
 20
12.1875387458
 10
41.1491202427
 20
12.0592820517
 10
41.1875834151
 20
11.9317256845
 10
41.2218492986
 20
11.805157593
 10
41.2518405404
 20
11.6798634955
 10
41.2774894375
 20
11.5561262349
 10
41.298738089
 20
11.4342251398
 10
41.3155385277
 20
11.3144353934
 10
41.3278528279
 20
11.1970274124
 10
41.3356531908
 20
11.0822662373
  0
LINE
  5
25A
100
AcDbEntity
  8
RACCORDO
100
AcDbLine
 62
253
  6
CONTINUOUS
 10
41.3446434862
 20
9.755781673
 11
42.6558273407
 21
8.2723740652
  0
LINE
  5
25B
100
AcDbEntity
  8
RACCORDO
100
AcDbLine
 62
253
  6
CONTINUOUS
 10
40.6949225135
 20
10.496013849
 11
41.3446434862
 21
9.755781673
  0
LINE
  5
25C
100
AcDbEntity
  8
RACCORDO
100
AcDbLine
 62
253
  6
CONTINUOUS
 10
40.0618815894
 20
7.3006111796
 11
39.3476094065
 21
8.1154341798
  0
LWPOLYLINE
  5
25D
100
AcDbEntity
  8
RACCORDO
100
AcDbPolyline
 62
253
  6
CONTINUOUS
 90
3
 70
0
 10
39.3476094065
 20
8.1154341798
 10
38.6380248001
 20
8.9291010895
 10
38.4613587818
 20
9.1323377884
  0
LWPOLYLINE
  5
25E
100
AcDbEntity
  8
RACCORDO
100
AcDbPolyline
 62
253
  6
CONTINUOUS
 90
10
 70
0
 10
41.8458844227
 20
-29.6660318946
 10
41.8299297399
 20
-25.5537585406
 10
41.8407781743
 20
-21.4016853709
 10
41.8784297259
 20
-17.2098123854
 10
41.943305771
 20
-12.9594415254
 10
42.0349849332
 20
-8.6692708496
 10
42.1522030842
 20
-4.395394535
 10
42.2945388476
 20
-0.1565106404
 10
42.4624135998
 20
4.066078893
 10
42.6558273407
 20
8.2723740652
  0
LINE
  5
25F
100
AcDbEntity
  8
RACCORDO
100
AcDbLine
 62
253
  6
CONTINUOUS
 10
41.3356531908
 20
11.0822662373
 11
41.323868583
 21
10.8618871054
  0
LWPOLYLINE
  5
260
100
AcDbEntity
  8
RACCORDO
100
AcDbPolyline
 62
253
  6
CONTINUOUS
 90
31
 70
0
 10
41.8458844227
 20
-29.6660318946
 10
41.7375212114
 20
-29.7194490825
 10
41.624855496
 20
-29.7698330385
 10
41.5081425304
 20
-29.8170709629
 10
41.387646669
 20
-29.8610577016
 10
41.26364097
 20
-29.9016944454
 10
41.136406595
 20
-29.9388889695
 10
41.0062318245
 20
-29.9725583048
 10
40.8734115846
 20
-30.0026276486
 10
40.7382470063
 20
-30.0290290217
 10
40.601044339
 20
-30.051703894
 10
40.4621144272
 20
-30.0706024263
 10
40.3217722189
 20
-30.0856823504
 10
40.1803356842
 20
-30.0969107662
 10
40.0381252436
 20
-30.1042638106
 10
39.895463231
 20
-30.1077258636
 10
39.7526728517
 20
-30.107290322
 10
39.6100775675
 20
-30.1029597805
 10
39.468000521
 20
-30.0947456583
 10
39.326763551
 20
-30.0826500524
 10
39.1866865824
 20
-30.0667196719
 10
39.0480870067
 20
-30.0470460242
 10
38.9112788075
 20
-30.0237298938
 10
38.7765717322
 20
-29.9967712577
 10
38.6442707455
 20
-29.966123085
 10
38.5146753642
 20
-29.9318140178
 10
38.3880792484
 20
-29.8939656583
 10
38.2647694039
 20
-29.8526824386
 10
38.1450251549
 20
-29.8080649418
 10
38.0291175466
 20
-29.7602096446
 10
37.9173090258
 20
-29.7092260521
  0
LINE
  5
261
100
AcDbEntity
  8
RACCORDO
100
AcDbLine
 62
7
  6
CONTINUOUS
 10
64.3695111093
 20
29.2739317416
 11
-33.2170390861
 21
85.6191827777
  0
LINE
  5
262
100
AcDbEntity
  8
RACCORDO
100
AcDbLine
 62
7
  6
CONTINUOUS
 10
66.487924257
 20
-59.3148899092
 11
66.487924257
 21
25.6047325421
  0
LWPOLYLINE
  5
263
100
AcDbEntity
  8
RACCORDO
100
AcDbPolyline
 62
253
  6
CONTINUOUS
 90
19
 70
0
 10
42.0964242872
 20
-71.6828275323
 10
42.1404477339
 20
-71.661138316
 10
42.2117163603
 20
-71.6199966579
 10
42.2798824651
 20
-71.5728498469
 10
42.3447921681
 20
-71.5198043137
 10
42.4062989403
 20
-71.4609798049
 10
42.4642639343
 20
-71.3965091128
 10
42.5185562984
 20
-71.3265377752
 10
42.5690534713
 20
-71.2512237478
 10
42.6156414589
 20
-71.170737047
 10
42.658215092
 20
-71.0852593663
 10
42.696678264
 20
-70.9949836654
 10
42.7309441472
 20
-70.9001137347
 10
42.7609353888
 20
-70.8008637362
 10
42.7865842856
 20
-70.6974577201
 10
42.807832937
 20
-70.5901291183
 10
42.8246333756
 20
-70.4791202179
 10
42.8369476756
 20
-70.3646816135
 10
42.8447480385
 20
-70.2470716422
  0
LINE
  5
264
100
AcDbEntity
  8
RACCORDO
100
AcDbLine
 62
253
  6
CONTINUOUS
 10
42.8447480385
 20
-70.2470716422
 11
66.487924257
 21
-59.3148899092
  0
LINE
  5
265
100
AcDbEntity
  8
RACCORDO
100
AcDbLine
 62
7
  6
CONTINUOUS
 10
42.0964242872
 20
-71.6828275323
 11
65.7875467938
 21
-60.7284762935
  0
LWPOLYLINE
  5
266
100
AcDbEntity
  8
RACCORDO
100
AcDbPolyline
 62
7
  6
CONTINUOUS
 90
20
 70
0
 10
42.0964242872
 20
-71.6828275323
 10
41.9719376127
 20
-71.7370034336
 10
41.8444295078
 20
-71.7857404858
 10
41.7141881818
 20
-71.8288249377
 10
41.5813798806
 20
-71.8660981554
 10
41.4464657613
 20
-71.8973376168
 10
41.3102032372
 20
-71.9223257114
 10
41.1734740134
 20
-71.9409354579
 10
41.0360939359
 20
-71.9532340968
 10
40.8972172176
 20
-71.9592268342
 10
40.7564841796
 20
-71.9587338691
 10
40.6149921513
 20
-71.9515718033
 10
40.474049992
 20
-71.9377442946
 10
40.3342827889
 20
-71.9173428604
 10
40.1957386885
 20
-71.8904088607
 10
40.0587843077
 20
-71.8570341159
 10
39.923700682
 20
-71.8173113967
 10
39.7907860718
 20
-71.7713523354
 10
39.660362457
 20
-71.7192961104
 10
39.5261577891
 20
-71.6581122171
  0
ARC
  5
267
100
AcDbEntity
  8
RACCORDO
100
AcDbCircle
 62
7
  6
CONTINUOUS
 10
-55.7532243487
 20
-14.7587443743
 40
3.0
100
AcDbArc
 50
182.9378204265
 51
235.5236517804
  0
ELLIPSE
  5
268
100
AcDbEntity
  8
RACCORDO
100
AcDbEllipse
 62
7
  6
CONTINUOUS
 10
-33.2112207048
 20
83.1630510477
 30
0.0
 11
-1.504186306
 21
2.6051606309
 31
0.0
 40
0.5757524875
 41
-0.7840766935
 42
0.0522143992
  0
ELLIPSE
  5
269
100
AcDbEntity
  8
RACCORDO
100
AcDbEllipse
 62
7
  6
CONTINUOUS
 10
64.363692728
 20
26.8245189325
 30
0.0
 11
-1.5000730793
 21
2.5980340177
 31
0.0
 40
0.5789151826
 41
-2.3548735497
 42
-0.7868162787
  0
ELLIPSE
  5
26A
100
AcDbEntity
  8
RACCORDO
100
AcDbEllipse
 62
7
  6
CONTINUOUS
 10
64.363692728
 20
-58.0816669756
 30
0.0
 11
-1.504186306
 21
2.6051606309
 31
0.0
 40
0.5757524875
 41
-3.1938070528
 42
-2.3576120761
  0
ELLIPSE
  5
26B
100
AcDbEntity
  8
RACCORDO
100
AcDbEllipse
 62
7
  6
CONTINUOUS
 10
-6203.3565518503
 20
-3017.7609346047
 30
0.0
 11
6753.6261485623
 21
3479.5307889934
 31
0.0
 40
0.045218861
 41
-0.4506721614
 42
-0.4506424767
  0
ENDSEC
  0
SECTION
  2
OBJECTS
  0
DICTIONARY
  5
C
100
AcDbDictionary
280
0
281
1
  3
ACAD_GROUP
350
D
  3
ACAD_MLINESTYLE
350
17
  3
ACAD_LAYOUT
350
1A
  3
ACAD_PLOTSETTINGS
350
19
  3
ACAD_PLOTSTYLENAME
350
E
  0
DICTIONARY
  5
D
102
{ACAD_REACTORS
330
C
102
}
100
AcDbDictionary
280
0
281
1
  0
ACDBDICTIONARYWDFLT
  5
E
102
{ACAD_REACTORS
330
C
102
}
100
AcDbDictionary
281
1
  3
Normal
350
F
100
AcDbDictionaryWithDefault
340
F
  0
DICTIONARY
  5
17
102
{ACAD_REACTORS
330
C
102
}
100
AcDbDictionary
280
0
281
1
  3
Standard
350
18
  0
DICTIONARY
  5
19
102
{ACAD_REACTORS
330
C
102
}
100
AcDbDictionary
281
1
  0
DICTIONARY
  5
1A
102
{ACAD_REACTORS
330
C
102
}
100
AcDbDictionary
281
1
  3
Model
350
26C
  3
Layout1
350
26D
  0
ACDBPLACEHOLDER
  5
F
102
{ACAD_REACTORS
330
E
102
}
  0
MLINESTYLE
  5
18
102
{ACAD_REACTORS
330
17
102
}
100
AcDbMlineStyle
  2
STANDARD
 70
0
  3

 62
256
 51
90.0
 52
90.0
 71
2
 49
0.5
 62
256
  6
BYLAYER
 49
-0.5
 62
256
  6
BYLAYER
  0
LAYOUT
  5
26C
102
{ACAD_REACTORS
330
1A
102
}
100
AcDbPlotSettings
  1

  2
none_device
  4
ISO_A4_(297.00_x_210.00_MM)
  6

 40
0.0
 41
0.0
 42
0.0
 43
0.0
 44
297.0
 45
210.0
 46
0.0
 47
0.0
 48
0.0
 49
0.0
140
0.0
141
0.0
142
1.0
143
1.0
 70
1024
 72
1
 73
0
 74
0
  7

 75
0
147
1.0
148
0.0
149
0.0
100
AcDbLayout
  1
Model
 70
0
 71
0
 10
0.0
 20
0.0
 11
297.0
 21
210.0
 12
0.0
 22
0.0
 32
0.0
 14
0.0
 24
0.0
 34
0.0
 15
0.0
 25
0.0
 35
0.0
146
0.0
 13
0.0
 23
0.0
 33
0.0
 16
1.0
 26
0.0
 36
0.0
 17
0.0
 27
1.0
 37
0.0
 76
0
330
20F
345
0
346
0
  0
LAYOUT
  5
26D
102
{ACAD_REACTORS
330
1A
102
}
100
AcDbPlotSettings
  1

  2
none_device
  4
ISO_A4_(297.00_x_210.00_MM)
  6

 40
0.0
 41
0.0
 42
0.0
 43
0.0
 44
297.0
 45
210.0
 46
0.0
 47
0.0
 48
0.0
 49
0.0
140
0.0
141
0.0
142
1.0
143
1.0
 70
0
 72
1
 73
0
 74
0
  7

 75
0
147
1.0
148
0.0
149
0.0
100
AcDbLayout
  1
Layout1
 70
0
 71
1
 10
0.0
 20
0.0
 11
297.0
 21
210.0
 12
0.0
 22
0.0
 32
0.0
 14
0.0
 24
0.0
 34
0.0
 15
0.0
 25
0.0
 35
0.0
146
0.0
 13
0.0
 23
0.0
 33
0.0
 16
1.0
 26
0.0
 36
0.0
 17
0.0
 27
1.0
 37
0.0
 76
0
330
210
345
0
346
0
  0
ENDSEC
  0
EOF
