  0
SECTION
  2
HEADER
  9
$ACADVER
  1
AC1021
  9
$DWGCODEPAGE
  3
ANSI_1252
  9
$EXTMAX
 10
297.0
 20
210.0
 30
0.0
  9
$EXTMIN
 10
0.0
 20
0.0
 30
0.0
  9
$LIMMIN
 10
0.0
 20
0.0
  9
$LIMMAX
 10
297.0
 20
210.0
  9
$VIEWCTR
 10
148.5
 20
105.0
  9
$VIEWSIZE
 40
210.0
  9
$CLAYER
  8
0
  9
$LTSCALE
 40
16.335
  9
$CELTYPE
  6
BYLAYER
  9
$DIMSCALE
 40
1.0
  9
$DIMASZ
 40
3.0
  9
$DIMEXO
 40
0.5
  9
$DIMDLI
 40
11.286
  9
$DIMEXE
 40
1.5
  9
$DIMCEN
 40
2.673
  9
$DIMLFAC
 40
1.0
  9
$DIMBLK
  1
_FILLED
  9
$DIMALT
 70
0
  9
$DIMALTF
 40
0.0393700787
  9
$DIMTXT
 40
3.0
  9
$DIMTOL
 70
1
  9
$DIMLIM
 70
0
  9
$DIMTFAC
 40
1.0
  9
$DIMTP
 40
0.01
  9
$DIMTM
 40
0.01
  9
$DIMGAP
 40
0.625
  9
$DIMDSEP
 70
44
  9
$AUNITS
 70
0
  9
$PDMODE
 70
3
  9
$PDSIZE
 40
3.0
  9
$HANDSEED
  5
4EF
  9
$TILEMODE
 70
1
  9
$MEASUREMENT
 70
1
  9
$INSUNITS
 70
4
  0
ENDSEC
  0
SECTION
  2
CLASSES
  0
CLASS
  1
ACDBDICTIONARYWDFLT
  2
AcDbDictionaryWithDefault
  3
AutoCAD 2000
 90
0
 91
1
280
0
281
0
  0
CLASS
  1
ACDBPLACEHOLDER
  2
AcDbPlaceHolder
  3
AutoCAD 2000
 90
0
 91
1
280
0
281
0
  0
CLASS
  1
LAYOUT
  2
AcDbLayout
  3
AutoCAD 2000
 90
0
 91
0
280
0
281
0
  0
ENDSEC
  0
SECTION
  2
TABLES
  0
TABLE
  2
VPORT
  5
8
100
AcDbSymbolTable
 70
2
  0
VPORT
  5
1F4
100
AcDbSymbolTableRecord
100
AcDbViewportTableRecord
  2
*ACTIVE
 70
0
 10
0.0
 20
0.0
 11
1.0
 21
1.0
 12
148.5
 22
105.0
 13
0.0
 23
0.0
 14
1.0
 24
1.0
 15
0.0
 25
0.0
 16
0.0
 26
0.0
 36
1.0
 17
0.0
 27
0.0
 37
0.0
 40
210.0
 41
1.4142857143
 42
50.0
 43
0.0
 44
0.0
 50
0.0
 51
0.0
 71
0
 72
100
 73
1
 74
1
 75
0
 76
0
 77
0
 78
0
  0
ENDTAB
  0
TABLE
  2
LTYPE
  5
5
100
AcDbSymbolTable
 70
6
  0
LTYPE
  5
14
100
AcDbSymbolTableRecord
100
AcDbLinetypeTableRecord
  2
BYBLOCK
 70
0
  3

 72
65
 73
0
 40
0.0
  0
LTYPE
  5
15
100
AcDbSymbolTableRecord
100
AcDbLinetypeTableRecord
  2
BYLAYER
 70
0
  3

 72
65
 73
0
 40
0.0
  0
LTYPE
  5
16
100
AcDbSymbolTableRecord
100
AcDbLinetypeTableRecord
  2
CONTINUOUS
 70
64
  3
Solid line
 72
65
 73
0
 40
0.0
  0
LTYPE
  5
1F5
100
AcDbSymbolTableRecord
100
AcDbLinetypeTableRecord
  2
CENTER
 70
64
  3
____ _ ____ _ ____ _ ____ _ ____ _ ____ _ ____
 72
65
 73
4
 40
0.6
 49
0.375
 74
0
 49
-0.075
 74
0
 49
0.075
 74
0
 49
-0.075
 74
0
  0
LTYPE
  5
1F6
100
AcDbSymbolTableRecord
100
AcDbLinetypeTableRecord
  2
HIDDEN
 70
64
  3
- - - - - - - - - - - - - - - - - - - -
 72
65
 73
2
 40
0.2
 49
0.1
 74
0
 49
-0.1
 74
0
  0
LTYPE
  5
1F7
100
AcDbSymbolTableRecord
100
AcDbLinetypeTableRecord
  2
PHANTOM
 70
64
  3
_____ _ _ _____ _ _ _____ _ _ _____
 72
65
 73
6
 40
0.8
 49
0.45
 74
0
 49
-0.05
 74
0
 49
0.1
 74
0
 49
-0.05
 74
0
 49
0.1
 74
0
 49
-0.05
 74
0
  0
LTYPE
  5
1F8
100
AcDbSymbolTableRecord
100
AcDbLinetypeTableRecord
  2
DOT
 70
64
  3
. . . . . . . . . . . . . . . . . . . .
 72
65
 73
2
 40
0.2
 49
0.1
 74
0
 49
-0.1
 74
0
  0
LTYPE
  5
1F9
100
AcDbSymbolTableRecord
100
AcDbLinetypeTableRecord
  2
DASHED
 70
64
  3
- - - - - - - - - - - - - - - - - - - -
 72
65
 73
2
 40
0.2
 49
0.1
 74
0
 49
-0.1
 74
0
  0
ENDTAB
  0
TABLE
  2
LAYER
  5
2
100
AcDbSymbolTable
 70
36
  0
LAYER
  5
10
100
AcDbSymbolTableRecord
100
AcDbLayerTableRecord
  2
0
 70
0
 62
7
  6
CONTINUOUS
370
-3
390
F
  0
LAYER
  5
1FA
100
AcDbSymbolTableRecord
100
AcDbLayerTableRecord
  2
DEFAULT_1
 70
0
 62
7
  6
CENTER
370
-3
390
F
  0
LAYER
  5
1FB
100
AcDbSymbolTableRecord
100
AcDbLayerTableRecord
  2
DEFAULT_2
 70
0
 62
7
  6
HIDDEN
370
-3
390
F
  0
LAYER
  5
1FC
100
AcDbSymbolTableRecord
100
AcDbLayerTableRecord
  2
DEFAULT_3
 70
0
 62
7
  6
PHANTOM
370
-3
390
F
  0
LAYER
  5
1FD
100
AcDbSymbolTableRecord
100
AcDbLayerTableRecord
  2
ASSI
 70
0
 62
7
  6
CONTINUOUS
370
-3
390
F
  0
LAYER
  5
1FE
100
AcDbSymbolTableRecord
100
AcDbLayerTableRecord
  2
COLOR5
 70
0
 62
7
  6
CONTINUOUS
370
-3
390
F
  0
LAYER
  5
1FF
100
AcDbSymbolTableRecord
100
AcDbLayerTableRecord
  2
COORDINATE
 70
0
 62
7
  6
CONTINUOUS
370
-3
390
F
  0
LAYER
  5
200
100
AcDbSymbolTableRecord
100
AcDbLayerTableRecord
  2
COORD_ORIGINE
 70
0
 62
7
  6
CONTINUOUS
370
-3
390
F
  0
LAYER
  5
201
100
AcDbSymbolTableRecord
100
AcDbLayerTableRecord
  2
COPY_PUBLISH
 70
0
 62
7
  6
CONTINUOUS
370
-3
390
F
  0
LAYER
  5
202
100
AcDbSymbolTableRecord
100
AcDbLayerTableRecord
  2
COSMETIC
 70
0
 62
7
  6
CONTINUOUS
370
-3
390
F
  0
LAYER
  5
203
100
AcDbSymbolTableRecord
100
AcDbLayerTableRecord
  2
CURVE
 70
0
 62
7
  6
CONTINUOUS
370
-3
390
F
  0
LAYER
  5
204
100
AcDbSymbolTableRecord
100
AcDbLayerTableRecord
  2
DRAFT
 70
0
 62
7
  6
CONTINUOUS
370
-3
390
F
  0
LAYER
  5
205
100
AcDbSymbolTableRecord
100
AcDbLayerTableRecord
  2
IMPORT_IGES
 70
0
 62
7
  6
CONTINUOUS
370
-3
390
F
  0
LAYER
  5
206
100
AcDbSymbolTableRecord
100
AcDbLayerTableRecord
  2
INTFCLR_13
 70
0
 62
7
  6
CONTINUOUS
370
-3
390
F
  0
LAYER
  5
207
100
AcDbSymbolTableRecord
100
AcDbLayerTableRecord
  2
INTF_3
 70
0
 62
7
  6
CONTINUOUS
370
-3
390
F
  0
LAYER
  5
208
100
AcDbSymbolTableRecord
100
AcDbLayerTableRecord
  2
INTF_5
 70
0
 62
7
  6
CONTINUOUS
370
-3
390
F
  0
LAYER
  5
209
100
AcDbSymbolTableRecord
100
AcDbLayerTableRecord
  2
LAYER_1
 70
0
 62
7
  6
CONTINUOUS
370
-3
390
F
  0
LAYER
  5
20A
100
AcDbSymbolTableRecord
100
AcDbLayerTableRecord
  2
NOTE
 70
0
 62
7
  6
CONTINUOUS
370
-3
390
F
  0
LAYER
  5
20B
100
AcDbSymbolTableRecord
100
AcDbLayerTableRecord
  2
PIANI
 70
0
 62
7
  6
CONTINUOUS
370
-3
390
F
  0
LAYER
  5
20C
100
AcDbSymbolTableRecord
100
AcDbLayerTableRecord
  2
PIANI_ORIGINE
 70
0
 62
7
  6
CONTINUOUS
370
-3
390
F
  0
LAYER
  5
20D
100
AcDbSymbolTableRecord
100
AcDbLayerTableRecord
  2
PUNTI
 70
0
 62
7
  6
CONTINUOUS
370
-3
390
F
  0
LAYER
  5
20E
100
AcDbSymbolTableRecord
100
AcDbLayerTableRecord
  2
RACCORDO
 70
0
 62
7
  6
CONTINUOUS
370
-3
390
F
  0
LAYER
  5
20F
100
AcDbSymbolTableRecord
100
AcDbLayerTableRecord
  2
SNAPLINE
 70
0
 62
7
  6
CONTINUOUS
370
-3
390
F
  0
LAYER
  5
210
100
AcDbSymbolTableRecord
100
AcDbLayerTableRecord
  2
SUPERFICI
 70
0
 62
7
  6
CONTINUOUS
370
-3
390
F
  0
LAYER
  5
211
100
AcDbSymbolTableRecord
100
AcDbLayerTableRecord
  2
TRASH
 70
0
 62
7
  6
CONTINUOUS
370
-3
390
F
  0
LAYER
  5
212
100
AcDbSymbolTableRecord
100
AcDbLayerTableRecord
  2
WHITE
 70
0
 62
7
  6
CONTINUOUS
370
-3
390
F
  0
LAYER
  5
213
100
AcDbSymbolTableRecord
100
AcDbLayerTableRecord
  2
XSEC_DATUMS
 70
0
 62
7
  6
CONTINUOUS
370
-3
390
F
  0
ENDTAB
  0
TABLE
  2
STYLE
  5
3
100
AcDbSymbolTable
 70
1
  0
STYLE
  5
11
100
AcDbSymbolTableRecord
100
AcDbTextStyleTableRecord
  2
STANDARD
 70
0
 40
0.0
 41
0.8
 50
0.0
 71
0
 42
0.2
  3
txt
  4

  0
STYLE
  5
214
100
AcDbSymbolTableRecord
100
AcDbTextStyleTableRecord
  2
TEXTSTYLE_1
 70
0
 40
0.0
 41
0.8
 50
0.0
 71
0
 42
0.2
  3
gdt
  4

  0
ENDTAB
  0
TABLE
  2
VIEW
  5
6
100
AcDbSymbolTable
 70
0
  0
ENDTAB
  0
TABLE
  2
UCS
  5
7
100
AcDbSymbolTable
 70
0
  0
ENDTAB
  0
TABLE
  2
APPID
  5
9
100
AcDbSymbolTable
 70
1
  0
APPID
  5
215
100
AcDbSymbolTableRecord
100
AcDbRegAppTableRecord
  2
ACAD
 70
0
  0
ENDTAB
  0
TABLE
  2
BLOCK_RECORD
  5
1
100
AcDbSymbolTable
 70
0
  0
BLOCK_RECORD
  5
216
100
AcDbSymbolTableRecord
100
AcDbBlockTableRecord
  2
*Model_Space
  0
BLOCK_RECORD
  5
217
100
AcDbSymbolTableRecord
100
AcDbBlockTableRecord
  2
*Paper_Space
  0
ENDTAB
  0
TABLE
  2
DIMSTYLE
  5
A
100
AcDbSymbolTable
 70
1
100
AcDbDimStyleTable
 71
0
  0
DIMSTYLE
105
218
100
AcDbSymbolTableRecord
100
AcDbDimStyleTableRecord
  2
STANDARD
 70
0
  3

  4

 40
1.0
 41
3.0
 42
0.5
 43
0.38
 44
1.5
 45
0.0
 46
0.0
 47
0.01
 48
0.01
140
3.0
141
0.09
142
0.0
143
25.4
144
1.0
145
0.0
146
1.0
147
0.625
 71
1.0
 72
0.0
 73
0
 74
0
 75
0
 76
0
 77
1
 78
8
170
0
171
2
172
0
173
0
174
0
175
0
176
0
177
0
178
0
270
2
271
2
272
2
273
2
274
2
275
0
280
0
281
0
282
0
283
1
284
8
285
0
286
0
287
3
288
0
340
11
278
44
  0
ENDTAB
  0
ENDSEC
  0
SECTION
  2
BLOCKS
  0
BLOCK
  5
20
100
AcDbEntity
  8
0
100
AcDbBlockBegin
  2
*Model_Space
 70
0
 10
0.0
 20
0.0
 30
0.0
  3
*Model_Space
  1

  0
ENDBLK
  5
21
100
AcDbEntity
  8
0
100
AcDbBlockEnd
  0
BLOCK
  5
1C
100
AcDbEntity
  8
0
100
AcDbBlockBegin
  2
*Paper_Space
 70
0
 10
0.0
 20
0.0
 30
0.0
  3
*Paper_Space
  1

  0
ENDBLK
  5
1D
100
AcDbEntity
  8
0
100
AcDbBlockEnd
  0
ENDSEC
  0
SECTION
  2
ENTITIES
  0
LINE
  5
219
100
AcDbEntity
  8
DRAFT
100
AcDbLine
 62
7
  6
CONTINUOUS
 10
-11.5609419478
 20
40.6786261498
 11
-11.6593766158
 21
40.631875186
  0
LWPOLYLINE
  5
21A
100
AcDbEntity
  8
RACCORDO
100
AcDbPolyline
 62
253
  6
CONTINUOUS
 90
4
 70
0
 10
-12.6562857967
 20
40.1056684368
 10
-12.4293678074
 20
40.198906033
 10
-12.1510917078
 20
40.2521326718
 10
-11.8539656059
 20
40.2491372212
  0
LINE
  5
21B
100
AcDbEntity
  8
DRAFT
100
AcDbLine
 62
7
  6
CONTINUOUS
 10
-11.4306673667
 20
40.7254293548
 11
-11.5609419478
 21
40.6786261498
  0
LWPOLYLINE
  5
21C
100
AcDbEntity
  8
RACCORDO
100
AcDbPolyline
 62
253
  6
CONTINUOUS
 90
3
 70
0
 10
6.6230738861
 20
-42.1976370043
 10
6.3127894218
 20
-42.2129801198
 10
5.9852216713
 20
-42.1768166891
  0
LWPOLYLINE
  5
21D
100
AcDbEntity
  8
RACCORDO
100
AcDbPolyline
 62
7
  6
CONTINUOUS
 90
5
 70
0
 10
6.4453037385
 20
-42.3971534426
 10
6.7226253224
 20
-42.3953436321
 10
6.9897661873
 20
-42.3594008909
 10
7.2443111478
 20
-42.2902682412
 10
7.4509893441
 20
-42.2053342038
  0
LWPOLYLINE
  5
21E
100
AcDbEntity
  8
RACCORDO
100
AcDbPolyline
 62
7
  6
CONTINUOUS
 90
6
 70
0
 10
-12.6666783675
 20
40.0999219479
 10
-12.8677303405
 20
39.9700728166
 10
-13.1135091399
 20
39.7363172532
 10
-13.3187704454
 20
39.442594286
 10
-13.4792021507
 20
39.09505185
 10
-13.5910113962
 20
38.7027315832
  0
LWPOLYLINE
  5
21F
100
AcDbEntity
  8
RACCORDO
100
AcDbPolyline
 62
253
  6
CONTINUOUS
 90
10
 70
0
 10
-11.2238111636
 20
40.074132861
 10
-11.2619766041
 20
40.0522078064
 10
-11.2983036785
 20
40.0230614513
 10
-11.3317217806
 20
39.9875527963
 10
-11.3612460561
 20
39.9467283508
 10
-11.3860063822
 20
39.9017912708
 10
-11.4052730105
 20
39.8540658998
 10
-11.4184781318
 20
39.8049587624
 10
-11.4252326083
 20
39.7559171114
 10
-11.4253373961
 20
39.7083862569
  0
LINE
  5
220
100
AcDbEntity
  8
DRAFT
100
AcDbLine
 62
7
  6
CONTINUOUS
 10
-12.6563773572
 20
40.1056201011
 11
-11.6594028457
 21
40.6319324578
  0
LINE
  5
221
100
AcDbEntity
  8
RACCORDO
100
AcDbLine
 62
253
  6
CONTINUOUS
 10
-11.2238020224
 20
40.0741310489
 11
-10.2281509227
 21
40.5948698417
  0
LWPOLYLINE
  5
222
100
AcDbEntity
  8
RACCORDO
100
AcDbPolyline
 62
7
  6
CONTINUOUS
 90
3
 70
0
 10
-11.3455911459
 20
37.1324725966
 10
-11.2993502897
 20
37.1515051358
 10
-11.2171650202
 20
37.1641318031
  0
LINE
  5
223
100
AcDbEntity
  8
RACCORDO
100
AcDbLine
 62
7
  6
CONTINUOUS
 10
-11.4410852283
 20
37.0806376104
 11
-11.4873300183
 21
37.0616031417
  0
LWPOLYLINE
  5
224
100
AcDbEntity
  8
RACCORDO
100
AcDbPolyline
 62
7
  6
CONTINUOUS
 90
4
 70
0
 10
-11.5623724855
 20
37.2102359023
 10
-11.5113455827
 20
37.2305927533
 10
-11.4165240812
 20
37.2455405454
 10
-11.3145223298
 20
37.2350722269
  0
LWPOLYLINE
  5
225
100
AcDbEntity
  8
RACCORDO
100
AcDbPolyline
 62
7
  6
CONTINUOUS
 90
3
 70
0
 10
5.8710624108
 20
-42.2993422986
 10
6.1605400349
 20
-42.364945349
 10
6.4453037385
 20
-42.3971534426
  0
LINE
  5
226
100
AcDbEntity
  8
RACCORDO
100
AcDbLine
 62
253
  6
CONTINUOUS
 10
5.9852216713
 20
-42.1768166891
 11
5.6404838014
 21
-42.0890834821
  0
LINE
  5
227
100
AcDbEntity
  8
RACCORDO
100
AcDbLine
 62
7
  6
CONTINUOUS
 10
5.7435053626
 20
-42.2602537582
 11
5.8710624108
 21
-42.2993422986
  0
LINE
  5
228
100
AcDbEntity
  8
RACCORDO
100
AcDbLine
 62
7
  6
CONTINUOUS
 10
5.7435734045
 20
-42.2609401145
 11
5.7433077144
 21
-42.2608515387
  0
LINE
  5
229
100
AcDbEntity
  8
RACCORDO
100
AcDbLine
 62
7
  6
CONTINUOUS
 10
4.1094569157
 20
-41.6949922185
 11
5.7435734045
 21
-42.2609401145
  0
LWPOLYLINE
  5
22A
100
AcDbEntity
  8
RACCORDO
100
AcDbPolyline
 62
253
  6
CONTINUOUS
 90
4
 70
0
 10
5.6404838014
 20
-42.0890834821
 10
3.636570485
 20
-41.3880908838
 10
1.6585799172
 20
-40.6248754815
 10
-0.2930373986
 20
-39.7996221901
  0
LWPOLYLINE
  5
22B
100
AcDbEntity
  8
RACCORDO
100
AcDbPolyline
 62
253
  6
CONTINUOUS
 90
6
 70
0
 10
-13.1643436098
 20
39.3800920328
 10
-12.9816735316
 20
39.5786474563
 10
-12.7701849637
 20
39.726905519
 10
-12.5312683201
 20
39.8276508659
 10
-12.2762794113
 20
39.8765636327
 10
-12.0089617126
 20
39.8722228123
  0
LWPOLYLINE
  5
22C
100
AcDbEntity
  8
RACCORDO
100
AcDbPolyline
 62
7
  6
CONTINUOUS
 90
3
 70
0
 10
-11.4873300183
 20
37.0616031417
 10
-11.5163951832
 20
37.0443262856
 10
-11.5830731142
 20
36.9859109379
  0
LINE
  5
22D
100
AcDbEntity
  8
RACCORDO
100
AcDbLine
 62
7
  6
CONTINUOUS
 10
-11.596152562
 20
37.1907534535
 11
-11.5623724855
 21
37.2102359023
  0
LINE
  5
22E
100
AcDbEntity
  8
RACCORDO
100
AcDbLine
 62
7
  6
CONTINUOUS
 10
-11.368302626
 20
37.1217952506
 11
-11.3458466129
 21
37.1330232572
  0
LINE
  5
22F
100
AcDbEntity
  8
RACCORDO
100
AcDbLine
 62
253
  6
CONTINUOUS
 10
-11.1684840025
 20
37.0522723099
 11
-11.0267698847
 21
37.1231293688
  0
LINE
  5
230
100
AcDbEntity
  8
RACCORDO
100
AcDbLine
 62
253
  6
CONTINUOUS
 10
-11.804320579
 20
36.678334648
 11
-11.6907757833
 21
36.7351070458
  0
LWPOLYLINE
  5
231
100
AcDbEntity
  8
RACCORDO
100
AcDbPolyline
 62
253
  6
CONTINUOUS
 90
7
 70
0
 10
5.7433077144
 20
-42.2608515387
 10
5.7247491596
 20
-42.2527348979
 10
5.6985046627
 20
-42.2333853877
 10
5.6763754145
 20
-42.2064543184
 10
5.6590137847
 20
-42.1727356646
 10
5.6469316188
 20
-42.1332235136
 10
5.6404850987
 20
-42.0890827411
  0
LWPOLYLINE
  5
232
100
AcDbEntity
  8
RACCORDO
100
AcDbPolyline
 62
7
  6
CONTINUOUS
 90
4
 70
0
 10
-2.0693041559
 20
-39.1086526921
 10
-0.0381161684
 20
-40.039908473
 10
2.0220520422
 20
-40.9021872388
 10
4.1094569157
 20
-41.6949922185
  0
LINE
  5
233
100
AcDbEntity
  8
RACCORDO
100
AcDbLine
 62
253
  6
CONTINUOUS
 10
-0.2930373986
 20
-39.7996221901
 11
-2.2181691186
 21
-38.9123557574
  0
LINE
  5
234
100
AcDbEntity
  8
RACCORDO
100
AcDbLine
 62
7
  6
CONTINUOUS
 10
-4.070139118
 20
-38.1090318624
 11
-2.0693041559
 21
-39.1086526921
  0
LWPOLYLINE
  5
235
100
AcDbEntity
  8
RACCORDO
100
AcDbPolyline
 62
253
  6
CONTINUOUS
 90
5
 70
0
 10
-2.2181691186
 20
-38.9123557574
 10
-4.1160324071
 20
-37.9634267185
 10
-5.9852227897
 20
-36.9535357322
 10
-7.8250377955
 20
-35.8830735306
 10
-9.635428283
 20
-34.7520964926
  0
LINE
  5
236
100
AcDbEntity
  8
RACCORDO
100
AcDbLine
 62
253
  6
CONTINUOUS
 10
-9.635428283
 20
-34.7520964926
 11
-11.4160238788
 21
-33.560829642
  0
LWPOLYLINE
  5
237
100
AcDbEntity
  8
RACCORDO
100
AcDbPolyline
 62
7
  6
CONTINUOUS
 90
5
 70
0
 10
-11.360998148
 20
-33.7087243925
 10
-9.8777552339
 20
-34.7069120694
 10
-7.9757153416
 20
-35.9072723221
 10
-6.0393770071
 20
-37.0416667988
 10
-4.070139118
 20
-38.1090318624
  0
LINE
  5
238
100
AcDbEntity
  8
RACCORDO
100
AcDbLine
 62
253
  6
CONTINUOUS
 10
-11.4160238788
 20
-33.560829642
 11
-11.7164088023
 21
-33.3262871742
  0
LINE
  5
239
100
AcDbEntity
  8
RACCORDO
100
AcDbLine
 62
7
  6
CONTINUOUS
 10
-11.7129865929
 20
-33.4319779017
 11
-11.3600652349
 21
-33.7086512798
  0
LWPOLYLINE
  5
23A
100
AcDbEntity
  8
RACCORDO
100
AcDbPolyline
 62
253
  6
CONTINUOUS
 90
6
 70
0
 10
-11.3606654441
 20
-33.7082416089
 10
-11.3759493734
 20
-33.6955511261
 10
-11.3953475462
 20
-33.6701005582
 10
-11.4087185556
 20
-33.6385172483
 10
-11.4156695448
 20
-33.6017292345
 10
-11.4159962871
 20
-33.5608174917
  0
LINE
  5
23B
100
AcDbEntity
  8
RACCORDO
100
AcDbLine
 62
253
  6
CONTINUOUS
 10
-11.7164088023
 20
-33.3262871742
 11
-12.0005185614
 21
-33.0569883313
  0
LINE
  5
23C
100
AcDbEntity
  8
RACCORDO
100
AcDbLine
 62
7
  6
CONTINUOUS
 10
-12.0835921306
 20
-33.0666022094
 11
-11.7129865929
 21
-33.4319779017
  0
LWPOLYLINE
  5
23D
100
AcDbEntity
  8
RACCORDO
100
AcDbPolyline
 62
7
  6
CONTINUOUS
 90
4
 70
0
 10
-11.4011730628
 20
37.2439650886
 10
-11.4434284977
 20
37.1830702243
 10
-11.4845451671
 20
37.0813923783
 10
-11.4889701696
 20
37.0606282064
  0
LWPOLYLINE
  5
23E
100
AcDbEntity
  8
RACCORDO
100
AcDbPolyline
 62
7
  6
CONTINUOUS
 90
3
 70
0
 10
-11.5830731142
 20
36.9859109379
 10
-11.6358432253
 20
36.9101348907
 10
-11.6729630693
 20
36.8185722034
  0
LWPOLYLINE
  5
23F
100
AcDbEntity
  8
RACCORDO
100
AcDbPolyline
 62
253
  6
CONTINUOUS
 90
9
 70
0
 10
-12.0005185614
 20
-33.0569883313
 10
-12.2684783542
 20
-32.7529891398
 10
-12.5242719758
 20
-32.4084581538
 10
-12.7641286861
 20
-32.0293213365
 10
-12.9766135703
 20
-31.6333008643
 10
-13.1603840492
 20
-31.2195715627
 10
-13.3171040081
 20
-30.7890967799
 10
-13.4399307735
 20
-30.362316104
 10
-13.5266680672
 20
-29.9460785593
  0
LWPOLYLINE
  5
240
100
AcDbEntity
  8
RACCORDO
100
AcDbPolyline
 62
253
  6
CONTINUOUS
 90
4
 70
0
 10
-13.5277137454
 20
38.5399319514
 10
-13.4417377677
 20
38.8524629562
 10
-13.3199061712
 20
39.1338860677
 10
-13.1643436098
 20
39.3800920328
  0
LWPOLYLINE
  5
241
100
AcDbEntity
  8
RACCORDO
100
AcDbPolyline
 62
253
  6
CONTINUOUS
 90
10
 70
0
 10
5.8654771628
 20
31.5288144317
 10
5.8314116184
 20
31.5049113269
 10
5.797853574
 20
31.4744723379
 10
5.7657887757
 20
31.4383916182
 10
5.736159117
 20
31.397729031
 10
5.7098349269
 20
31.353679041
 10
5.6875894064
 20
31.3075356264
 10
5.6700759741
 20
31.2606542346
 10
5.6578090727
 20
31.2144119667
 10
5.6511490146
 20
31.1701671522
  0
LINE
  5
242
100
AcDbEntity
  8
RACCORDO
100
AcDbLine
 62
253
  6
CONTINUOUS
 10
5.8655115228
 20
31.5294743172
 11
6.8645493781
 21
32.0485196912
  0
LINE
  5
243
100
AcDbEntity
  8
RACCORDO
100
AcDbLine
 62
253
  6
CONTINUOUS
 10
5.3583123103
 20
28.7888741536
 11
5.4363652746
 21
28.8279006357
  0
LWPOLYLINE
  5
244
100
AcDbEntity
  8
RACCORDO
100
AcDbPolyline
 62
7
  6
CONTINUOUS
 90
3
 70
0
 10
-13.5910113962
 20
38.7027315832
 10
-13.6536500834
 20
38.2736556467
 10
-13.6693363964
 20
37.9043657429
  0
LINE
  5
245
100
AcDbEntity
  8
RACCORDO
100
AcDbLine
 62
253
  6
CONTINUOUS
 10
-13.5801732677
 20
38.1920928575
 11
-13.5277137454
 21
38.5399319514
  0
LWPOLYLINE
  5
246
100
AcDbEntity
  8
RACCORDO
100
AcDbPolyline
 62
7
  6
CONTINUOUS
 90
5
 70
0
 10
-11.7957604406
 20
36.8137721635
 10
-11.7697522467
 20
36.9358810129
 10
-11.7269452973
 20
37.0413123285
 10
-11.6685919352
 20
37.1270877987
 10
-11.596152562
 20
37.1907534535
  0
LWPOLYLINE
  5
247
100
AcDbEntity
  8
RACCORDO
100
AcDbPolyline
 62
7
  6
CONTINUOUS
 90
3
 70
0
 10
-11.6729630693
 20
36.8185722034
 10
-11.6962124293
 20
36.7096325164
 10
-11.7056005804
 20
36.5833117866
  0
LINE
  5
248
100
AcDbEntity
  8
RACCORDO
100
AcDbLine
 62
253
  6
CONTINUOUS
 10
5.9720689492
 20
27.7444770218
 11
6.0583813156
 21
27.7876332049
  0
LINE
  5
249
100
AcDbEntity
  8
RACCORDO
100
AcDbLine
 62
253
  6
CONTINUOUS
 10
8.5828571817
 20
26.9255788775
 11
9.6177367313
 21
27.4252646596
  0
LWPOLYLINE
  5
24A
100
AcDbEntity
  8
RACCORDO
100
AcDbPolyline
 62
253
  6
CONTINUOUS
 90
10
 70
0
 10
8.5828571817
 20
26.9255788775
 10
8.5450300522
 20
26.910084268
 10
8.5026711021
 20
26.8978682099
 10
8.4569057776
 20
26.8892552546
 10
8.4089500312
 20
26.8844742432
 10
8.3600779834
 20
26.8836521646
 10
8.3115880696
 20
26.8868107903
 10
8.2647685889
 20
26.8938661759
 10
8.2208634764
 20
26.9046308828
 10
8.1810392218
 20
26.9188189017
  0
LINE
  5
24B
100
AcDbEntity
  8
RACCORDO
100
AcDbLine
 62
7
  6
CONTINUOUS
 10
5.6512041184
 20
-18.8208154349
 11
5.5369564461
 21
-18.8197744829
  0
LWPOLYLINE
  5
24C
100
AcDbEntity
  8
RACCORDO
100
AcDbPolyline
 62
7
  6
CONTINUOUS
 90
3
 70
0
 10
5.7004685441
 20
-18.6529678394
 10
5.824673344
 20
-18.6772160117
 10
5.9355721459
 20
-18.6781819976
  0
LWPOLYLINE
  5
24D
100
AcDbEntity
  8
RACCORDO
100
AcDbPolyline
 62
7
  6
CONTINUOUS
 90
5
 70
0
 10
5.3703868005
 20
-18.6504433477
 10
5.4819001835
 20
-18.6724760826
 10
5.583734678
 20
-18.6735205719
 10
5.6758711307
 20
-18.6535876798
 10
5.7220430623
 20
-18.633624377
  0
LINE
  5
24E
100
AcDbEntity
  8
RACCORDO
100
AcDbLine
 62
7
  6
CONTINUOUS
 10
5.5369564461
 20
-18.8197744829
 11
5.4170317853
 21
-18.7946862187
  0
LWPOLYLINE
  5
24F
100
AcDbEntity
  8
RACCORDO
100
AcDbPolyline
 62
7
  6
CONTINUOUS
 90
10
 70
0
 10
5.4170317853
 20
-18.7946862187
 10
3.4680516418
 20
-18.1568384099
 10
1.5421426728
 20
-17.4465178695
 10
-0.360216899
 20
-16.6638624668
 10
-2.2398838509
 20
-15.8083561374
 10
-4.0950149725
 20
-14.8807835169
 10
-5.921257816
 20
-13.8833252448
 10
-7.7170468703
 20
-12.8169047721
 10
-9.4834129515
 20
-11.6810929863
 10
-11.2200815889
 20
-10.4761295316
  0
LWPOLYLINE
  5
250
100
AcDbEntity
  8
RACCORDO
100
AcDbPolyline
 62
7
  6
CONTINUOUS
 90
10
 70
0
 10
5.3703868005
 20
-18.6504433477
 10
3.432874993
 20
-18.0147638953
 10
1.5170484656
 20
-17.3068573028
 10
-0.3759202297
 20
-16.5271555189
 10
-2.2451746583
 20
-15.6759738822
 10
-4.089215682
 20
-14.7539554248
 10
-5.9059022125
 20
-13.7621697436
 10
-7.693735079
 20
-12.7014718008
 10
-9.451857781
 20
-11.5724023019
 10
-11.1790976688
 20
-10.375701113
  0
LWPOLYLINE
  5
251
100
AcDbEntity
  8
RACCORDO
100
AcDbPolyline
 62
7
  6
CONTINUOUS
 90
8
 70
0
 10
-13.6427791036
 20
-29.5339297095
 10
-13.5620408655
 20
-30.0686814216
 10
-13.4282478574
 20
-30.6106964862
 10
-13.2445275468
 20
-31.1496071062
 10
-13.0141509274
 20
-31.6752735869
 10
-12.7402132376
 20
-32.1775123388
 10
-12.4279492459
 20
-32.6451563665
 10
-12.0835921306
 20
-33.0666022094
  0
LWPOLYLINE
  5
252
100
AcDbEntity
  8
RACCORDO
100
AcDbPolyline
 62
253
  6
CONTINUOUS
 90
3
 70
0
 10
-13.5266680672
 20
-29.9460785593
 10
-13.5797296334
 20
-29.5336273228
 10
-13.5991694524
 20
-29.1249851948
  0
LINE
  5
253
100
AcDbEntity
  8
RACCORDO
100
AcDbLine
 62
7
  6
CONTINUOUS
 10
-13.6693678705
 20
-29.0279981603
 11
-13.6427791036
 21
-29.5339297095
  0
LWPOLYLINE
  5
254
100
AcDbEntity
  8
RACCORDO
100
AcDbPolyline
 62
253
  6
CONTINUOUS
 90
6
 70
0
 10
-13.6698475608
 20
-29.0282747998
 10
-13.6695026406
 20
-29.0354656719
 10
-13.6631855248
 20
-29.0597106975
 10
-13.6490748263
 20
-29.0831204743
 10
-13.6275454625
 20
-29.105073055
 10
-13.5991694524
 20
-29.1249851948
  0
LINE
  5
255
100
AcDbEntity
  8
RACCORDO
100
AcDbLine
 62
253
  6
CONTINUOUS
 10
-13.6698475608
 20
37.9056327486
 11
-13.6698368362
 21
37.904364432
  0
LINE
  5
256
100
AcDbEntity
  8
RACCORDO
100
AcDbLine
 62
7
  6
CONTINUOUS
 10
-13.6698475608
 20
-29.0282749704
 11
-13.6698475608
 21
37.9056327486
  0
LINE
  5
257
100
AcDbEntity
  8
RACCORDO
100
AcDbLine
 62
253
  6
CONTINUOUS
 10
-13.5991694524
 20
-29.1249851948
 11
-13.5991694524
 21
37.8089232388
  0
LINE
  5
258
100
AcDbEntity
  8
RACCORDO
100
AcDbLine
 62
253
  6
CONTINUOUS
 10
-13.5991694524
 20
37.8089232388
 11
-13.5801732677
 21
38.1920928575
  0
LINE
  5
259
100
AcDbEntity
  8
RACCORDO
100
AcDbLine
 62
7
  6
CONTINUOUS
 10
-11.804320579
 20
36.678334648
 11
-11.7957604406
 21
36.8137721635
  0
LINE
  5
25A
100
AcDbEntity
  8
RACCORDO
100
AcDbLine
 62
7
  6
CONTINUOUS
 10
-9.8487925761
 20
11.822235522
 11
-9.8960244918
 21
11.6796746803
  0
LINE
  5
25B
100
AcDbEntity
  8
RACCORDO
100
AcDbLine
 62
7
  6
CONTINUOUS
 10
-9.8487840178
 20
11.8222841185
 11
-9.848138756
 21
11.8237634656
  0
LINE
  5
25C
100
AcDbEntity
  8
RACCORDO
100
AcDbLine
 62
253
  6
CONTINUOUS
 10
-9.848138756
 20
11.8237634656
 11
-9.8316610401
 21
11.8574799793
  0
LINE
  5
25D
100
AcDbEntity
  8
RACCORDO
100
AcDbLine
 62
253
  6
CONTINUOUS
 10
-9.8316610401
 20
11.8574799793
 11
-9.803513046
 21
11.9019841794
  0
LWPOLYLINE
  5
25E
100
AcDbEntity
  8
RACCORDO
100
AcDbPolyline
 62
253
  6
CONTINUOUS
 90
10
 70
0
 10
-9.3459004064
 20
11.962718388
 10
-9.3887426023
 20
11.9065479097
 10
-9.4278657997
 20
11.8467661411
 10
-9.4627933847
 20
11.7841013592
 10
-9.4930998685
 20
11.7193169326
 10
-9.5184160276
 20
11.6532021115
 10
-9.5384334255
 20
11.5865624173
 10
-9.5529082186
 20
11.520209702
 10
-9.5616641017
 20
11.4549522538
 10
-9.5645944293
 20
11.3915850436
  0
LWPOLYLINE
  5
25F
100
AcDbEntity
  8
RACCORDO
100
AcDbPolyline
 62
253
  6
CONTINUOUS
 90
11
 70
0
 10
-9.803513046
 20
11.9019841794
 10
-9.7710116256
 20
11.9400299351
 10
-9.7344918607
 20
11.9713280821
 10
-9.6943278199
 20
11.9956395987
 10
-9.650917143
 20
12.0127727355
 10
-9.6047166715
 20
12.0226216472
 10
-9.5561337107
 20
12.0251757008
 10
-9.5055051016
 20
12.0203998997
 10
-9.453253031
 20
12.0083004575
 10
-9.3998896213
 20
11.9890154302
 10
-9.3459035137
 20
11.962717686
  0
LWPOLYLINE
  5
260
100
AcDbEntity
  8
RACCORDO
100
AcDbPolyline
 62
7
  6
CONTINUOUS
 90
3
 70
0
 10
-11.2200815889
 20
-10.4761295316
 10
-11.3242237719
 20
-10.3894021982
 10
-11.4241149703
 20
-10.2837142161
  0
LWPOLYLINE
  5
261
100
AcDbEntity
  8
RACCORDO
100
AcDbPolyline
 62
7
  6
CONTINUOUS
 90
3
 70
0
 10
-11.4241149703
 20
-10.2837142161
 10
-11.5169501656
 20
-10.1616571272
 10
-11.5999962671
 20
-10.0261190556
  0
LWPOLYLINE
  5
262
100
AcDbEntity
  8
RACCORDO
100
AcDbPolyline
 62
7
  6
CONTINUOUS
 90
3
 70
0
 10
-11.5999962671
 20
-10.0261190556
 10
-11.6709800936
 20
-9.8806671962
 10
-11.7282301892
 20
-9.7295070232
  0
LWPOLYLINE
  5
263
100
AcDbEntity
  8
RACCORDO
100
AcDbPolyline
 62
7
  6
CONTINUOUS
 90
4
 70
0
 10
-11.7282301892
 20
-9.7295070232
 10
-11.7702911365
 20
-9.5767154258
 10
-11.795886717
 20
-9.4260921888
 10
-11.804320579
 20
-9.2815468187
  0
LWPOLYLINE
  5
264
100
AcDbEntity
  8
RACCORDO
100
AcDbPolyline
 62
7
  6
CONTINUOUS
 90
10
 70
0
 10
-11.7056005804
 20
-9.3004839737
 10
-11.696384597
 20
-9.4360841617
 10
-11.673603749
 20
-9.5702709535
 10
-11.6372491423
 20
-9.7030404724
 10
-11.5856028954
 20
-9.8378594016
 10
-11.5203471384
 20
-9.97124545
 10
-11.4465745181
 20
-10.0927719306
 10
-11.3659744619
 20
-10.1989597045
 10
-11.2768226866
 20
-10.2932725942
 10
-11.1790976688
 20
-10.375701113
  0
LWPOLYLINE
  5
265
100
AcDbEntity
  8
RACCORDO
100
AcDbPolyline
 62
253
  6
CONTINUOUS
 90
6
 70
0
 10
-13.6698368362
 20
37.904364432
 10
-13.6694947775
 20
37.8983605081
 10
-13.6631535548
 20
37.8741227067
 10
-13.6490307206
 20
37.8507315002
 10
-13.6275097398
 20
37.8288052446
 10
-13.5991694847
 20
37.8089232574
  0
LWPOLYLINE
  5
266
100
AcDbEntity
  8
RACCORDO
100
AcDbPolyline
 62
7
  6
CONTINUOUS
 90
3
 70
0
 10
-9.919173565
 20
0.2445871566
 10
-9.9092946915
 20
0.0708440294
 10
-9.8685954862
 20
-0.1045582475
  0
LINE
  5
267
100
AcDbEntity
  8
RACCORDO
100
AcDbLine
 62
253
  6
CONTINUOUS
 10
-9.5616650455
 20
-0.4090386718
 11
-9.5645971847
 21
-0.3483327157
  0
LINE
  5
268
100
AcDbEntity
  8
RACCORDO
100
AcDbLine
 62
7
  6
CONTINUOUS
 10
-11.804320579
 20
36.678334648
 11
-11.804320579
 21
-9.2815468187
  0
LINE
  5
269
100
AcDbEntity
  8
RACCORDO
100
AcDbLine
 62
7
  6
CONTINUOUS
 10
-11.7056005804
 20
36.5833117866
 11
-11.7056005804
 21
-9.3004839737
  0
LWPOLYLINE
  5
26A
100
AcDbEntity
  8
RACCORDO
100
AcDbPolyline
 62
253
  6
CONTINUOUS
 90
7
 70
0
 10
-9.19449728
 20
12.3581192748
 10
-9.1990566988
 20
12.2917886483
 10
-9.2126100074
 20
12.2231327508
 10
-9.2347859854
 20
12.1540311307
 10
-9.2649773775
 20
12.0863754719
 10
-9.3023575288
 20
12.0220178088
 10
-9.3459030251
 20
11.9627198294
  0
LINE
  5
26B
100
AcDbEntity
  8
RACCORDO
100
AcDbLine
 62
7
  6
CONTINUOUS
 10
-9.8960244918
 20
11.6796746803
 11
-9.919173565
 21
11.5029174058
  0
LINE
  5
26C
100
AcDbEntity
  8
RACCORDO
100
AcDbLine
 62
7
  6
CONTINUOUS
 10
-9.8960244918
 20
0.4213444311
 11
-9.919173565
 21
0.2445871566
  0
LWPOLYLINE
  5
26D
100
AcDbEntity
  8
CURVE
100
AcDbPolyline
 62
253
  6
CONTINUOUS
 90
38
 70
0
 10
-7.4262252327
 20
14.1062516755
 10
-7.4278563159
 20
14.0994601643
 10
-7.4296096483
 20
14.0927866082
 10
-7.4314868107
 20
14.0862296642
 10
-7.4334893839
 20
14.0797879888
 10
-7.435618949
 20
14.0734602389
 10
-7.4378770869
 20
14.0672450713
 10
-7.4402653784
 20
14.0611411425
 10
-7.4427854045
 20
14.0551471096
 10
-7.4455004498
 20
14.0491297338
 10
-7.448354889
 20
14.0432298479
 10
-7.4513486585
 20
14.0374513883
 10
-7.4544816947
 20
14.0317982912
 10
-7.4577539342
 20
14.0262744932
 10
-7.4611653135
 20
14.0208839306
 10
-7.4647157691
 20
14.0156305398
 10
-7.4684052374
 20
14.0105182571
 10
-7.4722335246
 20
14.0055508465
 10
-7.4761999147
 20
14.0007313819
 10
-7.4803035614
 20
13.9960627645
 10
-7.4845436186
 20
13.9915478958
 10
-7.4889194376
 20
13.9871899642
 10
-7.4934311615
 20
13.9829933066
 10
-7.498079131
 20
13.978962547
 10
-7.502863687
 20
13.9751023094
 10
-7.507783741
 20
13.9714178117
 10
-7.5128324875
 20
13.9679166475
 10
-7.5162676193
 20
13.9656877698
 10
-7.5197650777
 20
13.9635424578
 10
-7.5233336523
 20
13.9614791569
 10
-7.5269749402
 20
13.9594989844
 10
-7.5306617668
 20
13.9576137468
 10
-7.5343597651
 20
13.9558379228
 10
-7.5365754167
 20
13.954828839
 10
-7.5388100169
 20
13.9538546975
 10
-7.5410908644
 20
13.9529058394
 10
-7.5434452581
 20
13.9519726058
 10
-7.545900497
 20
13.9510453378
  0
LINE
  5
26E
100
AcDbEntity
  8
RACCORDO
100
AcDbLine
 62
7
  6
CONTINUOUS
 10
-9.8487925761
 20
0.5639052728
 11
-9.8960244918
 21
0.4213444311
  0
LWPOLYLINE
  5
26F
100
AcDbEntity
  8
CURVE
100
AcDbPolyline
 62
253
  6
CONTINUOUS
 90
5
 70
0
 10
-8.5717975491
 20
4.2388335068
 10
-8.5753027296
 20
4.2308155762
 10
-8.5771054359
 20
4.2268446007
 10
-8.5789584101
 20
4.2229489736
 10
-8.5820642709
 20
4.2165748815
  0
LWPOLYLINE
  5
270
100
AcDbEntity
  8
CURVE
100
AcDbPolyline
 62
253
  6
CONTINUOUS
 90
19
 70
0
 10
-8.5820642709
 20
4.2165748815
 10
-8.5832793499
 20
4.2140404141
 10
-8.5844650744
 20
4.2114994498
 10
-8.5856126544
 20
4.2089412942
 10
-8.5867134709
 20
4.2063535785
 10
-8.5877589475
 20
4.2037235153
 10
-8.5885013921
 20
4.2017158192
 10
-8.589203144
 20
4.199673721
 10
-8.5898594634
 20
4.1975938319
 10
-8.5904656102
 20
4.1954727631
 10
-8.5910168212
 20
4.1933073779
 10
-8.5915082391
 20
4.1910955468
 10
-8.5919349833
 20
4.1888353926
 10
-8.5922921731
 20
4.1865250378
 10
-8.5925247367
 20
4.184639981
 10
-8.5927081869
 20
4.1827244314
 10
-8.5928410488
 20
4.1807812261
 10
-8.5929218476
 20
4.1788132024
 10
-8.5929491083
 20
4.1768231973
  0
LWPOLYLINE
  5
271
100
AcDbEntity
  8
RACCORDO
100
AcDbPolyline
 62
253
  6
CONTINUOUS
 90
10
 70
0
 10
-4.8943412807
 20
9.5984873308
 10
-4.9357708263
 20
9.5415663987
 10
-4.9736036333
 20
9.4810991773
 10
-5.0073788266
 20
9.4178223101
 10
-5.036684811
 20
9.3525065919
 10
-5.0611647271
 20
9.2859477896
 10
-5.0805207969
 20
9.2189569485
 10
-5.0945173662
 20
9.1523502327
 10
-5.10298378
 20
9.0869389842
 10
-5.1058169004
 20
9.0235200491
  0
LWPOLYLINE
  5
272
100
AcDbEntity
  8
CURVE
100
AcDbPolyline
 62
253
  6
CONTINUOUS
 90
55
 70
0
 10
0.6995873884
 20
12.4904964848
 10
0.7010245275
 20
12.4913140933
 10
0.70245275
 20
12.4920622877
 10
0.7038870691
 20
12.4927513279
 10
0.7053424979
 20
12.493391474
 10
0.7073338232
 20
12.4941819165
 10
0.7093767588
 20
12.4948994265
 10
0.7114586968
 20
12.4955397546
 10
0.7135692654
 20
12.4960999336
 10
0.7157070373
 20
12.4965821278
 10
0.7178728218
 20
12.4969897839
 10
0.7211742993
 20
12.4974677771
 10
0.7245344021
 20
12.497789817
 10
0.7279471146
 20
12.4979600783
 10
0.7314072525
 20
12.4979834251
 10
0.734909839
 20
12.497864894
 10
0.7384498975
 20
12.4976095216
 10
0.7420238827
 20
12.4972216243
 10
0.7456339757
 20
12.4967026375
 10
0.7492837889
 20
12.4960532765
 10
0.7529769348
 20
12.4952742566
 10
0.7572529891
 20
12.4942263787
 10
0.7615814817
 20
12.493012827
 10
0.7659535351
 20
12.4916363437
 10
0.7703602715
 20
12.4900996712
 10
0.7747928133
 20
12.4884055517
 10
0.7792422827
 20
12.4865567277
 10
0.7836998022
 20
12.4845559414
 10
0.7881564962
 20
12.4824063916
 10
0.7926034983
 20
12.4801131023
 10
0.797031944
 20
12.4776815542
 10
0.8014329691
 20
12.4751172276
 10
0.8057977093
 20
12.4724256033
 10
0.8101173001
 20
12.4696121615
 10
0.8143828774
 20
12.466682383
 10
0.8180655838
 20
12.4640264034
 10
0.8217038281
 20
12.4612814252
 10
0.8253012892
 20
12.4584433243
 10
0.8288616458
 20
12.4555079764
 10
0.8323871441
 20
12.4524718741
 10
0.8358742997
 20
12.449333977
 10
0.8393181955
 20
12.4460938618
 10
0.8427139144
 20
12.4427511048
 10
0.8460563495
 20
12.4393056361
 10
0.8493396339
 20
12.4357587999
 10
0.8514930612
 20
12.4333380047
 10
0.8536182531
 20
12.4308688494
 10
0.8557159554
 20
12.4283472716
 10
0.8577847562
 20
12.4257724767
 10
0.8598146138
 20
12.4231567421
 10
0.8617933288
 20
12.4205156132
 10
0.8632397356
 20
12.4185224447
 10
0.8646649948
 20
12.4165002445
 10
0.8660835889
 20
12.4144255209
 10
0.8675099999
 20
12.4122747821
  0
LWPOLYLINE
  5
273
100
AcDbEntity
  8
RACCORDO
100
AcDbPolyline
 62
253
  6
CONTINUOUS
 90
3
 70
0
 10
-9.9118370231
 20
-0.0099496803
 10
-9.8908957018
 20
-0.0720088463
 10
-9.8679718219
 20
-0.1333924066
  0
LWPOLYLINE
  5
274
100
AcDbEntity
  8
RACCORDO
100
AcDbPolyline
 62
253
  6
CONTINUOUS
 90
6
 70
0
 10
-9.9828777511
 20
0.2996816818
 10
-9.9733188702
 20
0.2384876486
 10
-9.9613752522
 20
0.1767261254
 10
-9.9470757274
 20
0.1144182865
 10
-9.9305714695
 20
0.0521895397
 10
-9.9118370231
 20
-0.0099496803
  0
LWPOLYLINE
  5
275
100
AcDbEntity
  8
CURVE
100
AcDbPolyline
 62
253
  6
CONTINUOUS
 90
55
 70
0
 10
-7.4593234212
 20
2.8534967325
 10
-7.4588879481
 20
2.8494997492
 10
-7.4582453169
 20
2.8443339602
 10
-7.4575112626
 20
2.8391414174
 10
-7.4566874572
 20
2.8339232482
 10
-7.455286493
 20
2.8260501599
 10
-7.4536892117
 20
2.8181242457
 10
-7.4518978348
 20
2.8101490815
 10
-7.4499160272
 20
2.80213336
 10
-7.4477478144
 20
2.7940870535
 10
-7.4453972219
 20
2.786020134
 10
-7.4433868202
 20
2.779556312
 10
-7.4412564156
 20
2.7730779076
 10
-7.4390001519
 20
2.7665771485
 10
-7.4366121728
 20
2.7600462625
 10
-7.4340866219
 20
2.7534774772
 10
-7.4314188725
 20
2.7468665676
 10
-7.4286092148
 20
2.7402234964
 10
-7.4256591685
 20
2.7335617739
 10
-7.4225702533
 20
2.7268949101
 10
-7.419343989
 20
2.7202364149
 10
-7.4159818952
 20
2.7135997984
 10
-7.4124854917
 20
2.7069985707
 10
-7.4088562981
 20
2.7004462417
 10
-7.4050958341
 20
2.6939563216
 10
-7.4012056195
 20
2.6875423204
 10
-7.3971881848
 20
2.6812162269
 10
-7.393050104
 20
2.6749839457
 10
-7.3887989621
 20
2.6688498598
 10
-7.3844423441
 20
2.6628183526
 10
-7.3799878349
 20
2.6568938073
 10
-7.3754430193
 20
2.6510806072
 10
-7.3708154824
 20
2.6453831356
 10
-7.3661128091
 20
2.6398057756
 10
-7.3613425842
 20
2.6343529106
 10
-7.3565123928
 20
2.6290289239
 10
-7.3516279602
 20
2.6238360842
 10
-7.3466875729
 20
2.6187682031
 10
-7.3416876581
 20
2.6138169775
 10
-7.3366246428
 20
2.6089741047
 10
-7.331494954
 20
2.6042312817
 10
-7.3249847573
 20
2.5984335828
 10
-7.3183645247
 20
2.5927797254
 10
-7.3116339806
 20
2.5872701962
 10
-7.3047928489
 20
2.5819054823
 10
-7.2978459585
 20
2.5766884815
 10
-7.2908185549
 20
2.5716317354
 10
-7.2837409884
 20
2.5667501965
 10
-7.2766436091
 20
2.5620588173
 10
-7.271909815
 20
2.5590410728
 10
-7.267152566
 20
2.5560997996
 10
-7.2623437239
 20
2.5532203081
 10
-7.2574551505
 20
2.5503879087
 10
-7.2524587077
 20
2.5475879117
 10
-7.2473262573
 20
2.5448056274
  0
LWPOLYLINE
  5
276
100
AcDbEntity
  8
RACCORDO
100
AcDbPolyline
 62
253
  6
CONTINUOUS
 90
5
 70
0
 10
-9.19449728
 20
-0.9786719435
 10
-9.1990565472
 20
-0.9164839566
 10
-9.2126095238
 20
-0.8601399413
 10
-9.2347851731
 20
-0.8111823213
 10
-9.2641846123
 20
-0.7720064137
  0
LWPOLYLINE
  5
277
100
AcDbEntity
  8
RACCORDO
100
AcDbPolyline
 62
253
  6
CONTINUOUS
 90
5
 70
0
 10
-9.19449728
 20
10.2796583057
 10
-9.1990565472
 20
10.3418462926
 10
-9.2126095238
 20
10.3981903079
 10
-9.2347851731
 20
10.4471479279
 10
-9.2641846123
 20
10.4863238355
  0
LWPOLYLINE
  5
278
100
AcDbEntity
  8
RACCORDO
100
AcDbPolyline
 62
7
  6
CONTINUOUS
 90
3
 70
0
 10
-9.919173565
 20
11.5029174058
 10
-9.9092946915
 20
11.3291742786
 10
-9.8685954862
 20
11.1537720017
  0
LINE
  5
279
100
AcDbEntity
  8
RACCORDO
100
AcDbLine
 62
253
  6
CONTINUOUS
 10
-9.5616650455
 20
10.8492915774
 11
-9.5645971847
 21
10.9099975335
  0
LWPOLYLINE
  5
27A
100
AcDbEntity
  8
CURVE
100
AcDbPolyline
 62
253
  6
CONTINUOUS
 90
13
 70
0
 10
-7.4605566909
 20
2.8710931957
 10
-7.4605078712
 20
2.8698497355
 10
-7.4604527067
 20
2.8685956274
 10
-7.4603912345
 20
2.8673338572
 10
-7.4603234916
 20
2.8660674106
 10
-7.460249515
 20
2.8647992735
 10
-7.460152566
 20
2.8632784098
 10
-7.4600467522
 20
2.8617581415
 10
-7.459932132
 20
2.8602371991
 10
-7.4598087637
 20
2.8587143128
 10
-7.4596767056
 20
2.857188213
 10
-7.4595062743
 20
2.8553453771
 10
-7.4593234212
 20
2.8534967325
  0
LINE
  5
27B
100
AcDbEntity
  8
CURVE
100
AcDbLine
 62
253
  6
CONTINUOUS
 10
-7.4606215124
 20
2.8730536313
 11
-7.4605566909
 21
2.8710931957
  0
LINE
  5
27C
100
AcDbEntity
  8
CURVE
100
AcDbLine
 62
253
  6
CONTINUOUS
 10
-7.460659313
 20
2.8745063063
 11
-7.4606215124
 21
2.8730536313
  0
LINE
  5
27D
100
AcDbEntity
  8
CURVE
100
AcDbLine
 62
253
  6
CONTINUOUS
 10
-7.4606877665
 20
2.8759632672
 11
-7.460659313
 21
2.8745063063
  0
LINE
  5
27E
100
AcDbEntity
  8
CURVE
100
AcDbLine
 62
253
  6
CONTINUOUS
 10
-7.4607068037
 20
2.8774433257
 11
-7.4606877665
 21
2.8759632672
  0
LWPOLYLINE
  5
27F
100
AcDbEntity
  8
CURVE
100
AcDbPolyline
 62
253
  6
CONTINUOUS
 90
95
 70
0
 10
-7.247322069
 20
1.653308149
 10
-7.2473095598
 20
1.6521529904
 10
-7.2472888134
 20
1.6510152994
 10
-7.2472424313
 20
1.6492597187
 10
-7.2471779821
 20
1.6474692794
 10
-7.246995984
 20
1.6439020522
 10
-7.2467449842
 20
1.6403170955
 10
-7.2464270819
 20
1.6367168636
 10
-7.2460442734
 20
1.6331064622
 10
-7.2455984975
 20
1.6294865656
 10
-7.245091558
 20
1.625859707
 10
-7.2445251907
 20
1.6222286766
 10
-7.2439009945
 20
1.6185954344
 10
-7.2432204967
 20
1.6149617115
 10
-7.2424850768
 20
1.611329156
 10
-7.2414213197
 20
1.6064902819
 10
-7.2402649932
 20
1.6016596658
 10
-7.239018781
 20
1.596840598
 10
-7.2376850762
 20
1.5920360457
 10
-7.2362651101
 20
1.5872476835
 10
-7.2347598234
 20
1.5824768628
 10
-7.2331705241
 20
1.5777256435
 10
-7.231499989
 20
1.5729989198
 10
-7.2297513619
 20
1.5683022946
 10
-7.2275524182
 20
1.5627114208
 10
-7.2252393625
 20
1.5571663847
 10
-7.2228060078
 20
1.5516616141
 10
-7.2202461673
 20
1.5461915368
 10
-7.2175536541
 20
1.5407505807
 10
-7.2147231822
 20
1.5353355117
 10
-7.2117530688
 20
1.5299524484
 10
-7.2086425324
 20
1.5246098477
 10
-7.2053907912
 20
1.5193161663
 10
-7.2019970634
 20
1.5140798609
 10
-7.1984625233
 20
1.5089108656
 10
-7.1947961683
 20
1.5038250221
 10
-7.1910089519
 20
1.4988396494
 10
-7.1871118275
 20
1.4939720664
 10
-7.1831157485
 20
1.4892395923
 10
-7.1790324049
 20
1.4846585348
 10
-7.1748764323
 20
1.4802411582
 10
-7.1706632028
 20
1.4759987156
 10
-7.1664080885
 20
1.4719424602
 10
-7.1621264615
 20
1.4680836451
 10
-7.1578304028
 20
1.4644309649
 10
-7.1535188285
 20
1.4609828798
 10
-7.1491873633
 20
1.4577352913
 10
-7.1448316323
 20
1.454684101
 10
-7.1404472604
 20
1.4518252104
 10
-7.1360302464
 20
1.4491561159
 10
-7.1315780862
 20
1.4466806929
 10
-7.1270886496
 20
1.4444044118
 10
-7.1225598063
 20
1.4423327428
 10
-7.1179894262
 20
1.4404711561
 10
-7.1133788092
 20
1.4388259601
 10
-7.1087429748
 20
1.4374068148
 10
-7.1041003728
 20
1.4362242183
 10
-7.0994694529
 20
1.4352886686
 10
-7.0948686647
 20
1.4346106637
 10
-7.0903153421
 20
1.4341982889
 10
-7.0858223561
 20
1.4340499781
 10
-7.081401462
 20
1.4341617523
 10
-7.077064415
 20
1.4345296326
 10
-7.0728229703
 20
1.43514964
 10
-7.0686868362
 20
1.4360172703
 10
-7.0646575335
 20
1.4371259178
 10
-7.060734536
 20
1.4384684515
 10
-7.0569173176
 20
1.4400377402
 10
-7.0532053521
 20
1.441826653
 10
-7.0495975616
 20
1.4438295918
 10
-7.0460906608
 20
1.4460470903
 10
-7.0426808127
 20
1.4484812154
 10
-7.0393641802
 20
1.4511340338
 10
-7.0361369263
 20
1.4540076122
 10
-7.0335140389
 20
1.456571982
 10
-7.0309542383
 20
1.4592898522
 10
-7.0284612072
 20
1.4621599826
 10
-7.0260382835
 20
1.4651814092
 10
-7.0236874246
 20
1.4683542744
 10
-7.0214102432
 20
1.4716789969
 10
-7.0192085949
 20
1.4751558676
 10
-7.0170853095
 20
1.4787846648
 10
-7.0150434598
 20
1.4825650392
 10
-7.0130861622
 20
1.486496878
 10
-7.0112167076
 20
1.4905810162
 10
-7.0094384304
 20
1.4948185256
 10
-7.0081668117
 20
1.4980969798
 10
-7.0069512528
 20
1.5014569256
 10
-7.0057937676
 20
1.5048973311
 10
-7.004692838
 20
1.508434568
 10
-7.0036495461
 20
1.5120726507
 10
-7.0026789055
 20
1.515748761
 10
-7.0020774978
 20
1.5181998123
 10
-7.0014992203
 20
1.5207195981
 10
-7.0009266934
 20
1.5233952964
  0
LWPOLYLINE
  5
280
100
AcDbEntity
  8
CURVE
100
AcDbPolyline
 62
253
  6
CONTINUOUS
 90
85
 70
0
 10
-7.1774093164
 20
15.7864027129
 10
-7.1775302207
 20
15.8013177627
 10
-7.1778898485
 20
15.8157943597
 10
-7.1784835723
 20
15.8300590739
 10
-7.1793067644
 20
15.8443384755
 10
-7.1816238035
 20
15.8734523827
 10
-7.1848077457
 20
15.9029724485
 10
-7.1888271796
 20
15.9324484185
 10
-7.1936548875
 20
15.9618645084
 10
-7.1992654447
 20
15.9912862692
 10
-7.2056364043
 20
16.0206701241
 10
-7.2127476878
 20
16.0499540059
 10
-7.2205857108
 20
16.0791110147
 10
-7.2291385128
 20
16.1081230421
 10
-7.2383941332
 20
16.1369719799
 10
-7.2483372529
 20
16.1656343828
 10
-7.2589391179
 20
16.1940654579
 10
-7.270182386
 20
16.2222450932
 10
-7.2821087967
 20
16.2502732504
 10
-7.2947647652
 20
16.2782495083
 10
-7.3081563275
 20
16.3061518405
 10
-7.322279425
 20
16.3339278194
 10
-7.337129999
 20
16.3615250176
 10
-7.352696593
 20
16.3888837793
 10
-7.3689381592
 20
16.4159155365
 10
-7.3858062519
 20
16.442524493
 10
-7.4032524255
 20
16.4686148523
 10
-7.4212205907
 20
16.4940901613
 10
-7.4396240842
 20
16.5188513383
 10
-7.4583685991
 20
16.5427986445
 10
-7.4773598285
 20
16.5658323413
 10
-7.4965264279
 20
16.5878783266
 10
-7.5158889025
 20
16.6089650452
 10
-7.5354907199
 20
16.6291465789
 10
-7.5553753478
 20
16.6484770093
 10
-7.5755721265
 20
16.6669957528
 10
-7.5960538867
 20
16.6846835653
 10
-7.6167793319
 20
16.7015065377
 10
-7.6377071655
 20
16.7174307605
 10
-7.6587960909
 20
16.7324223247
 10
-7.6800048116
 20
16.7464473209
 10
-7.7012920309
 20
16.75947184
 10
-7.7226164523
 20
16.7714619726
 10
-7.7439368302
 20
16.782387743
 10
-7.7652121232
 20
16.7922349095
 10
-7.7864013409
 20
16.8009931636
 10
-7.8074634928
 20
16.808652197
 10
-7.8283575886
 20
16.8152017014
 10
-7.8490426378
 20
16.8206313685
 10
-7.8694776501
 20
16.82493089
 10
-7.8896216349
 20
16.8280899575
 10
-7.9094476976
 20
16.8300987492
 10
-7.9289853267
 20
16.8309493892
 10
-7.948278106
 20
16.8306344883
 10
-7.9673696199
 20
16.829146657
 10
-7.9862805743
 20
16.8264795328
 10
-8.0049401635
 20
16.8226308609
 10
-8.0232547038
 20
16.8175994129
 10
-8.0411305115
 20
16.8113839607
 10
-8.0584815769
 20
16.8039908569
 10
-8.0752525864
 20
16.7954567767
 10
-8.0913959007
 20
16.7858259759
 10
-8.1068638804
 20
16.7751427105
 10
-8.1216162445
 20
16.7634519335
 10
-8.1356421467
 20
16.7508013867
 10
-8.1489380989
 20
16.7372395089
 10
-8.1615006134
 20
16.7228147391
 10
-8.1733362142
 20
16.7075558791
 10
-8.1844914726
 20
16.6914131819
 10
-8.1950082892
 20
16.6743314925
 10
-8.2048698332
 20
16.6563125708
 10
-8.2140479194
 20
16.6373706534
 10
-8.2225276789
 20
16.6175129676
 10
-8.2302975716
 20
16.5967449884
 10
-8.2373460571
 20
16.5750721908
 10
-8.2436599729
 20
16.5525070985
 10
-8.249219666
 20
16.5290904298
 10
-8.2540031194
 20
16.5048418669
 10
-8.2579853501
 20
16.4796687527
 10
-8.2611395861
 20
16.453557853
 10
-8.2634348633
 20
16.4269259634
 10
-8.2642502934
 20
16.4135289769
 10
-8.2648384066
 20
16.3999012659
 10
-8.265194629
 20
16.3858112773
 10
-8.2653143862
 20
16.3710274582
  0
LWPOLYLINE
  5
281
100
AcDbEntity
  8
CURVE
100
AcDbPolyline
 62
253
  6
CONTINUOUS
 90
59
 70
0
 10
-8.5929491083
 20
1.73673985
 10
-8.5929308675
 20
1.7341890901
 10
-8.5928765402
 20
1.7316929576
 10
-8.5927867194
 20
1.7292205486
 10
-8.5926619978
 20
1.7267409596
 10
-8.5924424091
 20
1.7233861332
 10
-8.5921630665
 20
1.7199855997
 10
-8.591825208
 20
1.7165613563
 10
-8.5914300574
 20
1.7131311048
 10
-8.5909787827
 20
1.7096953647
 10
-8.5904725379
 20
1.7062503602
 10
-8.5896122777
 20
1.7010602639
 10
-8.5886327378
 20
1.695846331
 10
-8.5875360456
 20
1.6906142417
 10
-8.5863256112
 20
1.6853703819
 10
-8.5850051654
 20
1.6801213138
 10
-8.5835784391
 20
1.6748735997
 10
-8.5820475576
 20
1.6696306855
 10
-8.5804082251
 20
1.6643835538
 10
-8.57865454
 20
1.6591200707
 10
-8.5767806012
 20
1.6538281026
 10
-8.5750102338
 20
1.6490934905
 10
-8.5731425263
 20
1.6443367539
 10
-8.5711798166
 20
1.6395678622
 10
-8.5691244429
 20
1.6347967846
 10
-8.5669787431
 20
1.6300334905
 10
-8.5647450552
 20
1.6252879492
 10
-8.5624257172
 20
1.62057013
 10
-8.5600230672
 20
1.6158900022
 10
-8.557539443
 20
1.6112575352
 10
-8.5549779224
 20
1.6066821537
 10
-8.552344541
 20
1.6021711052
 10
-8.5496460739
 20
1.5977310923
 10
-8.5468892966
 20
1.5933688178
 10
-8.5440809843
 20
1.5890909847
 10
-8.5412279121
 20
1.5849042957
 10
-8.5383368555
 20
1.5808154537
 10
-8.5354145895
 20
1.5768311614
 10
-8.5324678895
 20
1.5729581216
 10
-8.5291293112
 20
1.568738802
 10
-8.5257614077
 20
1.5646574494
 10
-8.5223572031
 20
1.5607027438
 10
-8.5189097215
 20
1.5568633651
 10
-8.5154137382
 20
1.5531310031
 10
-8.5118710317
 20
1.5495093884
 10
-8.5082851316
 20
1.5460052617
 10
-8.5046595676
 20
1.5426253636
 10
-8.5009978698
 20
1.5393760251
 10
-8.4973035696
 20
1.536261938
 10
-8.4948235868
 20
1.5342628596
 10
-8.4923272432
 20
1.5323254171
 10
-8.4898110982
 20
1.5304492315
 10
-8.4872750619
 20
1.5286357648
 10
-8.4847324482
 20
1.5268938425
 10
-8.4821999218
 20
1.5252341313
 10
-8.4803119339
 20
1.5240468813
 10
-8.4784145968
 20
1.5228993692
 10
-8.4764835135
 20
1.5217790892
 10
-8.4744942868
 20
1.5206735355
  0
LWPOLYLINE
  5
282
100
AcDbEntity
  8
CURVE
100
AcDbPolyline
 62
253
  6
CONTINUOUS
 90
57
 70
0
 10
-6.8435103614
 20
14.3838325312
 10
-6.8435537723
 20
14.3902270666
 10
-6.8436831101
 20
14.3964615535
 10
-6.8438970326
 20
14.4026232658
 10
-6.8441941975
 20
14.4087994774
 10
-6.8447176855
 20
14.4171632736
 10
-6.8453841913
 20
14.4256475659
 10
-6.8461911325
 20
14.4341919204
 10
-6.8476593525
 20
14.4470293427
 10
-6.8494298729
 20
14.459904803
 10
-6.8514958013
 20
14.4728485519
 10
-6.8538541514
 20
14.485856346
 10
-6.8565019486
 20
14.4989146233
 10
-6.8594323602
 20
14.5120070407
 10
-6.8626375889
 20
14.5251165599
 10
-6.8661098371
 20
14.5382261427
 10
-6.8698458037
 20
14.5513274369
 10
-6.8738601709
 20
14.5644468339
 10
-6.8781721168
 20
14.5776194113
 10
-6.8828008198
 20
14.5908802464
 10
-6.8871935445
 20
14.6027612197
 10
-6.8918465606
 20
14.6147109643
 10
-6.8967547293
 20
14.6267008017
 10
-6.9019129117
 20
14.6387020532
 10
-6.9073159691
 20
14.6506860402
 10
-6.9129587624
 20
14.6626240839
 10
-6.9188361529
 20
14.6744875058
 10
-6.9249430017
 20
14.6862476272
 10
-6.9312741699
 20
14.6978757694
 10
-6.937821938
 20
14.7093451391
 10
-6.9445682635
 20
14.7206364845
 10
-6.9514925234
 20
14.731732439
 10
-6.9585740946
 20
14.7426156361
 10
-6.9657923539
 20
14.7532687092
 10
-6.9731266783
 20
14.7636742919
 10
-6.9805564446
 20
14.7738150176
 10
-6.9880610297
 20
14.7836735197
 10
-6.9956198106
 20
14.7932324317
 10
-7.0041707164
 20
14.8036163909
 10
-7.0127837973
 20
14.8136339368
 10
-7.0214787379
 20
14.8233198043
 10
-7.030275223
 20
14.8327087282
 10
-7.0391879481
 20
14.8418271168
 10
-7.0482116527
 20
14.8506680717
 10
-7.057336087
 20
14.8592163681
 10
-7.0665510014
 20
14.8674567809
 10
-7.0758462981
 20
14.8753753786
 10
-7.0852124872
 20
14.8829634032
 10
-7.0946474555
 20
14.8902160044
 10
-7.1041779906
 20
14.8971387895
 10
-7.110592108
 20
14.9015697177
 10
-7.1170171233
 20
14.9058296064
 10
-7.1234063439
 20
14.9098903472
 10
-7.1281615557
 20
14.9127961692
 10
-7.1329399225
 20
14.9156094981
 10
-7.1378109987
 20
14.9183656727
 10
-7.1428443385
 20
14.9211000318
  0
LWPOLYLINE
  5
283
100
AcDbEntity
  8
CURVE
100
AcDbPolyline
 62
253
  6
CONTINUOUS
 90
57
 70
0
 10
-6.5545803165
 20
3.0550438551
 10
-6.5546052566
 20
3.0587006786
 10
-6.5546795607
 20
3.0622662835
 10
-6.5548024541
 20
3.0657903897
 10
-6.5549731625
 20
3.0693227173
 10
-6.5552738706
 20
3.0741058252
 10
-6.5556567119
 20
3.0789574758
 10
-6.5561201918
 20
3.083843205
 10
-6.556963422
 20
3.0911833742
 10
-6.5579801717
 20
3.0985447674
 10
-6.5591664431
 20
3.1059445596
 10
-6.5605204679
 20
3.113380261
 10
-6.5620404876
 20
3.1208440809
 10
-6.563722551
 20
3.1283266883
 10
-6.5655621591
 20
3.1358183674
 10
-6.5675548129
 20
3.1433094024
 10
-6.5696985787
 20
3.1507950083
 10
-6.572001784
 20
3.1582901242
 10
-6.5744753219
 20
3.1658146202
 10
-6.5771300853
 20
3.1733883661
 10
-6.5796490538
 20
3.1801729543
 10
-6.5823168668
 20
3.1869958746
 10
-6.5851305717
 20
3.1938408462
 10
-6.5880872156
 20
3.2006915878
 10
-6.5911838459
 20
3.2075318184
 10
-6.5944175099
 20
3.2143452568
 10
-6.5977852547
 20
3.2211156219
 10
-6.6012841277
 20
3.2278266326
 10
-6.604911176
 20
3.2344620078
 10
-6.6086619807
 20
3.2410065355
 10
-6.6125262569
 20
3.2474492792
 10
-6.6164922535
 20
3.253780372
 10
-6.6205482194
 20
3.2599899464
 10
-6.6246824035
 20
3.2660681354
 10
-6.6288830546
 20
3.2720050717
 10
-6.6331384216
 20
3.277790888
 10
-6.6374367533
 20
3.2834157172
 10
-6.6417662988
 20
3.288869692
 10
-6.6466643755
 20
3.2947945245
 10
-6.6515983101
 20
3.300510309
 10
-6.6565793284
 20
3.3060367231
 10
-6.6616186561
 20
3.3113934444
 10
-6.6667246744
 20
3.3165954232
 10
-6.6718943864
 20
3.3216386989
 10
-6.6771219508
 20
3.3265145837
 10
-6.6824015263
 20
3.3312143896
 10
-6.6877273541
 20
3.3357301599
 10
-6.6930940047
 20
3.3400568631
 10
-6.6985002634
 20
3.3441916834
 10
-6.7039614429
 20
3.3481377429
 10
-6.7076369327
 20
3.3506629654
 10
-6.7113187727
 20
3.3530903562
 10
-6.7149802614
 20
3.3554039299
 10
-6.7177054651
 20
3.3570592691
 10
-6.7204439677
 20
3.358661656
 10
-6.7232355352
 20
3.3602311523
 10
-6.7261199338
 20
3.3617878196
  0
LWPOLYLINE
  5
284
100
AcDbEntity
  8
CURVE
100
AcDbPolyline
 62
253
  6
CONTINUOUS
 90
57
 70
0
 10
-8.5929491083
 20
13.8578144665
 10
-8.5929064008
 20
13.8514285178
 10
-8.5927791564
 20
13.8452022611
 10
-8.5925686923
 20
13.8390482754
 10
-8.5922763256
 20
13.8328791397
 10
-8.5917612772
 20
13.8245235862
 10
-8.5911054942
 20
13.8160462167
 10
-8.5903115049
 20
13.807507564
 10
-8.5888667733
 20
13.7946765526
 10
-8.5871244494
 20
13.7818049045
 10
-8.5850912554
 20
13.7688623141
 10
-8.5827700709
 20
13.7558530438
 10
-8.580163758
 20
13.7427906873
 10
-8.5772789514
 20
13.7296915974
 10
-8.5741232289
 20
13.7165728166
 10
-8.5707041683
 20
13.7034513872
 10
-8.5670249284
 20
13.6903356725
 10
-8.5630709905
 20
13.6771993187
 10
-8.5588234168
 20
13.6640072929
 10
-8.5542632694
 20
13.6507245619
 10
-8.5499351284
 20
13.6388221077
 10
-8.5453499954
 20
13.6268490186
 10
-8.5405128132
 20
13.6148340083
 10
-8.5354285249
 20
13.6028057904
 10
-8.5301020733
 20
13.5907930786
 10
-8.5245384015
 20
13.5788245866
 10
-8.5187424523
 20
13.5669290281
 10
-8.5127191688
 20
13.5551351168
 10
-8.5064734938
 20
13.5434715663
 10
-8.5000129163
 20
13.5319652082
 10
-8.4933551082
 20
13.5206353458
 10
-8.4865202876
 20
13.5094994002
 10
-8.4795286723
 20
13.4985747926
 10
-8.4724004805
 20
13.487878944
 10
-8.4651559299
 20
13.4774292755
 10
-8.4578152385
 20
13.4672432085
 10
-8.4503986244
 20
13.4573381638
 10
-8.4429263054
 20
13.4477315628
 10
-8.4344705105
 20
13.4372926569
 10
-8.4259504393
 20
13.4272188952
 10
-8.4173467284
 20
13.4174756554
 10
-8.4086400146
 20
13.4080283155
 10
-8.3998158383
 20
13.3988505773
 10
-8.3908793552
 20
13.3899494387
 10
-8.3818406244
 20
13.3813402216
 10
-8.3727097051
 20
13.373038248
 10
-8.3634965282
 20
13.3650575607
 10
-8.354210511
 20
13.3574070871
 10
-8.3448537758
 20
13.3500918199
 10
-8.3353997795
 20
13.3431061279
 10
-8.3290358122
 20
13.3386331452
 10
-8.3226599127
 20
13.3343313437
 10
-8.3163183577
 20
13.3302291097
 10
-8.3115978286
 20
13.327292535
 10
-8.3068537319
 20
13.3244485093
 10
-8.3020171503
 20
13.3216613575
 10
-8.2970191669
 20
13.3188954047
  0
LINE
  5
285
100
AcDbEntity
  8
CURVE
100
AcDbLine
 62
253
  6
CONTINUOUS
 10
-7.4607163555
 20
2.8789652939
 11
-7.4607068037
 21
2.8774433257
  0
LWPOLYLINE
  5
286
100
AcDbEntity
  8
CURVE
100
AcDbPolyline
 62
253
  6
CONTINUOUS
 90
99
 70
0
 10
-7.0009266934
 20
1.5233952964
 10
-7.0009220409
 20
1.5220822049
 10
-7.0009081451
 20
1.5208470638
 10
-7.0008850981
 20
1.519630669
 10
-7.0008335708
 20
1.5177540601
 10
-7.0007619697
 20
1.5158406616
 10
-7.0005597709
 20
1.5120297547
 10
-7.0002809157
 20
1.5082020734
 10
-6.9999277553
 20
1.504360628
 10
-6.9995025382
 20
1.5005112257
 10
-6.9990074542
 20
1.4966549343
 10
-6.9984445526
 20
1.4927947697
 10
-6.9978158115
 20
1.4889340066
 10
-6.9971230649
 20
1.4850750054
 10
-6.9963680692
 20
1.4812198666
 10
-6.9955524137
 20
1.477370566
 10
-6.994373105
 20
1.472250496
 10
-6.9930918759
 20
1.4671482
 10
-6.9917118936
 20
1.4620676164
 10
-6.9902359818
 20
1.457012265
 10
-6.9886655883
 20
1.451983992
 10
-6.9870018173
 20
1.4469842251
 10
-6.9852462491
 20
1.4420152811
 10
-6.9834023702
 20
1.4370830329
 10
-6.9814741432
 20
1.4321942422
 10
-6.9790521082
 20
1.4263912927
 10
-6.9765067502
 20
1.420652632
 10
-6.9738305008
 20
1.4149702329
 10
-6.9710157918
 20
1.4093360683
 10
-6.968055055
 20
1.403742111
 10
-6.964942026
 20
1.3981831255
 10
-6.9616756556
 20
1.3926650416
 10
-6.9582561988
 20
1.387196581
 10
-6.9546839102
 20
1.3817864651
 10
-6.9509590447
 20
1.3764434154
 10
-6.9470842428
 20
1.3711783614
 10
-6.9430716883
 20
1.3660110642
 10
-6.9389359509
 20
1.3609634928
 10
-6.9346916002
 20
1.3560576164
 10
-6.9303532059
 20
1.351315404
 10
-6.9259363573
 20
1.3467574818
 10
-6.9214607229
 20
1.3423991044
 10
-6.9169469909
 20
1.3382541835
 10
-6.9124158497
 20
1.3343366308
 10
-6.9078879875
 20
1.330660358
 10
-6.9033798621
 20
1.3272357784
 10
-6.8988910094
 20
1.3240593125
 10
-6.8944167351
 20
1.3211238822
 10
-6.8899523446
 20
1.3184224095
 10
-6.8854931435
 20
1.3159478165
 10
-6.8810344163
 20
1.3136945072
 10
-6.8765713631
 20
1.3116628131
 10
-6.8720991631
 20
1.309854548
 10
-6.8676129954
 20
1.3082715255
 10
-6.8631080391
 20
1.3069155591
 10
-6.8585837016
 20
1.305789497
 10
-6.8540563036
 20
1.3049003246
 10
-6.849546394
 20
1.3042560619
 10
-6.8450745216
 20
1.3038647289
 10
-6.8406612354
 20
1.3037343453
 10
-6.8363260794
 20
1.3038705464
 10
-6.832084578
 20
1.3042694275
 10
-6.827951251
 20
1.3049246993
 10
-6.8239406179
 20
1.3058300724
 10
-6.8200671983
 20
1.3069792575
 10
-6.8163431613
 20
1.3083656493
 10
-6.8127712732
 20
1.309981379
 10
-6.8093519496
 20
1.3118182623
 10
-6.8060856063
 20
1.3138681144
 10
-6.8029726588
 20
1.316122751
 10
-6.8000122011
 20
1.318575331
 10
-6.7971980389
 20
1.3212243881
 10
-6.7945226565
 20
1.3240697997
 10
-6.7919785377
 20
1.3271114431
 10
-6.7895581667
 20
1.3303491957
 10
-6.7876316736
 20
1.3331966199
 10
-6.7857898006
 20
1.3361775544
 10
-6.7840364516
 20
1.3392894079
 10
-6.7823750596
 20
1.3425299673
 10
-6.7808071753
 20
1.3458985328
 10
-6.7793338789
 20
1.3493947828
 10
-6.7779565904
 20
1.3530183429
 10
-6.7766780906
 20
1.3567686264
 10
-6.7755015003
 20
1.3606449937
 10
-6.7746878479
 20
1.3636346172
 10
-6.7739348008
 20
1.3666944758
 10
-6.7732439263
 20
1.369824256
 10
-6.772616957
 20
1.3730236993
 10
-6.7720557028
 20
1.3762923716
 10
-6.7715621172
 20
1.3796290815
 10
-6.7711382249
 20
1.3830329739
 10
-6.7707861921
 20
1.3865052994
 10
-6.7705082445
 20
1.390042632
 10
-6.770306713
 20
1.3936444604
 10
-6.7702353497
 20
1.3954846056
 10
-6.770183994
 20
1.3973092311
 10
-6.7701610238
 20
1.3985029421
 10
-6.7701471742
 20
1.3997251178
 10
-6.7701425373
 20
2.2913043973
  0
LWPOLYLINE
  5
287
100
AcDbEntity
  8
CURVE
100
AcDbPolyline
 62
253
  6
CONTINUOUS
 90
22
 70
0
 10
-7.4165073984
 20
14.2006736622
 10
-7.4165036072
 20
14.1958639646
 10
-7.4165463401
 20
14.1910851835
 10
-7.4166354784
 20
14.1863388196
 10
-7.4167709038
 20
14.1816263736
 10
-7.4169524978
 20
14.1769493464
 10
-7.4171801419
 20
14.1723092387
 10
-7.4174537176
 20
14.1677075514
 10
-7.417799524
 20
14.1627962777
 10
-7.418198044
 20
14.1579313844
 10
-7.4186488589
 20
14.1531129528
 10
-7.4191515498
 20
14.1483410642
 10
-7.4197056979
 20
14.1436158
 10
-7.4203108844
 20
14.1389372414
 10
-7.4209666905
 20
14.1343054699
 10
-7.4216726974
 20
14.1297205668
 10
-7.4224284863
 20
14.1251826133
 10
-7.4232336384
 20
14.120691691
 10
-7.4240877349
 20
14.116247881
 10
-7.4249903569
 20
14.1118512647
 10
-7.4259410857
 20
14.1075019235
 10
-7.4262252327
 20
14.1062516755
  0
LINE
  5
288
100
AcDbEntity
  8
CURVE
100
AcDbLine
 62
253
  6
CONTINUOUS
 10
-8.5929491083
 20
15.3239480839
 11
-8.5929491083
 21
13.8578144665
  0
LINE
  5
289
100
AcDbEntity
  8
CURVE
100
AcDbLine
 62
253
  6
CONTINUOUS
 10
-8.5929491083
 20
4.1768231973
 11
-8.5929491083
 21
1.73673985
  0
LINE
  5
28A
100
AcDbEntity
  8
CURVE
100
AcDbLine
 62
253
  6
CONTINUOUS
 10
-8.5929491083
 20
12.9949803665
 11
-8.5929491083
 21
13.1435520763
  0
LINE
  5
28B
100
AcDbEntity
  8
CURVE
100
AcDbLine
 62
253
  6
CONTINUOUS
 10
-8.356350719
 20
1.7584063565
 11
-8.356350719
 21
3.9779998767
  0
LINE
  5
28C
100
AcDbEntity
  8
CURVE
100
AcDbLine
 62
253
  6
CONTINUOUS
 10
-8.2677969948
 20
16.3723734099
 11
-8.2677969948
 21
15.8295313082
  0
LINE
  5
28D
100
AcDbEntity
  8
CURVE
100
AcDbLine
 62
253
  6
CONTINUOUS
 10
-8.0300660078
 20
15.700890965
 11
-8.0300660078
 21
16.2174854624
  0
LINE
  5
28E
100
AcDbEntity
  8
CURVE
100
AcDbLine
 62
253
  6
CONTINUOUS
 10
-7.4607175527
 20
3.5364207764
 11
-7.4607163555
 21
2.8789652939
  0
LINE
  5
28F
100
AcDbEntity
  8
CURVE
100
AcDbLine
 62
253
  6
CONTINUOUS
 10
-7.4120040616
 20
15.8249203223
 11
-7.4120040616
 21
15.3687565964
  0
LINE
  5
290
100
AcDbEntity
  8
CURVE
100
AcDbLine
 62
253
  6
CONTINUOUS
 10
-7.2473262573
 20
2.5448056274
 11
-7.247322069
 21
1.653308149
  0
LINE
  5
291
100
AcDbEntity
  8
CURVE
100
AcDbLine
 62
253
  6
CONTINUOUS
 10
-7.1725606232
 20
15.2409724789
 11
-7.1725606232
 21
15.7838199878
  0
LINE
  5
292
100
AcDbEntity
  8
CURVE
100
AcDbLine
 62
253
  6
CONTINUOUS
 10
-6.8435103614
 20
12.9176989138
 11
-6.8435103614
 21
14.3838325312
  0
LINE
  5
293
100
AcDbEntity
  8
CURVE
100
AcDbLine
 62
253
  6
CONTINUOUS
 10
-6.7265806054
 20
15.5678557854
 11
-6.7265806054
 21
15.9706155736
  0
LINE
  5
294
100
AcDbEntity
  8
CURVE
100
AcDbLine
 62
253
  6
CONTINUOUS
 10
-6.5545803165
 20
2.3983709514
 11
-6.5545803165
 21
3.0550438551
  0
LWPOLYLINE
  5
295
100
AcDbEntity
  8
CURVE
100
AcDbPolyline
 62
253
  6
CONTINUOUS
 90
77
 70
0
 10
-8.0256288795
 20
14.5255022374
 10
-8.0255944035
 20
14.5311762668
 10
-8.0254917653
 20
14.5365061882
 10
-8.0253221495
 20
14.5417078806
 10
-8.0249447033
 20
14.5495878456
 10
-8.0244230359
 20
14.5574673381
 10
-8.0237609081
 20
14.5651901091
 10
-8.0229618724
 20
14.5727656541
 10
-8.0220293964
 20
14.5802341322
 10
-8.0209668166
 20
14.5875926128
 10
-8.0193531172
 20
14.5972148652
 10
-8.0175203079
 20
14.6066191391
 10
-8.0154747011
 20
14.6158073676
 10
-8.0132223921
 20
14.6247808602
 10
-8.010768608
 20
14.6335384321
 10
-8.0081183588
 20
14.6420782751
 10
-8.0037839059
 20
14.6544768305
 10
-7.9990255904
 20
14.6663812543
 10
-7.9938525842
 20
14.6777882799
 10
-7.9882830995
 20
14.6886822662
 10
-7.9835523159
 20
14.6970175455
 10
-7.9785704362
 20
14.7050153079
 10
-7.973327008
 20
14.7126783719
 10
-7.9678115787
 20
14.720009556
 10
-7.9620136959
 20
14.7270116788
 10
-7.9559239212
 20
14.7336831808
 10
-7.9495368721
 20
14.74000499
 10
-7.9428481802
 20
14.7459536566
 10
-7.9358534771
 20
14.7515057306
 10
-7.9285483943
 20
14.756637762
 10
-7.9209327839
 20
14.7613280962
 10
-7.9130233796
 20
14.7655622594
 10
-7.9048411357
 20
14.7693275733
 10
-7.8964070064
 20
14.7726113592
 10
-7.8877419459
 20
14.7754009388
 10
-7.8788686166
 20
14.7776869889
 10
-7.8698165132
 20
14.7794736079
 10
-7.8606168385
 20
14.7807682493
 10
-7.8513007953
 20
14.7815783669
 10
-7.8418995864
 20
14.7819114143
 10
-7.8324377466
 20
14.7817740538
 10
-7.8229131388
 20
14.7811697824
 10
-7.8133169579
 20
14.7801013055
 10
-7.8036403989
 20
14.7785713289
 10
-7.7938746566
 20
14.7765825581
 10
-7.7840111208
 20
14.7741353208
 10
-7.77404196
 20
14.7712204341
 10
-7.7639595375
 20
14.767826337
 10
-7.7537562167
 20
14.7639414687
 10
-7.743424361
 20
14.7595542685
 10
-7.7329633585
 20
14.7546568213
 10
-7.7224006966
 20
14.7492557961
 10
-7.7117708875
 20
14.7433615078
 10
-7.7011084435
 20
14.7369842712
 10
-7.6904478768
 20
14.7301344011
 10
-7.6798228659
 20
14.7228251824
 10
-7.6692637552
 20
14.7150817793
 10
-7.6588000553
 20
14.7069323259
 10
-7.6484612768
 20
14.6984049564
 10
-7.6382769305
 20
14.689527805
 10
-7.6282714667
 20
14.6803259853
 10
-7.6184490942
 20
14.6708125284
 10
-7.6088089617
 20
14.6609974448
 10
-7.5993502177
 20
14.650890745
 10
-7.5900720109
 20
14.6405024396
 10
-7.5824726652
 20
14.6316302279
 10
-7.5749687919
 20
14.6225308181
 10
-7.5675310817
 20
14.61316562
 10
-7.5601393
 20
14.603506539
 10
-7.5528095105
 20
14.5935674639
 10
-7.5455668514
 20
14.5833727794
 10
-7.5384341522
 20
14.5729450246
 10
-7.5314250074
 20
14.5622993556
 10
-7.5245507026
 20
14.5514490828
 10
-7.5178229533
 20
14.5404081279
 10
-7.5112551935
 20
14.5291928578
 10
-7.5048612868
 20
14.5178202504
  0
LWPOLYLINE
  5
296
100
AcDbEntity
  8
CURVE
100
AcDbPolyline
 62
253
  6
CONTINUOUS
 90
89
 70
0
 10
-8.027019997
 20
16.2653643363
 10
-8.0267374739
 20
16.2704029743
 10
-8.026410172
 20
16.2751800141
 10
-8.0260310139
 20
16.2798541991
 10
-8.0253552425
 20
16.2869064164
 10
-8.0245570529
 20
16.2939393908
 10
-8.0236450642
 20
16.3008385616
 10
-8.0226216429
 20
16.3076110924
 10
-8.0202466112
 20
16.3208633829
 10
-8.017451769
 20
16.3336947156
 10
-8.0142554664
 20
16.3460956995
 10
-8.0106739507
 20
16.3580700545
 10
-8.0067194125
 20
16.3696185558
 10
-8.002403156
 20
16.3807400702
 10
-7.9977369951
 20
16.3914287748
 10
-7.9927328711
 20
16.4016776743
 10
-7.9874027257
 20
16.4114797735
 10
-7.9817544992
 20
16.4208302152
 10
-7.975780129
 20
16.429732695
 10
-7.9694675515
 20
16.4381930465
 10
-7.9628047031
 20
16.4462171032
 10
-7.9557805976
 20
16.4538042974
 10
-7.9483885585
 20
16.4609284554
 10
-7.9406229867
 20
16.467557002
 10
-7.9324782832
 20
16.4736573621
 10
-7.9239542567
 20
16.4791986472
 10
-7.9150723484
 20
16.4841567151
 10
-7.9058594072
 20
16.4885091099
 10
-7.8963422822
 20
16.492233376
 10
-7.8865515378
 20
16.4953123425
 10
-7.8765326001
 20
16.4977499774
 10
-7.8663346108
 20
16.4995555337
 10
-7.8560067115
 20
16.5007382642
 10
-7.8455856982
 20
16.5013069727
 10
-7.8350589847
 20
16.5012686671
 10
-7.8244016391
 20
16.5006299062
 10
-7.8135887297
 20
16.4993972489
 10
-7.8026032194
 20
16.4975760325
 10
-7.7914596498
 20
16.4951667095
 10
-7.7801804572
 20
16.4921685107
 10
-7.7687880779
 20
16.4885806671
 10
-7.7573049482
 20
16.4844024096
 10
-7.7457535046
 20
16.4796329692
 10
-7.7341561832
 20
16.4742715769
 10
-7.7225354205
 20
16.4683174636
 10
-7.710913677
 20
16.4617741631
 10
-7.6993135111
 20
16.4546624204
 10
-7.6877575051
 20
16.4470072833
 10
-7.6762682418
 20
16.4388337997
 10
-7.6648683036
 20
16.4301670173
 10
-7.6535802731
 20
16.421031984
 10
-7.6424267329
 20
16.4114537477
 10
-7.6314302654
 20
16.4014573562
 10
-7.6206055302
 20
16.3910581394
 10
-7.609935494
 20
16.3802325555
 10
-7.5993952003
 20
16.3689473452
 10
-7.5889596929
 20
16.3571692487
 10
-7.5786163605
 20
16.3448777995
 10
-7.5684019718
 20
16.3321037037
 10
-7.558365641
 20
16.31889046
 10
-7.5485564818
 20
16.3052815676
 10
-7.5390199141
 20
16.291321806
 10
-7.5297865804
 20
16.2770610774
 10
-7.5208834289
 20
16.2625505648
 10
-7.5123374079
 20
16.247841451
 10
-7.5041700711
 20
16.2329808135
 10
-7.4963813932
 20
16.2179993079
 10
-7.4889659542
 20
16.2029234844
 10
-7.4819183342
 20
16.1877798932
 10
-7.4752320309
 20
16.1725875559
 10
-7.4688962128
 20
16.1573353798
 10
-7.4628989662
 20
16.1420047432
 10
-7.4572283773
 20
16.1265770247
 10
-7.451876529
 20
16.1110400156
 10
-7.4468514914
 20
16.0954071579
 10
-7.4421653314
 20
16.0796983064
 10
-7.4378301158
 20
16.0639333159
 10
-7.4338577875
 20
16.0481307429
 10
-7.4302597932
 20
16.0323039517
 10
-7.4270484694
 20
16.016465359
 10
-7.4242402075
 20
16.0006287846
 10
-7.4218535057
 20
15.9848233996
 10
-7.4208249551
 20
15.9769510499
 10
-7.4199083254
 20
15.9690721194
 10
-7.4191060001
 20
15.9611820072
 10
-7.4184266447
 20
15.9534043932
 10
-7.4180454221
 20
15.9483233495
 10
-7.4177162913
 20
15.9431953938
 10
-7.4174321415
 20
15.9378543929
  0
LINE
  5
297
100
AcDbEntity
  8
CURVE
100
AcDbLine
 62
253
  6
CONTINUOUS
 10
-8.0300660078
 20
16.2174854624
 11
-8.027019997
 21
16.2653643363
  0
LWPOLYLINE
  5
298
100
AcDbEntity
  8
RACCORDO
100
AcDbPolyline
 62
253
  6
CONTINUOUS
 90
7
 70
0
 10
-9.19449728
 20
1.0997890256
 10
-9.1990566988
 20
1.0334583991
 10
-9.2126100074
 20
0.9648025016
 10
-9.2347859854
 20
0.8957008815
 10
-9.2649773775
 20
0.8280452227
 10
-9.3023575288
 20
0.7636875596
 10
-9.3459030251
 20
0.7043895802
  0
LINE
  5
299
100
AcDbEntity
  8
RACCORDO
100
AcDbLine
 62
7
  6
CONTINUOUS
 10
-9.8487840178
 20
0.5639538693
 11
-9.848138756
 21
0.5654332164
  0
LINE
  5
29A
100
AcDbEntity
  8
RACCORDO
100
AcDbLine
 62
253
  6
CONTINUOUS
 10
-9.848138756
 20
0.5654332164
 11
-9.8316610401
 21
0.5991497301
  0
LINE
  5
29B
100
AcDbEntity
  8
RACCORDO
100
AcDbLine
 62
253
  6
CONTINUOUS
 10
-9.8316610401
 20
0.5991497301
 11
-9.803513046
 21
0.6436539302
  0
LWPOLYLINE
  5
29C
100
AcDbEntity
  8
RACCORDO
100
AcDbPolyline
 62
253
  6
CONTINUOUS
 90
9
 70
0
 10
-4.935794188
 20
8.5811569971
 10
-4.9457900537
 20
8.5658010957
 10
-4.9571753783
 20
8.5526951807
 10
-4.9699799756
 20
8.5419058338
 10
-4.9841732173
 20
8.5333668713
 10
-4.9993302474
 20
8.5272516464
 10
-5.0154508204
 20
8.5236135402
 10
-5.0325344545
 20
8.5223995264
 10
-5.0501562239
 20
8.5236232081
  0
LWPOLYLINE
  5
29D
100
AcDbEntity
  8
RACCORDO
100
AcDbPolyline
 62
253
  6
CONTINUOUS
 90
10
 70
0
 10
-9.3459004064
 20
0.7043881388
 10
-9.3887426023
 20
0.6482176605
 10
-9.4278657997
 20
0.5884358919
 10
-9.4627933847
 20
0.52577111
 10
-9.4930998685
 20
0.4609866834
 10
-9.5184160276
 20
0.3948718623
 10
-9.5384334255
 20
0.3282321681
 10
-9.5529082186
 20
0.2618794528
 10
-9.5616641017
 20
0.1966220046
 10
-9.5645944293
 20
0.1332547944
  0
LWPOLYLINE
  5
29E
100
AcDbEntity
  8
RACCORDO
100
AcDbPolyline
 62
253
  6
CONTINUOUS
 90
11
 70
0
 10
-9.803513046
 20
0.6436539302
 10
-9.7710116256
 20
0.6816996859
 10
-9.7344918607
 20
0.7129978329
 10
-9.6943278199
 20
0.7373093495
 10
-9.650917143
 20
0.7544424863
 10
-9.6047166715
 20
0.764291398
 10
-9.5561337107
 20
0.7668454516
 10
-9.5055051016
 20
0.7620696505
 10
-9.453253031
 20
0.7499702083
 10
-9.3998896213
 20
0.730685181
 10
-9.3459035137
 20
0.7043874368
  0
LWPOLYLINE
  5
29F
100
AcDbEntity
  8
CURVE
100
AcDbPolyline
 62
253
  6
CONTINUOUS
 90
18
 70
0
 10
-8.5514469899
 20
4.2680549258
 10
-8.5526857904
 20
4.2672953809
 10
-8.5538890667
 20
4.2664592396
 10
-8.5550559394
 20
4.2655505301
 10
-8.5561855288
 20
4.2645732801
 10
-8.5572769554
 20
4.2635315178
 10
-8.5585871042
 20
4.2621447528
 10
-8.5598397646
 20
4.2606714806
 10
-8.5610384519
 20
4.2591197009
 10
-8.5621866816
 20
4.2574974132
 10
-8.5632880843
 20
4.2558123911
 10
-8.5643467516
 20
4.2540715037
 10
-8.5653668905
 20
4.2522813938
 10
-8.566352708
 20
4.2504487043
 10
-8.567621186
 20
4.2479492914
 10
-8.5688471335
 20
4.2453952955
 10
-8.5700415566
 20
4.242796021
 10
-8.5717975491
 20
4.2388335068
  0
LWPOLYLINE
  5
2A0
100
AcDbEntity
  8
RACCORDO
100
AcDbPolyline
 62
253
  6
CONTINUOUS
 90
49
 70
0
 10
3.5697547602
 20
-7.2172143309
 10
3.6120193131
 20
-7.2079758978
 10
3.6531124898
 20
-7.1954112868
 10
3.6926198505
 20
-7.1795981254
 10
3.7305270593
 20
-7.1604948271
 10
3.766845967
 20
-7.1381443508
 10
3.8012008819
 20
-7.1127514393
 10
3.8335608818
 20
-7.0842869346
 10
3.8639542463
 20
-7.0527814592
 10
3.8920937603
 20
-7.0185296093
 10
3.9179527007
 20
-6.9815120122
 10
3.9415553498
 20
-6.9417493968
 10
3.9626908823
 20
-6.8995965783
 10
3.9813376592
 20
-6.8550319962
 10
3.9975153594
 20
-6.8080783022
 10
4.0110751709
 20
-6.7591566092
 10
4.0219934471
 20
-6.7082517462
 10
4.0302925573
 20
-6.655379596
 10
4.0358928578
 20
-6.6010077723
 10
4.0387691867
 20
-6.5451119143
 10
4.0389462504
 20
-6.4877166368
 10
4.0364194113
 20
-6.4293629032
 10
4.0311561185
 20
-6.3700279038
 10
4.0231893427
 20
-6.3097342142
 10
4.0126129317
 20
-6.2490907631
 10
3.9993994013
 20
-6.1881074319
 10
3.9835774733
 20
-6.1267736494
 10
3.9653254372
 20
-6.0656675917
 10
3.9446378652
 20
-6.0048263583
 10
3.9215220696
 20
-5.9442118005
 10
3.8961754816
 20
-5.884289206
 10
3.8685974034
 20
-5.8250706989
 10
3.8387908892
 20
-5.7665428456
 10
3.8069589375
 20
-5.7091326308
 10
3.7730936112
 20
-5.6528339179
 10
3.7372055168
 20
-5.5976513637
 10
3.6995253089
 20
-5.544028233
 10
3.6600119275
 20
-5.4919327602
 10
3.6187092393
 20
-5.4413951596
 10
3.5759749292
 20
-5.392951866
 10
3.5317394729
 20
-5.3465869159
 10
3.4860749601
 20
-5.3023148608
 10
3.4395507459
 20
-5.2607183242
 10
3.3921410907
 20
-5.2218556915
 10
3.343873412
 20
-5.1856676611
 10
3.2953956772
 20
-5.1525609486
 10
3.2469237473
 20
-5.1226712005
 10
3.1982420746
 20
-5.0958626101
 10
3.149350887
 20
-5.0721350579
  0
LWPOLYLINE
  5
2A1
100
AcDbEntity
  8
RACCORDO
100
AcDbPolyline
 62
253
  6
CONTINUOUS
 90
4
 70
0
 10
2.8725977633
 20
-6.5539388542
 10
2.8533621413
 20
-6.550795023
 10
2.8335490615
 20
-6.5452188605
 10
2.8131587561
 20
-6.5372102393
  0
LWPOLYLINE
  5
2A2
100
AcDbEntity
  8
RACCORDO
100
AcDbPolyline
 62
253
  6
CONTINUOUS
 90
7
 70
0
 10
3.2954036521
 20
-7.202688973
 10
3.3430453323
 20
-7.2134101317
 10
3.3901197654
 20
-7.220810271
 10
3.4363557994
 20
-7.2248902586
 10
3.4817718839
 20
-7.2256535754
 10
3.5263479984
 20
-7.2230975981
 10
3.5697547602
 20
-7.2172143309
  0
LINE
  5
2A3
100
AcDbEntity
  8
RACCORDO
100
AcDbLine
 62
7
  6
CONTINUOUS
 10
3.0939658782
 20
-6.9304458378
 11
3.0934891573
 21
-6.9303052331
  0
LWPOLYLINE
  5
2A4
100
AcDbEntity
  8
RACCORDO
100
AcDbPolyline
 62
253
  6
CONTINUOUS
 90
3
 70
0
 10
3.1986009254
 20
-7.1712821526
 10
3.2472853733
 20
-7.1886463638
 10
3.2954036521
 20
-7.202688973
  0
LINE
  5
2A5
100
AcDbEntity
  8
RACCORDO
100
AcDbLine
 62
7
  6
CONTINUOUS
 10
-9.5905835189
 20
-0.5557859404
 11
-9.4582576316
 21
-0.6621097093
  0
LWPOLYLINE
  5
2A6
100
AcDbEntity
  8
RACCORDO
100
AcDbPolyline
 62
253
  6
CONTINUOUS
 90
6
 70
0
 10
-9.5925460662
 20
-0.330459594
 10
-9.6069103265
 20
-0.3187808318
 10
-9.6217157777
 20
-0.305263524
 10
-9.6367808217
 20
-0.2899179475
 10
-9.6515611624
 20
-0.2727751586
 10
-9.6660875847
 20
-0.2537108677
  0
LINE
  5
2A7
100
AcDbEntity
  8
RACCORDO
100
AcDbLine
 62
7
  6
CONTINUOUS
 10
-9.7012343038
 20
-0.4300943919
 11
-9.5905835189
 21
-0.5557859404
  0
LWPOLYLINE
  5
2A8
100
AcDbEntity
  8
RACCORDO
100
AcDbPolyline
 62
253
  6
CONTINUOUS
 90
10
 70
0
 10
-9.6191977757
 20
-0.5874037815
 10
-9.581113091
 20
-0.6373022209
 10
-9.5416942252
 20
-0.6852521806
 10
-9.5009736937
 20
-0.7312295378
 10
-9.4592930522
 20
-0.7747511693
 10
-9.4165872965
 20
-0.8158280407
 10
-9.3729192251
 20
-0.8544481787
 10
-9.328823075
 20
-0.8900944932
 10
-9.2844768826
 20
-0.9225945976
 10
-9.2397017815
 20
-0.9521204907
  0
LWPOLYLINE
  5
2A9
100
AcDbEntity
  8
RACCORDO
100
AcDbPolyline
 62
253
  6
CONTINUOUS
 90
27
 70
0
 10
-9.6660875847
 20
-0.2537108677
 10
-9.6803295185
 20
-0.2328494624
 10
-9.6936510943
 20
-0.2105952231
 10
-9.7060459915
 20
-0.1867936251
 10
-9.7175211698
 20
-0.1615994831
 10
-9.7274610776
 20
-0.1358812675
 10
-9.7357730156
 20
-0.1095755393
 10
-9.7425504551
 20
-0.0827460873
 10
-9.7474572551
 20
-0.0564522931
 10
-9.7503781805
 20
-0.0307660696
 10
-9.7514288705
 20
-0.005615687
 10
-9.750619415
 20
0.0181549746
 10
-9.7478877328
 20
0.0404383067
 10
-9.7432957249
 20
0.0613419991
 10
-9.7370393386
 20
0.0803451717
 10
-9.7290789471
 20
0.097397897
 10
-9.7194535326
 20
0.1125503944
 10
-9.7084769484
 20
0.1254320067
 10
-9.6961165096
 20
0.135977928
 10
-9.6824040433
 20
0.1442533532
 10
-9.6677503302
 20
0.1500825546
 10
-9.6521540127
 20
0.15341036
 10
-9.6356156816
 20
0.1542922897
 10
-9.6185493406
 20
0.1527185196
 10
-9.6010929104
 20
0.1486858114
 10
-9.5831080247
 20
0.1421976063
 10
-9.5645944293
 20
0.1332540198
  0
LINE
  5
2AA
100
AcDbEntity
  8
RACCORDO
100
AcDbLine
 62
7
  6
CONTINUOUS
 10
-9.7960981477
 20
-0.278541972
 11
-9.7012343038
 21
-0.4300943919
  0
LWPOLYLINE
  5
2AB
100
AcDbEntity
  8
RACCORDO
100
AcDbPolyline
 62
253
  6
CONTINUOUS
 90
7
 70
0
 10
-9.816169235
 20
-0.2540432106
 10
-9.7875175984
 20
-0.3128887054
 10
-9.7571075985
 20
-0.370575295
 10
-9.7249370033
 20
-0.4271190881
 10
-9.691230995
 20
-0.4821056865
 10
-9.6559835285
 20
-0.5355339813
 10
-9.6191977757
 20
-0.5874037815
  0
LINE
  5
2AC
100
AcDbEntity
  8
RACCORDO
100
AcDbLine
 62
253
  6
CONTINUOUS
 10
-9.8430631062
 20
-0.1940561957
 11
-9.816169235
 21
-0.2540432106
  0
LINE
  5
2AD
100
AcDbEntity
  8
RACCORDO
100
AcDbLine
 62
7
  6
CONTINUOUS
 10
-9.8685954862
 20
-0.1045582475
 11
-9.7960981477
 21
-0.278541972
  0
LWPOLYLINE
  5
2AE
100
AcDbEntity
  8
RACCORDO
100
AcDbPolyline
 62
253
  6
CONTINUOUS
 90
4
 70
0
 10
-9.5184143031
 20
-0.568002901
 10
-9.5384320736
 20
-0.519546902
 10
-9.5529077873
 20
-0.4663427639
 10
-9.5616650455
 20
-0.4090386718
  0
LINE
  5
2AF
100
AcDbEntity
  8
RACCORDO
100
AcDbLine
 62
253
  6
CONTINUOUS
 10
-9.8679718219
 20
-0.1333924066
 11
-9.8430631062
 21
-0.1940561957
  0
LWPOLYLINE
  5
2B0
100
AcDbEntity
  8
RACCORDO
100
AcDbPolyline
 62
253
  6
CONTINUOUS
 90
6
 70
0
 10
-9.9828777511
 20
11.558011931
 10
-9.9733188702
 20
11.4968178978
 10
-9.9613752522
 20
11.4350563746
 10
-9.9470757274
 20
11.3727485357
 10
-9.9305714695
 20
11.3105197889
 10
-9.9118370231
 20
11.2483805689
  0
LWPOLYLINE
  5
2B1
100
AcDbEntity
  8
RACCORDO
100
AcDbPolyline
 62
253
  6
CONTINUOUS
 90
7
 70
0
 10
-4.7479358797
 20
-3.3402491339
 10
-4.7523447982
 20
-3.2781401422
 10
-4.765450736
 20
-3.2220333142
 10
-4.7868947326
 20
-3.173464486
 10
-4.8160895835
 20
-3.1337630874
 10
-4.8522359255
 20
-3.1040157578
 10
-4.8647970378
 20
-3.0969019676
  0
LWPOLYLINE
  5
2B2
100
AcDbEntity
  8
RACCORDO
100
AcDbPolyline
 62
253
  6
CONTINUOUS
 90
7
 70
0
 10
-4.7479358797
 20
7.9180811153
 10
-4.7523447982
 20
7.980190107
 10
-4.765450736
 20
8.036296935
 10
-4.7868947326
 20
8.0848657631
 10
-4.8160895835
 20
8.1245671618
 10
-4.8522359255
 20
8.1543144914
 10
-4.8647970378
 20
8.1614282816
  0
LINE
  5
2B3
100
AcDbEntity
  8
RACCORDO
100
AcDbLine
 62
253
  6
CONTINUOUS
 10
-5.1029896993
 20
-2.7770495119
 11
-5.1058236707
 21
-2.7163957572
  0
LINE
  5
2B4
100
AcDbEntity
  8
RACCORDO
100
AcDbLine
 62
253
  6
CONTINUOUS
 10
-5.1029896993
 20
8.4812807373
 11
-5.1058236707
 21
8.541934492
  0
LWPOLYLINE
  5
2B5
100
AcDbEntity
  8
CURVE
100
AcDbPolyline
 62
253
  6
CONTINUOUS
 90
19
 70
0
 10
-5.4039513606
 20
2.482677445
 10
-5.4039793447
 20
2.4847194536
 10
-5.404062207
 20
2.4867964537
 10
-5.4041983122
 20
2.4889039009
 10
-5.4043860253
 20
2.4910372511
 10
-5.4046237111
 20
2.4931919603
 10
-5.4049882851
 20
2.4959094018
 10
-5.4054232949
 20
2.4986498917
 10
-5.4059236488
 20
2.5014102057
 10
-5.4064842552
 20
2.504187119
 10
-5.4071000297
 20
2.5069776149
 10
-5.4077659169
 20
2.5097795074
 10
-5.4084768686
 20
2.5125908184
 10
-5.4092278366
 20
2.5154095695
 10
-5.4102833643
 20
2.5191778267
 10
-5.4113933791
 20
2.5229617117
 10
-5.4125502023
 20
2.5267671424
 10
-5.4139883127
 20
2.5313676748
 10
-5.4184448428
 20
2.5453434141
  0
LINE
  5
2B6
100
AcDbEntity
  8
CURVE
100
AcDbLine
 62
253
  6
CONTINUOUS
 10
-5.6454421895
 20
11.5768030322
 11
-5.6454421895
 21
13.7962437951
  0
LINE
  5
2B7
100
AcDbEntity
  8
CURVE
100
AcDbLine
 62
253
  6
CONTINUOUS
 10
-5.6449529752
 20
2.5375962253
 11
-5.6449529752
 21
0.3180027052
  0
LINE
  5
2B8
100
AcDbEntity
  8
CURVE
100
AcDbLine
 62
253
  6
CONTINUOUS
 10
-5.4029710216
 20
13.740563082
 11
-5.4029710216
 21
11.3003269775
  0
LINE
  5
2B9
100
AcDbEntity
  8
CURVE
100
AcDbLine
 62
253
  6
CONTINUOUS
 10
-5.4029710216
 20
0.0420864609
 11
-5.4039513606
 21
2.482677445
  0
LINE
  5
2BA
100
AcDbEntity
  8
CURVE
100
AcDbLine
 62
253
  6
CONTINUOUS
 10
-5.3407601981
 20
28.3202607694
 11
-5.3407601981
 21
30.9181802301
  0
LINE
  5
2BB
100
AcDbEntity
  8
CURVE
100
AcDbLine
 62
253
  6
CONTINUOUS
 10
-4.9047800746
 20
30.6934210377
 11
-4.9047800746
 21
28.0955015769
  0
LWPOLYLINE
  5
2BC
100
AcDbEntity
  8
CURVE
100
AcDbPolyline
 62
253
  6
CONTINUOUS
 90
59
 70
0
 10
-5.4029710216
 20
11.3003269775
 10
-5.4029899007
 20
11.297796879
 10
-5.4030461267
 20
11.2953595209
 10
-5.4031390827
 20
11.2929838051
 10
-5.4032681519
 20
11.2906386335
 10
-5.403495381
 20
11.2875211859
 10
-5.4037844141
 20
11.2844231454
 10
-5.4041339509
 20
11.2813649035
 10
-5.4045427045
 20
11.2783626273
 10
-5.4050094435
 20
11.2754155857
 10
-5.4055329504
 20
11.2725188233
 10
-5.4064223401
 20
11.2682604766
 10
-5.407434729
 20
11.2641075677
 10
-5.4085678048
 20
11.2600633838
 10
-5.4098179586
 20
11.2561305228
 10
-5.411181258
 20
11.25231141
 10
-5.4126537701
 20
11.2486084706
 10
-5.4142331963
 20
11.2450227589
 10
-5.4159237729
 20
11.2415498437
 10
-5.4177313704
 20
11.238183923
 10
-5.4196618592
 20
11.2349191946
 10
-5.4214846658
 20
11.2320993617
 10
-5.4234067509
 20
11.2293621455
 10
-5.4254256551
 20
11.2267147932
 10
-5.4275389194
 20
11.2241645515
 10
-5.4297440845
 20
11.2217186673
 10
-5.4320386914
 20
11.2193843877
 10
-5.4344202808
 20
11.2171689594
 10
-5.4368863936
 20
11.2150796295
 10
-5.4394345705
 20
11.2131236449
 10
-5.4420616244
 20
11.2113069658
 10
-5.4447614555
 20
11.2096304067
 10
-5.4475272362
 20
11.2080934954
 10
-5.4503521385
 20
11.2066957595
 10
-5.4532293348
 20
11.2054367269
 10
-5.4561519973
 20
11.2043159253
 10
-5.4591132982
 20
11.2033328825
 10
-5.4621064097
 20
11.2024871263
 10
-5.4651245041
 20
11.2017781844
 10
-5.4685440234
 20
11.2011430781
 10
-5.4719936113
 20
11.2006768896
 10
-5.4754803589
 20
11.2003759787
 10
-5.4790113574
 20
11.2002367053
 10
-5.4825919195
 20
11.2002565451
 10
-5.4862202454
 20
11.200437439
 10
-5.4898927566
 20
11.2007824435
 10
-5.4936058751
 20
11.2012946155
 10
-5.497356019
 20
11.2019766058
 10
-5.5011395919
 20
11.2028294412
 10
-5.5036795229
 20
11.2034937414
 10
-5.5062361752
 20
11.2042375676
 10
-5.508813013
 20
11.2050642388
 10
-5.5114101093
 20
11.2059753318
 10
-5.514013974
 20
11.2069654557
 10
-5.516607726
 20
11.2080274777
 10
-5.5185415458
 20
11.2088696489
 10
-5.5204848428
 20
11.2097618159
 10
-5.5224622781
 20
11.2107175438
 10
-5.5244985129
 20
11.2117503981
  0
LWPOLYLINE
  5
2BD
100
AcDbEntity
  8
CURVE
100
AcDbPolyline
 62
253
  6
CONTINUOUS
 90
92
 70
0
 10
-3.8758201902
 20
11.1980887846
 10
-3.8756350735
 20
11.2182687736
 10
-3.8750832029
 20
11.2376277606
 10
-3.8741697973
 20
11.256552045
 10
-3.8721331247
 20
11.2846896745
 10
-3.8693117371
 20
11.312349601
 10
-3.8657227856
 20
11.339238257
 10
-3.8613840438
 20
11.3653629866
 10
-3.8563120278
 20
11.3907884066
 10
-3.8505176016
 20
11.4155073124
 10
-3.8440121461
 20
11.4394968313
 10
-3.8368147608
 20
11.4627432403
 10
-3.8289464751
 20
11.4852351036
 10
-3.8204283182
 20
11.5069609854
 10
-3.8112738598
 20
11.5279153119
 10
-3.8014668308
 20
11.5481159568
 10
-3.7909835026
 20
11.5675866557
 10
-3.7798001464
 20
11.5863511445
 10
-3.7661438094
 20
11.6069468853
 10
-3.7515802825
 20
11.6265961209
 10
-3.736147691
 20
11.6452437413
 10
-3.7198841597
 20
11.6628346366
 10
-3.7028278137
 20
11.6793136967
 10
-3.685016778
 20
11.6946258118
 10
-3.6664891776
 20
11.7087158718
 10
-3.6472811866
 20
11.7215374471
 10
-3.6274211756
 20
11.7330788289
 10
-3.6069355644
 20
11.7433369884
 10
-3.5858507727
 20
11.752308897
 10
-3.5641932202
 20
11.7599915262
 10
-3.5419893266
 20
11.7663818473
 10
-3.5192655118
 20
11.7714768316
 10
-3.4960495711
 20
11.7752737663
 10
-3.4723748028
 20
11.7777712017
 10
-3.448275881
 20
11.7789680036
 10
-3.4237874796
 20
11.7788630382
 10
-3.3989442727
 20
11.7774551714
 10
-3.3737809343
 20
11.7747432692
 10
-3.3483321384
 20
11.7707261976
 10
-3.3226329227
 20
11.7654054086
 10
-3.2967197802
 20
11.7587926987
 10
-3.2706295673
 20
11.75090245
 10
-3.2443991408
 20
11.741749045
 10
-3.2180653572
 20
11.7313468661
 10
-3.191665073
 20
11.7197102956
 10
-3.165235145
 20
11.7068537159
 10
-3.1388122474
 20
11.6927929903
 10
-3.1124323251
 20
11.6775499055
 10
-3.0861311408
 20
11.6611477293
 10
-3.0599444571
 20
11.6436097294
 10
-3.0339080367
 20
11.6249591735
 10
-3.0080576421
 20
11.6052193294
 10
-2.982429036
 20
11.5844134648
 10
-2.9570580062
 20
11.5625674056
 10
-2.9319804403
 20
11.5397172109
 10
-2.9072322512
 20
11.5159014977
 10
-2.8828493518
 20
11.4911588833
 10
-2.858867655
 20
11.465527985
 10
-2.8353230735
 20
11.4390474198
 10
-2.8122515203
 20
11.4117558052
 10
-2.7896861777
 20
11.3836886901
 10
-2.7676493066
 20
11.3548693519
 10
-2.7461604374
 20
11.3253179998
 10
-2.7252391004
 20
11.2950548429
 10
-2.704904826
 20
11.2641000906
 10
-2.6851771448
 20
11.232473952
 10
-2.6660755869
 20
11.2001966364
 10
-2.6498976746
 20
11.1714514486
 10
-2.6342690573
 20
11.142331184
 10
-2.6192447012
 20
11.1129438509
 10
-2.6048795726
 20
11.083397457
 10
-2.5912187247
 20
11.0537870871
 10
-2.5782675582
 20
11.0241561314
 10
-2.5660215609
 20
10.9945350568
 10
-2.5544762203
 20
10.9649543302
 10
-2.5436217108
 20
10.9354235657
 10
-2.5334269524
 20
10.905868968
 10
-2.5238642187
 20
10.8762184116
 10
-2.5149404505
 20
10.8464898619
 10
-2.5066699703
 20
10.8167187162
 10
-2.4990619596
 20
10.786920007
 10
-2.4921243146
 20
10.7571036759
 10
-2.4858649316
 20
10.7272796644
 10
-2.4802925576
 20
10.6974636831
 10
-2.4754193422
 20
10.6676945184
 10
-2.4712582869
 20
10.6379975505
 10
-2.4678224001
 20
10.608321458
 10
-2.4651249343
 20
10.5786700905
 10
-2.4631801152
 20
10.5493446814
 10
-2.4623088635
 20
10.530079781
 10
-2.4617829137
 20
10.5107508351
 10
-2.4616066279
 20
10.4909820034
  0
LWPOLYLINE
  5
2BE
100
AcDbEntity
  8
RACCORDO
100
AcDbPolyline
 62
253
  6
CONTINUOUS
 90
7
 70
0
 10
-4.7479358797
 20
9.9965420843
 10
-4.7523446664
 20
9.9301326203
 10
-4.7654503174
 20
9.8612398468
 10
-4.7868940366
 20
9.7917497348
 10
-4.816088772
 20
9.7235645988
 10
-4.8522352887
 20
9.6585510201
 10
-4.894344049
 20
9.5984887496
  0
LWPOLYLINE
  5
2BF
100
AcDbEntity
  8
RACCORDO
100
AcDbPolyline
 62
253
  6
CONTINUOUS
 90
7
 70
0
 10
-4.7479358797
 20
-1.2617881649
 10
-4.7523446664
 20
-1.3281976289
 10
-4.7654503174
 20
-1.3970904024
 10
-4.7868940366
 20
-1.4665805144
 10
-4.816088772
 20
-1.5347656504
 10
-4.8522352887
 20
-1.5997792291
 10
-4.894344049
 20
-1.6598414996
  0
LWPOLYLINE
  5
2C0
100
AcDbEntity
  8
RACCORDO
100
AcDbPolyline
 62
253
  6
CONTINUOUS
 90
17
 70
0
 10
-2.1144034192
 20
7.3455090979
 10
-2.1182681984
 20
7.3250646343
 10
-2.1204094904
 20
7.3036928194
 10
-2.1207468347
 20
7.2813962218
 10
-2.1193607895
 20
7.2581722231
 10
-2.1163411556
 20
7.2346795808
 10
-2.1116483279
 20
7.2109435392
 10
-2.1053216257
 20
7.186939
 10
-2.0975691777
 20
7.1632492362
 10
-2.0883629321
 20
7.1398899109
 10
-2.0777303934
 20
7.1168456408
 10
-2.0659630553
 20
7.0946531131
 10
-2.0530084868
 20
7.0733124147
 10
-2.0389184793
 20
7.0528237861
 10
-2.0241410283
 20
7.0337240596
 10
-2.0087867571
 20
7.0161502198
 10
-1.9927446037
 20
6.9999655072
  0
LWPOLYLINE
  5
2C1
100
AcDbEntity
  8
RACCORDO
100
AcDbPolyline
 62
7
  6
CONTINUOUS
 90
3
 70
0
 10
-2.2689404055
 20
7.8083822377
 10
-2.3051524461
 20
7.6625771996
 10
-2.3157378431
 20
7.4903902708
  0
LINE
  5
2C2
100
AcDbEntity
  8
RACCORDO
100
AcDbLine
 62
7
  6
CONTINUOUS
 10
-2.268942185
 20
7.8083771326
 11
-2.2690291184
 21
7.8081243948
  0
LINE
  5
2C3
100
AcDbEntity
  8
RACCORDO
100
AcDbLine
 62
253
  6
CONTINUOUS
 10
-2.2475531393
 20
7.8608414465
 11
-2.268942185
 21
7.8083771326
  0
LWPOLYLINE
  5
2C4
100
AcDbEntity
  8
RACCORDO
100
AcDbPolyline
 62
253
  6
CONTINUOUS
 90
49
 70
0
 10
-4.3519810478
 20
-3.4189973049
 10
-4.3121573716
 20
-3.4110006173
 10
-4.273432907
 20
-3.3996473456
 10
-4.2361971455
 20
-3.3850003746
 10
-4.2004631363
 20
-3.3670179508
 10
-4.1662204603
 20
-3.3457431151
 10
-4.1338239727
 20
-3.3213662222
 10
-4.1033025215
 20
-3.2938570482
 10
-4.0746300599
 20
-3.2632471931
 10
-4.0480794499
 20
-3.2298199212
 10
-4.0236757975
 20
-3.1935545573
 10
-4.001396589
 20
-3.1544730532
 10
-3.9814433855
 20
-3.1129226778
 10
-3.9638367766
 20
-3.0688806163
 10
-3.9485582584
 20
-3.0223707125
 10
-3.9357507164
 20
-2.9738102065
 10
-3.9254368203
 20
-2.9231824284
 10
-3.9175952614
 20
-2.8705047203
 10
-3.912302805
 20
-2.8162452649
 10
-3.9095837433
 20
-2.7603784577
 10
-3.90941427
 20
-2.7029301435
 10
-3.9117987857
 20
-2.6444455715
 10
-3.9167684874
 20
-2.5849010272
 10
-3.9242917305
 20
-2.5243200041
 10
-3.9342784374
 20
-2.4633184569
 10
-3.9467548024
 20
-2.4019058134
 10
-3.9616933127
 20
-2.3400719945
 10
-3.9789231889
 20
-2.2784036259
 10
-3.9984494633
 20
-2.216938402
 10
-4.0202650987
 20
-2.1556376392
 10
-4.0441811815
 20
-2.0949733806
 10
-4.0701978619
 20
-2.0349586652
 10
-4.0983124873
 20
-1.9755792217
 10
-4.1283320059
 20
-1.9172661602
 10
-4.1602632418
 20
-1.8600136664
 10
-4.1940965407
 20
-1.8038261642
 10
-4.2296143044
 20
-1.7491502061
 10
-4.2668546336
 20
-1.6959529705
 10
-4.3057764541
 20
-1.6442658225
 10
-4.3460437871
 20
-1.5946317836
 10
-4.3877218161
 20
-1.5470325988
 10
-4.4307426396
 20
-1.5014851974
 10
-4.4745714451
 20
-1.4585857683
 10
-4.5192322803
 20
-1.4183915512
 10
-4.5646993189
 20
-1.3808444457
 10
-4.6103641263
 20
-1.3463682141
 10
-4.656024025
 20
-1.3151041802
 10
-4.7018813572
 20
-1.286910868
 10
-4.7479358797
 20
-1.2617881649
  0
LWPOLYLINE
  5
2C5
100
AcDbEntity
  8
RACCORDO
100
AcDbPolyline
 62
253
  6
CONTINUOUS
 90
4
 70
0
 10
-5.0501562239
 20
-2.7347070411
 10
-5.0681744094
 20
-2.7310410921
 10
-5.0867303057
 20
-2.724937241
 10
-5.1058236707
 20
-2.7163953701
  0
LWPOLYLINE
  5
2C6
100
AcDbEntity
  8
RACCORDO
100
AcDbPolyline
 62
253
  6
CONTINUOUS
 90
7
 70
0
 10
-4.6104016071
 20
-3.3965107541
 10
-4.5655340312
 20
-3.4086020312
 10
-4.5211982759
 20
-3.4173611474
 10
-4.4776488458
 20
-3.4227805943
 10
-4.4348685647
 20
-3.4248646167
 10
-4.3928762708
 20
-3.4236097741
 10
-4.3519810478
 20
-3.4189973049
  0
LWPOLYLINE
  5
2C7
100
AcDbEntity
  8
RACCORDO
100
AcDbPolyline
 62
253
  6
CONTINUOUS
 90
3
 70
0
 10
-1.9615304238
 20
-3.8120560987
 10
-1.9425250649
 20
-3.8179328008
 10
-1.9229644391
 20
-3.8262370715
  0
LINE
  5
2C8
100
AcDbEntity
  8
RACCORDO
100
AcDbLine
 62
7
  6
CONTINUOUS
 10
-4.8015780839
 20
-3.1231726185
 11
-4.8024823673
 21
-3.1228927456
  0
LINE
  5
2C9
100
AcDbEntity
  8
RACCORDO
100
AcDbLine
 62
7
  6
CONTINUOUS
 10
2.9813651445
 20
-6.8884222025
 11
3.0934988991
 21
-6.9303109856
  0
LWPOLYLINE
  5
2CA
100
AcDbEntity
  8
RACCORDO
100
AcDbPolyline
 62
253
  6
CONTINUOUS
 90
3
 70
0
 10
-4.7015608504
 20
-3.36233591
 10
-4.6557158889
 20
-3.3810896857
 10
-4.6104016071
 20
-3.3965107541
  0
LINE
  5
2CB
100
AcDbEntity
  8
RACCORDO
100
AcDbLine
 62
253
  6
CONTINUOUS
 10
3.149350887
 20
-7.150596027
 11
3.1986009254
 21
-7.1712821526
  0
LWPOLYLINE
  5
2CC
100
AcDbEntity
  8
RACCORDO
100
AcDbPolyline
 62
7
  6
CONTINUOUS
 90
3
 70
0
 10
-4.9370633325
 20
-3.0678592414
 10
-4.828108306
 20
-3.1144812807
 10
-4.8025071847
 20
-3.1228853297
  0
LWPOLYLINE
  5
2CD
100
AcDbEntity
  8
RACCORDO
100
AcDbPolyline
 62
253
  6
CONTINUOUS
 90
39
 70
0
 10
-1.5738034939
 20
-2.8488543578
 10
-1.6224773284
 20
-2.8269099829
 10
-1.6703884542
 20
-2.8084261861
 10
-1.7175376682
 20
-2.7934033818
 10
-1.7640089104
 20
-2.7818758019
 10
-1.8097197418
 20
-2.7738099941
 10
-1.8544216303
 20
-2.7691049678
 10
-1.898110595
 20
-2.7677507367
 10
-1.940792595
 20
-2.7697583067
 10
-1.9822344595
 20
-2.775058405
 10
-2.0224487758
 20
-2.7836477138
 10
-2.0614252125
 20
-2.7955307078
 10
-2.0988966341
 20
-2.810650012
 10
-2.1348910484
 20
-2.8290390942
 10
-2.1693829218
 20
-2.8506657503
 10
-2.2020252432
 20
-2.8753743181
 10
-2.2328055835
 20
-2.9032086992
 10
-2.2617390353
 20
-2.9341263476
 10
-2.2885202293
 20
-2.9678421116
 10
-2.3131206637
 20
-3.0043846782
 10
-2.3355713681
 20
-3.0437266438
 10
-2.3556564264
 20
-3.0854987984
 10
-2.3733502821
 20
-3.1297164643
 10
-2.3886805395
 20
-3.1763653571
 10
-2.4015109922
 20
-3.2250318404
 10
-2.4118212003
 20
-3.2757371585
 10
-2.4196329308
 20
-3.3284607389
 10
-2.4248731349
 20
-3.382726142
 10
-2.427519329
 20
-3.4385441919
 10
-2.4275944626
 20
-3.4959043002
 10
-2.4250934218
 20
-3.5542978004
 10
-2.4199914205
 20
-3.6137434585
 10
-2.4123127946
 20
-3.6742222808
 10
-2.4021258981
 20
-3.7351688514
 10
-2.3893983022
 20
-3.7966022641
 10
-2.3741611145
 20
-3.8585027562
 10
-2.3565778461
 20
-3.9202465536
 10
-2.3366214642
 20
-3.9818217846
 10
-2.3143169821
 20
-4.0432392973
  0
LINE
  5
2CE
100
AcDbEntity
  8
RACCORDO
100
AcDbLine
 62
253
  6
CONTINUOUS
 10
2.6167532626
 20
-6.9077333685
 11
3.149350887
 21
-7.150596027
  0
LINE
  5
2CF
100
AcDbEntity
  8
RACCORDO
100
AcDbLine
 62
7
  6
CONTINUOUS
 10
2.9814117065
 20
-6.8884626527
 11
2.4474948477
 21
-6.6449984539
  0
LWPOLYLINE
  5
2D0
100
AcDbEntity
  8
RACCORDO
100
AcDbPolyline
 62
253
  6
CONTINUOUS
 90
9
 70
0
 10
2.8131587561
 20
-6.5372102393
 10
2.2791208018
 20
-6.2936910028
 10
1.747011703
 20
-6.0491141919
 10
1.216839852
 20
-5.8034836176
 10
0.6886107565
 20
-5.556801756
 10
0.1623356239
 20
-5.3090737922
 10
-0.3619687448
 20
-5.060307677
 10
-0.8842913525
 20
-4.8105087074
 10
-1.4046268995
 20
-4.5596794698
  0
LWPOLYLINE
  5
2D1
100
AcDbEntity
  8
RACCORDO
100
AcDbPolyline
 62
253
  6
CONTINUOUS
 90
3
 70
0
 10
3.149350887
 20
-5.0721350579
 10
2.6167479527
 20
-4.8292699685
 10
2.086082013
 20
-4.5853562339
  0
LWPOLYLINE
  5
2D2
100
AcDbEntity
  8
RACCORDO
100
AcDbPolyline
 62
7
  6
CONTINUOUS
 90
8
 70
0
 10
2.4474948477
 20
-6.6449984539
 10
1.9154976853
 20
-6.4004729418
 10
1.3854286168
 20
-6.154889878
 10
0.8572959801
 20
-5.908253027
 10
0.3311080258
 20
-5.6605661422
 10
-0.193127085
 20
-5.4118329639
 10
-0.715401163
 20
-5.162057275
 10
-1.2357059883
 20
-4.9112429025
  0
LINE
  5
2D3
100
AcDbEntity
  8
CURVE
100
AcDbLine
 62
253
  6
CONTINUOUS
 10
2.3608104278
 20
-3.8970016886
 11
1.8335543048
 21
-3.6537298847
  0
LWPOLYLINE
  5
2D4
100
AcDbEntity
  8
RACCORDO
100
AcDbPolyline
 62
253
  6
CONTINUOUS
 90
4
 70
0
 10
1.418082341
 20
-4.741930933
 10
1.9473961843
 20
-4.9871640827
 10
2.4786442936
 20
-5.2313452906
 10
3.0118182917
 20
-5.4744707507
  0
LWPOLYLINE
  5
2D5
100
AcDbEntity
  8
RACCORDO
100
AcDbPolyline
 62
253
  6
CONTINUOUS
 90
8
 70
0
 10
2.086082013
 20
-4.5853562339
 10
1.5573612933
 20
-4.340397734
 10
1.0305995265
 20
-4.0944009616
 10
0.505799295
 20
-3.8473672534
 10
-0.0170477636
 20
-3.5992926803
 10
-0.5379388398
 20
-3.3501784584
 10
-1.0568601586
 20
-3.1000310579
 10
-1.5738034939
 20
-2.8488543578
  0
LWPOLYLINE
  5
2D6
100
AcDbEntity
  8
CURVE
100
AcDbPolyline
 62
253
  6
CONTINUOUS
 90
6
 70
0
 10
1.8335543313
 20
-3.653729897
 10
1.3682702883
 20
-3.4374452199
 10
0.9044990288
 20
-3.2203497884
 10
0.4422462038
 20
-3.0024462476
 10
-0.0184825545
 20
-2.7837372525
 10
-0.773732569
 20
-2.4218872518
  0
LINE
  5
2D7
100
AcDbEntity
  8
RACCORDO
100
AcDbLine
 62
253
  6
CONTINUOUS
 10
-4.7479358797
 20
-3.3402491339
 11
-4.7015608504
 21
-3.36233591
  0
LWPOLYLINE
  5
2D8
100
AcDbEntity
  8
RACCORDO
100
AcDbPolyline
 62
253
  6
CONTINUOUS
 90
6
 70
0
 10
2.981358127
 20
-6.888438309
 10
2.9729005272
 20
-6.8843749309
 10
2.9373617631
 20
-6.8619244099
 10
2.9056341714
 20
-6.8325874857
 10
2.87810426
 20
-6.7967215397
 10
2.8551074131
 20
-6.7547635067
  0
LWPOLYLINE
  5
2D9
100
AcDbEntity
  8
RACCORDO
100
AcDbPolyline
 62
253
  6
CONTINUOUS
 90
24
 70
0
 10
2.8131659771
 20
-6.0556249645
 10
2.8284008068
 20
-6.062944432
 10
2.8439255534
 20
-6.0720759157
 10
2.859740307
 20
-6.0830193656
 10
2.8760440245
 20
-6.095774732
 10
2.8926379781
 20
-6.1103419381
 10
2.9089255349
 20
-6.1267210014
 10
2.9249428666
 20
-6.1450369528
 10
2.9406536085
 20
-6.1651648673
 10
2.9553519065
 20
-6.1867300581
 10
2.9690279902
 20
-6.2098855034
 10
2.9816910492
 20
-6.2344785452
 10
2.9926633088
 20
-6.2596762414
 10
3.0018428781
 20
-6.285548534
 10
3.009330949
 20
-6.3120258667
 10
3.0147542313
 20
-6.3380661284
 10
3.01798468
 20
-6.3636038535
 10
3.0191499737
 20
-6.3887047097
 10
3.0182604807
 20
-6.4125232457
 10
3.0152474186
 20
-6.4349550341
 10
3.0101797326
 20
-6.4561044123
 10
3.0032744888
 20
-6.4754390173
 10
2.9944882124
 20
-6.4929103605
 10
2.9838649622
 20
-6.5085666082
  0
LWPOLYLINE
  5
2DA
100
AcDbEntity
  8
RACCORDO
100
AcDbPolyline
 62
253
  6
CONTINUOUS
 90
9
 70
0
 10
-1.4046253187
 20
-4.0780916476
 10
-0.884290718
 20
-4.3289201611
 10
-0.3619687452
 20
-4.57871865
 10
0.1623351476
 20
-4.8274844641
 10
0.6886101217
 20
-5.0752123673
 10
1.2168398514
 20
-5.3218945906
 10
1.7470132956
 20
-5.567526005
 10
2.2791247987
 20
-5.8121040683
 10
2.8131659771
 20
-6.0556249645
  0
LWPOLYLINE
  5
2DB
100
AcDbEntity
  8
RACCORDO
100
AcDbPolyline
 62
253
  6
CONTINUOUS
 90
9
 70
0
 10
-1.5738034939
 20
-4.9273153269
 10
-1.0568549873
 20
-5.1784945297
 10
-0.5379297551
 20
-5.4286437894
 10
-0.0170360386
 20
-5.6777592346
 10
0.5058123727
 20
-5.9258344029
 10
1.0306126543
 20
-6.1728680858
 10
1.5573731529
 20
-6.4188642196
 10
2.0860912714
 20
-6.6638214755
 10
2.6167532626
 20
-6.9077333685
  0
LINE
  5
2DC
100
AcDbEntity
  8
RACCORDO
100
AcDbLine
 62
7
  6
CONTINUOUS
 10
-1.2357059883
 20
-4.9112429025
 11
-1.7540320487
 21
-4.659394335
  0
LINE
  5
2DD
100
AcDbEntity
  8
RACCORDO
100
AcDbLine
 62
253
  6
CONTINUOUS
 10
-1.4046268995
 20
-4.5596794698
 11
-1.922967274
 21
-4.3078239242
  0
LINE
  5
2DE
100
AcDbEntity
  8
RACCORDO
100
AcDbLine
 62
253
  6
CONTINUOUS
 10
-1.9229644391
 20
-3.8262370715
 11
-1.4046253187
 21
-4.0780916476
  0
LWPOLYLINE
  5
2DF
100
AcDbEntity
  8
RACCORDO
100
AcDbPolyline
 62
253
  6
CONTINUOUS
 90
7
 70
0
 10
-1.7166445125
 20
-3.2486915977
 10
-1.1991420316
 20
-3.5001398584
 10
-0.679647919
 20
-3.7505633569
 10
-0.1581702765
 20
-3.9999581413
 10
0.3652854447
 20
-4.2483215555
 10
0.8907084181
 20
-4.4956483896
 10
1.418082341
 20
-4.741930933
  0
LWPOLYLINE
  5
2E0
100
AcDbEntity
  8
CURVE
100
AcDbPolyline
 62
253
  6
CONTINUOUS
 90
59
 70
0
 10
-0.7737326831
 20
-2.4218871968
 10
-0.7758363188
 20
-2.4208501919
 10
-0.7778784543
 20
-2.4197967009
 10
-0.779884963
 20
-2.4187150094
 10
-0.7818817186
 20
-2.4175934033
 10
-0.7845604429
 20
-2.4160219007
 10
-0.7872501682
 20
-2.4143686975
 10
-0.7899332372
 20
-2.4126438776
 10
-0.7925955449
 20
-2.4108557958
 10
-0.7952371949
 20
-2.4090058896
 10
-0.7978618431
 20
-2.4070938674
 10
-0.8017722569
 20
-2.4041095744
 10
-0.8056489186
 20
-2.4009889568
 10
-0.8094881022
 20
-2.3977365186
 10
-0.8132860717
 20
-2.3943584095
 10
-0.8170390889
 20
-2.3908611906
 10
-0.8207434154
 20
-2.3872514229
 10
-0.8243971679
 20
-2.383532725
 10
-0.8280058834
 20
-2.3796969465
 10
-0.8315769539
 20
-2.3757329947
 10
-0.8351177714
 20
-2.371629777
 10
-0.8382436762
 20
-2.3678589676
 10
-0.8413443078
 20
-2.3639758294
 10
-0.8444124562
 20
-2.3599868357
 10
-0.8474409111
 20
-2.3558984595
 10
-0.8504224624
 20
-2.3517171741
 10
-0.8533498999
 20
-2.3474494525
 10
-0.8562160134
 20
-2.343101768
 10
-0.8590135929
 20
-2.3386805937
 10
-0.861735428
 20
-2.3341924027
 10
-0.8643750912
 20
-2.329644224
 10
-0.8669292855
 20
-2.3250453094
 10
-0.8693954965
 20
-2.3204054664
 10
-0.8717712096
 20
-2.3157345026
 10
-0.8740539104
 20
-2.3110422255
 10
-0.8762410845
 20
-2.3063384428
 10
-0.8783302174
 20
-2.3016329619
 10
-0.8803187947
 20
-2.2969355904
 10
-0.8822043019
 20
-2.2922561359
 10
-0.8842007911
 20
-2.2870210739
 10
-0.8860698222
 20
-2.2818092428
 10
-0.8878175674
 20
-2.2766087847
 10
-0.8894501988
 20
-2.2714078418
 10
-0.8909721863
 20
-2.2661976096
 10
-0.8923811888
 20
-2.2609814974
 10
-0.8936731631
 20
-2.2557659678
 10
-0.8948440657
 20
-2.2505574836
 10
-0.8958901905
 20
-2.2453623512
 10
-0.8968091812
 20
-2.2401862512
 10
-0.8973501053
 20
-2.2367479187
 10
-0.8978323735
 20
-2.233316733
 10
-0.8982547314
 20
-2.2298889265
 10
-0.8986159095
 20
-2.2264650139
 10
-0.8989145782
 20
-2.2230626387
 10
-0.8991493929
 20
-2.2197037264
 10
-0.8992827786
 20
-2.2172195801
 10
-0.8993788484
 20
-2.2147414193
 10
-0.8994369609
 20
-2.2122384489
 10
-0.8994564743
 20
-2.2096798735
  0
LWPOLYLINE
  5
2E1
100
AcDbEntity
  8
RACCORDO
100
AcDbPolyline
 62
253
  6
CONTINUOUS
 90
21
 70
0
 10
3.0118182404
 20
-5.4744709976
 10
3.0563751799
 20
-5.4966310887
 10
3.1025444369
 20
-5.5235998686
 10
3.1500080539
 20
-5.5556959935
 10
3.1984690048
 20
-5.5932850956
 10
3.2473741634
 20
-5.6364985628
 10
3.2959509469
 20
-5.6851417236
 10
3.3436373012
 20
-5.7392113381
 10
3.3898124749
 20
-5.7985915245
 10
3.4336235505
 20
-5.8626526765
 10
3.4744903476
 20
-5.931134505
 10
3.5116734919
 20
-6.003483383
 10
3.5442833058
 20
-6.0783571551
 10
3.5718293818
 20
-6.1550771262
 10
3.5938276827
 20
-6.232881703
 10
3.6097756844
 20
-6.3101758279
 10
3.6195050557
 20
-6.3860227381
 10
3.6229435611
 20
-6.4597881098
 10
3.6200881843
 20
-6.5303901546
 10
3.6111124927
 20
-6.5970127696
 10
3.5962061317
 20
-6.6592047631
  0
LWPOLYLINE
  5
2E2
100
AcDbEntity
  8
CURVE
100
AcDbPolyline
 62
253
  6
CONTINUOUS
 90
59
 70
0
 10
-5.5244985129
 20
-0.0464901184
 10
-5.5224606891
 20
-0.0475239534
 10
-5.5204823995
 20
-0.0484805886
 10
-5.518538624
 20
-0.0493737678
 10
-5.5166043425
 20
-0.050217235
 10
-5.5140095571
 20
-0.0512816417
 10
-5.5114042598
 20
-0.0522748341
 10
-5.5088055405
 20
-0.0531895411
 10
-5.5062270532
 20
-0.0540202563
 10
-5.503668707
 20
-0.0547685326
 10
-5.5011269748
 20
-0.0554376876
 10
-5.4973404014
 20
-0.056298536
 10
-5.493586903
 20
-0.0569892914
 10
-5.4898701089
 20
-0.0575108293
 10
-5.4861936483
 20
-0.057865665
 10
-5.4825611505
 20
-0.0580567237
 10
-5.4789762445
 20
-0.0580869308
 10
-5.4754407645
 20
-0.057958088
 10
-5.4719493644
 20
-0.0576675029
 10
-5.4684949032
 20
-0.0572113592
 10
-5.4650702396
 20
-0.0565858409
 10
-5.4620473319
 20
-0.055884896
 10
-5.4590492828
 20
-0.0550465134
 10
-5.4560830491
 20
-0.0540700973
 10
-5.4531555881
 20
-0.0529550521
 10
-5.4502738567
 20
-0.0517007819
 10
-5.4474448119
 20
-0.0503066911
 10
-5.4446754108
 20
-0.048772184
 10
-5.4419726105
 20
-0.0470966648
 10
-5.4393433679
 20
-0.0452795378
 10
-5.436793883
 20
-0.0433215451
 10
-5.4343273271
 20
-0.0412287799
 10
-5.4319461143
 20
-0.0390086732
 10
-5.4296526589
 20
-0.036668656
 10
-5.4274493751
 20
-0.0342161593
 10
-5.425338677
 20
-0.031658614
 10
-5.4233229787
 20
-0.0290034512
 10
-5.4214046946
 20
-0.0262581019
 10
-5.4195862387
 20
-0.0234299971
 10
-5.4176612296
 20
-0.020155986
 10
-5.4158595895
 20
-0.0167808612
 10
-5.4141752867
 20
-0.0132988419
 10
-5.4126022897
 20
-0.009704147
 10
-5.4111362135
 20
-0.005992381
 10
-5.4097792607
 20
-0.0021646904
 10
-5.4085352804
 20
0.0017763928
 10
-5.4074081219
 20
0.0058283365
 10
-5.4064013058
 20
0.0099884383
 10
-5.4055170377
 20
0.0142533139
 10
-5.4049966405
 20
0.0171540289
 10
-5.404532734
 20
0.0201047504
 10
-5.4041265089
 20
0.0231104987
 10
-5.4037791704
 20
0.0261720131
 10
-5.4034919809
 20
0.0292729092
 10
-5.4032662174
 20
0.0323925215
 10
-5.4031379856
 20
0.0347387922
 10
-5.4030456351
 20
0.03711551
 10
-5.4029897768
 20
0.0395542184
 10
-5.4029710216
 20
0.0420864609
  0
LWPOLYLINE
  5
2E3
100
AcDbEntity
  8
RACCORDO
100
AcDbPolyline
 62
253
  6
CONTINUOUS
 90
33
 70
0
 10
-9.19449728
 20
1.0997890256
 10
-9.2403132997
 20
1.1232046435
 10
-9.2854076766
 20
1.1431308931
 10
-9.3297812616
 20
1.1595673822
 10
-9.3735134912
 20
1.1724818961
 10
-9.4165265309
 20
1.181905912
 10
-9.4585855803
 20
1.1879344611
 10
-9.499686722
 20
1.1905772605
 10
-9.5398359851
 20
1.1898236284
 10
-9.5788139701
 20
1.185737782
 10
-9.6166326478
 20
1.1783232669
 10
-9.6532824531
 20
1.1675754439
 10
-9.6885121219
 20
1.1535460559
 10
-9.7223480243
 20
1.1362021225
 10
-9.7547664264
 20
1.1155754307
 10
-9.7854413702
 20
1.0918146675
 10
-9.8143608291
 20
1.0648756272
 10
-9.8415396646
 20
1.0348012368
 10
-9.866692631
 20
1.0018707107
 10
-9.8897928113
 20
0.9660550231
 10
-9.9108698082
 20
0.9273819916
 10
-9.9297233182
 20
0.8862160236
 10
-9.9463294774
 20
0.8425418308
 10
-9.9607143214
 20
0.7963737263
 10
-9.9727523594
 20
0.7481205365
 10
-9.9824247945
 20
0.6977609875
 10
-9.9897518289
 20
0.645315723
 10
-9.994666308
 20
0.5912565198
 10
-9.9971475874
 20
0.5355724779
 10
-9.9972168043
 20
0.4782742765
 10
-9.9948692492
 20
0.4198661618
 10
-9.9900821244
 20
0.3603287716
 10
-9.9828777511
 20
0.2996816818
  0
LINE
  5
2E4
100
AcDbEntity
  8
RACCORDO
100
AcDbLine
 62
253
  6
CONTINUOUS
 10
-5.2502892798
 20
-3.0817774664
 11
-4.7479358797
 21
-3.3402491339
  0
LINE
  5
2E5
100
AcDbEntity
  8
RACCORDO
100
AcDbLine
 62
7
  6
CONTINUOUS
 10
-4.9370236801
 20
-3.0678974965
 11
-5.4408121282
 21
-2.8086874875
  0
LWPOLYLINE
  5
2E6
100
AcDbEntity
  8
RACCORDO
100
AcDbPolyline
 62
253
  6
CONTINUOUS
 90
9
 70
0
 10
-5.1058236707
 20
-2.7163953701
 10
-5.6095356425
 20
-2.4572248991
 10
-6.1111947732
 20
-2.1970569104
 10
-6.6107931454
 20
-1.9358954612
 10
-7.1083255582
 20
-1.6737431908
 10
-7.6037814514
 20
-1.4106056109
 10
-8.0971450188
 20
-1.1464911592
 10
-8.5884059235
 20
-0.8814054526
 10
-9.0775591854
 20
-0.6153512341
  0
LWPOLYLINE
  5
2E7
100
AcDbEntity
  8
RACCORDO
100
AcDbPolyline
 62
253
  6
CONTINUOUS
 90
3
 70
0
 10
-4.7479358797
 20
-1.2617881649
 10
-5.2502942853
 20
-1.0033139116
 10
-5.7505928046
 20
-0.7438512956
  0
LWPOLYLINE
  5
2E8
100
AcDbEntity
  8
RACCORDO
100
AcDbPolyline
 62
253
  6
CONTINUOUS
 90
5
 70
0
 10
-1.922967274
 20
-4.3078239242
 10
-1.937634963
 20
-4.3002657091
 10
-1.9525740829
 20
-4.2908921636
 10
-1.9677845422
 20
-4.2797032408
 10
-1.9834568708
 20
-4.2666959041
  0
LWPOLYLINE
  5
2E9
100
AcDbEntity
  8
RACCORDO
100
AcDbPolyline
 62
7
  6
CONTINUOUS
 90
8
 70
0
 10
-5.4408121282
 20
-2.8086874875
 10
-5.9425572923
 20
-2.5484747117
 10
-6.4422512326
 20
-2.2872631718
 10
-6.9398860942
 20
-2.0250568579
 10
-7.4354540823
 20
-1.7618597603
 10
-7.9289474645
 20
-1.497675867
 10
-8.4203585112
 20
-1.2325091956
 10
-8.9096794935
 20
-0.9663637951
  0
LINE
  5
2EA
100
AcDbEntity
  8
CURVE
100
AcDbLine
 62
253
  6
CONTINUOUS
 10
-6.0212995223
 20
0.2122745426
 11
-5.5244985227
 21
-0.0464901133
  0
LINE
  5
2EB
100
AcDbEntity
  8
RACCORDO
100
AcDbLine
 62
253
  6
CONTINUOUS
 10
-1.6218454738
 20
-4.9022126066
 11
-1.5738034939
 21
-4.9273153269
  0
LWPOLYLINE
  5
2EC
100
AcDbEntity
  8
RACCORDO
100
AcDbPolyline
 62
253
  6
CONTINUOUS
 90
4
 70
0
 10
-6.3968782742
 20
-0.8806041272
 10
-5.8980884543
 20
-1.1413430062
 10
-5.3972410782
 20
-1.4010901475
 10
-4.894344049
 20
-1.6598414996
  0
LWPOLYLINE
  5
2ED
100
AcDbEntity
  8
RACCORDO
100
AcDbPolyline
 62
253
  6
CONTINUOUS
 90
8
 70
0
 10
-5.7505928046
 20
-0.7438512956
 10
-6.248823695
 20
-0.4834044374
 10
-6.7449740314
 20
-0.2219802317
 10
-7.2390413972
 20
0.040419909
 10
-7.7310336649
 20
0.3038001584
 10
-8.2209481767
 20
0.5681592177
 10
-8.708771963
 20
0.8334902133
 10
-9.19449728
 20
1.0997890256
  0
LINE
  5
2EE
100
AcDbEntity
  8
RACCORDO
100
AcDbLine
 62
7
  6
CONTINUOUS
 10
-1.8191782209
 20
-4.6241506775
 11
-1.7533689826
 21
-4.6597138054
  0
LWPOLYLINE
  5
2EF
100
AcDbEntity
  8
RACCORDO
100
AcDbPolyline
 62
253
  6
CONTINUOUS
 90
23
 70
0
 10
-5.1058169004
 20
-2.2348102893
 10
-5.0915139704
 20
-2.2425411798
 10
-5.0769423303
 20
-2.2520880165
 10
-5.0621018865
 20
-2.2634507535
 10
-5.0468072409
 20
-2.2766335431
 10
-5.0312435531
 20
-2.2916321162
 10
-5.0159667709
 20
-2.3084338948
 10
-5.0009421784
 20
-2.327164358
 10
-4.9862046941
 20
-2.3476981253
 10
-4.9724151541
 20
-2.3696465417
 10
-4.9595819629
 20
-2.3931621696
 10
-4.9476973261
 20
-2.4180927447
 10
-4.9373981612
 20
-2.4435925587
 10
-4.9287787181
 20
-2.4697322091
 10
-4.9217454827
 20
-2.4964414581
 10
-4.9166538748
 20
-2.5226634174
 10
-4.9136252406
 20
-2.5483314757
 10
-4.9125386207
 20
-2.5735124334
 10
-4.9133859002
 20
-2.5973494833
 10
-4.9162340179
 20
-2.619734667
 10
-4.9210158615
 20
-2.6407758579
 10
-4.9275221278
 20
-2.659939941
 10
-4.935794188
 20
-2.6771732521
  0
LWPOLYLINE
  5
2F0
100
AcDbEntity
  8
CURVE
100
AcDbPolyline
 62
253
  6
CONTINUOUS
 90
6
 70
0
 10
-8.4744942868
 20
1.5206735355
 10
-8.0437644068
 20
1.2871798219
 10
-7.6114070607
 20
1.0544392947
 10
-7.1774275165
 20
0.8224547899
 10
-6.7418310623
 20
0.591229134
 10
-6.0212995711
 20
0.2122745681
  0
LWPOLYLINE
  5
2F1
100
AcDbEntity
  8
RACCORDO
100
AcDbPolyline
 62
253
  6
CONTINUOUS
 90
9
 70
0
 10
-9.0775576481
 20
-0.1337634851
 10
-8.5884053062
 20
-0.3998169355
 10
-8.0971450193
 20
-0.6649021321
 10
-7.6037819052
 20
-0.9290162661
 10
-7.1083261563
 20
-1.1921537831
 10
-6.6107931459
 20
-1.4543064342
 10
-6.1111932813
 20
-1.7154687662
 10
-5.6095318967
 20
-1.9756380719
 10
-5.1058169004
 20
-2.2348102893
  0
LWPOLYLINE
  5
2F2
100
AcDbEntity
  8
RACCORDO
100
AcDbPolyline
 62
253
  6
CONTINUOUS
 90
9
 70
0
 10
-9.19449728
 20
-0.9786719435
 10
-8.708767101
 20
-1.2449734107
 10
-8.2209396318
 20
-1.5103063806
 10
-7.7310226319
 20
-1.7746667405
 10
-7.2390290871
 20
-2.038047624
 10
-6.7449616706
 20
-2.3004477397
 10
-6.2488125245
 20
-2.561871269
 10
-5.7505840807
 20
-2.822316807
 10
-5.2502892798
 20
-3.0817774664
  0
LINE
  5
2F3
100
AcDbEntity
  8
RACCORDO
100
AcDbLine
 62
7
  6
CONTINUOUS
 10
-8.9096794935
 20
-0.9663637951
 11
-9.3969010948
 21
-0.6992446208
  0
LINE
  5
2F4
100
AcDbEntity
  8
RACCORDO
100
AcDbLine
 62
253
  6
CONTINUOUS
 10
-9.0775591854
 20
-0.6153512341
 11
-9.5645971847
 21
-0.3483327012
  0
LINE
  5
2F5
100
AcDbEntity
  8
RACCORDO
100
AcDbLine
 62
253
  6
CONTINUOUS
 10
-9.5645944293
 20
0.1332540198
 11
-9.0775576481
 21
-0.1337634851
  0
LWPOLYLINE
  5
2F6
100
AcDbEntity
  8
RACCORDO
100
AcDbPolyline
 62
253
  6
CONTINUOUS
 90
7
 70
0
 10
-9.3459030251
 20
0.7043895802
 10
-8.8596523065
 20
0.4378028401
 10
-8.3712900442
 20
0.1721789789
 10
-7.8808238493
 20
-0.0924778145
 10
-7.3882588418
 20
-0.3561647247
 10
-6.8936052016
 20
-0.6188762248
 10
-6.3968782742
 20
-0.8806041272
  0
LWPOLYLINE
  5
2F7
100
AcDbEntity
  8
RACCORDO
100
AcDbPolyline
 62
253
  6
CONTINUOUS
 90
16
 70
0
 10
-4.8943441054
 20
-1.6598417504
 10
-4.8522282589
 20
-1.6833304939
 10
-4.8086174052
 20
-1.7117186027
 10
-4.7638075391
 20
-1.7453024062
 10
-4.7180535171
 20
-1.7844120625
 10
-4.671882298
 20
-1.8291606694
 10
-4.6260636696
 20
-1.8793452547
 10
-4.5811096617
 20
-1.934921692
 10
-4.5375875188
 20
-1.9957374018
 10
-4.4963485202
 20
-2.0611472056
 10
-4.4579208845
 20
-2.1308460133
 10
-4.4229645234
 20
-2.2042464919
 10
-4.3923459659
 20
-2.2800043181
 10
-4.3665157725
 20
-2.3574160454
 10
-4.3458900975
 20
-2.4357038154
 10
-4.3309508602
 20
-2.5132925566
  0
LWPOLYLINE
  5
2F8
100
AcDbEntity
  8
RACCORDO
100
AcDbPolyline
 62
253
  6
CONTINUOUS
 90
3
 70
0
 10
-9.5645971847
 20
-0.3483327012
 10
-9.5784416525
 20
-0.3403102021
 10
-9.5925460662
 20
-0.330459594
  0
LINE
  5
2F9
100
AcDbEntity
  8
RACCORDO
100
AcDbLine
 62
253
  6
CONTINUOUS
 10
-9.2397017815
 20
-0.9521204907
 11
-9.19449728
 21
-0.9786719435
  0
LINE
  5
2FA
100
AcDbEntity
  8
RACCORDO
100
AcDbLine
 62
7
  6
CONTINUOUS
 10
-9.4582576316
 20
-0.6621097093
 11
-9.3962723749
 21
-0.6995872393
  0
LWPOLYLINE
  5
2FB
100
AcDbEntity
  8
RACCORDO
100
AcDbPolyline
 62
253
  6
CONTINUOUS
 90
5
 70
0
 10
-1.7540320487
 20
-4.659394335
 10
-1.7939697808
 20
-4.6347946082
 10
-1.8269209673
 20
-4.6048817127
 10
-1.8555126369
 20
-4.5685159838
 10
-1.8793965471
 20
-4.5261404189
  0
LWPOLYLINE
  5
2FC
100
AcDbEntity
  8
RACCORDO
100
AcDbPolyline
 62
253
  6
CONTINUOUS
 90
5
 70
0
 10
-4.9370703768
 20
-3.0678735589
 10
-4.9736054144
 20
-3.0449768349
 10
-5.0073805094
 20
-3.0146520101
 10
-5.0366870297
 20
-2.9779288668
 10
-5.0611679472
 20
-2.9352547828
  0
LWPOLYLINE
  5
2FD
100
AcDbEntity
  8
RACCORDO
100
AcDbPolyline
 62
253
  6
CONTINUOUS
 90
5
 70
0
 10
-9.3969010948
 20
-0.6992446208
 10
-9.4278651309
 20
-0.6793111122
 10
-9.4627921629
 20
-0.6483744981
 10
-9.4930982642
 20
-0.6111204892
 10
-9.5184143031
 20
-0.568002901
  0
LINE
  5
2FE
100
AcDbEntity
  8
RACCORDO
100
AcDbLine
 62
7
  6
CONTINUOUS
 10
-1.9575590184
 20
-4.5232561048
 11
-1.8191782209
 21
-4.6241506775
  0
LWPOLYLINE
  5
2FF
100
AcDbEntity
  8
RACCORDO
100
AcDbPolyline
 62
253
  6
CONTINUOUS
 90
28
 70
0
 10
-1.9834568708
 20
-4.2666959041
 10
-1.9994003052
 20
-4.2518730709
 10
-2.0150430138
 20
-4.2352437291
 10
-2.0304186315
 20
-4.2166849321
 10
-2.0454937234
 20
-4.1963197292
 10
-2.0595962792
 20
-4.1745263203
 10
-2.0727202388
 20
-4.1511502482
 10
-2.0848722574
 20
-4.1263462746
 10
-2.0953997689
 20
-4.1009566177
 10
-2.1042060102
 20
-4.074911402
 10
-2.1113884643
 20
-4.0482808711
 10
-2.1165860805
 20
-4.0221174961
 10
-2.1196756762
 20
-3.9964869223
 10
-2.1207808116
 20
-3.9713236975
 10
-2.1199104748
 20
-3.9474836081
 10
-2.1169964682
 20
-3.9250737854
 10
-2.112106819
 20
-3.903987011
 10
-2.1054547442
 20
-3.884757492
 10
-2.0969976678
 20
-3.8674378274
 10
-2.0867775619
 20
-3.8519751095
 10
-2.0751344609
 20
-3.8387452829
 10
-2.0620360037
 20
-3.8278139725
 10
-2.0475137545
 20
-3.8191151457
 10
-2.032003788
 20
-3.8128273391
 10
-2.0155065993
 20
-3.8090041829
 10
-1.998020985
 20
-3.807591684
 10
-1.9799807507
 20
-3.8086070861
 10
-1.9615304238
 20
-3.8120560987
  0
LINE
  5
300
100
AcDbEntity
  8
RACCORDO
100
AcDbLine
 62
7
  6
CONTINUOUS
 10
-2.0743151189
 20
-4.4020674913
 11
-1.9575590184
 21
-4.5232561048
  0
LINE
  5
301
100
AcDbEntity
  8
RACCORDO
100
AcDbLine
 62
7
  6
CONTINUOUS
 10
-2.1745598777
 20
-4.256118652
 11
-2.0743151189
 21
-4.4020674913
  0
LWPOLYLINE
  5
302
100
AcDbEntity
  8
CURVE
100
AcDbPolyline
 62
253
  6
CONTINUOUS
 90
55
 70
0
 10
-6.9293213232
 20
5.0471629163
 10
-6.9306644517
 20
5.049351562
 10
-6.9319995359
 20
5.051463791
 10
-6.9333404135
 20
5.0535238071
 10
-6.9347009221
 20
5.0555558141
 10
-6.9365619903
 20
5.0582511822
 10
-6.938470974
 20
5.0609237248
 10
-6.9404162889
 20
5.0635573814
 10
-6.9423884077
 20
5.0661394556
 10
-6.9443860316
 20
5.0686707078
 10
-6.9464099192
 20
5.0711552628
 10
-6.9494952806
 20
5.0748009123
 10
-6.952635763
 20
5.0783488018
 10
-6.9558258693
 20
5.0817973189
 10
-6.9590608284
 20
5.0851462901
 10
-6.9623360505
 20
5.0883959017
 10
-6.9656469457
 20
5.0915463398
 10
-6.9689902588
 20
5.0945984524
 10
-6.9723680729
 20
5.0975557342
 10
-6.9757838056
 20
5.1004223413
 10
-6.9792408746
 20
5.1032024302
 10
-6.9832445772
 20
5.1062770578
 10
-6.9872984348
 20
5.1092382684
 10
-6.9913941486
 20
5.1120802198
 10
-6.9955234196
 20
5.1147970696
 10
-6.999677949
 20
5.1173829757
 10
-7.0038494377
 20
5.1198320959
 10
-7.0080295868
 20
5.1221385878
 10
-7.0122101019
 20
5.1242970647
 10
-7.0163827057
 20
5.1263039606
 10
-7.0205391258
 20
5.128156165
 10
-7.0246710895
 20
5.1298505673
 10
-7.0287703241
 20
5.131384057
 10
-7.032828557
 20
5.1327535235
 10
-7.0368375155
 20
5.1339558562
 10
-7.0402999197
 20
5.1348685958
 10
-7.0437216581
 20
5.1356503816
 10
-7.0471061242
 20
5.1363006032
 10
-7.0504567116
 20
5.1368186504
 10
-7.0537754763
 20
5.1372031463
 10
-7.0570591243
 20
5.1374496499
 10
-7.0603030244
 20
5.1375529534
 10
-7.0635025449
 20
5.1375078495
 10
-7.0666528659
 20
5.137309295
 10
-7.069748413
 20
5.1369529046
 10
-7.0717792406
 20
5.1366251881
 10
-7.073783888
 20
5.1362220848
 10
-7.0757630804
 20
5.1357402331
 10
-7.0777154854
 20
5.1351774478
 10
-7.07963154
 20
5.1345362489
 10
-7.0814996236
 20
5.1338203326
 10
-7.0828653337
 20
5.1332347447
 10
-7.0842113332
 20
5.132599721
 10
-7.0855514319
 20
5.1319057749
 10
-7.0868994395
 20
5.1311434198
  0
LWPOLYLINE
  5
303
100
AcDbEntity
  8
RACCORDO
100
AcDbPolyline
 62
253
  6
CONTINUOUS
 90
15
 70
0
 10
-2.2042644913
 20
-4.2808399543
 10
-2.1719061019
 20
-4.3375409032
 10
-2.1376800954
 20
-4.3930355073
 10
-2.1018266506
 20
-4.4469196174
 10
-2.0643400894
 20
-4.499191619
 10
-2.0252233939
 20
-4.5498517503
 10
-1.9847300598
 20
-4.5984988056
 10
-1.9428231268
 20
-4.6451547423
 10
-1.8995369902
 20
-4.6897962884
 10
-1.8552326975
 20
-4.7319546572
 10
-1.809841195
 20
-4.7716393337
 10
-1.7634294648
 20
-4.8088397651
 10
-1.7165635214
 20
-4.8430575735
 10
-1.6694319953
 20
-4.8741266077
 10
-1.6218454738
 20
-4.9022126066
  0
LINE
  5
304
100
AcDbEntity
  8
RACCORDO
100
AcDbLine
 62
253
  6
CONTINUOUS
 10
-2.2347579479
 20
-4.222915981
 11
-2.2042644913
 21
-4.2808399543
  0
LWPOLYLINE
  5
305
100
AcDbEntity
  8
RACCORDO
100
AcDbPolyline
 62
253
  6
CONTINUOUS
 90
7
 70
0
 10
-9.816169235
 20
11.0042870386
 10
-9.7875175984
 20
10.9454415438
 10
-9.7571075985
 20
10.8877549542
 10
-9.7249370033
 20
10.8312111611
 10
-9.691230995
 20
10.7762245627
 10
-9.6559835285
 20
10.7227962679
 10
-9.6191977757
 20
10.6709264677
  0
LINE
  5
306
100
AcDbEntity
  8
RACCORDO
100
AcDbLine
 62
7
  6
CONTINUOUS
 10
-2.2525774812
 20
-4.0884990292
 11
-2.1745598777
 21
-4.256118652
  0
LINE
  5
307
100
AcDbEntity
  8
RACCORDO
100
AcDbLine
 62
253
  6
CONTINUOUS
 10
-9.8430631062
 20
11.0642740535
 11
-9.816169235
 21
11.0042870386
  0
LINE
  5
308
100
AcDbEntity
  8
RACCORDO
100
AcDbLine
 62
7
  6
CONTINUOUS
 10
-9.8685954862
 20
11.1537720017
 11
-9.7960981477
 21
10.9797882772
  0
LWPOLYLINE
  5
309
100
AcDbEntity
  8
RACCORDO
100
AcDbPolyline
 62
253
  6
CONTINUOUS
 90
4
 70
0
 10
-9.5184143031
 20
10.6903273482
 10
-9.5384320736
 20
10.7387833472
 10
-9.5529077873
 20
10.7919874853
 10
-9.5616650455
 20
10.8492915774
  0
LINE
  5
30A
100
AcDbEntity
  8
RACCORDO
100
AcDbLine
 62
253
  6
CONTINUOUS
 10
-9.8679718219
 20
11.1249378426
 11
-9.8430631062
 21
11.0642740535
  0
LWPOLYLINE
  5
30B
100
AcDbEntity
  8
RACCORDO
100
AcDbPolyline
 62
253
  6
CONTINUOUS
 90
3
 70
0
 10
-5.0611679472
 20
-2.9352547828
 10
-5.0805250172
 20
-2.887149661
 10
-5.0945224355
 20
-2.8341995541
  0
LWPOLYLINE
  5
30C
100
AcDbEntity
  8
RACCORDO
100
AcDbPolyline
 62
253
  6
CONTINUOUS
 90
4
 70
0
 10
-2.3143169821
 20
-4.0432392973
 10
-2.289905973
 20
-4.1039093923
 10
-2.2633864461
 20
-4.163787016
 10
-2.2347579479
 20
-4.222915981
  0
LWPOLYLINE
  5
30D
100
AcDbEntity
  8
RACCORDO
100
AcDbPolyline
 62
253
  6
CONTINUOUS
 90
4
 70
0
 10
-1.8793965471
 20
-4.5261404189
 10
-1.8982819503
 20
-4.4782711547
 10
-1.9119388574
 20
-4.4254913184
 10
-1.9202008415
 20
-4.368443925
  0
LWPOLYLINE
  5
30E
100
AcDbEntity
  8
RACCORDO
100
AcDbPolyline
 62
253
  6
CONTINUOUS
 90
3
 70
0
 10
-9.9118370231
 20
11.2483805689
 10
-9.8908957018
 20
11.1863214029
 10
-9.8679718219
 20
11.1249378426
  0
LWPOLYLINE
  5
30F
100
AcDbEntity
  8
CURVE
100
AcDbPolyline
 62
253
  6
CONTINUOUS
 90
3
 70
0
 10
-5.4184448428
 20
2.5453434141
 10
-5.4199124582
 20
2.5500389943
 10
-5.4216971097
 20
2.5559182871
  0
LWPOLYLINE
  5
310
100
AcDbEntity
  8
CURVE
100
AcDbPolyline
 62
253
  6
CONTINUOUS
 90
17
 70
0
 10
-5.4269337496
 20
2.5734680485
 10
-5.4281260729
 20
2.5773207352
 10
-5.429350191
 20
2.5811551358
 10
-5.4306183154
 20
2.5849763849
 10
-5.4316054528
 20
2.5878360186
 10
-5.4326282779
 20
2.5906887432
 10
-5.4336908557
 20
2.5935321594
 10
-5.4347972514
 20
2.5963638676
 10
-5.4359514212
 20
2.5991811826
 10
-5.4371568853
 20
2.601980275
 10
-5.4384170552
 20
2.6047570292
 10
-5.4397353421
 20
2.6075073301
 10
-5.4408336578
 20
2.6096853105
 10
-5.4419703953
 20
2.6118389307
 10
-5.4431445981
 20
2.6139633945
 10
-5.4443553097
 20
2.6160539058
 10
-5.4456015737
 20
2.6181056684
  0
LINE
  5
311
100
AcDbEntity
  8
CURVE
100
AcDbLine
 62
253
  6
CONTINUOUS
 10
-5.4216971097
 20
2.5559182871
 11
-5.4269337496
 21
2.5734680485
  0
LINE
  5
312
100
AcDbEntity
  8
RACCORDO
100
AcDbLine
 62
253
  6
CONTINUOUS
 10
-5.0945224355
 20
-2.8341995541
 11
-5.1029896993
 21
-2.7770495119
  0
LINE
  5
313
100
AcDbEntity
  8
RACCORDO
100
AcDbLine
 62
253
  6
CONTINUOUS
 10
-5.0945224355
 20
8.4241306951
 11
-5.1029896993
 21
8.4812807373
  0
LWPOLYLINE
  5
314
100
AcDbEntity
  8
RACCORDO
100
AcDbPolyline
 62
253
  6
CONTINUOUS
 90
18
 70
0
 10
-4.3309508602
 20
-2.5132925566
 10
-4.3218615174
 20
-2.5892471891
 10
-4.3186690533
 20
-2.6629335414
 10
-4.3213733545
 20
-2.733296173
 10
-4.3298282744
 20
-2.7995321854
 10
-4.3438575952
 20
-2.8611928699
 10
-4.3632855625
 20
-2.9178414156
 10
-4.3878649308
 20
-2.9689882051
 10
-4.4172998331
 20
-3.014162168
 10
-4.4512869746
 20
-3.0530142064
 10
-4.4894636775
 20
-3.0852159863
 10
-4.5314234651
 20
-3.1104972044
 10
-4.5767586265
 20
-3.1286748628
 10
-4.6249814888
 20
-3.1396031546
 10
-4.6756405292
 20
-3.1432374593
 10
-4.7283953496
 20
-3.139558799
 10
-4.7828003642
 20
-3.1285657518
 10
-4.8015780839
 20
-3.1231726185
  0
LWPOLYLINE
  5
315
100
AcDbEntity
  8
RACCORDO
100
AcDbPolyline
 62
253
  6
CONTINUOUS
 90
18
 70
0
 10
-4.3309508602
 20
8.7450376926
 10
-4.3218615174
 20
8.6690830601
 10
-4.3186690533
 20
8.5953967078
 10
-4.3213733545
 20
8.5250340762
 10
-4.3298282744
 20
8.4587980638
 10
-4.3438575952
 20
8.3971373793
 10
-4.3632855625
 20
8.3404888336
 10
-4.3878649308
 20
8.2893420441
 10
-4.4172998331
 20
8.2441680812
 10
-4.4512869746
 20
8.2053160428
 10
-4.4894636775
 20
8.1731142629
 10
-4.5314234651
 20
8.1478330448
 10
-4.5767586265
 20
8.1296553864
 10
-4.6249814888
 20
8.1187270946
 10
-4.6756405292
 20
8.1150927899
 10
-4.7283953496
 20
8.1187714502
 10
-4.7828003642
 20
8.1297644974
 10
-4.8015780839
 20
8.1351576307
  0
LWPOLYLINE
  5
316
100
AcDbEntity
  8
RACCORDO
100
AcDbPolyline
 62
7
  6
CONTINUOUS
 90
3
 70
0
 10
-2.3161854604
 20
-3.745079887
 10
-2.2995949519
 20
-3.9170395825
 10
-2.2525774812
 20
-4.0884990292
  0
LWPOLYLINE
  5
317
100
AcDbEntity
  8
RACCORDO
100
AcDbPolyline
 62
253
  6
CONTINUOUS
 90
6
 70
0
 10
-1.5738034939
 20
-4.9273153269
 10
-1.578104854
 20
-4.8652609624
 10
-1.590891169
 20
-4.8093141877
 10
-1.6118123888
 20
-4.7610065502
 10
-1.6402957688
 20
-4.7216604673
 10
-1.660585137
 20
-4.7047990959
  0
LWPOLYLINE
  5
318
100
AcDbEntity
  8
RACCORDO
100
AcDbPolyline
 62
253
  6
CONTINUOUS
 90
6
 70
0
 10
-1.5738034939
 20
6.3310149223
 10
-1.5781048792
 20
6.3930694605
 10
-1.5908912484
 20
6.449016307
 10
-1.6118125197
 20
6.4973239313
 10
-1.640295919
 20
6.5366699436
 10
-1.6605851361
 20
6.553531155
  0
LINE
  5
319
100
AcDbEntity
  8
RACCORDO
100
AcDbLine
 62
253
  6
CONTINUOUS
 10
-1.9202008415
 20
-4.368443925
 11
-1.922967274
 21
-4.3078239384
  0
LWPOLYLINE
  5
31A
100
AcDbEntity
  8
RACCORDO
100
AcDbPolyline
 62
253
  6
CONTINUOUS
 90
7
 70
0
 10
-1.922967274
 20
6.950506325
 10
-1.920202556
 20
6.889887062
 10
-1.9119417867
 20
6.8328401974
 10
-1.8982856026
 20
6.7800606929
 10
-1.8794003691
 20
6.7321915236
 10
-1.855516153
 20
6.6898158458
 10
-1.8269239203
 20
6.6534498925
  0
LWPOLYLINE
  5
31B
100
AcDbEntity
  8
CURVE
100
AcDbPolyline
 62
253
  6
CONTINUOUS
 90
87
 70
0
 10
-0.3056475867
 20
12.3173092148
 10
-0.3057752486
 20
12.3322249564
 10
-0.3061549753
 20
12.3466956799
 10
-0.3067818781
 20
12.3609480381
 10
-0.3076510687
 20
12.3752086834
 10
-0.3091786696
 20
12.3945104176
 10
-0.3111181517
 20
12.4140644974
 10
-0.3134593532
 20
12.4337055978
 10
-0.317703257
 20
12.463077338
 10
-0.3228005061
 20
12.4923663668
 10
-0.3287242279
 20
12.5216388609
 10
-0.3354506982
 20
12.5508518105
 10
-0.3429586902
 20
12.5799436579
 10
-0.3512338191
 20
12.6088878393
 10
-0.3602634108
 20
12.6376665396
 10
-0.3700347911
 20
12.6662619439
 10
-0.3805317469
 20
12.6946510089
 10
-0.3917239095
 20
12.7227897795
 10
-0.4035929381
 20
12.7506586278
 10
-0.4161827584
 20
12.7783561483
 10
-0.4295422338
 20
12.8059804315
 10
-0.4436777117
 20
12.8335093284
 10
-0.4585849103
 20
12.8608906303
 10
-0.4742595477
 20
12.8880721285
 10
-0.4906895449
 20
12.9149946008
 10
-0.5078316334
 20
12.9415707703
 10
-0.5256347475
 20
12.9677063466
 10
-0.5440478214
 20
12.9933070393
 10
-0.5630117299
 20
13.0182781035
 10
-0.5824351103
 20
13.0425229762
 10
-0.6022185404
 20
13.0659446402
 10
-0.622262598
 20
13.0884460779
 10
-0.642492062
 20
13.1099552418
 10
-0.6629285152
 20
13.1304999628
 10
-0.6836177416
 20
13.1501330416
 10
-0.704605525
 20
13.168907279
 10
-0.7259227625
 20
13.1868612197
 10
-0.7475408029
 20
13.2039763851
 10
-0.7694161083
 20
13.2202200408
 10
-0.7915051407
 20
13.2355594521
 10
-0.8137643621
 20
13.2499618845
 10
-0.8361502345
 20
13.2633946036
 10
-0.85861922
 20
13.2758248748
 10
-0.8811277805
 20
13.2872199636
 10
-0.9036324179
 20
13.2975510604
 10
-0.9260897934
 20
13.3068050551
 10
-0.9484566082
 20
13.3149727626
 10
-0.9706895632
 20
13.3220449978
 10
-0.9927453596
 20
13.3280125757
 10
-1.0145806985
 20
13.3328663109
 10
-1.0361522809
 20
13.3365970185
 10
-1.0574168079
 20
13.3391955133
 10
-1.07834585
 20
13.3406527271
 10
-1.0989704557
 20
13.3409600588
 10
-1.1193365428
 20
13.3401090246
 10
-1.1394900292
 20
13.3380911403
 10
-1.1594527348
 20
13.3348995666
 10
-1.1791500881
 20
13.3305340434
 10
-1.1984834195
 20
13.3249959555
 10
-1.2173540596
 20
13.3182866875
 10
-1.2356714159
 20
13.3104149578
 10
-1.2533772046
 20
13.3014188195
 10
-1.2704212188
 20
13.2913436592
 10
-1.2867532518
 20
13.2802348639
 10
-1.3023308365
 20
13.2681383064
 10
-1.3171424659
 20
13.2551018049
 10
-1.3311843728
 20
13.2411736638
 10
-1.3444527898
 20
13.2264021875
 10
-1.3569544792
 20
13.2108158456
 10
-1.3687383206
 20
13.1943637686
 10
-1.37984827
 20
13.1769898242
 10
-1.390266472
 20
13.1586961662
 10
-1.3999631215
 20
13.1394976939
 10
-1.4089224265
 20
13.1194020015
 10
-1.4171320986
 20
13.098414857
 10
-1.4245798492
 20
13.0765420283
 10
-1.4312516813
 20
13.0537963798
 10
-1.4371267636
 20
13.0302191622
 10
-1.4421817704
 20
13.0058306695
 10
-1.4463902309
 20
12.9805389836
 10
-1.4487117797
 20
12.9631486906
 10
-1.4506349272
 20
12.9454592103
 10
-1.4521496294
 20
12.9276260951
 10
-1.4530114706
 20
12.9142010815
 10
-1.453633068
 20
12.9005514475
 10
-1.4540095783
 20
12.8864458696
 10
-1.454136158
 20
12.8716530239
  0
LWPOLYLINE
  5
31C
100
AcDbEntity
  8
CURVE
100
AcDbPolyline
 62
253
  6
CONTINUOUS
 90
57
 70
0
 10
-0.8997102904
 20
9.9115172865
 10
-0.8996648366
 20
9.9051299145
 10
-0.8995294115
 20
9.898904977
 10
-0.8993054194
 20
9.892754991
 10
-0.8989942647
 20
9.8865924735
 10
-0.8984461277
 20
9.8782497256
 10
-0.8977482286
 20
9.8697896514
 10
-0.896903264
 20
9.8612727283
 10
-0.8953658176
 20
9.8484824972
 10
-0.8935117362
 20
9.8356612477
 10
-0.8913481934
 20
9.8227784745
 10
-0.8888782787
 20
9.8098383802
 10
-0.8861050616
 20
9.7968544981
 10
-0.8830356156
 20
9.7838429767
 10
-0.8796780153
 20
9.7708206182
 10
-0.8760403351
 20
9.7578042248
 10
-0.8721259542
 20
9.7448020696
 10
-0.8679194697
 20
9.7317883092
 10
-0.863400783
 20
9.7187285709
 10
-0.8585497958
 20
9.7055884821
 10
-0.8539458201
 20
9.6938219386
 10
-0.849068665
 20
9.6819932727
 10
-0.84392359
 20
9.6701310072
 10
-0.8385158542
 20
9.6582636653
 10
-0.8328507171
 20
9.6464197696
 10
-0.8269334381
 20
9.6346278433
 10
-0.8207692763
 20
9.6229164092
 10
-0.8143634913
 20
9.6113139903
 10
-0.8077213423
 20
9.5998491095
 10
-0.8008507953
 20
9.5885483308
 10
-0.7937706433
 20
9.577430382
 10
-0.7865023856
 20
9.5665120324
 10
-0.7790675219
 20
9.5558100507
 10
-0.7714875515
 20
9.5453412061
 10
-0.7637839741
 20
9.5351222676
 10
-0.755978289
 20
9.5251700042
 10
-0.7480919959
 20
9.5155011848
 10
-0.7401465942
 20
9.5061325785
 10
-0.7311556063
 20
9.4959629819
 10
-0.7220964679
 20
9.4861605882
 10
-0.7129486276
 20
9.47669142
 10
-0.7036915339
 20
9.4675214996
 10
-0.6943098438
 20
9.4586250078
 10
-0.6848090479
 20
9.450008758
 10
-0.6751998452
 20
9.4416877218
 10
-0.665492935
 20
9.433676871
 10
-0.6556988823
 20
9.4259899047
 10
-0.6458277171
 20
9.4186354327
 10
-0.6358817048
 20
9.4116183551
 10
-0.62583259
 20
9.4049338247
 10
-0.6190681603
 20
9.4006634714
 10
-0.6122912095
 20
9.3965646164
 10
-0.6055509892
 20
9.3926641968
 10
-0.6005338674
 20
9.3898778247
 10
-0.595491755
 20
9.3871846792
 10
-0.5903512968
 20
9.3845512145
 10
-0.5850391373
 20
9.3819438854
  0
LINE
  5
31D
100
AcDbEntity
  8
CURVE
100
AcDbLine
 62
253
  6
CONTINUOUS
 10
-1.4567325349
 20
12.8729172818
 11
-1.4567325349
 21
12.58990987
  0
LINE
  5
31E
100
AcDbEntity
  8
CURVE
100
AcDbLine
 62
253
  6
CONTINUOUS
 10
-1.205713749
 20
12.4679134262
 11
-1.205713749
 21
12.7246678266
  0
LINE
  5
31F
100
AcDbEntity
  8
CURVE
100
AcDbLine
 62
253
  6
CONTINUOUS
 10
-0.8999641061
 20
9.0488057302
 11
-0.8999641061
 21
9.19737744
  0
LINE
  5
320
100
AcDbEntity
  8
CURVE
100
AcDbLine
 62
253
  6
CONTINUOUS
 10
-0.8997102904
 20
11.3776509039
 11
-0.8997102904
 21
9.9115172865
  0
LINE
  5
321
100
AcDbEntity
  8
CURVE
100
AcDbLine
 62
253
  6
CONTINUOUS
 10
-0.8994564743
 20
-2.2096798735
 11
-0.8994564743
 21
0.2304034738
  0
LINE
  5
322
100
AcDbEntity
  8
CURVE
100
AcDbLine
 62
253
  6
CONTINUOUS
 10
-0.6481446037
 20
0.0391863453
 11
-0.6481446037
 21
-2.1797961458
  0
LINE
  5
323
100
AcDbEntity
  8
CURVE
100
AcDbLine
 62
253
  6
CONTINUOUS
 10
-0.5571982741
 20
25.9358802914
 11
-0.5571982741
 21
28.5032934681
  0
LINE
  5
324
100
AcDbEntity
  8
CURVE
100
AcDbLine
 62
253
  6
CONTINUOUS
 10
-0.5532334851
 20
12.3493118453
 11
-0.5532334851
 21
11.8931481194
  0
LINE
  5
325
100
AcDbEntity
  8
CURVE
100
AcDbLine
 62
253
  6
CONTINUOUS
 10
-0.3595140178
 20
-0.2555055604
 11
-0.3595140178
 21
-1.972833214
  0
LINE
  5
326
100
AcDbEntity
  8
CURVE
100
AcDbLine
 62
253
  6
CONTINUOUS
 10
-0.3005047791
 20
11.7720066357
 11
-0.3005047791
 21
12.3148487373
  0
LINE
  5
327
100
AcDbEntity
  8
CURVE
100
AcDbLine
 62
253
  6
CONTINUOUS
 10
-0.1216322224
 20
27.8825851061
 11
-0.1216322224
 21
27.1694483287
  0
LINE
  5
328
100
AcDbEntity
  8
CURVE
100
AcDbLine
 62
253
  6
CONTINUOUS
 10
-0.1066065864
 20
26.7368293209
 11
-0.1066065864
 21
25.7202081179
  0
LINE
  5
329
100
AcDbEntity
  8
CURVE
100
AcDbLine
 62
253
  6
CONTINUOUS
 10
0.1736285002
 20
11.7791295297
 11
0.1736285002
 21
12.1826531043
  0
LWPOLYLINE
  5
32A
100
AcDbEntity
  8
CURVE
100
AcDbPolyline
 62
253
  6
CONTINUOUS
 90
92
 70
0
 10
-2.4616066279
 20
10.4909820034
 10
-2.4617937908
 20
10.4708009912
 10
-2.4623517556
 20
10.4514389571
 10
-2.4632752359
 20
10.4325096353
 10
-2.4653343288
 20
10.4043607957
 10
-2.4681866641
 20
10.3766853954
 10
-2.4718148029
 20
10.3497771457
 10
-2.4762006459
 20
10.3236288655
 10
-2.4813273489
 20
10.298176102
 10
-2.4871837504
 20
10.2734262086
 10
-2.4937581534
 20
10.2494022159
 10
-2.5010310376
 20
10.2261180575
 10
-2.5089809267
 20
10.2035853925
 10
-2.5175863446
 20
10.1818158801
 10
-2.5268333326
 20
10.1608152889
 10
-2.5367380018
 20
10.1405658239
 10
-2.5473239809
 20
10.1210437995
 10
-2.5586148986
 20
10.1022255299
 10
-2.5723999138
 20
10.0815654501
 10
-2.5870974475
 20
10.061849211
 10
-2.6026684201
 20
10.0431324001
 10
-2.6190737524
 20
10.0254706044
 10
-2.6362743646
 20
10.0089194111
 10
-2.6542311773
 20
9.9935344076
 10
-2.672905111
 20
9.9793711809
 10
-2.6922590695
 20
9.9664766218
 10
-2.71226389
 20
9.9548628353
 10
-2.7328923932
 20
9.9445332298
 10
-2.7541173995
 20
9.9354912138
 10
-2.7759117296
 20
9.9277401959
 10
-2.7982482039
 20
9.9212835844
 10
-2.8210996431
 20
9.9161247879
 10
-2.8444375225
 20
9.9122668838
 10
-2.8682279369
 20
9.9097116254
 10
-2.8924356359
 20
9.9084604349
 10
-2.9170253691
 20
9.9085147344
 10
-2.941961886
 20
9.9098759462
 10
-2.9672099362
 20
9.9125454925
 10
-2.9927342694
 20
9.9165247955
 10
-3.0184993353
 20
9.9218126593
 10
-3.0444683848
 20
9.9283974158
 10
-3.0706043691
 20
9.9362647787
 10
-3.0968702392
 20
9.9454004619
 10
-3.1232289464
 20
9.9557901791
 10
-3.1496434416
 20
9.967419644
 10
-3.1760766761
 20
9.9802745705
 10
-3.2024918523
 20
9.9943391568
 10
-3.2288531779
 20
10.00959154
 10
-3.255125112
 20
10.0260083413
 10
-3.2812721137
 20
10.0435661822
 10
-3.3072586419
 20
10.0622416841
 10
-3.3330491558
 20
10.0820114685
 10
-3.3586081145
 20
10.1028521569
 10
-3.3839000157
 20
10.1247377804
 10
-3.4088895128
 20
10.1476320095
 10
-3.4335412979
 20
10.1714959247
 10
-3.457820063
 20
10.1962906062
 10
-3.4816905003
 20
10.2219771343
 10
-3.5051173018
 20
10.2485165895
 10
-3.5280651595
 20
10.2758700519
 10
-3.5505015119
 20
10.3040016621
 10
-3.5724047818
 20
10.3328878008
 10
-3.5937561386
 20
10.3625079092
 10
-3.6145367514
 20
10.3928414281
 10
-3.6347277894
 20
10.4238677986
 10
-3.6543104219
 20
10.4555664616
 10
-3.673265818
 20
10.4879168581
 10
-3.6893155448
 20
10.5167261387
 10
-3.7048165421
 20
10.5459102132
 10
-3.7197147255
 20
10.5753606327
 10
-3.7339560107
 20
10.6049689482
 10
-3.7474961434
 20
10.6346396758
 10
-3.7603301895
 20
10.6643291916
 10
-3.7724630451
 20
10.6940068371
 10
-3.7838996062
 20
10.7236419535
 10
-3.7946500086
 20
10.7532247715
 10
-3.8047453481
 20
10.7828290787
 10
-3.8142133762
 20
10.812526988
 10
-3.8230475073
 20
10.8423003561
 10
-3.8312338348
 20
10.8721135782
 10
-3.8387635049
 20
10.9019514577
 10
-3.8456289267
 20
10.9318039004
 10
-3.8518225094
 20
10.961660812
 10
-3.8573358101
 20
10.99150633
 10
-3.8621569782
 20
11.0213015184
 10
-3.8662733048
 20
11.0510208506
 10
-3.8696720556
 20
11.0807155111
 10
-3.8723402419
 20
11.1103815183
 10
-3.8742638808
 20
11.1397175175
 10
-3.8751256267
 20
11.1589871709
 10
-3.8756458317
 20
11.1783189892
 10
-3.8758201902
 20
11.1980887846
  0
LWPOLYLINE
  5
32B
100
AcDbEntity
  8
CURVE
100
AcDbPolyline
 62
253
  6
CONTINUOUS
 90
19
 70
0
 10
-0.8994564743
 20
0.2304034738
 10
-0.8994280002
 20
0.2323777428
 10
-0.8993435971
 20
0.2343320517
 10
-0.8992047931
 20
0.2362635954
 10
-0.8990131165
 20
0.238169569
 10
-0.8987700957
 20
0.2400471675
 10
-0.898396789
 20
0.2423511776
 10
-0.8979506942
 20
0.2446081166
 10
-0.8974368605
 20
0.2468196321
 10
-0.8968603371
 20
0.2489873716
 10
-0.8962261412
 20
0.2511132439
 10
-0.895539161
 20
0.2532002016
 10
-0.8948042528
 20
0.2552514583
 10
-0.8940262729
 20
0.2572702276
 10
-0.8929300099
 20
0.2599175505
 10
-0.8917752225
 20
0.2625241202
 10
-0.8905713255
 20
0.2651012255
 10
-0.8893276606
 20
0.267659896
 10
-0.8880532795
 20
0.2702101242
  0
LWPOLYLINE
  5
32C
100
AcDbEntity
  8
CURVE
100
AcDbPolyline
 62
253
  6
CONTINUOUS
 90
57
 70
0
 10
-0.2964443726
 20
10.6054266968
 10
-0.2960355337
 20
10.6178227429
 10
-0.2952819338
 20
10.6299865362
 10
-0.2941920737
 20
10.6419082323
 10
-0.2927744544
 20
10.653577987
 10
-0.2910375766
 20
10.6649859558
 10
-0.2889899412
 20
10.6761222944
 10
-0.2866400489
 20
10.6869771584
 10
-0.2839964007
 20
10.6975407034
 10
-0.2810674973
 20
10.7078030851
 10
-0.2778618396
 20
10.717754459
 10
-0.2743848757
 20
10.7273889219
 10
-0.2706298427
 20
10.7367163343
 10
-0.266586925
 20
10.7457504982
 10
-0.2622463069
 20
10.7545052151
 10
-0.257598173
 20
10.7629942867
 10
-0.2526358517
 20
10.7712244536
 10
-0.2473652483
 20
10.7791742108
 10
-0.2417954124
 20
10.7868149921
 10
-0.2359353934
 20
10.7941182315
 10
-0.2297942407
 20
10.8010553628
 10
-0.2233827075
 20
10.8076013385
 10
-0.2167183617
 20
10.813745186
 10
-0.2098204747
 20
10.8194794513
 10
-0.202708318
 20
10.8247966805
 10
-0.195401163
 20
10.8296894197
 10
-0.1879175772
 20
10.8341535684
 10
-0.1802733116
 20
10.83819844
 10
-0.1724834133
 20
10.8418367012
 10
-0.1645629291
 20
10.845081019
 10
-0.1565269062
 20
10.84794406
 10
-0.1483867391
 20
10.8504374159
 10
-0.1401392127
 20
10.8525683774
 10
-0.1317774593
 20
10.8543431599
 10
-0.1232946115
 20
10.8557679788
 10
-0.1146838017
 20
10.8568490495
 10
-0.1074071357
 20
10.857490798
 10
-0.1000431371
 20
10.8578954906
 10
-0.0925981046
 20
10.8580604692
 10
-0.0850773955
 20
10.8579832355
 10
-0.0774825986
 20
10.8576619308
 10
-0.0698143611
 20
10.8570948563
 10
-0.0620737226
 20
10.8562800441
 10
-0.0542632938
 20
10.8552144497
 10
-0.0463860779
 20
10.8538947596
 10
-0.0384447052
 20
10.8523172823
 10
-0.0304403142
 20
10.8504768145
 10
-0.0223736707
 20
10.8483677752
 10
-0.0162849687
 20
10.8466070867
 10
-0.0101720435
 20
10.8446940238
 10
-0.004037929
 20
10.8426269031
 10
0.0021436581
 20
10.8403899631
 10
0.0083781271
 20
10.8379772985
 10
0.0145580758
 20
10.8354365091
 10
0.0186119187
 20
10.8336867514
 10
0.022727873
 20
10.8318362405
 10
0.0270525505
 20
10.8298140672
  0
LWPOLYLINE
  5
32D
100
AcDbEntity
  8
RACCORDO
100
AcDbPolyline
 62
253
  6
CONTINUOUS
 90
10
 70
0
 10
-1.9229644391
 20
7.4320939547
 10
-1.9202027037
 20
7.4955481458
 10
-1.9119444075
 20
7.5610630456
 10
-1.8982901569
 20
7.6278405679
 10
-1.8794062861
 20
7.6950672691
 10
-1.8555228284
 20
7.7619241549
 10
-1.8269307357
 20
7.8275966605
 10
-1.7939783275
 20
7.8912847146
 10
-1.7570670255
 20
7.9522124825
 10
-1.7166464759
 20
8.0096377171
  0
LWPOLYLINE
  5
32E
100
AcDbEntity
  8
CURVE
100
AcDbPolyline
 62
253
  6
CONTINUOUS
 90
89
 70
0
 10
-1.2024976627
 20
12.7726317383
 10
-1.2021999257
 20
12.7776795659
 10
-1.2018548307
 20
12.782467036
 10
-1.2014549287
 20
12.7871530675
 10
-1.2007419979
 20
12.7942259511
 10
-1.1998997287
 20
12.801282908
 10
-1.1989372124
 20
12.8082091511
 10
-1.1978569548
 20
12.8150117767
 10
-1.1953497013
 20
12.8283331407
 10
-1.1923989335
 20
12.8412448991
 10
-1.1890240684
 20
12.8537371549
 10
-1.1852423044
 20
12.8658131786
 10
-1.1810665615
 20
12.8774734045
 10
-1.1765088208
 20
12.8887163864
 10
-1.171581585
 20
12.8995359938
 10
-1.1662974875
 20
12.909924925
 10
-1.1606691614
 20
12.9198758781
 10
-1.1547050247
 20
12.9293837926
 10
-1.1483966339
 20
12.9384525727
 10
-1.1417313304
 20
12.9470883639
 10
-1.1346964553
 20
12.9552973117
 10
-1.1272804813
 20
12.9630791483
 10
-1.1194764065
 20
12.9704079537
 10
-1.1112783603
 20
12.9772513947
 10
-1.1026804724
 20
12.9835771381
 10
-1.0936825653
 20
12.9893543856
 10
-1.0843072347
 20
12.9945584791
 10
-1.0745827694
 20
12.9991662951
 10
-1.0645374581
 20
13.0031547104
 10
-1.0542035037
 20
13.0065057662
 10
-1.0436287647
 20
13.0092221622
 10
-1.0328650138
 20
13.0113117623
 10
-1.0219640236
 20
13.0127824309
 10
-1.0109645597
 20
13.0136419249
 10
-0.9998533589
 20
13.0138975722
 10
-0.988604151
 20
13.0135565937
 10
-0.9771906659
 20
13.0126262102
 10
-0.9655949595
 20
13.0111122061
 10
-0.9538323926
 20
13.0090146206
 10
-0.9419266519
 20
13.0063320563
 10
-0.9299014245
 20
13.0030631159
 10
-0.9177803972
 20
12.9992064022
 10
-0.9055872569
 20
12.9947605179
 10
-0.8933456906
 20
12.9897240656
 10
-0.8810793851
 20
12.9840956482
 10
-0.8688120492
 20
12.9778781664
 10
-0.856567479
 20
12.9710917141
 10
-0.8443694926
 20
12.9637606833
 10
-0.8322419078
 20
12.9559094657
 10
-0.8202085428
 20
12.9475624535
 10
-0.8082932154
 20
12.9387440385
 10
-0.7965197437
 20
12.9294786127
 10
-0.7849119457
 20
12.919790568
 10
-0.7734852889
 20
12.9096948153
 10
-0.7622218393
 20
12.8991683411
 10
-0.7510953126
 20
12.8881786508
 10
-0.7400794244
 20
12.8766932498
 10
-0.7291609
 20
12.86469207
 10
-0.7183785041
 20
12.8522047482
 10
-0.7077840115
 20
12.839273348
 10
-0.6974291964
 20
12.8259399328
 10
-0.6873619402
 20
12.8122479397
 10
-0.6776145498
 20
12.798246301
 10
-0.6682154388
 20
12.783985323
 10
-0.6591930209
 20
12.7695153116
 10
-0.6505700239
 20
12.7548826287
 10
-0.6423464324
 20
12.7401178581
 10
-0.6345165452
 20
12.7252476396
 10
-0.6270746612
 20
12.7102986127
 10
-0.6200139428
 20
12.6952899413
 10
-0.6133230065
 20
12.6802108864
 10
-0.6069893321
 20
12.6650432331
 10
-0.6010003998
 20
12.6497687666
 10
-0.5953479029
 20
12.6343755618
 10
-0.5900403889
 20
12.6188768521
 10
-0.5850906187
 20
12.6032921608
 10
-0.5805113533
 20
12.5876410111
 10
-0.5763152259
 20
12.5719416398
 10
-0.5725143599
 20
12.5562071386
 10
-0.5691218201
 20
12.5404496337
 10
-0.5661549482
 20
12.524682535
 10
-0.5636333108
 20
12.508934547
 10
-0.5625465578
 20
12.5010861984
 10
-0.5615780229
 20
12.4932280889
 10
-0.5607302277
 20
12.4853555588
 10
-0.56001233
 20
12.4775920625
 10
-0.5596094527
 20
12.4725184192
 10
-0.5592616044
 20
12.4673963966
 10
-0.5589612741
 20
12.4620600528
  0
LWPOLYLINE
  5
32F
100
AcDbEntity
  8
RACCORDO
100
AcDbPolyline
 62
253
  6
CONTINUOUS
 90
7
 70
0
 10
-1.5738034939
 20
8.4094758914
 10
-1.578104914
 20
8.3430122696
 10
-1.5908913633
 20
8.2739595277
 10
-1.6118127233
 20
8.2042080437
 10
-1.6402961853
 20
8.1356672927
 10
-1.6755619366
 20
8.0702135748
 10
-1.7166445125
 20
8.0096386515
  0
LWPOLYLINE
  5
330
100
AcDbEntity
  8
RACCORDO
100
AcDbPolyline
 62
253
  6
CONTINUOUS
 90
7
 70
0
 10
-1.5738034939
 20
-2.8488543578
 10
-1.5781049882
 20
-2.9153185684
 10
-1.5908915976
 20
-2.9843716864
 10
-1.6118131096
 20
-3.0541232871
 10
-1.6402966284
 20
-3.122663888
 10
-1.6755622683
 20
-3.188117222
 10
-1.7166445125
 20
-3.2486915977
  0
LINE
  5
331
100
AcDbEntity
  8
CURVE
100
AcDbLine
 62
253
  6
CONTINUOUS
 10
-1.205713749
 20
12.7246678266
 11
-1.2024976627
 21
12.7726317383
  0
LINE
  5
332
100
AcDbEntity
  8
RACCORDO
100
AcDbLine
 62
7
  6
CONTINUOUS
 10
-2.3005628903
 20
-3.5693347645
 11
-2.3161854604
 21
-3.745079887
  0
LINE
  5
333
100
AcDbEntity
  8
RACCORDO
100
AcDbLine
 62
7
  6
CONTINUOUS
 10
-2.2697488852
 20
-3.4523148976
 11
-2.3005628903
 21
-3.5693347645
  0
LWPOLYLINE
  5
334
100
AcDbEntity
  8
CURVE
100
AcDbPolyline
 62
253
  6
CONTINUOUS
 90
38
 70
0
 10
0.3378170554
 20
10.1862002837
 10
0.3360952813
 20
10.1802548036
 10
0.334133561
 20
10.173975055
 10
0.3320569941
 20
10.16781217
 10
0.3298627615
 20
10.1617589092
 10
0.3275480442
 20
10.1558080329
 10
0.3251104518
 20
10.1499541504
 10
0.3225493097
 20
10.1441992654
 10
0.3198643719
 20
10.1385472307
 10
0.3170553926
 20
10.1330018988
 10
0.3141222377
 20
10.1275667375
 10
0.311065222
 20
10.1222436751
 10
0.3078847719
 20
10.1170342552
 10
0.304581314
 20
10.1119400214
 10
0.301155275
 20
10.1069625173
 10
0.2976070812
 20
10.1021032863
 10
0.2939371595
 20
10.097363872
 10
0.2901459362
 20
10.092745818
 10
0.2862338719
 20
10.0882508916
 10
0.2822015621
 20
10.0838817557
 10
0.2780496362
 20
10.0796412968
 10
0.2737787236
 20
10.0755324016
 10
0.2693892977
 20
10.0715579933
 10
0.2648812068
 20
10.0677211413
 10
0.2602541433
 20
10.0640249519
 10
0.2555077994
 20
10.0604725312
 10
0.2506431246
 20
10.0570675816
 10
0.2456660966
 20
10.0538161908
 10
0.2405782807
 20
10.0507229451
 10
0.2353585641
 20
10.0477840416
 10
0.2317986953
 20
10.0459100511
 10
0.2281990428
 20
10.0441149659
 10
0.2245903486
 20
10.0424117169
 10
0.2224283889
 20
10.0414372761
 10
0.2202497302
 20
10.0404916315
 10
0.2180298613
 20
10.0395658633
 10
0.2157442711
 20
10.0386510515
 10
0.2133684484
 20
10.0377382763
  0
LINE
  5
335
100
AcDbEntity
  8
RACCORDO
100
AcDbLine
 62
253
  6
CONTINUOUS
 10
-2.2690626303
 20
-3.4503033782
 11
-2.2579802621
 21
-3.4209436813
  0
LINE
  5
336
100
AcDbEntity
  8
RACCORDO
100
AcDbLine
 62
253
  6
CONTINUOUS
 10
-2.2579802621
 20
-3.4209436813
 11
-2.2330426815
 21
-3.3696350816
  0
LWPOLYLINE
  5
337
100
AcDbEntity
  8
CURVE
100
AcDbPolyline
 62
253
  6
CONTINUOUS
 90
24
 70
0
 10
-0.8880532795
 20
0.2702101242
 10
-0.8847941255
 20
0.2766124718
 10
-0.8828462353
 20
0.2805199878
 10
-0.8809469129
 20
0.2845045006
 10
-0.8790878633
 20
0.2885400222
 10
-0.8772474198
 20
0.2925892809
 10
-0.875392145
 20
0.2966161666
 10
-0.8741289845
 20
0.2992707411
 10
-0.8728316514
 20
0.3018894531
 10
-0.8714887335
 20
0.3044623032
 10
-0.8704447664
 20
0.3063554375
 10
-0.8693639324
 20
0.3082105833
 10
-0.8682414253
 20
0.310021174
 10
-0.8670724389
 20
0.3117806428
 10
-0.8661006171
 20
0.3131468374
 10
-0.8650938856
 20
0.3144717901
 10
-0.8640501572
 20
0.3157511794
 10
-0.862967345
 20
0.3169806842
 10
-0.8618433619
 20
0.3181559829
 10
-0.8606765765
 20
0.3192727397
 10
-0.8594671793
 20
0.3203265596
 10
-0.8582158163
 20
0.321313033
 10
-0.8569231337
 20
0.3222277504
 10
-0.8555897774
 20
0.3230663021
  0
LWPOLYLINE
  5
338
100
AcDbEntity
  8
RACCORDO
100
AcDbPolyline
 62
253
  6
CONTINUOUS
 90
9
 70
0
 10
-4.935794188
 20
-2.6771732521
 10
-4.9457900537
 20
-2.6925291535
 10
-4.9571753783
 20
-2.7056350685
 10
-4.9699799756
 20
-2.7164244154
 10
-4.9841732173
 20
-2.7249633779
 10
-4.9993302474
 20
-2.7310786028
 10
-5.0154508204
 20
-2.734716709
 10
-5.0325344545
 20
-2.7359307228
 10
-5.0501562239
 20
-2.7347070411
  0
LWPOLYLINE
  5
339
100
AcDbEntity
  8
RACCORDO
100
AcDbPolyline
 62
253
  6
CONTINUOUS
 90
12
 70
0
 10
-2.2330426815
 20
-3.3696350816
 10
-2.2031645284
 20
-3.3242540727
 10
-2.1686495675
 20
-3.2851564157
 10
-2.1298562968
 20
-3.2526621942
 10
-2.0871853767
 20
-3.2270406442
 10
-2.0410422739
 20
-3.2084720576
 10
-1.9919174859
 20
-3.1971010703
 10
-1.9402556118
 20
-3.1929739451
 10
-1.8864022215
 20
-3.1961038749
 10
-1.8308083189
 20
-3.2064985413
 10
-1.7740427877
 20
-3.2240746942
 10
-1.7166449859
 20
-3.2486937767
  0
LWPOLYLINE
  5
33A
100
AcDbEntity
  8
RACCORDO
100
AcDbPolyline
 62
253
  6
CONTINUOUS
 90
10
 70
0
 10
-4.8943412807
 20
-1.6598429184
 10
-4.9357708263
 20
-1.7167638505
 10
-4.9736036333
 20
-1.7772310719
 10
-5.0073788266
 20
-1.8405079391
 10
-5.036684811
 20
-1.9058236573
 10
-5.0611647271
 20
-1.9723824596
 10
-5.0805207969
 20
-2.0393733007
 10
-5.0945173662
 20
-2.1059800165
 10
-5.10298378
 20
-2.171391265
 10
-5.1058169004
 20
-2.2348102001
  0
LWPOLYLINE
  5
33B
100
AcDbEntity
  8
RACCORDO
100
AcDbPolyline
 62
253
  6
CONTINUOUS
 90
12
 70
0
 10
2.9803015212
 20
4.7453425938
 10
2.990520085
 20
4.7591267386
 10
2.9995327686
 20
4.7748500794
 10
3.0069074594
 20
4.7921262723
 10
3.012550288
 20
4.8110479442
 10
3.0165546872
 20
4.8315222271
 10
3.0187694892
 20
4.8528845306
 10
3.0191133467
 20
4.8751274016
 10
3.0176675137
 20
4.8982582416
 10
3.0145248058
 20
4.9216347869
 10
3.0096461998
 20
4.9452334933
 10
3.0030709944
 20
4.9690780572
  0
LWPOLYLINE
  5
33C
100
AcDbEntity
  8
CURVE
100
AcDbPolyline
 62
253
  6
CONTINUOUS
 90
55
 70
0
 10
0.7010981638
 20
1.2322260261
 10
0.7025136668
 20
1.2330290509
 10
0.7039213038
 20
1.2337642866
 10
0.7053354914
 20
1.2344415271
 10
0.7067706463
 20
1.235070566
 10
0.7087340144
 20
1.2358466817
 10
0.7107482285
 20
1.2365504307
 10
0.7128012301
 20
1.2371777269
 10
0.7148831014
 20
1.2377257136
 10
0.7169924882
 20
1.2381964521
 10
0.7191301776
 20
1.2385932329
 10
0.7223900768
 20
1.2390557154
 10
0.7257095425
 20
1.2393630039
 10
0.7290828666
 20
1.2395190829
 10
0.7325050468
 20
1.239528648
 10
0.7359712576
 20
1.239396573
 10
0.7394766733
 20
1.2391277313
 10
0.7430178934
 20
1.2387262754
 10
0.7465972183
 20
1.238193473
 10
0.7502183737
 20
1.2375298705
 10
0.753885085
 20
1.2367360144
 10
0.758133771
 20
1.2356702748
 10
0.7624379666
 20
1.2344378437
 10
0.7667888135
 20
1.233041443
 10
0.7711774536
 20
1.2314837944
 10
0.7755950284
 20
1.2297676199
 10
0.7800326799
 20
1.2278956413
 10
0.7844815498
 20
1.2258705805
 10
0.7889327807
 20
1.2236956164
 10
0.7933775189
 20
1.2213757564
 10
0.7978069115
 20
1.2189164648
 10
0.8022121058
 20
1.2163232063
 10
0.8065842488
 20
1.2136014452
 10
0.8109144877
 20
1.210756646
 10
0.8151939697
 20
1.2077942731
 10
0.8188915029
 20
1.2051087415
 10
0.8225469618
 20
1.2023332129
 10
0.8261639109
 20
1.1994635241
 10
0.8297459144
 20
1.1964955117
 10
0.8332951035
 20
1.1934256341
 10
0.8368078753
 20
1.190252837
 10
0.8402791936
 20
1.1869766877
 10
0.843704022
 20
1.1835967534
 10
0.8470771061
 20
1.1801129756
 10
0.850392318
 20
1.1765267907
 10
0.852567617
 20
1.1740792096
 10
0.8547151511
 20
1.1715826994
 10
0.8568356969
 20
1.1690330405
 10
0.8589277852
 20
1.1664294058
 10
0.8609809642
 20
1.1637845374
 10
0.8629825365
 20
1.1611145698
 10
0.8644456098
 20
1.1591001282
 10
0.8658875521
 20
1.1570562477
 10
0.8673234034
 20
1.1549585321
 10
0.8687682039
 20
1.1527825852
  0
LWPOLYLINE
  5
33D
100
AcDbEntity
  8
RACCORDO
100
AcDbPolyline
 62
253
  6
CONTINUOUS
 90
8
 70
0
 10
3.354891473
 20
4.3265930227
 10
3.3964997511
 20
4.3438776645
 10
3.4361961898
 20
4.3669599154
 10
3.4734356395
 20
4.3960090791
 10
3.5075441849
 20
4.4308907596
 10
3.5380819303
 20
4.4715950997
 10
3.5645582393
 20
4.5179719892
 10
3.5864099491
 20
4.5693674806
  0
LINE
  5
33E
100
AcDbEntity
  8
CURVE
100
AcDbLine
 62
253
  6
CONTINUOUS
 10
1.7482246529
 20
-3.3116270975
 11
2.2323965915
 21
-3.5353786155
  0
LWPOLYLINE
  5
33F
100
AcDbEntity
  8
CURVE
100
AcDbPolyline
 62
253
  6
CONTINUOUS
 90
3
 70
0
 10
-0.3595140178
 20
-1.972833214
 10
0.1000797231
 20
-2.1921384123
 10
0.6572095841
 20
-2.4559415841
  0
LWPOLYLINE
  5
340
100
AcDbEntity
  8
CURVE
100
AcDbPolyline
 62
253
  6
CONTINUOUS
 90
6
 70
0
 10
-0.6481446037
 20
-2.1797961458
 10
-0.1895161048
 20
-2.3996059423
 10
0.2706441588
 20
-2.6186139436
 10
0.7323305801
 20
-2.8368174811
 10
1.1955375336
 20
-3.0542138961
 10
1.7482246923
 20
-3.3116271157
  0
LWPOLYLINE
  5
341
100
AcDbEntity
  8
CURVE
100
AcDbPolyline
 62
253
  6
CONTINUOUS
 90
57
 70
0
 10
-6.729902238
 20
2.2700155881
 10
-6.7269485605
 20
2.2684854803
 10
-6.7240904362
 20
2.2670692614
 10
-6.7212869435
 20
2.2657442955
 10
-6.7184971604
 20
2.2644879468
 10
-6.7147487925
 20
2.2628914752
 10
-6.7109795217
 20
2.2613893688
 10
-6.7072168221
 20
2.2599942485
 10
-6.7016264025
 20
2.2581199448
 10
-6.6960925671
 20
2.2564983723
 10
-6.6905995586
 20
2.2551161142
 10
-6.6851486606
 20
2.253971624
 10
-6.679745487
 20
2.2530656635
 10
-6.6743959329
 20
2.2523963578
 10
-6.6691059632
 20
2.2519611728
 10
-6.6638815432
 20
2.2517575747
 10
-6.6587257503
 20
2.2517847838
 10
-6.6536301115
 20
2.2520490392
 10
-6.6485832661
 20
2.2525583341
 10
-6.6435738532
 20
2.2533206621
 10
-6.6391466121
 20
2.2542166787
 10
-6.6347519694
 20
2.2553215946
 10
-6.6304019234
 20
2.2566380662
 10
-6.6261084727
 20
2.2581687497
 10
-6.6218836155
 20
2.2599163013
 10
-6.6177393504
 20
2.2618833774
 10
-6.6136876756
 20
2.2640726343
 10
-6.6097405895
 20
2.2664867281
 10
-6.6059100906
 20
2.2691283153
 10
-6.6022066673
 20
2.2719973552
 10
-6.5986347679
 20
2.27508302
 10
-6.5951973309
 20
2.278371785
 10
-6.5918972947
 20
2.2818501256
 10
-6.5887375977
 20
2.2855045171
 10
-6.5857211784
 20
2.2893214348
 10
-6.5828509752
 20
2.2932873542
 10
-6.5801299264
 20
2.2973887504
 10
-6.5775609706
 20
2.3016120989
 10
-6.5748538022
 20
2.3064969095
 10
-6.5723317274
 20
2.3115273658
 10
-6.5699836281
 20
2.3167118847
 10
-6.5677983866
 20
2.3220588834
 10
-6.5657674905
 20
2.3275745209
 10
-6.5638928506
 20
2.3332559251
 10
-6.5621789835
 20
2.339097966
 10
-6.5606304055
 20
2.3450955136
 10
-6.5592510798
 20
2.3512432308
 10
-6.5580427553
 20
2.3575349511
 10
-6.5570071945
 20
2.3639699689
 10
-6.5561484281
 20
2.3705702498
 10
-6.555676432
 20
2.3750688949
 10
-6.5552865688
 20
2.3796194518
 10
-6.5549803523
 20
2.3841881007
 10
-6.5548065188
 20
2.3876171551
 10
-6.5546813762
 20
2.391089334
 10
-6.5546057128
 20
2.3946566089
 10
-6.5545803165
 20
2.3983709514
  0
LWPOLYLINE
  5
342
100
AcDbEntity
  8
CURVE
100
AcDbPolyline
 62
253
  6
CONTINUOUS
 90
3
 70
0
 10
-5.6449529752
 20
0.3180027052
 10
-6.0845715231
 20
0.5473174556
 10
-6.5557022478
 20
0.7948586778
  0
LWPOLYLINE
  5
343
100
AcDbEntity
  8
CURVE
100
AcDbPolyline
 62
253
  6
CONTINUOUS
 90
57
 70
0
 10
-7.2902182525
 20
3.6614596955
 10
-7.2930959762
 20
3.6629641412
 10
-7.2958804524
 20
3.6643569529
 10
-7.2986115509
 20
3.6656603808
 10
-7.3013291412
 20
3.6668966751
 10
-7.3049802808
 20
3.6684682352
 10
-7.3086515186
 20
3.6699475886
 10
-7.3123160877
 20
3.6713223213
 10
-7.3177601935
 20
3.6731707644
 10
-7.3231485833
 20
3.6747719634
 10
-7.3284966182
 20
3.6761390895
 10
-7.3338030494
 20
3.6772736619
 10
-7.3390624124
 20
3.6781749288
 10
-7.3442689901
 20
3.6788447052
 10
-7.3494170025
 20
3.679285448
 10
-7.3545006696
 20
3.6794996141
 10
-7.3595170139
 20
3.6794879572
 10
-7.3644742682
 20
3.6792444199
 10
-7.3693834681
 20
3.6787612416
 10
-7.3742556489
 20
3.678030662
 10
-7.3785610886
 20
3.6771677553
 10
-7.3828343616
 20
3.676100586
 10
-7.3870638311
 20
3.6748265005
 10
-7.3912378607
 20
3.6733428455
 10
-7.3953448136
 20
3.6716469677
 10
-7.3993730534
 20
3.6697362137
 10
-7.4033109434
 20
3.6676079301
 10
-7.407146847
 20
3.6652594636
 10
-7.4108691277
 20
3.6626881608
 10
-7.4144676177
 20
3.6598940103
 10
-7.417938025
 20
3.6568875692
 10
-7.4212775265
 20
3.6536820364
 10
-7.4244832989
 20
3.650290611
 10
-7.4275525192
 20
3.646726492
 10
-7.4304823642
 20
3.6430028783
 10
-7.4332700106
 20
3.6391329691
 10
-7.4359126355
 20
3.6351299633
 10
-7.4384074156
 20
3.6310070599
 10
-7.4410362791
 20
3.6262374194
 10
-7.4434852653
 20
3.6213245713
 10
-7.4457651858
 20
3.6162603481
 10
-7.4478868521
 20
3.6110365826
 10
-7.4498585475
 20
3.605647301
 10
-7.4516784403
 20
3.6000953044
 10
-7.4533421703
 20
3.5943855873
 10
-7.4548453773
 20
3.5885231445
 10
-7.456184237
 20
3.5825131783
 10
-7.4573570686
 20
3.5763617219
 10
-7.4583621766
 20
3.5700694653
 10
-7.459195664
 20
3.5636148941
 10
-7.4596537562
 20
3.5592151589
 10
-7.4600321294
 20
3.5547643521
 10
-7.4603293173
 20
3.5502955708
 10
-7.460498024
 20
3.5469412934
 10
-7.4606194749
 20
3.5435446502
 10
-7.4606929059
 20
3.5400547687
 10
-7.4607175527
 20
3.5364207764
  0
LINE
  5
344
100
AcDbEntity
  8
CURVE
100
AcDbLine
 62
253
  6
CONTINUOUS
 10
-6.7701425373
 20
2.2913043973
 11
-6.7299022377
 21
2.270015588
  0
LWPOLYLINE
  5
345
100
AcDbEntity
  8
CURVE
100
AcDbPolyline
 62
253
  6
CONTINUOUS
 90
5
 70
0
 10
-6.5557022428
 20
0.7948586752
 10
-6.9919861661
 20
1.0257600746
 10
-7.4266554389
 20
1.2574215248
 10
-7.8597047647
 20
1.4898402031
 10
-8.3563507288
 20
1.7584063619
  0
LINE
  5
346
100
AcDbEntity
  8
CURVE
100
AcDbLine
 62
253
  6
CONTINUOUS
 10
-6.7261199338
 20
3.3617878196
 11
-7.0084982416
 21
3.5114591915
  0
LINE
  5
347
100
AcDbEntity
  8
CURVE
100
AcDbLine
 62
253
  6
CONTINUOUS
 10
-7.0392149516
 20
3.6672791049
 11
-6.9881773737
 21
3.6401636153
  0
LINE
  5
348
100
AcDbEntity
  8
CURVE
100
AcDbLine
 62
253
  6
CONTINUOUS
 10
-7.0084982336
 20
3.5114591873
 11
-7.2902182537
 21
3.6614596961
  0
LINE
  5
349
100
AcDbEntity
  8
RACCORDO
100
AcDbLine
 62
7
  6
CONTINUOUS
 10
-9.7012343038
 20
10.8282358573
 11
-9.5905835189
 21
10.7025443088
  0
LWPOLYLINE
  5
34A
100
AcDbEntity
  8
RACCORDO
100
AcDbPolyline
 62
253
  6
CONTINUOUS
 90
10
 70
0
 10
-9.6191977757
 20
10.6709264677
 10
-9.581113091
 20
10.6210280283
 10
-9.5416942252
 20
10.5730780686
 10
-9.5009736937
 20
10.5271007114
 10
-9.4592930522
 20
10.4835790799
 10
-9.4165872965
 20
10.4425022085
 10
-9.3729192251
 20
10.4038820705
 10
-9.328823075
 20
10.368235756
 10
-9.2844768826
 20
10.3357356516
 10
-9.2397017815
 20
10.3062097585
  0
LWPOLYLINE
  5
34B
100
AcDbEntity
  8
RACCORDO
100
AcDbPolyline
 62
253
  6
CONTINUOUS
 90
27
 70
0
 10
-9.6660875847
 20
11.0046193815
 10
-9.6803295185
 20
11.0254807868
 10
-9.6936510943
 20
11.0477350261
 10
-9.7060459915
 20
11.0715366241
 10
-9.7175211698
 20
11.0967307661
 10
-9.7274610776
 20
11.1224489817
 10
-9.7357730156
 20
11.1487547099
 10
-9.7425504551
 20
11.1755841619
 10
-9.7474572551
 20
11.2018779561
 10
-9.7503781805
 20
11.2275641795
 10
-9.7514288705
 20
11.2527145622
 10
-9.750619415
 20
11.2764852238
 10
-9.7478877328
 20
11.2987685559
 10
-9.7432957249
 20
11.3196722483
 10
-9.7370393386
 20
11.3386754209
 10
-9.7290789471
 20
11.3557281462
 10
-9.7194535326
 20
11.3708806436
 10
-9.7084769484
 20
11.3837622559
 10
-9.6961165096
 20
11.3943081772
 10
-9.6824040433
 20
11.4025836024
 10
-9.6677503302
 20
11.4084128038
 10
-9.6521540127
 20
11.4117406092
 10
-9.6356156816
 20
11.4126225389
 10
-9.6185493406
 20
11.4110487688
 10
-9.6010929104
 20
11.4070160606
 10
-9.5831080247
 20
11.4005278555
 10
-9.5645944293
 20
11.391584269
  0
LINE
  5
34C
100
AcDbEntity
  8
RACCORDO
100
AcDbLine
 62
7
  6
CONTINUOUS
 10
-9.7960981477
 20
10.9797882772
 11
-9.7012343038
 21
10.8282358573
  0
LWPOLYLINE
  5
34D
100
AcDbEntity
  8
CURVE
100
AcDbPolyline
 62
253
  6
CONTINUOUS
 90
37
 70
0
 10
-7.5048612868
 20
14.5178202504
 10
-7.5001879693
 20
14.5091983666
 10
-7.4956241799
 20
14.500508359
 10
-7.4911738563
 20
14.4917610558
 10
-7.4868409358
 20
14.4829672853
 10
-7.4826293559
 20
14.4741378755
 10
-7.4785430542
 20
14.4652836548
 10
-7.4745859679
 20
14.4564154513
 10
-7.4707620348
 20
14.4475440933
 10
-7.4670743577
 20
14.4386788234
 10
-7.4635227022
 20
14.4298225424
 10
-7.4601059994
 20
14.4209765653
 10
-7.4568231803
 20
14.4121422073
 10
-7.4536731761
 20
14.4033207837
 10
-7.4506549177
 20
14.3945136094
 10
-7.4477673364
 20
14.3857219997
 10
-7.4450093631
 20
14.3769472697
 10
-7.4423794244
 20
14.3681874207
 10
-7.4398739288
 20
14.3594271987
 10
-7.4374887801
 20
14.3506480357
 10
-7.4352198822
 20
14.3418313638
 10
-7.4330646154
 20
14.3329640354
 10
-7.4310262646
 20
14.3240545844
 10
-7.4291095912
 20
14.3151169647
 10
-7.4273193565
 20
14.3061651306
 10
-7.4256597743
 20
14.2972117614
 10
-7.4241328672
 20
14.288264437
 10
-7.4227401104
 20
14.2793294626
 10
-7.4214829791
 20
14.2704131435
 10
-7.4203630474
 20
14.2615221071
 10
-7.4193822867
 20
14.2526642691
 10
-7.4185427673
 20
14.2438478676
 10
-7.4178465597
 20
14.2350811408
 10
-7.4172952834
 20
14.2263722942
 10
-7.4168887544
 20
14.2177294034
 10
-7.4166263377
 20
14.2091605117
 10
-7.4165073984
 20
14.2006736622
  0
LWPOLYLINE
  5
34E
100
AcDbEntity
  8
RACCORDO
100
AcDbPolyline
 62
253
  6
CONTINUOUS
 90
3
 70
0
 10
-5.0611679472
 20
8.3230754664
 10
-5.0805250172
 20
8.3711805882
 10
-5.0945224355
 20
8.4241306951
  0
LWPOLYLINE
  5
34F
100
AcDbEntity
  8
RACCORDO
100
AcDbPolyline
 62
253
  6
CONTINUOUS
 90
3
 70
0
 10
2.8551074131
 20
-6.7547635067
 10
2.8369237952
 20
-6.707224566
 10
2.8237749154
 20
-6.6546838729
  0
LWPOLYLINE
  5
350
100
AcDbEntity
  8
CURVE
100
AcDbPolyline
 62
253
  6
CONTINUOUS
 90
19
 70
0
 10
-5.4172689857
 20
13.8015974179
 10
-5.412827034
 20
13.7880222396
 10
-5.4116117095
 20
13.7842047471
 10
-5.4104369769
 20
13.7804131218
 10
-5.4093115573
 20
13.7766443981
 10
-5.4082441258
 20
13.7728951573
 10
-5.4074870041
 20
13.7700944838
 10
-5.4067721127
 20
13.767304572
 10
-5.4061041836
 20
13.7645271476
 10
-5.4054879491
 20
13.7617639363
 10
-5.4049281524
 20
13.7590169216
 10
-5.40442958
 20
13.7562891191
 10
-5.4039970297
 20
13.7535838025
 10
-5.4036352992
 20
13.7509042452
 10
-5.4033999569
 20
13.748781778
 10
-5.4032144339
 20
13.74668216
 10
-5.4030801543
 20
13.7446096592
 10
-5.4029985422
 20
13.7425685439
 10
-5.4029710216
 20
13.740563082
  0
LWPOLYLINE
  5
351
100
AcDbEntity
  8
CURVE
100
AcDbPolyline
 62
253
  6
CONTINUOUS
 90
3
 70
0
 10
-5.4210427478
 20
13.8134319489
 10
-5.4191800995
 20
13.8075015588
 10
-5.4172689857
 20
13.8015974179
  0
LINE
  5
352
100
AcDbEntity
  8
CURVE
100
AcDbLine
 62
253
  6
CONTINUOUS
 10
-5.4264877837
 20
13.8311649882
 11
-5.4210427478
 21
13.8134319489
  0
LWPOLYLINE
  5
353
100
AcDbEntity
  8
RACCORDO
100
AcDbPolyline
 62
253
  6
CONTINUOUS
 90
7
 70
0
 10
-2.4123127946
 20
7.5841079684
 10
-2.4021258981
 20
7.5231613978
 10
-2.3893983022
 20
7.4617279851
 10
-2.3741611145
 20
7.399827493
 10
-2.3565778461
 20
7.3380836956
 10
-2.3366214642
 20
7.2765084646
 10
-2.3143169821
 20
7.2150909519
  0
LWPOLYLINE
  5
354
100
AcDbEntity
  8
RACCORDO
100
AcDbPolyline
 62
7
  6
CONTINUOUS
 90
3
 70
0
 10
-2.3157378431
 20
7.4903902708
 10
-2.2959785704
 20
7.3226730363
 10
-2.2475325302
 20
7.1563086246
  0
LWPOLYLINE
  5
355
100
AcDbEntity
  8
RACCORDO
100
AcDbPolyline
 62
253
  6
CONTINUOUS
 90
6
 70
0
 10
3.149350887
 20
-7.150596027
 10
3.1452092382
 20
-7.0886159336
 10
3.1328977921
 20
-7.0328924225
 10
3.112753759
 20
-6.9849508247
 10
3.0853287557
 20
-6.9461033842
 10
3.0513736946
 20
-6.9174133469
  0
LWPOLYLINE
  5
356
100
AcDbEntity
  8
RACCORDO
100
AcDbPolyline
 62
253
  6
CONTINUOUS
 90
6
 70
0
 10
3.149350887
 20
4.1077342222
 10
3.1452132551
 20
4.1696855712
 10
3.132910471
 20
4.2253973194
 10
3.1127746663
 20
4.2733412709
 10
3.085352737
 20
4.3122004727
 10
3.051391646
 20
4.3409055605
  0
LWPOLYLINE
  5
357
100
AcDbEntity
  8
RACCORDO
100
AcDbPolyline
 62
253
  6
CONTINUOUS
 90
7
 70
0
 10
2.8131587561
 20
4.7211196252
 10
2.8158228579
 20
4.6605479904
 10
2.8237782781
 20
4.6036450241
 10
2.8369281337
 20
4.5511039306
 10
2.8551122635
 20
4.5035647699
 10
2.878109159
 20
4.4616066991
 10
2.9056386513
 20
4.4257409018
  0
LINE
  5
358
100
AcDbEntity
  8
RACCORDO
100
AcDbLine
 62
253
  6
CONTINUOUS
 10
2.8158209406
 20
-6.5977814903
 11
2.8131587561
 21
-6.537210624
  0
LWPOLYLINE
  5
359
100
AcDbEntity
  8
CURVE
100
AcDbPolyline
 62
253
  6
CONTINUOUS
 90
60
 70
0
 10
0.4906914991
 20
27.2823469051
 10
0.4905985153
 20
27.2872196508
 10
0.4904503877
 20
27.2918626157
 10
0.490245788
 20
27.2964543526
 10
0.4898317256
 20
27.3035081356
 10
0.4892928972
 20
27.3106808937
 10
0.4886340804
 20
27.3178396112
 10
0.487858025
 20
27.3249892314
 10
0.4859638016
 20
27.3393474523
 10
0.4836303798
 20
27.353730318
 10
0.4808747376
 20
27.3681074977
 10
0.4777121838
 20
27.3824642316
 10
0.4741551571
 20
27.3967816765
 10
0.4702143108
 20
27.4110412316
 10
0.465896026
 20
27.4252293515
 10
0.4612062184
 20
27.4393325265
 10
0.4561532145
 20
27.4533323377
 10
0.4507427681
 20
27.4672115774
 10
0.4449679318
 20
27.4809627938
 10
0.4388185825
 20
27.4945809743
 10
0.4322845974
 20
27.5080611058
 10
0.4253569142
 20
27.5213963591
 10
0.4180307137
 20
27.5345726385
 10
0.4103022371
 20
27.5475740315
 10
0.4021677261
 20
27.5603846259
 10
0.3936287293
 20
27.572988051
 10
0.3847080258
 20
27.5853661022
 10
0.375433702
 20
27.5975001163
 10
0.3658338442
 20
27.6093714303
 10
0.3559374204
 20
27.6209621156
 10
0.345776925
 20
27.6322571816
 10
0.3353857342
 20
27.6432423722
 10
0.324797224
 20
27.6539034314
 10
0.3140415751
 20
27.6642299216
 10
0.3031361872
 20
27.6742266801
 10
0.2920952643
 20
27.683902363
 10
0.2809330107
 20
27.6932656263
 10
0.2696605239
 20
27.7023259138
 10
0.2582764739
 20
27.7110958207
 10
0.2467764241
 20
27.7195887305
 10
0.2351559378
 20
27.7278180262
 10
0.2194720512
 20
27.7383988766
 10
0.2035863067
 20
27.7485389402
 10
0.1875188431
 20
27.758242285
 10
0.1712898596
 20
27.7675157218
 10
0.1549197969
 20
27.7763770317
 10
0.1384291563
 20
27.784846739
 10
0.1218360917
 20
27.7929490781
 10
0.1051493693
 20
27.8007231266
 10
0.088375408
 20
27.8082116729
 10
0.0715164279
 20
27.8154552563
 10
0.0545578533
 20
27.8224854224
 10
0.0374809098
 20
27.8293314677
 10
0.011620781
 20
27.8392946625
 10
-0.0145014985
 20
27.8488599787
 10
-0.0355644633
 20
27.8561959438
 10
-0.0567872562
 20
27.863241005
 10
-0.0781916391
 20
27.8699905964
 10
-0.0997993739
 20
27.8764401521
 10
-0.1216322224
 20
27.8825851061
  0
LWPOLYLINE
  5
35A
100
AcDbEntity
  8
CURVE
100
AcDbPolyline
 62
253
  6
CONTINUOUS
 90
58
 70
0
 10
0.9597084817
 20
10.4925004186
 10
0.9596623651
 20
10.4988928767
 10
0.9595249655
 20
10.5051226433
 10
0.9592977081
 20
10.5112770245
 10
0.9589820182
 20
10.5174433259
 10
0.9584258942
 20
10.525789954
 10
0.9577178328
 20
10.5342526387
 10
0.9568605763
 20
10.5427710346
 10
0.9553007994
 20
10.5555615449
 10
0.95341986
 20
10.5683807432
 10
0.951225077
 20
10.581259093
 10
0.9487196167
 20
10.5941924533
 10
0.9459066338
 20
10.6071673631
 10
0.9427933882
 20
10.620167686
 10
0.9393881662
 20
10.633176617
 10
0.9356992541
 20
10.6461773511
 10
0.9317301577
 20
10.6591616375
 10
0.9274652603
 20
10.6721554425
 10
0.9228841646
 20
10.6851932869
 10
0.9179664734
 20
10.6983096915
 10
0.9132994272
 20
10.7100537791
 10
0.9083557759
 20
10.7218586755
 10
0.9031409828
 20
10.7336958417
 10
0.8976605111
 20
10.7455367385
 10
0.891919824
 20
10.757352827
 10
0.8859243848
 20
10.769115568
 10
0.8796796567
 20
10.7807964226
 10
0.8731911029
 20
10.7923668516
 10
0.8664641868
 20
10.803798316
 10
0.8595071147
 20
10.8150642435
 10
0.8523390663
 20
10.8261459281
 10
0.8449819646
 20
10.8370266307
 10
0.8374577323
 20
10.8476896121
 10
0.8297882925
 20
10.8581181331
 10
0.8219955681
 20
10.8682954544
 10
0.8141014818
 20
10.878204837
 10
0.8061279567
 20
10.8878295415
 10
0.7980969156
 20
10.8971528288
 10
0.7908334709
 20
10.9052771896
 10
0.7835304729
 20
10.9131613334
 10
0.7761771985
 20
10.9208227502
 10
0.7687629248
 20
10.9282789297
 10
0.7612769287
 20
10.9355473617
 10
0.7518075444
 20
10.9443873475
 10
0.7422202327
 20
10.952946391
 10
0.732525887
 20
10.9612095774
 10
0.7227354008
 20
10.9691619921
 10
0.7128595042
 20
10.976790012
 10
0.7029082745
 20
10.9840851812
 10
0.6928839496
 20
10.991042722
 10
0.6827580629
 20
10.9976674049
 10
0.6759432538
 20
11.0018976785
 10
0.6691168559
 20
11.005956548
 10
0.6623284822
 20
11.0098173651
 10
0.6572761947
 20
11.0125743767
 10
0.6521992973
 20
11.0152381587
 10
0.647023884
 20
11.0178418755
 10
0.641676049
 20
11.0204186915
  0
LINE
  5
35B
100
AcDbEntity
  8
CURVE
100
AcDbLine
 62
253
  6
CONTINUOUS
 10
0.6572095787
 20
-2.4559415816
 11
0.6572095787
 21
0.3402494872
  0
LINE
  5
35C
100
AcDbEntity
  8
CURVE
100
AcDbLine
 62
253
  6
CONTINUOUS
 10
0.9597084817
 20
9.0263668012
 11
0.9597084817
 21
10.4925004186
  0
LINE
  5
35D
100
AcDbEntity
  8
CURVE
100
AcDbLine
 62
253
  6
CONTINUOUS
 10
2.2321628464
 20
7.7228167733
 11
2.2321628464
 21
9.9421047789
  0
LINE
  5
35E
100
AcDbEntity
  8
CURVE
100
AcDbLine
 62
253
  6
CONTINUOUS
 10
2.232396596
 20
-3.5353786176
 11
2.232396596
 21
-1.3163961265
  0
LINE
  5
35F
100
AcDbEntity
  8
CURVE
100
AcDbLine
 62
253
  6
CONTINUOUS
 10
2.4895768477
 20
9.8939204277
 11
2.4895768477
 21
7.4536843231
  0
LINE
  5
360
100
AcDbEntity
  8
CURVE
100
AcDbLine
 62
253
  6
CONTINUOUS
 10
2.4885620592
 20
-1.3639958506
 11
2.4895768477
 21
-3.8045561934
  0
LWPOLYLINE
  5
361
100
AcDbEntity
  8
CURVE
100
AcDbPolyline
 62
253
  6
CONTINUOUS
 90
59
 70
0
 10
2.4895768477
 20
7.4536843231
 10
2.4895568346
 20
7.4511555292
 10
2.4894972302
 20
7.4487182377
 10
2.4893986865
 20
7.4463413798
 10
2.4892618557
 20
7.4439938868
 10
2.4890209556
 20
7.4408715533
 10
2.4887145233
 20
7.4377666142
 10
2.4883439332
 20
7.4346994933
 10
2.4879105451
 20
7.431686391
 10
2.4874156607
 20
7.4287266147
 10
2.4868605668
 20
7.4258152485
 10
2.4859174731
 20
7.4215315663
 10
2.4848438957
 20
7.4173492653
 10
2.4836422713
 20
7.4132717042
 10
2.4823164151
 20
7.4093015986
 10
2.4808704868
 20
7.405441503
 10
2.4793086465
 20
7.4016939722
 10
2.4776333193
 20
7.3980601375
 10
2.475839991
 20
7.3945354361
 10
2.473922413
 20
7.3911138818
 10
2.4718743365
 20
7.3877894883
 10
2.4699403839
 20
7.3849131233
 10
2.4679009894
 20
7.3821161356
 10
2.4657587587
 20
7.3794058631
 10
2.4635162971
 20
7.3767896439
 10
2.4611762101
 20
7.374274816
 10
2.4587411032
 20
7.3718687174
 10
2.4562135818
 20
7.3695786861
 10
2.4535962515
 20
7.3674120601
 10
2.4508917177
 20
7.3653761776
 10
2.4481033584
 20
7.3634771115
 10
2.4452376421
 20
7.3617158756
 10
2.4423018098
 20
7.3600922186
 10
2.4393031026
 20
7.3586058892
 10
2.4362487615
 20
7.3572566362
 10
2.4331460275
 20
7.3560442084
 10
2.4300021416
 20
7.3549683544
 10
2.4268243449
 20
7.3540288231
 10
2.4236198785
 20
7.3532253631
 10
2.4199890166
 20
7.3524832241
 10
2.4163260296
 20
7.351909135
 10
2.4126233817
 20
7.3514992483
 10
2.4088735374
 20
7.3512497167
 10
2.4050708495
 20
7.3511578656
 10
2.4012172261
 20
7.3512257121
 10
2.3973164637
 20
7.3514564459
 10
2.3933723587
 20
7.3518532572
 10
2.3893887117
 20
7.3524189304
 10
2.3853693386
 20
7.3531546285
 10
2.3826709946
 20
7.3537404253
 10
2.3799547985
 20
7.3544053429
 10
2.3772170788
 20
7.3551525989
 10
2.3744577604
 20
7.355983775
 10
2.3716911546
 20
7.3568939113
 10
2.3689351693
 20
7.3578764124
 10
2.3668803048
 20
7.358659406
 10
2.3648153346
 20
7.359492189
 10
2.3627141061
 20
7.3603875552
 10
2.3605504664
 20
7.3613582988
  0
LWPOLYLINE
  5
362
100
AcDbEntity
  8
CURVE
100
AcDbPolyline
 62
253
  6
CONTINUOUS
 90
59
 70
0
 10
2.4895768477
 20
-3.8045561934
 10
2.4895568086
 20
-3.8070924033
 10
2.4894971299
 20
-3.8095367644
 10
2.4893984697
 20
-3.8119204322
 10
2.4892614862
 20
-3.8142745621
 10
2.4890203359
 20
-3.81740558
 10
2.4887136107
 20
-3.8205189865
 10
2.4883426964
 20
-3.8235942946
 10
2.4879089635
 20
-3.826615253
 10
2.4874137232
 20
-3.8295825526
 10
2.4868582716
 20
-3.8325011196
 10
2.4859146571
 20
-3.8367950114
 10
2.4848406014
 20
-3.8409867957
 10
2.4836385665
 20
-3.8450730931
 10
2.4823123901
 20
-3.8490511792
 10
2.480866254
 20
-3.8529184938
 10
2.4793043399
 20
-3.8566724765
 10
2.4776290926
 20
-3.8603119936
 10
2.4758360089
 20
-3.8638416184
 10
2.4739188486
 20
-3.8672673511
 10
2.4718713715
 20
-3.8705951916
 10
2.4699381102
 20
-3.8734740171
 10
2.4678995569
 20
-3.8762729045
 10
2.4657583163
 20
-3.8789845218
 10
2.4635169934
 20
-3.8816015368
 10
2.4611781928
 20
-3.8841166176
 10
2.4587445194
 20
-3.8865224322
 10
2.456218578
 20
-3.8888116485
 10
2.4536029734
 20
-3.8909769344
 10
2.4509003104
 20
-3.8930109581
 10
2.4481139773
 20
-3.894907662
 10
2.4452504967
 20
-3.8966660874
 10
2.4423171749
 20
-3.8982865502
 10
2.4393213179
 20
-3.8997693664
 10
2.436270232
 20
-3.9011148519
 10
2.4331712232
 20
-3.9023233224
 10
2.4300315979
 20
-3.903395094
 10
2.4268586621
 20
-3.9043304826
 10
2.4236597221
 20
-3.905129804
 10
2.4200359374
 20
-3.9058673745
 10
2.4163809456
 20
-3.9064370846
 10
2.4126872041
 20
-3.9068428841
 10
2.4089471705
 20
-3.9070887229
 10
2.4051551937
 20
-3.9071773767
 10
2.4013131875
 20
-3.9071069252
 10
2.3974249569
 20
-3.9068742739
 10
2.3934943069
 20
-3.9064763285
 10
2.3895250413
 20
-3.9059104008
 10
2.3855209592
 20
-3.9051754283
 10
2.3828333008
 20
-3.9045907085
 10
2.3801281614
 20
-3.90392737
 10
2.3774018465
 20
-3.9031822171
 10
2.3746542659
 20
-3.9023536931
 10
2.3718997472
 20
-3.9014467979
 10
2.3691562226
 20
-3.9004681707
 10
2.3671109484
 20
-3.899688517
 10
2.3650557128
 20
-3.8988594307
 10
2.3629642834
 20
-3.8979680939
 10
2.3608104278
 20
-3.8970016886
  0
LWPOLYLINE
  5
363
100
AcDbEntity
  8
RACCORDO
100
AcDbPolyline
 62
253
  6
CONTINUOUS
 90
10
 70
0
 10
2.8131659771
 20
5.2027052847
 10
2.8158277648
 20
5.2662070504
 10
2.8237813609
 20
5.3318658714
 10
2.8369298684
 20
5.3988818756
 10
2.8551131048
 20
5.4664386571
 10
2.8781095528
 20
5.5337132224
 10
2.9056390595
 20
5.5998860159
 10
2.9373662488
 20
5.6641509039
 10
2.9729046075
 20
5.7257249958
 10
3.0118211935
 20
5.7838581806
  0
LWPOLYLINE
  5
364
100
AcDbEntity
  8
RACCORDO
100
AcDbPolyline
 62
253
  6
CONTINUOUS
 90
7
 70
0
 10
3.149350887
 20
6.1861951913
 10
3.145209372
 20
6.1196567858
 10
3.1328982167
 20
6.0503806877
 10
3.1127544645
 20
5.9802633614
 10
3.0853295771
 20
5.9112242922
 10
3.0513743366
 20
5.8451534394
 10
3.0118182917
 20
5.7838594985
  0
LWPOLYLINE
  5
365
100
AcDbEntity
  8
RACCORDO
100
AcDbPolyline
 62
253
  6
CONTINUOUS
 90
22
 70
0
 10
3.5864099491
 20
4.5693674806
 10
3.6033634431
 20
4.6253967543
 10
3.6151703513
 20
4.6856437772
 10
3.6216194463
 20
4.7491162844
 10
3.622715623
 20
4.8150882911
 10
3.6184943975
 20
4.8830952528
 10
3.6090554842
 20
4.9524170723
 10
3.5945734794
 20
5.0223719758
 10
3.5752417758
 20
5.0924292748
 10
3.5512250612
 20
5.1620935813
 10
3.5227799504
 20
5.2308102978
 10
3.4901992822
 20
5.2980066959
 10
3.4537372246
 20
5.3631743981
 10
3.4136593924
 20
5.4259274587
 10
3.3704002777
 20
5.4856429296
 10
3.3245661131
 20
5.5415494828
 10
3.2769852832
 20
5.5928974175
 10
3.22775991
 20
5.6398425712
 10
3.1763405531
 20
5.6828280279
 10
3.1227720821
 20
5.7215922918
 10
3.0677822927
 20
5.7554109628
 10
3.0118182404
 20
5.7838592516
  0
LWPOLYLINE
  5
366
100
AcDbEntity
  8
RACCORDO
100
AcDbPolyline
 62
253
  6
CONTINUOUS
 90
10
 70
0
 10
-1.7166417782
 20
-3.2486929315
 10
-1.7570604449
 20
-3.3061191367
 10
-1.7939704896
 20
-3.3670476262
 10
-1.8269222596
 20
-3.430736153
 10
-1.855514335
 20
-3.4964088773
 10
-1.8793983785
 20
-3.5632657268
 10
-1.8982834015
 20
-3.6304921391
 10
-1.9119393539
 20
-3.6972691152
 10
-1.920199904
 20
-3.7627831992
 10
-1.9229644391
 20
-3.8262362945
  0
LINE
  5
367
100
AcDbEntity
  8
RACCORDO
100
AcDbLine
 62
253
  6
CONTINUOUS
 10
-11.804320579
 20
-9.2815468187
 11
-11.7329194421
 21
-9.2458462503
  0
LWPOLYLINE
  5
368
100
AcDbEntity
  8
RACCORDO
100
AcDbPolyline
 62
253
  6
CONTINUOUS
 90
49
 70
0
 10
3.5697547602
 20
4.0411159183
 10
3.6120193131
 20
4.0503543514
 10
3.6531124898
 20
4.0629189624
 10
3.6926198505
 20
4.0787321238
 10
3.7305270593
 20
4.0978354221
 10
3.766845967
 20
4.1201858984
 10
3.8012008819
 20
4.1455788099
 10
3.8335608818
 20
4.1740433146
 10
3.8639542463
 20
4.20554879
 10
3.8920937603
 20
4.2398006399
 10
3.9179527007
 20
4.276818237
 10
3.9415553498
 20
4.3165808524
 10
3.9626908823
 20
4.3587336709
 10
3.9813376592
 20
4.403298253
 10
3.9975153594
 20
4.450251947
 10
4.0110751709
 20
4.49917364
 10
4.0219934471
 20
4.550078503
 10
4.0302925573
 20
4.6029506532
 10
4.0358928578
 20
4.6573224769
 10
4.0387691867
 20
4.7132183349
 10
4.0389462504
 20
4.7706136124
 10
4.0364194113
 20
4.828967346
 10
4.0311561185
 20
4.8883023454
 10
4.0231893427
 20
4.948596035
 10
4.0126129317
 20
5.0092394861
 10
3.9993994013
 20
5.0702228173
 10
3.9835774733
 20
5.1315565998
 10
3.9653254372
 20
5.1926626575
 10
3.9446378652
 20
5.2535038909
 10
3.9215220696
 20
5.3141184487
 10
3.8961754816
 20
5.3740410432
 10
3.8685974034
 20
5.4332595503
 10
3.8387908892
 20
5.4917874036
 10
3.8069589375
 20
5.5491976184
 10
3.7730936112
 20
5.6054963313
 10
3.7372055168
 20
5.6606788855
 10
3.6995253089
 20
5.7143020162
 10
3.6600119275
 20
5.766397489
 10
3.6187092393
 20
5.8169350896
 10
3.5759749292
 20
5.8653783832
 10
3.5317394729
 20
5.9117433333
 10
3.4860749601
 20
5.9560153884
 10
3.4395507459
 20
5.997611925
 10
3.3921410907
 20
6.0364745577
 10
3.343873412
 20
6.0726625881
 10
3.2953956772
 20
6.1057693006
 10
3.2469237473
 20
6.1356590487
 10
3.1982420746
 20
6.1624676391
 10
3.149350887
 20
6.1861951913
  0
LWPOLYLINE
  5
369
100
AcDbEntity
  8
RACCORDO
100
AcDbPolyline
 62
253
  6
CONTINUOUS
 90
3
 70
0
 10
3.2679772786
 20
4.3084630195
 10
3.3118340586
 20
4.3148691615
 10
3.354891473
 20
4.3265930227
  0
LWPOLYLINE
  5
36A
100
AcDbEntity
  8
RACCORDO
100
AcDbPolyline
 62
253
  6
CONTINUOUS
 90
5
 70
0
 10
-9.3969010948
 20
10.5590856284
 10
-9.4278651309
 20
10.579019137
 10
-9.4627921629
 20
10.6099557511
 10
-9.4930982642
 20
10.64720976
 10
-9.5184143031
 20
10.6903273482
  0
LINE
  5
36B
100
AcDbEntity
  8
RACCORDO
100
AcDbLine
 62
7
  6
CONTINUOUS
 10
-9.5905835189
 20
10.7025443088
 11
-9.4582576316
 21
10.5962205399
  0
LWPOLYLINE
  5
36C
100
AcDbEntity
  8
RACCORDO
100
AcDbPolyline
 62
253
  6
CONTINUOUS
 90
6
 70
0
 10
-9.5925460662
 20
10.9278706552
 10
-9.6069103265
 20
10.9395494174
 10
-9.6217157777
 20
10.9530667252
 10
-9.6367808217
 20
10.9684123017
 10
-9.6515611624
 20
10.9855550906
 10
-9.6660875847
 20
11.0046193815
  0
LINE
  5
36D
100
AcDbEntity
  8
RACCORDO
100
AcDbLine
 62
253
  6
CONTINUOUS
 10
-1.8269239203
 20
6.6534498925
 11
-1.7939719912
 21
6.6235366846
  0
LINE
  5
36E
100
AcDbEntity
  8
RACCORDO
100
AcDbLine
 62
7
  6
CONTINUOUS
 10
-2.0711633749
 20
6.8524153006
 11
-1.9568694506
 21
6.7344714924
  0
LINE
  5
36F
100
AcDbEntity
  8
RACCORDO
100
AcDbLine
 62
7
  6
CONTINUOUS
 10
-2.1698328098
 20
6.9940251343
 11
-2.0711633749
 21
6.8524153006
  0
LWPOLYLINE
  5
370
100
AcDbEntity
  8
CURVE
100
AcDbPolyline
 62
253
  6
CONTINUOUS
 90
39
 70
0
 10
-7.8969520464
 20
14.1396938938
 10
-7.9025442222
 20
14.1479714307
 10
-7.907988147
 20
14.1562864229
 10
-7.9132934104
 20
14.1646484089
 10
-7.9184696018
 20
14.1730669271
 10
-7.9235263107
 20
14.1815515161
 10
-7.9284731266
 20
14.1901117142
 10
-7.9333196388
 20
14.19875706
 10
-7.9388567015
 20
14.2089600032
 10
-7.944266186
 20
14.2192851547
 10
-7.9495439859
 20
14.2297258444
 10
-7.954685995
 20
14.2402754024
 10
-7.9596881071
 20
14.2509271584
 10
-7.964546216
 20
14.2616744426
 10
-7.9692560709
 20
14.2725101976
 10
-7.9738128435
 20
14.2834258178
 10
-7.9782115611
 20
14.2944123101
 10
-7.9824472508
 20
14.3054606817
 10
-7.98651494
 20
14.3165619396
 10
-7.9904096558
 20
14.3277070909
 10
-7.9941261959
 20
14.3388862716
 10
-7.9976584392
 20
14.3500861326
 10
-8.0010000349
 20
14.361292454
 10
-8.0041446324
 20
14.3724910156
 10
-8.007085881
 20
14.3836675974
 10
-8.00981743
 20
14.3948079792
 10
-8.0121480179
 20
14.4050492608
 10
-8.0142941663
 20
14.4152500771
 10
-8.0162555258
 20
14.4254129242
 10
-8.0180317471
 20
14.4355402982
 10
-8.0196224808
 20
14.4456346953
 10
-8.0210273776
 20
14.4556986116
 10
-8.0222460883
 20
14.4657345432
 10
-8.0232782634
 20
14.4757449862
 10
-8.0241235536
 20
14.4857324368
 10
-8.0247816097
 20
14.4956993911
 10
-8.0252520822
 20
14.5056483452
 10
-8.0255346219
 20
14.5155817952
 10
-8.0256288795
 20
14.5255022374
  0
LWPOLYLINE
  5
371
100
AcDbEntity
  8
CURVE
100
AcDbPolyline
 62
253
  6
CONTINUOUS
 90
18
 70
0
 10
2.444366984
 20
-1.2299000411
 10
2.4456639537
 20
-1.2318769688
 10
2.4469255703
 20
-1.2338936965
 10
2.4481506949
 20
-1.2359455966
 10
2.4493381885
 20
-1.2380280413
 10
2.4504869121
 20
-1.240136403
 10
2.4518674929
 20
-1.2428021143
 10
2.4531890808
 20
-1.2454972317
 10
2.4544550406
 20
-1.2482178969
 10
2.4556687368
 20
-1.2509602516
 10
2.4568336507
 20
-1.2537206618
 10
2.4579537279
 20
-1.2564963906
 10
2.4590330307
 20
-1.2592849255
 10
2.4600756213
 20
-1.2620837541
 10
2.4614160862
 20
-1.2658289672
 10
2.4627107223
 20
-1.2695926887
 10
2.4639717453
 20
-1.2733795942
 10
2.4654568579
 20
-1.2779582866
  0
LWPOLYLINE
  5
372
100
AcDbEntity
  8
CURVE
100
AcDbPolyline
 62
253
  6
CONTINUOUS
 90
17
 70
0
 10
-5.4457715225
 20
13.8769267239
 10
-5.4444842244
 20
13.8748016006
 10
-5.4432341733
 20
13.8726384327
 10
-5.4420222849
 20
13.8704423779
 10
-5.4408494751
 20
13.8682185935
 10
-5.4397166597
 20
13.8659722374
 10
-5.438357351
 20
13.8631394236
 10
-5.4370581927
 20
13.8602835684
 10
-5.4358154131
 20
13.8574088399
 10
-5.4346252404
 20
13.8545194064
 10
-5.4334837993
 20
13.8516190928
 10
-5.4323868001
 20
13.8487103506
 10
-5.4313298495
 20
13.8457952876
 10
-5.4303085542
 20
13.8428760121
 10
-5.4289945392
 20
13.8389794776
 10
-5.4277247371
 20
13.8350766526
 10
-5.4264877837
 20
13.8311649882
  0
LWPOLYLINE
  5
373
100
AcDbEntity
  8
RACCORDO
100
AcDbPolyline
 62
253
  6
CONTINUOUS
 90
15
 70
0
 10
-2.2042644913
 20
6.9774902949
 10
-2.1719061019
 20
6.920789346
 10
-2.1376800954
 20
6.8652947419
 10
-2.1018266506
 20
6.8114106318
 10
-2.0643400894
 20
6.7591386302
 10
-2.0252233939
 20
6.7084784989
 10
-1.9847300598
 20
6.6598314436
 10
-1.9428231268
 20
6.6131755069
 10
-1.8995369902
 20
6.5685339608
 10
-1.8552326975
 20
6.526375592
 10
-1.809841195
 20
6.4866909155
 10
-1.7634294648
 20
6.4494904841
 10
-1.7165635214
 20
6.4152726757
 10
-1.6694319953
 20
6.3842036415
 10
-1.6218454738
 20
6.3561176426
  0
LINE
  5
374
100
AcDbEntity
  8
RACCORDO
100
AcDbLine
 62
253
  6
CONTINUOUS
 10
-2.2347579479
 20
7.0354142682
 11
-2.2042644913
 21
6.9774902949
  0
LINE
  5
375
100
AcDbEntity
  8
RACCORDO
100
AcDbLine
 62
7
  6
CONTINUOUS
 10
-2.2475325302
 20
7.1563086246
 11
-2.1698328098
 21
6.9940251343
  0
LWPOLYLINE
  5
376
100
AcDbEntity
  8
RACCORDO
100
AcDbPolyline
 62
253
  6
CONTINUOUS
 90
4
 70
0
 10
-2.3143169821
 20
7.2150909519
 10
-2.289905973
 20
7.1544208569
 10
-2.2633864461
 20
7.0945432332
 10
-2.2347579479
 20
7.0354142682
  0
LWPOLYLINE
  5
377
100
AcDbEntity
  8
CURVE
100
AcDbPolyline
 62
253
  6
CONTINUOUS
 90
18
 70
0
 10
2.477699571
 20
-1.3150289935
 10
2.4792386657
 20
-1.3196092982
 10
2.4804804928
 20
-1.3234033859
 10
2.4816752735
 20
-1.3271813172
 10
2.4828142433
 20
-1.3309493912
 10
2.4836262572
 20
-1.3337720274
 10
2.4843963592
 20
-1.3365908813
 10
2.4851189614
 20
-1.3394041724
 10
2.4857884755
 20
-1.3422101198
 10
2.4863992689
 20
-1.3450066764
 10
2.4869455305
 20
-1.3477907285
 10
2.4874214048
 20
-1.3505588957
 10
2.4878210359
 20
-1.353307798
 10
2.4880820872
 20
-1.3554903068
 10
2.4882886554
 20
-1.3576537684
 10
2.4884388004
 20
-1.3597936287
 10
2.4885305823
 20
-1.3619053334
 10
2.4885620611
 20
-1.3639843283
  0
LWPOLYLINE
  5
378
100
AcDbEntity
  8
CURVE
100
AcDbPolyline
 62
253
  6
CONTINUOUS
 90
4
 70
0
 10
2.4698816731
 20
-1.2918490719
 10
2.4713978871
 20
-1.296502238
 10
2.4729545083
 20
-1.3011529751
 10
2.477699571
 20
-1.3150289935
  0
LINE
  5
379
100
AcDbEntity
  8
CURVE
100
AcDbLine
 62
253
  6
CONTINUOUS
 10
2.4654568579
 20
-1.2779582866
 11
2.4698816731
 21
-1.2918490719
  0
LINE
  5
37A
100
AcDbEntity
  8
RACCORDO
100
AcDbLine
 62
253
  6
CONTINUOUS
 10
2.8237749154
 20
-6.6546838729
 11
2.8158209406
 21
-6.5977814903
  0
LINE
  5
37B
100
AcDbEntity
  8
RACCORDO
100
AcDbLine
 62
7
  6
CONTINUOUS
 10
5.9720689492
 20
27.7444770218
 11
5.9720689492
 21
-18.1393187385
  0
LINE
  5
37C
100
AcDbEntity
  8
RACCORDO
100
AcDbLine
 62
7
  6
CONTINUOUS
 10
6.0854809851
 20
27.733433866
 11
6.0854809851
 21
-18.2264476007
  0
LWPOLYLINE
  5
37D
100
AcDbEntity
  8
RACCORDO
100
AcDbPolyline
 62
253
  6
CONTINUOUS
 90
7
 70
0
 10
3.149350887
 20
-5.0721350579
 10
3.1452093724
 20
-5.1386734594
 10
3.1328982182
 20
-5.2079495549
 10
3.1127544671
 20
-5.2780668803
 10
3.08532958
 20
-5.3471059506
 10
3.0513743388
 20
-5.4131768061
 10
3.0118182917
 20
-5.4744707507
  0
LWPOLYLINE
  5
37E
100
AcDbEntity
  8
RACCORDO
100
AcDbPolyline
 62
253
  6
CONTINUOUS
 90
13
 70
0
 10
3.5962061317
 20
-6.6592047631
 10
3.5755434622
 20
-6.7165164936
 10
3.5494090561
 20
-6.7684506576
 10
3.518129699
 20
-6.8145336414
 10
3.4820047265
 20
-6.854408041
 10
3.4414441074
 20
-6.8877412795
 10
3.3968942024
 20
-6.9142596585
 10
3.3487562775
 20
-6.9337684053
 10
3.2975733124
 20
-6.9461160014
 10
3.2438367302
 20
-6.951254994
 10
3.1878642716
 20
-6.9491516992
 10
3.1301265239
 20
-6.939791417
 10
3.0939658782
 20
-6.9304458378
  0
LWPOLYLINE
  5
37F
100
AcDbEntity
  8
RACCORDO
100
AcDbPolyline
 62
253
  6
CONTINUOUS
 90
10
 70
0
 10
3.0118211935
 20
-5.4744720686
 10
2.9729028703
 20
-5.5326046841
 10
2.9373633435
 20
-5.5941784108
 10
2.9056355497
 20
-5.6584431261
 10
2.878106149
 20
-5.7246159964
 10
2.8551103521
 20
-5.7918908177
 10
2.8369278381
 20
-5.8594478371
 10
2.82377996
 20
-5.9264639979
 10
2.8158270442
 20
-5.9921229657
 10
2.8131659771
 20
-6.0556248769
  0
LINE
  5
380
100
AcDbEntity
  8
RACCORDO
100
AcDbLine
 62
253
  6
CONTINUOUS
 10
-11.2200815889
 20
-10.4761295316
 11
-11.1120841157
 21
-10.422130795
  0
LINE
  5
381
100
AcDbEntity
  8
RACCORDO
100
AcDbLine
 62
253
  6
CONTINUOUS
 10
3.2237927697
 20
4.3070022704
 11
3.2679772786
 21
4.3084630195
  0
LWPOLYLINE
  5
382
100
AcDbEntity
  8
RACCORDO
100
AcDbPolyline
 62
253
  6
CONTINUOUS
 90
7
 70
0
 10
3.2954036521
 20
4.0556412762
 10
3.3430453323
 20
4.0449201175
 10
3.3901197654
 20
4.0375199782
 10
3.4363557994
 20
4.0334399906
 10
3.4817718839
 20
4.0326766738
 10
3.5263479984
 20
4.0352326511
 10
3.5697547602
 20
4.0411159183
  0
LWPOLYLINE
  5
383
100
AcDbEntity
  8
RACCORDO
100
AcDbPolyline
 62
253
  6
CONTINUOUS
 90
4
 70
0
 10
3.0941207312
 20
4.3278388188
 10
3.1360944414
 20
4.3172482716
 10
3.1796682703
 20
4.3100762044
 10
3.2237927697
 20
4.3070022704
  0
LWPOLYLINE
  5
384
100
AcDbEntity
  8
RACCORDO
100
AcDbPolyline
 62
253
  6
CONTINUOUS
 90
15
 70
0
 10
-1.9494879243
 20
7.4430339757
 10
-1.9631606693
 20
7.4466944785
 10
-1.9772389126
 20
7.4492964168
 10
-1.9915909308
 20
7.4506918733
 10
-2.0058218936
 20
7.4504369228
 10
-2.0199671364
 20
7.448482631
 10
-2.0339913921
 20
7.4448778968
 10
-2.0473942085
 20
7.4393254005
 10
-2.060186932
 20
7.4317313774
 10
-2.0723585788
 20
7.4221894064
 10
-2.0833754905
 20
7.4106830351
 10
-2.0931994833
 20
7.3970829202
 10
-2.1018692875
 20
7.3815181255
 10
-2.1089667967
 20
7.3643597159
 10
-2.1144034192
 20
7.3455090979
  0
LWPOLYLINE
  5
385
100
AcDbEntity
  8
RACCORDO
100
AcDbPolyline
 62
253
  6
CONTINUOUS
 90
7
 70
0
 10
-4.6104016071
 20
7.8618194951
 10
-4.5655340312
 20
7.849728218
 10
-4.5211982759
 20
7.8409691018
 10
-4.4776488458
 20
7.8355496549
 10
-4.4348685647
 20
7.8334656325
 10
-4.3928762708
 20
7.8347204751
 10
-4.3519810478
 20
7.8393329443
  0
LINE
  5
386
100
AcDbEntity
  8
RACCORDO
100
AcDbLine
 62
7
  6
CONTINUOUS
 10
3.0928877957
 20
4.3282030444
 11
3.0941207312
 21
4.3278388188
  0
LINE
  5
387
100
AcDbEntity
  8
RACCORDO
100
AcDbLine
 62
7
  6
CONTINUOUS
 10
-4.8015780839
 20
8.1351576307
 11
-4.8024823673
 21
8.1354375036
  0
LINE
  5
388
100
AcDbEntity
  8
RACCORDO
100
AcDbLine
 62
7
  6
CONTINUOUS
 10
3.0632226144
 20
4.3375898399
 11
3.0929119753
 21
4.328196691
  0
LWPOLYLINE
  5
389
100
AcDbEntity
  8
RACCORDO
100
AcDbPolyline
 62
253
  6
CONTINUOUS
 90
3
 70
0
 10
3.1986009254
 20
4.0870480966
 10
3.2472853733
 20
4.0696838854
 10
3.2954036521
 20
4.0556412762
  0
LINE
  5
38A
100
AcDbEntity
  8
RACCORDO
100
AcDbLine
 62
7
  6
CONTINUOUS
 10
2.9813216161
 20
4.36990919
 11
3.0632226144
 21
4.3375898399
  0
LWPOLYLINE
  5
38B
100
AcDbEntity
  8
RACCORDO
100
AcDbPolyline
 62
253
  6
CONTINUOUS
 90
3
 70
0
 10
-4.7015608504
 20
7.8959943392
 10
-4.6557158889
 20
7.8772405635
 10
-4.6104016071
 20
7.8618194951
  0
LINE
  5
38C
100
AcDbEntity
  8
RACCORDO
100
AcDbLine
 62
253
  6
CONTINUOUS
 10
3.149350887
 20
4.1077342222
 11
3.1986009254
 21
4.0870480966
  0
LWPOLYLINE
  5
38D
100
AcDbEntity
  8
RACCORDO
100
AcDbPolyline
 62
7
  6
CONTINUOUS
 90
3
 70
0
 10
-4.9370633325
 20
8.1904710078
 10
-4.828108306
 20
8.1438489685
 10
-4.8025071847
 20
8.1354449195
  0
LWPOLYLINE
  5
38E
100
AcDbEntity
  8
RACCORDO
100
AcDbPolyline
 62
253
  6
CONTINUOUS
 90
13
 70
0
 10
2.8131587561
 20
4.7211200099
 10
2.8268326488
 20
4.7152426907
 10
2.8407934942
 20
4.7105833955
 10
2.8550413724
 20
4.7071421685
 10
2.8697139315
 20
4.7047732368
 10
2.8846737164
 20
4.70362248
 10
2.8995080317
 20
4.7041273547
 10
2.9142550551
 20
4.7063393569
 10
2.9288765406
 20
4.7102069533
 10
2.9428448801
 20
4.7160129034
 10
2.9561678794
 20
4.7238508661
 10
2.9688373746
 20
4.7336269853
 10
2.9803015212
 20
4.7453425938
  0
LWPOLYLINE
  5
38F
100
AcDbEntity
  8
RACCORDO
100
AcDbPolyline
 62
253
  6
CONTINUOUS
 90
15
 70
0
 10
-1.716644986
 20
8.0096364723
 10
-1.7554071662
 20
8.0270101294
 10
-1.7954633263
 20
8.0416935587
 10
-1.8365920132
 20
8.0532339803
 10
-1.8785778566
 20
8.0611885639
 10
-1.9210628644
 20
8.0650670933
 10
-1.9635513208
 20
8.0644180388
 10
-2.0056894961
 20
8.0588260546
 10
-2.0470268335
 20
8.0479166112
 10
-2.0869118852
 20
8.0314278389
 10
-2.124915708
 20
8.0091233366
 10
-2.1605480404
 20
7.9808276384
 10
-2.1931352463
 20
7.9466579311
 10
-2.2222831758
 20
7.9066139481
 10
-2.2475531393
 20
7.8608414465
  0
LWPOLYLINE
  5
390
100
AcDbEntity
  8
RACCORDO
100
AcDbPolyline
 62
253
  6
CONTINUOUS
 90
33
 70
0
 10
-1.5738034939
 20
8.4094758914
 10
-1.6224773284
 20
8.4314202663
 10
-1.6703884542
 20
8.4499040631
 10
-1.7175376682
 20
8.4649268674
 10
-1.7640089104
 20
8.4764544473
 10
-1.8097197418
 20
8.4845202551
 10
-1.8544216303
 20
8.4892252814
 10
-1.898110595
 20
8.4905795125
 10
-1.940792595
 20
8.4885719425
 10
-1.9822344595
 20
8.4832718442
 10
-2.0224487758
 20
8.4746825354
 10
-2.0614252125
 20
8.4627995414
 10
-2.0988966341
 20
8.4476802372
 10
-2.1348910484
 20
8.429291155
 10
-2.1693829218
 20
8.4076644989
 10
-2.2020252432
 20
8.3829559311
 10
-2.2328055835
 20
8.35512155
 10
-2.2617390353
 20
8.3242039016
 10
-2.2885202293
 20
8.2904881376
 10
-2.3131206637
 20
8.253945571
 10
-2.3355713681
 20
8.2146036054
 10
-2.3556564264
 20
8.1728314508
 10
-2.3733502821
 20
8.1286137849
 10
-2.3886805395
 20
8.0819648921
 10
-2.4015109922
 20
8.0332984088
 10
-2.4118212003
 20
7.9825930907
 10
-2.4196329308
 20
7.9298695103
 10
-2.4248731349
 20
7.8756041072
 10
-2.427519329
 20
7.8197860573
 10
-2.4275944626
 20
7.762425949
 10
-2.4250934218
 20
7.7040324488
 10
-2.4199914205
 20
7.6445867907
 10
-2.4123127946
 20
7.5841079684
  0
LINE
  5
391
100
AcDbEntity
  8
RACCORDO
100
AcDbLine
 62
253
  6
CONTINUOUS
 10
2.6167532626
 20
4.3505968807
 11
3.149350887
 21
4.1077342222
  0
LINE
  5
392
100
AcDbEntity
  8
RACCORDO
100
AcDbLine
 62
7
  6
CONTINUOUS
 10
2.9814140211
 20
4.3698665452
 11
2.4474991621
 21
4.6133298201
  0
LWPOLYLINE
  5
393
100
AcDbEntity
  8
RACCORDO
100
AcDbPolyline
 62
253
  6
CONTINUOUS
 90
9
 70
0
 10
2.8131659771
 20
5.2027052847
 10
2.2791260794
 20
5.4462255946
 10
1.7470154364
 20
5.6908032563
 10
1.2168424361
 20
5.9364344564
 10
0.6886126165
 20
6.1831167122
 10
0.1623371462
 20
6.4308448405
 10
-0.3619672806
 20
6.6796109015
 10
-0.8842897039
 20
6.9294096012
 10
-1.404624793
 20
7.1802383471
  0
LWPOLYLINE
  5
394
100
AcDbEntity
  8
RACCORDO
100
AcDbPolyline
 62
253
  6
CONTINUOUS
 90
3
 70
0
 10
3.0118182917
 20
5.7838594985
 10
2.4786455724
 20
6.0269843736
 10
1.947398322
 20
6.2711651807
  0
LWPOLYLINE
  5
395
100
AcDbEntity
  8
RACCORDO
100
AcDbPolyline
 62
253
  6
CONTINUOUS
 90
3
 70
0
 10
3.149350887
 20
6.1861951913
 10
2.6167479527
 20
6.4290602807
 10
2.086082013
 20
6.6729740153
  0
LWPOLYLINE
  5
396
100
AcDbEntity
  8
RACCORDO
100
AcDbPolyline
 62
7
  6
CONTINUOUS
 90
8
 70
0
 10
2.4474991621
 20
4.6133298201
 10
1.9155014468
 20
4.8578555716
 10
1.3854318291
 20
5.103438877
 10
0.8572986473
 20
5.3500759717
 10
0.3311101517
 20
5.5977631023
 10
-0.1931254966
 20
5.8464965286
 10
-0.715400108
 20
6.0962724676
 10
-1.2357054628
 20
6.3470870924
  0
LWPOLYLINE
  5
397
100
AcDbEntity
  8
RACCORDO
100
AcDbPolyline
 62
253
  6
CONTINUOUS
 90
3
 70
0
 10
-1.9229644391
 20
7.4320931777
 10
-1.9360891533
 20
7.4381668895
 10
-1.9490458724
 20
7.4428734009
  0
LWPOLYLINE
  5
398
100
AcDbEntity
  8
RACCORDO
100
AcDbPolyline
 62
253
  6
CONTINUOUS
 90
8
 70
0
 10
1.947398322
 20
6.2711651807
 10
1.4180849218
 20
6.5163981164
 10
0.8907109088
 20
6.7626806919
 10
0.3652874398
 20
7.0100077502
 10
-0.1581688148
 20
7.2583714105
 10
-0.6796469071
 20
7.5077664054
 10
-1.1991415071
 20
7.7581901363
 10
-1.7166445125
 20
8.0096386515
  0
LWPOLYLINE
  5
399
100
AcDbEntity
  8
RACCORDO
100
AcDbPolyline
 62
253
  6
CONTINUOUS
 90
8
 70
0
 10
2.086082013
 20
6.6729740153
 10
1.5573612933
 20
6.9179325152
 10
1.0305995265
 20
7.1639292876
 10
0.505799295
 20
7.4109629958
 10
-0.0170477636
 20
7.6590375689
 10
-0.5379388398
 20
7.9081517908
 10
-1.0568601586
 20
8.1582991913
 10
-1.5738034939
 20
8.4094758914
  0
LINE
  5
39A
100
AcDbEntity
  8
RACCORDO
100
AcDbLine
 62
253
  6
CONTINUOUS
 10
-4.7479358797
 20
7.9180811153
 11
-4.7015608504
 21
7.8959943392
  0
LWPOLYLINE
  5
39B
100
AcDbEntity
  8
RACCORDO
100
AcDbPolyline
 62
253
  6
CONTINUOUS
 90
9
 70
0
 10
-1.4046263738
 20
6.698650525
 10
-0.8842903384
 20
6.4478210549
 10
-0.3619672801
 20
6.1980218745
 10
0.1623376225
 20
5.9492555125
 10
0.6886132512
 20
5.7015273235
 10
1.2168424366
 20
5.4548454293
 10
1.7470138438
 20
5.2092150694
 10
2.2791220825
 20
4.9646386601
 10
2.8131587561
 20
4.7211200099
  0
LWPOLYLINE
  5
39C
100
AcDbEntity
  8
RACCORDO
100
AcDbPolyline
 62
253
  6
CONTINUOUS
 90
9
 70
0
 10
-1.5738034939
 20
6.3310149223
 10
-1.0568549873
 20
6.0798357195
 10
-0.5379297551
 20
5.8296864598
 10
-0.0170360386
 20
5.5805710146
 10
0.5058123727
 20
5.3324958463
 10
1.0306126543
 20
5.0854621634
 10
1.5573731529
 20
4.8394660296
 10
2.0860912714
 20
4.5945087737
 10
2.6167532626
 20
4.3505968807
  0
LINE
  5
39D
100
AcDbEntity
  8
RACCORDO
100
AcDbLine
 62
7
  6
CONTINUOUS
 10
-1.2357054628
 20
6.3470870924
 11
-1.7540332645
 21
6.5989365073
  0
LINE
  5
39E
100
AcDbEntity
  8
RACCORDO
100
AcDbLine
 62
253
  6
CONTINUOUS
 10
-1.922967274
 20
6.950506325
 11
-1.4046263738
 21
6.698650525
  0
LINE
  5
39F
100
AcDbEntity
  8
RACCORDO
100
AcDbLine
 62
253
  6
CONTINUOUS
 10
-1.404624793
 20
7.1802383471
 11
-1.9229644391
 21
7.4320931777
  0
LWPOLYLINE
  5
3A0
100
AcDbEntity
  8
RACCORDO
100
AcDbPolyline
 62
253
  6
CONTINUOUS
 90
33
 70
0
 10
-9.19449728
 20
12.3581192748
 10
-9.2403132997
 20
12.3815348927
 10
-9.2854076766
 20
12.4014611423
 10
-9.3297812616
 20
12.4178976314
 10
-9.3735134912
 20
12.4308121453
 10
-9.4165265309
 20
12.4402361612
 10
-9.4585855803
 20
12.4462647103
 10
-9.499686722
 20
12.4489075097
 10
-9.5398359851
 20
12.4481538776
 10
-9.5788139701
 20
12.4440680312
 10
-9.6166326478
 20
12.4366535161
 10
-9.6532824531
 20
12.4259056931
 10
-9.6885121219
 20
12.4118763051
 10
-9.7223480243
 20
12.3945323717
 10
-9.7547664264
 20
12.3739056799
 10
-9.7854413702
 20
12.3501449167
 10
-9.8143608291
 20
12.3232058764
 10
-9.8415396646
 20
12.293131486
 10
-9.866692631
 20
12.2602009599
 10
-9.8897928113
 20
12.2243852723
 10
-9.9108698082
 20
12.1857122408
 10
-9.9297233182
 20
12.1445462728
 10
-9.9463294774
 20
12.10087208
 10
-9.9607143214
 20
12.0547039755
 10
-9.9727523594
 20
12.0064507857
 10
-9.9824247945
 20
11.9560912367
 10
-9.9897518289
 20
11.9036459722
 10
-9.994666308
 20
11.849586769
 10
-9.9971475874
 20
11.7939027271
 10
-9.9972168043
 20
11.7366045257
 10
-9.9948692492
 20
11.678196411
 10
-9.9900821244
 20
11.6186590208
 10
-9.9828777511
 20
11.558011931
  0
LINE
  5
3A1
100
AcDbEntity
  8
RACCORDO
100
AcDbLine
 62
253
  6
CONTINUOUS
 10
-5.2502892798
 20
8.1765527828
 11
-4.7479358797
 21
7.9180811153
  0
LINE
  5
3A2
100
AcDbEntity
  8
RACCORDO
100
AcDbLine
 62
7
  6
CONTINUOUS
 10
-4.9370236801
 20
8.1904327527
 11
-5.4408121282
 21
8.4496427617
  0
LWPOLYLINE
  5
3A3
100
AcDbEntity
  8
RACCORDO
100
AcDbPolyline
 62
253
  6
CONTINUOUS
 90
9
 70
0
 10
-5.1058236707
 20
8.5419348791
 10
-5.6095356425
 20
8.8011053501
 10
-6.1111947732
 20
9.0612733388
 10
-6.6107931454
 20
9.322434788
 10
-7.1083255582
 20
9.5845870584
 10
-7.6037814514
 20
9.8477246383
 10
-8.0971450188
 20
10.11183909
 10
-8.5884059235
 20
10.3769247966
 10
-9.0775591854
 20
10.6429790151
  0
LWPOLYLINE
  5
3A4
100
AcDbEntity
  8
RACCORDO
100
AcDbPolyline
 62
253
  6
CONTINUOUS
 90
3
 70
0
 10
-4.7479358797
 20
9.9965420843
 10
-5.2502942853
 20
10.2550163376
 10
-5.7505928046
 20
10.5144789536
  0
LWPOLYLINE
  5
3A5
100
AcDbEntity
  8
RACCORDO
100
AcDbPolyline
 62
7
  6
CONTINUOUS
 90
8
 70
0
 10
-5.4408121282
 20
8.4496427617
 10
-5.9425572923
 20
8.7098555375
 10
-6.4422512326
 20
8.9710670774
 10
-6.9398860942
 20
9.2332733913
 10
-7.4354540823
 20
9.4964704889
 10
-7.9289474645
 20
9.7606543822
 10
-8.4203585112
 20
10.0258210536
 10
-8.9096794935
 20
10.2919664541
  0
LINE
  5
3A6
100
AcDbEntity
  8
RACCORDO
100
AcDbLine
 62
253
  6
CONTINUOUS
 10
-1.6218454738
 20
6.3561176426
 11
-1.5738034939
 21
6.3310149223
  0
LWPOLYLINE
  5
3A7
100
AcDbEntity
  8
RACCORDO
100
AcDbPolyline
 62
253
  6
CONTINUOUS
 90
4
 70
0
 10
-6.3968782742
 20
10.377726122
 10
-5.8980884543
 20
10.116987243
 10
-5.3972410782
 20
9.8572401017
 10
-4.894344049
 20
9.5984887496
  0
LWPOLYLINE
  5
3A8
100
AcDbEntity
  8
RACCORDO
100
AcDbPolyline
 62
253
  6
CONTINUOUS
 90
8
 70
0
 10
-5.7505928046
 20
10.5144789536
 10
-6.248823695
 20
10.7749258118
 10
-6.7449740314
 20
11.0363500175
 10
-7.2390413972
 20
11.2987501583
 10
-7.7310336649
 20
11.5621304076
 10
-8.2209481767
 20
11.8264894669
 10
-8.708771963
 20
12.0918204625
 10
-9.19449728
 20
12.3581192748
  0
LWPOLYLINE
  5
3A9
100
AcDbEntity
  8
RACCORDO
100
AcDbPolyline
 62
253
  6
CONTINUOUS
 90
23
 70
0
 10
-5.1058169004
 20
9.0235199599
 10
-5.0915139704
 20
9.0157890694
 10
-5.0769423303
 20
9.0062422327
 10
-5.0621018865
 20
8.9948794957
 10
-5.0468072409
 20
8.9816967061
 10
-5.0312435531
 20
8.966698133
 10
-5.0159667709
 20
8.9498963544
 10
-5.0009421784
 20
8.9311658912
 10
-4.9862046941
 20
8.9106321239
 10
-4.9724151541
 20
8.8886837074
 10
-4.9595819629
 20
8.8651680796
 10
-4.9476973261
 20
8.8402375045
 10
-4.9373981612
 20
8.8147376905
 10
-4.9287787181
 20
8.7885980401
 10
-4.9217454827
 20
8.7618887911
 10
-4.9166538748
 20
8.7356668318
 10
-4.9136252406
 20
8.7099987735
 10
-4.9125386207
 20
8.6848178158
 10
-4.9133859002
 20
8.6609807659
 10
-4.9162340179
 20
8.6385955822
 10
-4.9210158615
 20
8.6175543913
 10
-4.9275221278
 20
8.5983903082
 10
-4.935794188
 20
8.5811569971
  0
LINE
  5
3AA
100
AcDbEntity
  8
RACCORDO
100
AcDbLine
 62
7
  6
CONTINUOUS
 10
-1.822168901
 20
6.6359754503
 11
-1.7534101804
 21
6.5986381133
  0
LWPOLYLINE
  5
3AB
100
AcDbEntity
  8
RACCORDO
100
AcDbPolyline
 62
253
  6
CONTINUOUS
 90
9
 70
0
 10
-9.0775576481
 20
11.124566764
 10
-8.5884053062
 20
10.8585133137
 10
-8.0971450193
 20
10.5934281171
 10
-7.6037819052
 20
10.3293139831
 10
-7.1083261563
 20
10.0661764661
 10
-6.6107931459
 20
9.804023815
 10
-6.1111932813
 20
9.542861483
 10
-5.6095318967
 20
9.2826921773
 10
-5.1058169004
 20
9.0235199599
  0
LWPOLYLINE
  5
3AC
100
AcDbEntity
  8
RACCORDO
100
AcDbPolyline
 62
253
  6
CONTINUOUS
 90
9
 70
0
 10
-9.19449728
 20
10.2796583057
 10
-8.708767101
 20
10.0133568385
 10
-8.2209396318
 20
9.7480238686
 10
-7.7310226319
 20
9.4836635087
 10
-7.2390290871
 20
9.2202826252
 10
-6.7449616706
 20
8.9578825095
 10
-6.2488125245
 20
8.6964589802
 10
-5.7505840807
 20
8.4360134422
 10
-5.2502892798
 20
8.1765527828
  0
LINE
  5
3AD
100
AcDbEntity
  8
RACCORDO
100
AcDbLine
 62
7
  6
CONTINUOUS
 10
-8.9096794935
 20
10.2919664541
 11
-9.3969010948
 21
10.5590856284
  0
LINE
  5
3AE
100
AcDbEntity
  8
RACCORDO
100
AcDbLine
 62
253
  6
CONTINUOUS
 10
-9.0775591854
 20
10.6429790151
 11
-9.5645971847
 21
10.909997548
  0
LINE
  5
3AF
100
AcDbEntity
  8
RACCORDO
100
AcDbLine
 62
253
  6
CONTINUOUS
 10
-9.5645944293
 20
11.391584269
 11
-9.0775576481
 21
11.124566764
  0
LWPOLYLINE
  5
3B0
100
AcDbEntity
  8
RACCORDO
100
AcDbPolyline
 62
253
  6
CONTINUOUS
 90
7
 70
0
 10
-9.3459030251
 20
11.9627198294
 10
-8.8596523065
 20
11.6961330893
 10
-8.3712900442
 20
11.4305092281
 10
-7.8808238493
 20
11.1658524347
 10
-7.3882588418
 20
10.9021655245
 10
-6.8936052016
 20
10.6394540244
 10
-6.3968782742
 20
10.377726122
  0
LWPOLYLINE
  5
3B1
100
AcDbEntity
  8
RACCORDO
100
AcDbPolyline
 62
253
  6
CONTINUOUS
 90
16
 70
0
 10
-4.8943441054
 20
9.5984884988
 10
-4.8522282589
 20
9.5749997553
 10
-4.8086174052
 20
9.5466116465
 10
-4.7638075391
 20
9.513027843
 10
-4.7180535171
 20
9.4739181867
 10
-4.671882298
 20
9.4291695798
 10
-4.6260636696
 20
9.3789849945
 10
-4.5811096617
 20
9.3234085572
 10
-4.5375875188
 20
9.2625928474
 10
-4.4963485202
 20
9.1971830436
 10
-4.4579208845
 20
9.1274842359
 10
-4.4229645234
 20
9.0540837573
 10
-4.3923459659
 20
8.9783259311
 10
-4.3665157725
 20
8.9009142038
 10
-4.3458900975
 20
8.8226264338
 10
-4.3309508602
 20
8.7450376926
  0
LWPOLYLINE
  5
3B2
100
AcDbEntity
  8
RACCORDO
100
AcDbPolyline
 62
253
  6
CONTINUOUS
 90
3
 70
0
 10
-9.5645971847
 20
10.909997548
 10
-9.5784416525
 20
10.9180200471
 10
-9.5925460662
 20
10.9278706552
  0
LINE
  5
3B3
100
AcDbEntity
  8
RACCORDO
100
AcDbLine
 62
253
  6
CONTINUOUS
 10
-9.2397017815
 20
10.3062097585
 11
-9.19449728
 21
10.2796583057
  0
LINE
  5
3B4
100
AcDbEntity
  8
RACCORDO
100
AcDbLine
 62
7
  6
CONTINUOUS
 10
-9.4582576316
 20
10.5962205399
 11
-9.3962723749
 21
10.5587430098
  0
LINE
  5
3B5
100
AcDbEntity
  8
RACCORDO
100
AcDbLine
 62
253
  6
CONTINUOUS
 10
-1.7939719912
 20
6.6235366846
 11
-1.7540332645
 21
6.5989365073
  0
LWPOLYLINE
  5
3B6
100
AcDbEntity
  8
RACCORDO
100
AcDbPolyline
 62
253
  6
CONTINUOUS
 90
5
 70
0
 10
-4.9370703768
 20
8.1904566903
 10
-4.9736054144
 20
8.2133534143
 10
-5.0073805094
 20
8.2436782391
 10
-5.0366870297
 20
8.2804013824
 10
-5.0611679472
 20
8.3230754664
  0
LWPOLYLINE
  5
3B7
100
AcDbEntity
  8
RACCORDO
100
AcDbPolyline
 62
253
  6
CONTINUOUS
 90
3
 70
0
 10
2.9373653566
 20
4.3964043151
 10
2.9729027732
 20
4.3739543201
 10
2.9813214076
 20
4.3699086348
  0
LINE
  5
3B8
100
AcDbEntity
  8
RACCORDO
100
AcDbLine
 62
7
  6
CONTINUOUS
 10
-1.9568694506
 20
6.7344714924
 11
-1.822168901
 21
6.6359754503
  0
LWPOLYLINE
  5
3B9
100
AcDbEntity
  8
RACCORDO
100
AcDbPolyline
 62
253
  6
CONTINUOUS
 90
5
 70
0
 10
-1.9927446037
 20
6.9999655072
 10
-1.9761302019
 20
6.9852960524
 10
-1.9589819713
 20
6.9721839635
 10
-1.9412610708
 20
6.9605873489
 10
-1.922967274
 20
6.950506325
  0
LINE
  5
3BA
100
AcDbEntity
  8
RACCORDO
100
AcDbLine
 62
253
  6
CONTINUOUS
 10
2.9056386513
 20
4.4257409018
 11
2.9373653566
 21
4.3964043151
  0
LWPOLYLINE
  5
3BB
100
AcDbEntity
  8
CURVE
100
AcDbPolyline
 62
253
  6
CONTINUOUS
 90
44
 70
0
 10
-0.1597721739
 20
10.2153672411
 10
-0.1627184444
 20
10.219347622
 10
-0.1655344976
 20
10.2232096259
 10
-0.1682675262
 20
10.2270159429
 10
-0.170964723
 20
10.2308292629
 10
-0.1763604391
 20
10.2386204705
 10
-0.18169942
 20
10.2465487596
 10
-0.1869009286
 20
10.2545012651
 10
-0.1919699977
 20
10.2624804253
 10
-0.1969275151
 20
10.2705100463
 10
-0.2017720179
 20
10.278584101
 10
-0.2064976951
 20
10.2866908891
 10
-0.2111036937
 20
10.2948258498
 10
-0.2155904001
 20
10.302986207
 10
-0.2199582009
 20
10.3111691848
 10
-0.2255972765
 20
10.3221099461
 10
-0.231024393
 20
10.3330778155
 10
-0.2362382918
 20
10.3440646216
 10
-0.2412377972
 20
10.3550628085
 10
-0.2460220631
 20
10.3660672814
 10
-0.2505903261
 20
10.3770735607
 10
-0.2549418227
 20
10.3880771669
 10
-0.2590757893
 20
10.3990736206
 10
-0.2629914626
 20
10.410058442
 10
-0.2666882588
 20
10.4210265115
 10
-0.2701663136
 20
10.4319701474
 10
-0.2734259426
 20
10.4428810279
 10
-0.2764684279
 20
10.4537560191
 10
-0.2792989187
 20
10.4646127392
 10
-0.281923531
 20
10.4754739944
 10
-0.284012792
 20
10.4848014753
 10
-0.28595206
 20
10.4941450243
 10
-0.2877381062
 20
10.5035006222
 10
-0.289367702
 20
10.5128642497
 10
-0.2908376186
 20
10.5222318875
 10
-0.2921446274
 20
10.5315995163
 10
-0.2932854997
 20
10.5409631167
 10
-0.2942572862
 20
10.5503168293
 10
-0.2950581545
 20
10.5596474335
 10
-0.2956865518
 20
10.5689398683
 10
-0.2961409252
 20
10.5781790729
 10
-0.2964197218
 20
10.5873499864
 10
-0.2965213886
 20
10.596437548
 10
-0.2964443726
 20
10.6054266968
  0
LWPOLYLINE
  5
3BC
100
AcDbEntity
  8
CURVE
100
AcDbPolyline
 62
253
  6
CONTINUOUS
 90
20
 70
0
 10
2.4745391264
 20
9.9538575792
 10
2.4779233576
 20
9.9442906774
 10
2.4792407525
 20
9.9405139579
 10
2.4805228931
 20
9.9367650817
 10
2.4817605771
 20
9.9330426546
 10
2.4829447237
 20
9.9293435835
 10
2.4840662822
 20
9.9256643508
 10
2.4848607611
 20
9.9229163393
 10
2.4856100934
 20
9.9201790861
 10
2.4863094289
 20
9.917454169
 10
2.4869539177
 20
9.9147431659
 10
2.4875387115
 20
9.9120478899
 10
2.488058968
 20
9.9093710936
 10
2.4885098465
 20
9.9067157649
 10
2.4888865065
 20
9.9040848916
 10
2.4891313258
 20
9.9020002465
 10
2.4893241584
 20
9.8999373212
 10
2.4894636155
 20
9.8979002722
 10
2.4895483082
 20
9.8958932556
 10
2.4895768477
 20
9.8939204277
  0
LWPOLYLINE
  5
3BD
100
AcDbEntity
  8
RACCORDO
100
AcDbPolyline
 62
253
  6
CONTINUOUS
 90
14
 70
0
 10
3.0030709944
 20
4.9690780572
 10
2.9950095453
 20
4.9925971065
 10
2.9854321718
 20
5.0157784153
 10
2.974369085
 20
5.0386345024
 10
2.9621204498
 20
5.0606310978
 10
2.9486305985
 20
5.081769083
 10
2.9339558228
 20
5.1020479205
 10
2.918564065
 20
5.1209311231
 10
2.9025720622
 20
5.1382825
 10
2.8858635071
 20
5.1542384784
 10
2.8685566149
 20
5.1686714096
 10
2.8506909148
 20
5.181538812
 10
2.8322272943
 20
5.1928833961
 10
2.8131659771
 20
5.2027052847
  0
LWPOLYLINE
  5
3BE
100
AcDbEntity
  8
CURVE
100
AcDbPolyline
 62
253
  6
CONTINUOUS
 90
3
 70
0
 10
2.4705277204
 20
9.9655188922
 10
2.4725091254
 20
9.959670789
 10
2.4745391264
 20
9.9538575792
  0
LINE
  5
3BF
100
AcDbEntity
  8
CURVE
100
AcDbLine
 62
253
  6
CONTINUOUS
 10
2.4647487453
 20
9.9830566422
 11
2.4705277204
 21
9.9655188922
  0
LWPOLYLINE
  5
3C0
100
AcDbEntity
  8
CURVE
100
AcDbPolyline
 62
253
  6
CONTINUOUS
 90
7
 70
0
 10
0.461560635
 20
25.9835835599
 10
0.4504493309
 20
26.0320153299
 10
0.4390675198
 20
26.0803033235
 10
0.427377299
 20
26.1284479312
 10
0.4153407659
 20
26.176449543
 10
0.4029200178
 20
26.2243085494
 10
0.3900771521
 20
26.2720253405
  0
LINE
  5
3C1
100
AcDbEntity
  8
CURVE
100
AcDbLine
 62
253
  6
CONTINUOUS
 10
0.4831321621
 20
25.8862811407
 11
0.461560635
 21
25.9835835599
  0
LINE
  5
3C2
100
AcDbEntity
  8
CURVE
100
AcDbLine
 62
253
  6
CONTINUOUS
 10
0.5891502857
 20
25.3900767547
 11
0.5564154248
 21
25.5407338506
  0
LINE
  5
3C3
100
AcDbEntity
  8
CURVE
100
AcDbLine
 62
253
  6
CONTINUOUS
 10
0.509328662
 20
25.7637849453
 11
0.4831321621
 21
25.8862811407
  0
LINE
  5
3C4
100
AcDbEntity
  8
CURVE
100
AcDbLine
 62
253
  6
CONTINUOUS
 10
0.857646146
 20
26.0271461612
 11
0.8671068794
 21
25.982879693
  0
LINE
  5
3C5
100
AcDbEntity
  8
CURVE
100
AcDbLine
 62
253
  6
CONTINUOUS
 10
0.5564154248
 20
25.5407338506
 11
0.509328662
 21
25.7637849453
  0
LINE
  5
3C6
100
AcDbEntity
  8
CURVE
100
AcDbLine
 62
253
  6
CONTINUOUS
 10
0.8671068794
 20
25.982879693
 11
0.8898071853
 21
25.8727442229
  0
LINE
  5
3C7
100
AcDbEntity
  8
CURVE
100
AcDbLine
 62
253
  6
CONTINUOUS
 10
1.0020162537
 20
25.3115657753
 11
1.027999866
 21
25.1836279816
  0
LINE
  5
3C8
100
AcDbEntity
  8
CURVE
100
AcDbLine
 62
253
  6
CONTINUOUS
 10
0.8898071853
 20
25.8727442229
 11
0.9422469577
 21
25.6122475623
  0
LINE
  5
3C9
100
AcDbEntity
  8
CURVE
100
AcDbLine
 62
253
  6
CONTINUOUS
 10
0.9422469577
 20
25.6122475623
 11
1.0020162537
 21
25.3115657753
  0
LWPOLYLINE
  5
3CA
100
AcDbEntity
  8
RACCORDO
100
AcDbPolyline
 62
7
  6
CONTINUOUS
 90
3
 70
0
 10
5.9720689492
 20
27.7444770218
 10
5.9611940486
 20
27.8812110897
 10
5.9344242561
 20
28.0153521348
  0
LINE
  5
3CB
100
AcDbEntity
  8
RACCORDO
100
AcDbLine
 62
7
  6
CONTINUOUS
 10
6.075191499
 20
27.8789601576
 11
6.0854809851
 21
27.733433866
  0
LINE
  5
3CC
100
AcDbEntity
  8
RACCORDO
100
AcDbLine
 62
7
  6
CONTINUOUS
 10
9.7586909049
 20
-31.6941334981
 11
9.7758560189
 21
-39.3602933767
  0
LWPOLYLINE
  5
3CD
100
AcDbEntity
  8
RACCORDO
100
AcDbPolyline
 62
7
  6
CONTINUOUS
 90
3
 70
0
 10
9.7403043699
 20
-16.5452405056
 10
9.7468407389
 20
-24.089115646
 10
9.7586909049
 20
-31.6941334981
  0
LINE
  5
3CE
100
AcDbEntity
  8
RACCORDO
100
AcDbLine
 62
253
  6
CONTINUOUS
 10
8.1810392218
 20
26.9188189017
 11
8.1810392218
 21
-40.0150895319
  0
LINE
  5
3CF
100
AcDbEntity
  8
RACCORDO
100
AcDbLine
 62
253
  6
CONTINUOUS
 10
8.5828571817
 20
26.9255788775
 11
8.5828571817
 21
-40.0083295562
  0
LINE
  5
3D0
100
AcDbEntity
  8
DRAFT
100
AcDbLine
 62
7
  6
CONTINUOUS
 10
9.6177367313
 20
27.4252646596
 11
9.6177367313
 21
-39.508643774
  0
LWPOLYLINE
  5
3D1
100
AcDbEntity
  8
RACCORDO
100
AcDbPolyline
 62
7
  6
CONTINUOUS
 90
7
 70
0
 10
9.8239515154
 20
27.429123985
 10
9.7935881766
 20
20.2542748862
 10
9.7697967146
 20
13.0177429251
 10
9.7525742758
 20
5.7195264015
 10
9.7423361943
 20
-1.6405571325
 10
9.7386637704
 20
-9.0623272329
 10
9.7403043699
 20
-16.5452405056
  0
LWPOLYLINE
  5
3D2
100
AcDbEntity
  8
RACCORDO
100
AcDbPolyline
 62
7
  6
CONTINUOUS
 90
6
 70
0
 10
6.0854809851
 20
-18.2264476007
 10
6.0755454928
 20
-18.3611139276
 10
6.046404595
 20
-18.483894041
 10
5.9986776864
 20
-18.5915543832
 10
5.93325296
 20
-18.681365641
 10
5.8518297845
 20
-18.7507917773
  0
LINE
  5
3D3
100
AcDbEntity
  8
RACCORDO
100
AcDbLine
 62
7
  6
CONTINUOUS
 10
5.9615890768
 20
-18.2647765797
 11
5.9720689492
 21
-18.1393187385
  0
LWPOLYLINE
  5
3D4
100
AcDbEntity
  8
RACCORDO
100
AcDbPolyline
 62
253
  6
CONTINUOUS
 90
10
 70
0
 10
12.0017456854
 20
28.2052400823
 10
12.0639586374
 20
28.7741805925
 10
12.0485317889
 20
29.3467085168
 10
11.9557814323
 20
29.9110853807
 10
11.7876092152
 20
30.4557398299
 10
11.5474631511
 20
30.9695048769
 10
11.2402669248
 20
31.4418468558
 10
10.8723189433
 20
31.8630813931
 10
10.4511631999
 20
32.2245719654
 10
9.9854346004
 20
32.5189069729
  0
LWPOLYLINE
  5
3D5
100
AcDbEntity
  8
RACCORDO
100
AcDbPolyline
 62
253
  6
CONTINUOUS
 90
8
 70
0
 10
2.9838649622
 20
-6.5085666082
 10
2.9717531098
 20
-6.522020377
 10
2.9581186346
 20
-6.5332078394
 10
2.9429963344
 20
-6.5421923944
 10
2.9268376647
 20
-6.5487775777
 10
2.9096407668
 20
-6.5529085431
 10
2.8914081971
 20
-6.5546397528
 10
2.8725977633
 20
-6.5539388542
  0
LWPOLYLINE
  5
3D6
100
AcDbEntity
  8
RACCORDO
100
AcDbPolyline
 62
253
  6
CONTINUOUS
 90
49
 70
0
 10
-4.3519810478
 20
7.8393329443
 10
-4.3121573716
 20
7.8473296319
 10
-4.273432907
 20
7.8586829036
 10
-4.2361971455
 20
7.8733298746
 10
-4.2004631363
 20
7.8913122984
 10
-4.1662204603
 20
7.9125871341
 10
-4.1338239727
 20
7.936964027
 10
-4.1033025215
 20
7.964473201
 10
-4.0746300599
 20
7.9950830561
 10
-4.0480794499
 20
8.028510328
 10
-4.0236757975
 20
8.0647756919
 10
-4.001396589
 20
8.103857196
 10
-3.9814433855
 20
8.1454075714
 10
-3.9638367766
 20
8.1894496329
 10
-3.9485582584
 20
8.2359595367
 10
-3.9357507164
 20
8.2845200427
 10
-3.9254368203
 20
8.3351478208
 10
-3.9175952614
 20
8.3878255289
 10
-3.912302805
 20
8.4420849843
 10
-3.9095837433
 20
8.4979517915
 10
-3.90941427
 20
8.5554001057
 10
-3.9117987857
 20
8.6138846777
 10
-3.9167684874
 20
8.673429222
 10
-3.9242917305
 20
8.7340102451
 10
-3.9342784374
 20
8.7950117923
 10
-3.9467548024
 20
8.8564244358
 10
-3.9616933127
 20
8.9182582547
 10
-3.9789231889
 20
8.9799266233
 10
-3.9984494633
 20
9.0413918472
 10
-4.0202650987
 20
9.1026926099
 10
-4.0441811815
 20
9.1633568686
 10
-4.0701978619
 20
9.223371584
 10
-4.0983124873
 20
9.2827510275
 10
-4.1283320059
 20
9.341064089
 10
-4.1602632418
 20
9.3983165828
 10
-4.1940965407
 20
9.454504085
 10
-4.2296143044
 20
9.5091800431
 10
-4.2668546336
 20
9.5623772787
 10
-4.3057764541
 20
9.6140644267
 10
-4.3460437871
 20
9.6636984656
 10
-4.3877218161
 20
9.7112976504
 10
-4.4307426396
 20
9.7568450518
 10
-4.4745714451
 20
9.7997444809
 10
-4.5192322803
 20
9.839938698
 10
-4.5646993189
 20
9.8774858035
 10
-4.6103641263
 20
9.9119620351
 10
-4.656024025
 20
9.943226069
 10
-4.7018813572
 20
9.9714193812
 10
-4.7479358797
 20
9.9965420843
  0
LWPOLYLINE
  5
3D7
100
AcDbEntity
  8
RACCORDO
100
AcDbPolyline
 62
253
  6
CONTINUOUS
 90
4
 70
0
 10
-5.0501562239
 20
8.5236232081
 10
-5.0681744094
 20
8.5272891571
 10
-5.0867303057
 20
8.5333930082
 10
-5.1058236707
 20
8.5419348791
  0
LINE
  5
3D8
100
AcDbEntity
  8
CURVE
100
AcDbLine
 62
253
  6
CONTINUOUS
 10
2.3605504664
 20
7.3613582988
 11
1.8333384958
 21
7.6046105991
  0
LWPOLYLINE
  5
3D9
100
AcDbEntity
  8
CURVE
100
AcDbPolyline
 62
253
  6
CONTINUOUS
 90
59
 70
0
 10
0.641676049
 20
8.7979838863
 10
0.6470250227
 20
8.7955160764
 10
0.652201729
 20
8.7932381221
 10
0.6572799834
 20
8.7911135159
 10
0.6623336015
 20
8.7891057502
 10
0.6691235966
 20
8.7865651564
 10
0.6759514623
 20
8.7841874887
 10
0.6827676399
 20
8.7819928587
 10
0.692895472
 20
8.7790722974
 10
0.7029215824
 20
8.7765818602
 10
0.7128743915
 20
8.7744994363
 10
0.7227516657
 20
8.7728223222
 10
0.73254334
 20
8.771551519
 10
0.7422386774
 20
8.7706834393
 10
0.7518267727
 20
8.7702133482
 10
0.7612967211
 20
8.770136511
 10
0.7687830082
 20
8.7703566377
 10
0.7761974526
 20
8.7708328042
 10
0.7835508046
 20
8.7715723979
 10
0.7908538149
 20
8.7725828062
 10
0.7981172339
 20
8.7738714166
 10
0.8061482292
 20
8.7756374228
 10
0.8141216959
 20
8.7777598137
 10
0.8220157114
 20
8.7802423944
 10
0.8298083531
 20
8.7830889701
 10
0.8374776985
 20
8.7863033458
 10
0.8450018247
 20
8.7898893267
 10
0.8523588093
 20
8.7938507177
 10
0.8595267297
 20
8.798191324
 10
0.8664836631
 20
8.8029149508
 10
0.8732104275
 20
8.8080208492
 10
0.8796988028
 20
8.8134900553
 10
0.8859433096
 20
8.8192990511
 10
0.8919384683
 20
8.8254243189
 10
0.8976787993
 20
8.8318423408
 10
0.9031588232
 20
8.8385295989
 10
0.9083730604
 20
8.8454625753
 10
0.9133160314
 20
8.8526177523
 10
0.9179822567
 20
8.8599716119
 10
0.9219431243
 20
8.866744689
 10
0.9256858626
 20
8.8736675084
 10
0.9292209448
 20
8.880747929
 10
0.9325588441
 20
8.8879938095
 10
0.9357100335
 20
8.8954130089
 10
0.9393976252
 20
8.9049386398
 10
0.9428015643
 20
8.914738289
 10
0.9459135679
 20
8.9248028845
 10
0.9487253529
 20
8.9351233543
 10
0.951229667
 20
8.9456903405
 10
0.9534233796
 20
8.9564933396
 10
0.9553033507
 20
8.9675311794
 10
0.9568622819
 20
8.978841156
 10
0.9577190523
 20
8.9865435573
 10
0.9584266978
 20
8.9943300351
 10
0.9589824837
 20
9.0021428655
 10
0.9592979757
 20
9.0080038792
 10
0.959525087
 20
9.0139358226
 10
0.9596623961
 20
9.0200272713
 10
0.9597084817
 20
9.0263668012
  0
LWPOLYLINE
  5
3DA
100
AcDbEntity
  8
CURVE
100
AcDbPolyline
 62
253
  6
CONTINUOUS
 90
6
 70
0
 10
1.8333384833
 20
7.6046106048
 10
1.3680551397
 20
7.820895658
 10
0.9042845822
 20
8.0379914644
 10
0.4420324617
 20
8.2558953789
 10
-0.0186955893
 20
8.4746047464
 10
-0.7737325611
 20
8.8363532609
  0
LWPOLYLINE
  5
3DB
100
AcDbEntity
  8
CURVE
100
AcDbPolyline
 62
253
  6
CONTINUOUS
 90
57
 70
0
 10
-0.5850391373
 20
11.6043786905
 10
-0.590350007
 20
11.6068758329
 10
-0.5954890275
 20
11.6091821709
 10
-0.6005296432
 20
11.611334691
 10
-0.6055452981
 20
11.6133703794
 10
-0.6122837186
 20
11.6159488025
 10
-0.6190590278
 20
11.618364848
 10
-0.6258219211
 20
11.6205980855
 10
-0.6358688527
 20
11.6235765056
 10
-0.6458128582
 20
11.6261248096
 10
-0.6556822393
 20
11.6282652706
 10
-0.6654747268
 20
11.6300005726
 10
-0.6751802795
 20
11.6313296362
 10
-0.684788339
 20
11.6322559194
 10
-0.6942882177
 20
11.6327840144
 10
-0.7036692276
 20
11.6329185134
 10
-0.7129258788
 20
11.6326608755
 10
-0.7220734724
 20
11.6320000274
 10
-0.7311325074
 20
11.6309217628
 10
-0.7401234825
 20
11.6294118751
 10
-0.7480689125
 20
11.6276969096
 10
-0.7559552626
 20
11.6256256554
 10
-0.7637610323
 20
11.6231940844
 10
-0.7714647207
 20
11.6203981682
 10
-0.7790448271
 20
11.6172338784
 10
-0.7864798507
 20
11.6136971869
 10
-0.7937482908
 20
11.6097840651
 10
-0.8008286466
 20
11.6054904849
 10
-0.8076994174
 20
11.600812418
 10
-0.8143418118
 20
11.5957503964
 10
-0.8207478762
 20
11.5903231945
 10
-0.8269123664
 20
11.5845541471
 10
-0.8328300381
 20
11.578466589
 10
-0.8384956472
 20
11.5720838549
 10
-0.8439039494
 20
11.5654292797
 10
-0.8490497006
 20
11.5585261982
 10
-0.8539276565
 20
11.5513979451
 10
-0.8585325729
 20
11.5440678553
 10
-0.8633847911
 20
11.5356012649
 10
-0.8679048468
 20
11.5268937677
 10
-0.8721127801
 20
11.5179303733
 10
-0.8760286313
 20
11.5086960914
 10
-0.8796677541
 20
11.4991799233
 10
-0.8830267556
 20
11.4893868362
 10
-0.8860975567
 20
11.4793257891
 10
-0.888872078
 20
11.4690057408
 10
-0.8913432372
 20
11.4584359717
 10
-0.8935079398
 20
11.4476270474
 10
-0.8953630685
 20
11.4365801833
 10
-0.8969014283
 20
11.4252579091
 10
-0.8977469171
 20
11.4175454223
 10
-0.8984452642
 20
11.409747501
 10
-0.898993765
 20
11.401922067
 10
-0.8993051323
 20
11.3960508892
 10
-0.8995292812
 20
11.3901079084
 10
-0.8996648034
 20
11.384004216
 10
-0.8997102904
 20
11.3776509039
  0
LWPOLYLINE
  5
3DC
100
AcDbEntity
  8
CURVE
100
AcDbPolyline
 62
253
  6
CONTINUOUS
 90
5
 70
0
 10
0.3275052924
 20
8.6125174592
 10
0.7893795578
 20
8.3944133271
 10
1.2527736602
 20
8.1771166449
 10
1.7176819535
 20
7.9606300601
 10
2.2321629595
 20
7.7228167212
  0
LWPOLYLINE
  5
3DD
100
AcDbEntity
  8
CURVE
100
AcDbPolyline
 62
253
  6
CONTINUOUS
 90
3
 70
0
 10
0.641676049
 20
11.0204186915
 10
0.054248543
 20
11.2986974462
 10
-0.5850391515
 20
11.6043786973
  0
LINE
  5
3DE
100
AcDbEntity
  8
CURVE
100
AcDbLine
 62
253
  6
CONTINUOUS
 10
-0.2972668049
 20
8.9099862648
 11
0.3275052924
 21
8.6125174592
  0
LINE
  5
3DF
100
AcDbEntity
  8
CURVE
100
AcDbLine
 62
253
  6
CONTINUOUS
 10
0.3061233174
 20
9.4384973272
 11
-0.2516974078
 21
9.7040399172
  0
LWPOLYLINE
  5
3E0
100
AcDbEntity
  8
CURVE
100
AcDbPolyline
 62
253
  6
CONTINUOUS
 90
4
 70
0
 10
-0.5850391373
 20
9.3819438854
 10
-0.1261992366
 20
9.1622444132
 10
0.3341716572
 20
8.9433471046
 10
0.6416760659
 20
8.7979838783
  0
LINE
  5
3E1
100
AcDbEntity
  8
CURVE
100
AcDbLine
 62
253
  6
CONTINUOUS
 10
-0.8999641061
 20
9.19737744
 11
-0.2972667865
 21
8.9077254486
  0
LWPOLYLINE
  5
3E2
100
AcDbEntity
  8
CURVE
100
AcDbPolyline
 62
253
  6
CONTINUOUS
 90
67
 70
0
 10
0.0270525505
 20
10.8298140672
 10
0.0313642922
 20
10.8277251159
 10
0.0354666056
 20
10.825663774
 10
0.0395069252
 20
10.8235609644
 10
0.0456680293
 20
10.8202281526
 10
0.0518850651
 20
10.8167150451
 10
0.058050079
 20
10.8130765232
 10
0.0641685452
 20
10.8093132748
 10
0.070266924
 20
10.8054159171
 10
0.0763421928
 20
10.80138898
 10
0.0843926236
 20
10.795829873
 10
0.0923827663
 20
10.7900608392
 10
0.1003118942
 20
10.7840880788
 10
0.1081788999
 20
10.7779177744
 10
0.1159811544
 20
10.7715560358
 10
0.123715648
 20
10.7650089549
 10
0.1313797672
 20
10.7582819741
 10
0.1389724833
 20
10.7513779368
 10
0.1464931634
 20
10.7442990369
 10
0.1539402068
 20
10.7370485561
 10
0.1613081406
 20
10.7296341263
 10
0.1685905234
 20
10.7220644673
 10
0.1772104154
 20
10.7127835359
 10
0.1857048816
 20
10.7032784064
 10
0.1940809646
 20
10.6935358543
 10
0.2023457071
 20
10.683542655
 10
0.2105061518
 20
10.6732855841
 10
0.2185655901
 20
10.6627538978
 10
0.2265123085
 20
10.6519467745
 10
0.2343308423
 20
10.6408658737
 10
0.2420057269
 20
10.6295128546
 10
0.2495214975
 20
10.6178893764
 10
0.2568619517
 20
10.6060012207
 10
0.2640079357
 20
10.5938706579
 10
0.2709395579
 20
10.5815240808
 10
0.2776369267
 20
10.5689878821
 10
0.2840801505
 20
10.5562884545
 10
0.2902510973
 20
10.5434541309
 10
0.2961386725
 20
10.5305210041
 10
0.3017335415
 20
10.5175271068
 10
0.3070263691
 20
10.5045104721
 10
0.3120078205
 20
10.4915091326
 10
0.3166717876
 20
10.4785508294
 10
0.3210250699
 20
10.4656221357
 10
0.3250776936
 20
10.4526993328
 10
0.3288396851
 20
10.439758702
 10
0.3323210707
 20
10.4267765245
 10
0.3355287965
 20
10.4137360628
 10
0.3384574878
 20
10.4006485035
 10
0.34109869
 20
10.3875320141
 10
0.3434439481
 20
10.3744047624
 10
0.3454848075
 20
10.361284916
 10
0.3472128132
 20
10.3481906427
 10
0.3486195106
 20
10.3351401099
 10
0.3496964449
 20
10.3221514854
 10
0.3504351612
 20
10.3092429369
 10
0.3508272048
 20
10.296432632
 10
0.3508663044
 20
10.2837419959
 10
0.350554923
 20
10.2712054843
 10
0.3498977074
 20
10.2588608106
 10
0.3488993041
 20
10.246745688
 10
0.3475643597
 20
10.2348978298
 10
0.3461085244
 20
10.2246748059
 10
0.344399648
 20
10.2146917819
 10
0.3424439588
 20
10.2049505153
 10
0.3402476851
 20
10.1954527634
 10
0.3378170554
 20
10.1862002837
  0
LWPOLYLINE
  5
3E3
100
AcDbEntity
  8
CURVE
100
AcDbPolyline
 62
253
  6
CONTINUOUS
 90
59
 70
0
 10
-0.7737326831
 20
8.8363533197
 10
-0.7758558579
 20
8.8374001583
 10
-0.7779179237
 20
8.8384644878
 10
-0.7799444068
 20
8.8395578253
 10
-0.7819608332
 20
8.8406916876
 10
-0.7846648765
 20
8.8422802167
 10
-0.7873789209
 20
8.8439511738
 10
-0.790085466
 20
8.8456944683
 10
-0.7927705243
 20
8.8475017198
 10
-0.795434159
 20
8.8493713877
 10
-0.7980799459
 20
8.8513036419
 10
-0.802020347
 20
8.8543189138
 10
-0.8059248815
 20
8.8574709814
 10
-0.8097898042
 20
8.8607550429
 10
-0.8136114101
 20
8.864164709
 10
-0.8173860042
 20
8.8676931941
 10
-0.8211098915
 20
8.8713337123
 10
-0.8247812177
 20
8.875082404
 10
-0.8284054911
 20
8.8789471152
 10
-0.8319900609
 20
8.8829386184
 10
-0.835542276
 20
8.8870676858
 10
-0.8386765516
 20
8.8908598205
 10
-0.8417840621
 20
8.8947626734
 10
-0.8448578002
 20
8.8987697586
 10
-0.8478907583
 20
8.9028745901
 10
-0.8508759288
 20
8.9070706819
 10
-0.8538063043
 20
8.9113515481
 10
-0.8566748773
 20
8.9157107026
 10
-0.8594746403
 20
8.9201416596
 10
-0.8621985858
 20
8.9246379329
 10
-0.8648404523
 20
8.9291924897
 10
-0.8673969628
 20
8.9337961087
 10
-0.8698655863
 20
8.9384390218
 10
-0.8722437919
 20
8.9431114608
 10
-0.8745290486
 20
8.9478036575
 10
-0.8767188254
 20
8.9525058436
 10
-0.8788105914
 20
8.9572082511
 10
-0.8808018156
 20
8.9619011116
 10
-0.8826899671
 20
8.9665746571
 10
-0.8846894006
 20
8.9718014295
 10
-0.8865612876
 20
8.9770031888
 10
-0.8883117361
 20
8.9821917303
 10
-0.8899468545
 20
8.9873788494
 10
-0.8914710603
 20
8.9925733088
 10
-0.892882009
 20
8.9977717413
 10
-0.8941756656
 20
9.0029677469
 10
-0.8953479952
 20
9.0081549257
 10
-0.896395299
 20
9.0133270402
 10
-0.8973152236
 20
9.0184785031
 10
-0.8978566361
 20
9.0218995481
 10
-0.8983392916
 20
9.0253127263
 10
-0.8987619425
 20
9.0287217604
 10
-0.8991233272
 20
9.0321261434
 10
-0.8994221278
 20
9.0355084498
 10
-0.8996570125
 20
9.038847024
 10
-0.8997904182
 20
9.041315821
 10
-0.8998864903
 20
9.0437782576
 10
-0.8999445968
 20
9.046264754
 10
-0.8999641061
 20
9.0488057302
  0
LINE
  5
3E4
100
AcDbEntity
  8
CURVE
100
AcDbLine
 62
253
  6
CONTINUOUS
 10
-5.5244985129
 20
11.2117503981
 11
-6.0212995125
 21
11.470515054
  0
LWPOLYLINE
  5
3E5
100
AcDbEntity
  8
CURVE
100
AcDbPolyline
 62
253
  6
CONTINUOUS
 90
59
 70
0
 10
-7.1428443385
 20
12.6986652267
 10
-7.137809929
 20
12.6960398381
 10
-7.1329376377
 20
12.693609379
 10
-7.1281579957
 20
12.6913351697
 10
-7.1234015335
 20
12.6891785306
 10
-7.1170107894
 20
12.6864379207
 10
-7.1105843948
 20
12.6838591301
 10
-7.1041689916
 20
12.6814637286
 10
-7.0946366286
 20
12.6782448613
 10
-7.0851999827
 20
12.675459128
 10
-7.0758323097
 20
12.673083582
 10
-7.0665357186
 20
12.6711155842
 10
-7.0573196881
 20
12.6695564309
 10
-7.0481943223
 20
12.6684028529
 10
-7.0391698817
 20
12.6676504398
 10
-7.030256627
 20
12.667294781
 10
-7.0232104125
 20
12.6672945071
 10
-7.0162318193
 20
12.667552398
 10
-7.0093107429
 20
12.6680755187
 10
-7.0024370788
 20
12.6688709338
 10
-6.9956007227
 20
12.6699457084
 10
-6.9880419852
 20
12.6714752655
 10
-6.980537455
 20
12.6733628845
 10
-6.9731077552
 20
12.6756130171
 10
-6.9657735084
 20
12.678230115
 10
-6.9585553376
 20
12.6812186301
 10
-6.9514738657
 20
12.6845830141
 10
-6.9445497155
 20
12.6883277186
 10
-6.9378035098
 20
12.6924571956
 10
-6.9312558715
 20
12.6969758967
 10
-6.9249248453
 20
12.7018836411
 10
-6.9188181636
 20
12.7071617175
 10
-6.9129409805
 20
12.7127867822
 10
-6.9072984503
 20
12.7187354912
 10
-6.901895727
 20
12.7249845007
 10
-6.896737965
 20
12.731510467
 10
-6.8918303183
 20
12.738290046
 10
-6.8871779413
 20
12.7452998941
 10
-6.882785988
 20
12.7525166673
 10
-6.8790578848
 20
12.7591734833
 10
-6.8755350525
 20
12.7659865393
 10
-6.8722076439
 20
12.7729633746
 10
-6.8690658115
 20
12.7801115284
 10
-6.8660997081
 20
12.7874385398
 10
-6.8626287007
 20
12.7968563833
 10
-6.8594246776
 20
12.8065566486
 10
-6.8564954332
 20
12.8165305123
 10
-6.8538487616
 20
12.8267691511
 10
-6.8514914885
 20
12.8372634229
 10
-6.8494265659
 20
12.8480029116
 10
-6.8476569554
 20
12.8589865321
 10
-6.8461895299
 20
12.870251799
 10
-6.8453830456
 20
12.8779298007
 10
-6.8447169305
 20
12.8856962903
 10
-6.8441937601
 20
12.8934936174
 10
-6.8438967812
 20
12.8993459945
 10
-6.843682996
 20
12.9052719175
 10
-6.8435537431
 20
12.9113600145
 10
-6.8435103614
 20
12.9176989138
  0
LINE
  5
3E6
100
AcDbEntity
  8
CURVE
100
AcDbLine
 62
253
  6
CONTINUOUS
 10
-6.1254587178
 20
11.8272727721
 11
-5.6454421964
 21
11.5768030359
  0
LWPOLYLINE
  5
3E7
100
AcDbEntity
  8
CURVE
100
AcDbPolyline
 62
253
  6
CONTINUOUS
 90
6
 70
0
 10
-6.0212995223
 20
11.4705150591
 10
-6.459545963
 20
11.7004854615
 10
-6.8961842408
 20
11.9312193456
 10
-7.3312090354
 20
12.1627139
 10
-7.764615046
 20
12.394966304
 10
-8.4744942389
 20
12.778914026
  0
LWPOLYLINE
  5
3E8
100
AcDbEntity
  8
CURVE
100
AcDbPolyline
 62
253
  6
CONTINUOUS
 90
57
 70
0
 10
-8.2970191669
 20
15.5413302098
 10
-8.3020159374
 20
15.5439858361
 10
-8.306851167
 20
15.5464455219
 10
-8.3115938564
 20
15.5487483975
 10
-8.3163130063
 20
15.550933593
 10
-8.3226528689
 20
15.5537126603
 10
-8.3290272248
 20
15.5563302269
 10
-8.3353897474
 20
15.5587644365
 10
-8.3448416908
 20
15.5620411479
 10
-8.3541965392
 20
15.5648843793
 10
-8.3634808788
 20
15.5673172608
 10
-8.372692584
 20
15.5693424411
 10
-8.3818222269
 20
15.5709585783
 10
-8.3908598829
 20
15.5721688497
 10
-8.3997955035
 20
15.5729775621
 10
-8.4086190401
 20
15.5733890225
 10
-8.4173253377
 20
15.5734045543
 10
-8.4259288165
 20
15.5730135467
 10
-8.4344487905
 20
15.5722024052
 10
-8.4429045736
 20
15.5709575354
 10
-8.4503769195
 20
15.5694766925
 10
-8.4577935878
 20
15.5676377538
 10
-8.4651343594
 20
15.5654360634
 10
-8.472379015
 20
15.5628669656
 10
-8.4795073356
 20
15.5599258047
 10
-8.4864991019
 20
15.556607925
 10
-8.4933340949
 20
15.5529086705
 10
-8.4999920952
 20
15.5488233856
 10
-8.5064528837
 20
15.5443474146
 10
-8.5126987898
 20
15.5394807462
 10
-8.5187223362
 20
15.534241948
 10
-8.5245185942
 20
15.528654232
 10
-8.5300826352
 20
15.5227408103
 10
-8.5354095303
 20
15.5165248951
 10
-8.540494351
 20
15.5100296984
 10
-8.5453321685
 20
15.5032784324
 10
-8.549918054
 20
15.4962943091
 10
-8.5542470789
 20
15.4891005406
 10
-8.5588083832
 20
15.4807779497
 10
-8.5630572434
 20
15.4722049843
 10
-8.5670125429
 20
15.4633672243
 10
-8.5706931648
 20
15.4542502496
 10
-8.5741135813
 20
15.4448434989
 10
-8.577270621
 20
15.4351518462
 10
-8.5801567015
 20
15.4251840243
 10
-8.5827642406
 20
15.414948766
 10
-8.5850865952
 20
15.404455151
 10
-8.5871208796
 20
15.393713647
 10
-8.5888641884
 20
15.3827253705
 10
-8.5903097788
 20
15.3714526476
 10
-8.5911042611
 20
15.3637680565
 10
-8.5917604652
 20
15.3559938154
 10
-8.5922758557
 20
15.3481877486
 10
-8.5925684223
 20
15.3423282113
 10
-8.5927790339
 20
15.3363943722
 10
-8.5929063696
 20
15.3302973051
 10
-8.5929491083
 20
15.3239480839
  0
LINE
  5
3E9
100
AcDbEntity
  8
CURVE
100
AcDbLine
 62
253
  6
CONTINUOUS
 10
-7.4120040616
 20
15.3687565964
 11
-7.1725606301
 21
15.2409724826
  0
LWPOLYLINE
  5
3EA
100
AcDbEntity
  8
CURVE
100
AcDbPolyline
 62
253
  6
CONTINUOUS
 90
3
 70
0
 10
-7.1428443385
 20
14.9211000318
 10
-7.7150591513
 20
15.2271495596
 10
-8.297019147
 20
15.5413301991
  0
LWPOLYLINE
  5
3EB
100
AcDbEntity
  8
CURVE
100
AcDbPolyline
 62
253
  6
CONTINUOUS
 90
5
 70
0
 10
-8.0263244403
 20
12.838246224
 10
-7.5939014391
 20
12.6055361926
 10
-7.1598564533
 20
12.373582298
 10
-6.7241947714
 20
12.1423873664
 10
-6.1254587455
 20
11.8272727866
  0
LINE
  5
3EC
100
AcDbEntity
  8
CURVE
100
AcDbLine
 62
253
  6
CONTINUOUS
 10
-7.458620942
 20
13.3490667316
 11
-7.9834558767
 21
13.6311022212
  0
LWPOLYLINE
  5
3ED
100
AcDbEntity
  8
CURVE
100
AcDbPolyline
 62
253
  6
CONTINUOUS
 90
4
 70
0
 10
-8.2970191669
 20
13.3188954047
 10
-7.865617333
 20
13.0857120303
 10
-7.4325902035
 20
12.8532830132
 10
-7.1428443714
 20
12.6986652442
  0
LINE
  5
3EE
100
AcDbEntity
  8
CURVE
100
AcDbLine
 62
253
  6
CONTINUOUS
 10
-8.2677969948
 20
15.8295313082
 11
-8.0300660009
 21
15.7008909613
  0
LINE
  5
3EF
100
AcDbEntity
  8
CURVE
100
AcDbLine
 62
253
  6
CONTINUOUS
 10
-8.5929491083
 20
13.1435520763
 11
-8.0263244207
 21
12.8361381632
  0
LWPOLYLINE
  5
3F0
100
AcDbEntity
  8
CURVE
100
AcDbPolyline
 62
253
  6
CONTINUOUS
 90
59
 70
0
 10
-8.4744942868
 20
12.778914052
 10
-8.4764819345
 20
12.7800189026
 10
-8.4784121575
 20
12.781139177
 10
-8.4803090022
 20
12.7822871827
 10
-8.4821965145
 20
12.7834752269
 10
-8.4847279989
 20
12.7851362136
 10
-8.4872691809
 20
12.7868796744
 10
-8.4898036003
 20
12.788695024
 10
-8.4923181033
 20
12.7905734934
 10
-8.4948127625
 20
12.792513578
 10
-8.497290957
 20
12.7945155894
 10
-8.5009822846
 20
12.7976344911
 10
-8.5046406661
 20
12.8008890218
 10
-8.5082626019
 20
12.8042743724
 10
-8.5118446087
 20
12.807784127
 10
-8.5153832073
 20
12.8114114679
 10
-8.5188749183
 20
12.8151495775
 10
-8.5223179964
 20
12.8189946223
 10
-8.5257176327
 20
12.8229547063
 10
-8.5290807523
 20
12.8270409176
 10
-8.5324142803
 20
12.8312643445
 10
-8.5353562536
 20
12.8351402461
 10
-8.5382736695
 20
12.8391266367
 10
-8.5411598799
 20
12.843216827
 10
-8.5440082365
 20
12.8474041278
 10
-8.5468120915
 20
12.8516818499
 10
-8.5495647965
 20
12.856043304
 10
-8.5522597036
 20
12.8604818009
 10
-8.5548901646
 20
12.8649906513
 10
-8.5574495314
 20
12.8695631659
 10
-8.5599318671
 20
12.8741921321
 10
-8.5623340786
 20
12.8788682436
 10
-8.5646537843
 20
12.8835816706
 10
-8.5668886024
 20
12.8883225836
 10
-8.5690361511
 20
12.8930811526
 10
-8.5710940486
 20
12.8978475481
 10
-8.5730599132
 20
12.9026119404
 10
-8.574931363
 20
12.9073644996
 10
-8.5767060163
 20
12.9120953961
 10
-8.5785853557
 20
12.9173838514
 10
-8.5803449142
 20
12.9226444304
 10
-8.5819904333
 20
12.9278891145
 10
-8.5835276546
 20
12.933129885
 10
-8.5849607273
 20
12.9383756361
 10
-8.5862874312
 20
12.9436229124
 10
-8.5875039534
 20
12.9488651716
 10
-8.5886064813
 20
12.954095871
 10
-8.5895915181
 20
12.9593086373
 10
-8.5904568309
 20
12.964497773
 10
-8.5909661439
 20
12.9679422256
 10
-8.5914202138
 20
12.9713774011
 10
-8.5918178599
 20
12.9748069822
 10
-8.5921578882
 20
12.9782304129
 10
-8.592439051
 20
12.9816301829
 10
-8.5926600868
 20
12.9849845438
 10
-8.5927856355
 20
12.987464036
 10
-8.5928760546
 20
12.989936203
 10
-8.5929307451
 20
12.9924314962
 10
-8.5929491083
 20
12.9949803665
  0
LWPOLYLINE
  5
3F1
100
AcDbEntity
  8
CURVE
100
AcDbPolyline
 62
253
  6
CONTINUOUS
 90
17
 70
0
 10
2.4443611214
 20
10.0285019547
 10
2.44572725
 20
10.0263900856
 10
2.4470524356
 20
10.0242405473
 10
2.4483359645
 20
10.0220583703
 10
2.4495771231
 20
10.0198485853
 10
2.4507751977
 20
10.0176162226
 10
2.4522120407
 20
10.0148007811
 10
2.4535846002
 20
10.0119623348
 10
2.4548970264
 20
10.0091052957
 10
2.4561534696
 20
10.0062340762
 10
2.4573581944
 20
10.0033527088
 10
2.4585159212
 20
10.0004637063
 10
2.4596314846
 20
9.9975692018
 10
2.460709719
 20
9.9946713284
 10
2.4620977533
 20
9.9908047522
 10
2.4634400765
 20
9.9869338873
 10
2.4647487453
 20
9.9830566422
  0
LWPOLYLINE
  5
3F2
100
AcDbEntity
  8
CURVE
100
AcDbPolyline
 62
253
  6
CONTINUOUS
 90
49
 70
0
 10
0.3900771694
 20
26.2720253401
 10
0.3879308212
 20
26.2796442869
 10
0.3857127157
 20
26.2871168611
 10
0.3834138363
 20
26.2944863481
 10
0.3810251663
 20
26.3017960333
 10
0.378537689
 20
26.309089202
 10
0.3752805543
 20
26.3182295268
 10
0.3718667086
 20
26.3273831051
 10
0.3683079158
 20
26.3365213642
 10
0.3646159397
 20
26.3456157312
 10
0.3608009669
 20
26.3546427691
 10
0.3568668742
 20
26.3635995841
 10
0.3528159613
 20
26.3724884183
 10
0.3486505278
 20
26.3813115136
 10
0.3443726684
 20
26.3900704628
 10
0.3399836588
 20
26.3987642618
 10
0.3354845698
 20
26.407391257
 10
0.3308764722
 20
26.4159497949
 10
0.3254783505
 20
26.4256440131
 10
0.3199431388
 20
26.4352380591
 10
0.3142747271
 20
26.4447233341
 10
0.3084770055
 20
26.4540912391
 10
0.302553864
 20
26.4633331752
 10
0.2965091927
 20
26.4724405436
 10
0.2903468815
 20
26.4814047451
 10
0.2840704576
 20
26.4902172221
 10
0.277681996
 20
26.4988695804
 10
0.271183209
 20
26.5073534672
 10
0.2645758086
 20
26.5156605297
 10
0.2578615072
 20
26.5237824148
 10
0.2510420168
 20
26.5317107697
 10
0.2441190496
 20
26.5394372415
 10
0.2379773878
 20
26.5460257393
 10
0.2317557899
 20
26.5524477317
 10
0.2254522336
 20
26.5586976755
 10
0.2190646962
 20
26.5647700273
 10
0.2125919375
 20
26.5706582698
 10
0.2060358459
 20
26.5763519899
 10
0.1993987177
 20
26.5818396624
 10
0.1926813521
 20
26.5871092093
 10
0.1858855921
 20
26.5921488535
 10
0.1790189542
 20
26.5969485747
 10
0.1720878346
 20
26.6015035748
 10
0.1650884746
 20
26.6058281896
 10
0.1580240049
 20
26.6099366971
 10
0.1509352668
 20
26.6138240101
 10
0.1462098961
 20
26.6162930086
 10
0.1414456524
 20
26.6186878158
 10
0.1365921072
 20
26.6210369616
  0
LWPOLYLINE
  5
3F3
100
AcDbEntity
  8
RACCORDO
100
AcDbPolyline
 62
253
  6
CONTINUOUS
 90
3
 70
0
 10
13.4602074824
 20
-32.8709989863
 10
13.4774551989
 20
-33.1769999696
 10
13.4493950076
 20
-33.3678402599
  0
LINE
  5
3F4
100
AcDbEntity
  8
RACCORDO
100
AcDbLine
 62
7
  6
CONTINUOUS
 10
9.8239515154
 20
27.429123985
 11
9.803301885
 21
27.8686640576
  0
LWPOLYLINE
  5
3F5
100
AcDbEntity
  8
DRAFT
100
AcDbPolyline
 62
7
  6
CONTINUOUS
 90
3
 70
0
 10
9.6177367313
 20
27.4252646596
 10
9.6117327401
 20
27.6419070523
 10
9.5943310236
 20
27.8609214785
  0
LINE
  5
3F6
100
AcDbEntity
  8
RACCORDO
100
AcDbLine
 62
253
  6
CONTINUOUS
 10
13.4602566737
 20
-32.870300103
 11
12.0016430297
 21
28.2050785526
  0
LWPOLYLINE
  5
3F7
100
AcDbEntity
  8
SUPERFICI
100
AcDbPolyline
 62
7
  6
CONTINUOUS
 90
9
 70
0
 10
13.6329396315
 20
-31.6290278148
 10
13.5147422136
 20
-25.8722319583
 10
13.3770239492
 20
-19.0939678069
 10
13.2396718157
 20
-12.2532141271
 10
13.1028056091
 20
-5.350099801
 10
12.966566578
 20
1.6153089929
 10
12.8311140173
 20
8.6430043959
 10
12.696620357
 20
15.7329841138
 10
12.5632620673
 20
22.8852495777
  0
LINE
  5
3F8
100
AcDbEntity
  8
SUPERFICI
100
AcDbLine
 62
7
  6
CONTINUOUS
 10
12.5632620673
 20
22.8852495777
 11
12.4498210052
 21
29.0744307017
  0
LINE
  5
3F9
100
AcDbEntity
  8
RACCORDO
100
AcDbLine
 62
7
  6
CONTINUOUS
 10
12.44982499
 20
29.0742114056
 11
12.449829493
 21
29.0739603285
  0
LWPOLYLINE
  5
3FA
100
AcDbEntity
  8
RACCORDO
100
AcDbPolyline
 62
253
  6
CONTINUOUS
 90
10
 70
0
 10
12.449829493
 20
29.0739603285
 10
12.4499767311
 20
29.0567136589
 10
12.4443570997
 20
28.9558946637
 10
12.426871003
 20
28.8527676683
 10
12.3961682479
 20
28.7468276037
 10
12.3510149909
 20
28.639065302
 10
12.2903052361
 20
28.5309098378
 10
12.2128595456
 20
28.4227941766
 10
12.1171351545
 20
28.314205531
 10
12.0016430297
 20
28.2050785526
  0
LINE
  5
3FB
100
AcDbEntity
  8
RACCORDO
100
AcDbLine
 62
7
  6
CONTINUOUS
 10
9.7548438195
 20
-39.7732526764
 11
9.7758560189
 21
-39.3602933767
  0
LINE
  5
3FC
100
AcDbEntity
  8
RACCORDO
100
AcDbLine
 62
253
  6
CONTINUOUS
 10
8.5828571817
 20
-40.0083295562
 11
8.5598679493
 21
-40.4187794927
  0
LINE
  5
3FD
100
AcDbEntity
  8
RACCORDO
100
AcDbLine
 62
253
  6
CONTINUOUS
 10
8.1810392218
 20
-40.0150895319
 11
8.158396911
 21
-40.4010176165
  0
LWPOLYLINE
  5
3FE
100
AcDbEntity
  8
RACCORDO
100
AcDbPolyline
 62
7
  6
CONTINUOUS
 90
3
 70
0
 10
6.080925584
 20
-18.288191812
 10
6.0772936817
 20
-18.3034672379
 10
6.0356796351
 20
-18.3971421065
  0
LINE
  5
3FF
100
AcDbEntity
  8
CURVE
100
AcDbLine
 62
253
  6
CONTINUOUS
 10
-0.5532334851
 20
11.8931481194
 11
-0.3005047746
 21
11.7720066335
  0
LINE
  5
400
100
AcDbEntity
  8
CURVE
100
AcDbLine
 62
253
  6
CONTINUOUS
 10
-1.4567325349
 20
12.58990987
 11
-1.2057137468
 21
12.4679134251
  0
LWPOLYLINE
  5
401
100
AcDbEntity
  8
RACCORDO
100
AcDbPolyline
 62
7
  6
CONTINUOUS
 90
14
 70
0
 10
12.4497974474
 20
29.0736224371
 10
12.4390222622
 20
29.3042222111
 10
12.3814554514
 20
29.7438022397
 10
12.2798970739
 20
30.1618734534
 10
12.1392464827
 20
30.5556872788
 10
11.965074545
 20
30.9215649363
 10
11.7651596733
 20
31.2541186222
 10
11.5426674712
 20
31.556878305
 10
11.3049469051
 20
31.8271405206
 10
11.0675955255
 20
32.0570456346
 10
10.8337270954
 20
32.2538008066
 10
10.6021354952
 20
32.4262889788
 10
10.3797748828
 20
32.5765582183
 10
10.1626938662
 20
32.713585107
  0
LINE
  5
402
100
AcDbEntity
  8
RACCORDO
100
AcDbLine
 62
7
  6
CONTINUOUS
 10
13.6330354747
 20
-31.6338371055
 11
13.6329393153
 21
-31.6290124937
  0
LWPOLYLINE
  5
403
100
AcDbEntity
  8
RACCORDO
100
AcDbPolyline
 62
7
  6
CONTINUOUS
 90
3
 70
0
 10
13.6177740363
 20
-32.2464498167
 10
13.6343875686
 20
-31.7625730429
 10
13.6330517085
 20
-31.6354040949
  0
LWPOLYLINE
  5
404
100
AcDbEntity
  8
DRAFT
100
AcDbPolyline
 62
7
  6
CONTINUOUS
 90
4
 70
0
 10
9.565303858
 20
-40.123160192
 10
9.5942191867
 20
-39.9255737494
 10
9.6116980268
 20
-39.7207342194
 10
9.6177367313
 20
-39.508643774
  0
LWPOLYLINE
  5
405
100
AcDbEntity
  8
RACCORDO
100
AcDbPolyline
 62
253
  6
CONTINUOUS
 90
3
 70
0
 10
8.5598679493
 20
-40.4187794927
 10
8.4920807936
 20
-40.8042109091
 10
8.3802153148
 20
-41.1586960664
  0
LINE
  5
406
100
AcDbEntity
  8
RACCORDO
100
AcDbLine
 62
253
  6
CONTINUOUS
 10
8.158396911
 20
-40.4010176165
 11
8.0959324619
 21
-40.7544980874
  0
LWPOLYLINE
  5
407
100
AcDbEntity
  8
RACCORDO
100
AcDbPolyline
 62
7
  6
CONTINUOUS
 90
3
 70
0
 10
6.0356796351
 20
-18.3971421065
 10
5.9765864795
 20
-18.4765955869
 10
5.9019616378
 20
-18.5401373933
  0
LINE
  5
408
100
AcDbEntity
  8
RACCORDO
100
AcDbLine
 62
7
  6
CONTINUOUS
 10
5.9344242561
 20
28.0153521348
 11
5.8917676818
 21
28.1469048085
  0
LINE
  5
409
100
AcDbEntity
  8
RACCORDO
100
AcDbLine
 62
7
  6
CONTINUOUS
 10
9.7400980497
 20
28.3098279489
 11
9.6343891899
 21
28.7526449204
  0
LWPOLYLINE
  5
40A
100
AcDbEntity
  8
DRAFT
100
AcDbPolyline
 62
7
  6
CONTINUOUS
 90
3
 70
0
 10
9.5655351994
 20
28.0823100927
 10
9.5251502061
 20
28.3069375189
 10
9.4733855834
 20
28.5339477462
  0
LINE
  5
40B
100
AcDbEntity
  8
RACCORDO
100
AcDbLine
 62
7
  6
CONTINUOUS
 10
9.803301885
 20
27.8686640576
 11
9.7400980497
 21
28.3098279489
  0
LINE
  5
40C
100
AcDbEntity
  8
DRAFT
100
AcDbLine
 62
7
  6
CONTINUOUS
 10
9.5943310236
 20
27.8609214785
 11
9.5655351994
 21
28.0823100927
  0
LINE
  5
40D
100
AcDbEntity
  8
RACCORDO
100
AcDbLine
 62
7
  6
CONTINUOUS
 10
13.5669623005
 20
-32.7325445098
 11
13.6177740363
 21
-32.2464498167
  0
LINE
  5
40E
100
AcDbEntity
  8
RACCORDO
100
AcDbLine
 62
7
  6
CONTINUOUS
 10
9.6905414466
 20
-40.1534158228
 11
9.7548438195
 21
-39.7732526764
  0
LINE
  5
40F
100
AcDbEntity
  8
DRAFT
100
AcDbLine
 62
7
  6
CONTINUOUS
 10
9.5247553951
 20
-40.3141783164
 11
9.565303858
 21
-40.123160192
  0
LWPOLYLINE
  5
410
100
AcDbEntity
  8
RACCORDO
100
AcDbPolyline
 62
7
  6
CONTINUOUS
 90
6
 70
0
 10
5.7220430623
 20
-18.633624377
 10
5.760219787
 20
-18.6110083554
 10
5.8348394719
 20
-18.5474692472
 10
5.8939285352
 20
-18.4680178801
 10
5.9355396954
 20
-18.3743444381
 10
5.9615890768
 20
-18.2647765797
  0
LINE
  5
411
100
AcDbEntity
  8
RACCORDO
100
AcDbLine
 62
7
  6
CONTINUOUS
 10
5.9019616378
 20
-18.5401373933
 11
5.8637819566
 21
-18.562754948
  0
LINE
  5
412
100
AcDbEntity
  8
RACCORDO
100
AcDbLine
 62
253
  6
CONTINUOUS
 10
5.9720689492
 20
-18.1393187385
 11
6.0854809851
 21
-18.0826127206
  0
LWPOLYLINE
  5
413
100
AcDbEntity
  8
RACCORDO
100
AcDbPolyline
 62
7
  6
CONTINUOUS
 90
3
 70
0
 10
5.8917676818
 20
28.1469048085
 10
5.8311920604
 20
28.279339392
 10
5.7547623176
 20
28.4092043062
  0
LWPOLYLINE
  5
414
100
AcDbEntity
  8
RACCORDO
100
AcDbPolyline
 62
7
  6
CONTINUOUS
 90
7
 70
0
 10
9.6343891899
 20
28.7526449204
 10
9.4833624224
 20
29.2048067496
 10
9.29003561
 20
29.6587431406
 10
9.0632234788
 20
30.091601448
 10
8.8000927571
 20
30.5022410769
 10
8.5037938012
 20
30.8919877614
 10
8.1920223096
 20
31.2416319537
  0
LWPOLYLINE
  5
415
100
AcDbEntity
  8
DRAFT
100
AcDbPolyline
 62
7
  6
CONTINUOUS
 90
12
 70
0
 10
9.4108548431
 20
28.7607637501
 10
9.3374465886
 20
28.9873853791
 10
9.2532991909
 20
29.2138287701
 10
9.1594019617
 20
29.4375419889
 10
9.0556630346
 20
29.6584976051
 10
8.9422101352
 20
29.8767441627
 10
8.8203604419
 20
30.0898427441
 10
8.6900449958
 20
30.2977380679
 10
8.5513727259
 20
30.5005087323
 10
8.405922973
 20
30.6959138272
 10
8.253643117
 20
30.8838808822
 10
8.0946246573
 20
31.0645047632
  0
LINE
  5
416
100
AcDbEntity
  8
DRAFT
100
AcDbLine
 62
7
  6
CONTINUOUS
 10
9.4733855834
 20
28.5339477462
 11
9.4108548431
 21
28.7607637501
  0
LWPOLYLINE
  5
417
100
AcDbEntity
  8
RACCORDO
100
AcDbPolyline
 62
7
  6
CONTINUOUS
 90
3
 70
0
 10
13.4486002393
 20
-33.3712527322
 10
13.4822066456
 20
-33.2191038548
 10
13.5669623005
 20
-32.7325445098
  0
LINE
  5
418
100
AcDbEntity
  8
RACCORDO
100
AcDbLine
 62
7
  6
CONTINUOUS
 10
13.4493950076
 20
-33.3678402599
 11
13.4486002393
 21
-33.3712527322
  0
LWPOLYLINE
  5
419
100
AcDbEntity
  8
RACCORDO
100
AcDbPolyline
 62
253
  6
CONTINUOUS
 90
6
 70
0
 10
13.4602566737
 20
-32.870300103
 10
13.533064546
 20
-32.5911743526
 10
13.584866441
 20
-32.3209021357
 10
13.6173842006
 20
-32.0603905654
 10
13.6322774503
 20
-31.8114262159
 10
13.6330354747
 20
-31.6338371055
  0
LINE
  5
41A
100
AcDbEntity
  8
RACCORDO
100
AcDbLine
 62
253
  6
CONTINUOUS
 10
13.2583138588
 20
-33.6099475607
 11
13.4602545351
 21
-32.8702086628
  0
LINE
  5
41B
100
AcDbEntity
  8
DRAFT
100
AcDbLine
 62
7
  6
CONTINUOUS
 10
9.4727850357
 20
-40.4979346727
 11
9.5247553951
 21
-40.3141783164
  0
LINE
  5
41C
100
AcDbEntity
  8
RACCORDO
100
AcDbLine
 62
7
  6
CONTINUOUS
 10
9.5829998532
 20
-40.5007525219
 11
9.6905414466
 21
-40.1534158228
  0
LINE
  5
41D
100
AcDbEntity
  8
RACCORDO
100
AcDbLine
 62
253
  6
CONTINUOUS
 10
8.0959324619
 20
-40.7544980874
 11
7.9936911936
 21
-41.075504121
  0
LINE
  5
41E
100
AcDbEntity
  8
RACCORDO
100
AcDbLine
 62
7
  6
CONTINUOUS
 10
5.8518297845
 20
-18.7507917773
 11
5.8076585841
 21
-18.7762860087
  0
LINE
  5
41F
100
AcDbEntity
  8
RACCORDO
100
AcDbLine
 62
253
  6
CONTINUOUS
 10
5.4170317853
 20
-18.7946862187
 11
5.7004685441
 21
-18.6529678394
  0
LWPOLYLINE
  5
420
100
AcDbEntity
  8
RACCORDO
100
AcDbPolyline
 62
7
  6
CONTINUOUS
 90
3
 70
0
 10
5.8076585841
 20
-18.7762860087
 10
5.7569633922
 20
-18.7976849786
 10
5.6512041184
 20
-18.8208154349
  0
LINE
  5
421
100
AcDbEntity
  8
CURVE
100
AcDbLine
 62
253
  6
CONTINUOUS
 10
-2.4556526443
 20
26.8610689336
 11
-2.0145350593
 21
26.6436818438
  0
LINE
  5
422
100
AcDbEntity
  8
CURVE
100
AcDbLine
 62
253
  6
CONTINUOUS
 10
-2.9601063679
 20
27.1114924627
 11
-2.5255424994
 21
26.8956474395
  0
LINE
  5
423
100
AcDbEntity
  8
CURVE
100
AcDbLine
 62
253
  6
CONTINUOUS
 10
-3.6389119269
 20
27.4515782878
 11
-3.577028006
 21
27.4204249582
  0
LINE
  5
424
100
AcDbEntity
  8
CURVE
100
AcDbLine
 62
253
  6
CONTINUOUS
 10
-4.6694473161
 20
27.9748220592
 11
-4.2501449564
 21
27.7609056752
  0
LINE
  5
425
100
AcDbEntity
  8
CURVE
100
AcDbLine
 62
253
  6
CONTINUOUS
 10
-4.9047800746
 20
28.0955015769
 11
-5.340760205
 21
28.320260773
  0
LINE
  5
426
100
AcDbEntity
  8
CURVE
100
AcDbLine
 62
253
  6
CONTINUOUS
 10
-6.5500642213
 20
28.9518831413
 11
-6.1696860226
 21
28.7518984941
  0
LWPOLYLINE
  5
427
100
AcDbEntity
  8
CURVE
100
AcDbPolyline
 62
253
  6
CONTINUOUS
 90
43
 70
0
 10
0.5615635342
 20
26.6320949063
 10
0.571352858
 20
26.6250352489
 10
0.5809829639
 20
26.6176253338
 10
0.5904489516
 20
26.6098769237
 10
0.5997459208
 20
26.6018017814
 10
0.6088689713
 20
26.5934116697
 10
0.6178132027
 20
26.5847183513
 10
0.6265737148
 20
26.5757335891
 10
0.6351456073
 20
26.5664691457
 10
0.6435239798
 20
26.556936784
 10
0.6517055069
 20
26.5471473574
 10
0.6596931624
 20
26.5371080822
 10
0.6674914948
 20
26.5268252653
 10
0.6751050527
 20
26.5163052138
 10
0.6825383847
 20
26.5055542345
 10
0.6897960392
 20
26.4945786345
 10
0.6968825649
 20
26.4833847208
 10
0.7038025104
 20
26.4719788002
 10
0.7105604242
 20
26.4603671798
 10
0.7179753757
 20
26.4470640021
 10
0.7251993704
 20
26.4335049557
 10
0.7322407661
 20
26.4196865286
 10
0.7391079206
 20
26.4056052086
 10
0.7458072974
 20
26.3912621933
 10
0.7523377838
 20
26.3766775185
 10
0.7586963726
 20
26.3618759298
 10
0.7648800568
 20
26.3468821725
 10
0.7717310245
 20
26.3295395632
 10
0.7783566872
 20
26.3119952852
 10
0.7847641143
 20
26.2942663451
 10
0.7909603753
 20
26.2763697492
 10
0.7969525396
 20
26.2583225039
 10
0.8027476766
 20
26.2401416156
 10
0.8083528558
 20
26.2218440908
 10
0.8146615863
 20
26.200373296
 10
0.820732666
 20
26.1788001686
 10
0.8265773754
 20
26.1571579838
 10
0.8322069951
 20
26.1354800168
 10
0.8376328057
 20
26.1137995426
 10
0.8428660877
 20
26.0921498366
 10
0.8479226616
 20
26.0705429916
 10
0.8528365077
 20
26.0489063724
 10
0.857646146
 20
26.0271461612
  0
LWPOLYLINE
  5
428
100
AcDbEntity
  8
CURVE
100
AcDbPolyline
 62
253
  6
CONTINUOUS
 90
84
 70
0
 10
0.5622670547
 20
27.9427393815
 10
0.5755817841
 20
27.9304190775
 10
0.5884382611
 20
27.9179219259
 10
0.6009046629
 20
27.9052124961
 10
0.6130491667
 20
27.8922553577
 10
0.6249399495
 20
27.8790150803
 10
0.639522042
 20
27.8620370541
 10
0.6537766535
 20
27.8446388287
 10
0.6676662154
 20
27.8268979697
 10
0.6811531592
 20
27.8088920429
 10
0.6942084242
 20
27.7906896717
 10
0.7068369817
 20
27.7723237113
 10
0.7190523114
 20
27.7538180749
 10
0.7308678925
 20
27.7351966754
 10
0.7460232805
 20
27.7102187002
 10
0.7605227971
 20
27.6850699313
 10
0.7743972716
 20
27.6597428638
 10
0.7876698052
 20
27.6342367442
 10
0.8003325874
 20
27.6085778254
 10
0.8123700796
 20
27.582799112
 10
0.8237667433
 20
27.5569336083
 10
0.8345070399
 20
27.531014319
 10
0.8445754309
 20
27.5050742484
 10
0.8539553525
 20
27.4791587912
 10
0.8626261406
 20
27.4533629027
 10
0.8705661059
 20
27.4277939287
 10
0.8777641396
 20
27.4025418027
 10
0.8842514558
 20
27.3776268109
 10
0.8900698494
 20
27.3530518275
 10
0.8952595841
 20
27.328810419
 10
0.899854799
 20
27.3048589211
 10
0.9038881023
 20
27.2811443618
 10
0.9073894638
 20
27.2576309599
 10
0.9103783005
 20
27.2343516978
 10
0.9128713914
 20
27.2113567486
 10
0.9152309955
 20
27.1841990629
 10
0.9169218107
 20
27.1575516341
 10
0.9179647602
 20
27.1314430591
 10
0.9183807675
 20
27.1059019349
 10
0.9181907559
 20
27.0809568584
 10
0.9174129015
 20
27.0566326032
 10
0.9160543907
 20
27.0329386496
 10
0.9141196628
 20
27.0098806548
 10
0.9116131568
 20
26.9874642758
 10
0.9085393121
 20
26.9656951698
 10
0.9049036497
 20
26.9445831542
 10
0.9007160196
 20
26.9241546893
 10
0.8959873535
 20
26.9044403955
 10
0.8907285833
 20
26.8854708934
 10
0.8849506408
 20
26.8672768037
 10
0.8786680546
 20
26.8498732197
 10
0.8719097395
 20
26.8332131261
 10
0.8647082069
 20
26.8172339801
 10
0.8570959685
 20
26.8018732391
 10
0.8491055356
 20
26.7870683606
 10
0.838639057
 20
26.7692625076
 10
0.827719163
 20
26.7521883736
 10
0.8164236256
 20
26.7357902564
 10
0.8047944497
 20
26.7199460165
 10
0.7928632958
 20
26.7045392022
 10
0.7806562157
 20
26.6895425503
 10
0.768188414
 20
26.6750021196
 10
0.755437316
 20
26.6611680687
 10
0.7467637811
 20
26.6524817297
 10
0.7379429931
 20
26.6443036109
 10
0.7289678394
 20
26.6366941266
 10
0.7198275058
 20
26.6297114302
 10
0.7104963722
 20
26.62340463
 10
0.7009451172
 20
26.6178205735
 10
0.6911422307
 20
26.6130103838
 10
0.6810474469
 20
26.6090422866
 10
0.6706183114
 20
26.6059887833
 10
0.6625545795
 20
26.6043443269
 10
0.6542794464
 20
26.6032968263
 10
0.6457934641
 20
26.6028879962
 10
0.637097185
 20
26.6031595511
 10
0.6281934092
 20
26.6041508793
 10
0.6190939283
 20
26.6058920623
 10
0.6098127818
 20
26.6084108554
 10
0.6003640092
 20
26.6117350137
 10
0.5907698467
 20
26.6158803972
 10
0.5810853171
 20
26.6208152863
 10
0.5713736399
 20
26.6264960661
 10
0.5616980346
 20
26.6328791218
  0
LWPOLYLINE
  5
429
100
AcDbEntity
  8
RACCORDO
100
AcDbPolyline
 62
7
  6
CONTINUOUS
 90
6
 70
0
 10
5.7483502277
 20
28.6015200808
 10
5.8452626112
 20
28.4711388066
 10
5.9287081178
 20
28.3297377302
 10
5.9959394219
 20
28.1811902758
 10
6.0451018648
 20
28.029564185
 10
6.075191499
 20
27.8789601576
  0
LWPOLYLINE
  5
42A
100
AcDbEntity
  8
RACCORDO
100
AcDbPolyline
 62
7
  6
CONTINUOUS
 90
4
 70
0
 10
5.7547623176
 20
28.4092043062
 10
5.6686307567
 20
28.526120483
 10
5.5748553067
 20
28.6266322965
 10
5.4714093541
 20
28.7142131843
  0
LINE
  5
42B
100
AcDbEntity
  8
RACCORDO
100
AcDbLine
 62
253
  6
CONTINUOUS
 10
13.0140815151
 20
-34.3509518997
 11
13.2583138588
 21
-33.6099475607
  0
LINE
  5
42C
100
AcDbEntity
  8
DRAFT
100
AcDbLine
 62
7
  6
CONTINUOUS
 10
9.4100112647
 20
-40.6723579752
 11
9.4727850357
 21
-40.4979346727
  0
LINE
  5
42D
100
AcDbEntity
  8
DRAFT
100
AcDbLine
 62
7
  6
CONTINUOUS
 10
9.3363266453
 20
-40.8373315691
 11
9.4100112647
 21
-40.6723579752
  0
LWPOLYLINE
  5
42E
100
AcDbEntity
  8
RACCORDO
100
AcDbPolyline
 62
253
  6
CONTINUOUS
 90
3
 70
0
 10
8.3802153148
 20
-41.1586960664
 10
8.2252221615
 20
-41.4770315872
 10
8.0294450345
 20
-41.7539306889
  0
LINE
  5
42F
100
AcDbEntity
  8
RACCORDO
100
AcDbLine
 62
253
  6
CONTINUOUS
 10
7.9936911936
 20
-41.075504121
 11
7.8490622895
 21
-41.3683853796
  0
LWPOLYLINE
  5
430
100
AcDbEntity
  8
RACCORDO
100
AcDbPolyline
 62
253
  6
CONTINUOUS
 90
10
 70
0
 10
12.0016409403
 20
28.2051663656
 10
11.8017164858
 20
28.1503791247
 10
11.5907101873
 20
28.0872039603
 10
11.3687012753
 20
28.0156513883
 10
11.1353445664
 20
27.9349764149
 10
10.8911075099
 20
27.8459339944
 10
10.6374555167
 20
27.7507046208
 10
10.3751105799
 20
27.6499250488
 10
10.1038654776
 20
27.5427640532
 10
9.8239508388
 20
27.4291253954
  0
LWPOLYLINE
  5
431
100
AcDbEntity
  8
CURVE
100
AcDbPolyline
 62
253
  6
CONTINUOUS
 90
63
 70
0
 10
0.1375706749
 20
27.0460228253
 10
0.1461433483
 20
27.0422327854
 10
0.1544324878
 20
27.0386819066
 10
0.1625036449
 20
27.0353428395
 10
0.1704223711
 20
27.032188235
 10
0.1782542179
 20
27.0291907436
 10
0.1860647368
 20
27.026323016
 10
0.1978346642
 20
27.0222272769
 10
0.2096298019
 20
27.0184038972
 10
0.2213758571
 20
27.0148948037
 10
0.2329985371
 20
27.011741923
 10
0.2444422996
 20
27.0089793586
 10
0.255726604
 20
27.0066099205
 10
0.2668790769
 20
27.0046326165
 10
0.2778850128
 20
27.0030625389
 10
0.286569769
 20
27.0021126443
 10
0.2951466575
 20
27.0014461162
 10
0.3036177789
 20
27.0010734637
 10
0.311985234
 20
27.0010051959
 10
0.3202511234
 20
27.001251822
 10
0.3284155823
 20
27.0018249323
 10
0.3364708836
 20
27.0027404418
 10
0.3444073348
 20
27.0040153467
 10
0.3522152433
 20
27.0056666431
 10
0.3598849167
 20
27.0077113273
 10
0.3661622179
 20
27.0097278014
 10
0.3723221566
 20
27.0120379257
 10
0.3783500977
 20
27.0146503613
 10
0.3842325755
 20
27.0175714856
 10
0.3899608004
 20
27.0207985395
 10
0.3955271522
 20
27.0243264797
 10
0.4009251642
 20
27.0281488628
 10
0.4061529843
 20
27.0322536439
 10
0.4112099142
 20
27.036627378
 10
0.4160951981
 20
27.0412564581
 10
0.4208078518
 20
27.0461266294
 10
0.4253468337
 20
27.0512234755
 10
0.4305642732
 20
27.0576205799
 10
0.4355365724
 20
27.0643102858
 10
0.4402701782
 20
27.0712795427
 10
0.4447715372
 20
27.0785153002
 10
0.4490470965
 20
27.0860045079
 10
0.4540832451
 20
27.0957062582
 10
0.4587857006
 20
27.1057803903
 10
0.4631635089
 20
27.1162236615
 10
0.4672257159
 20
27.1270328291
 10
0.4709792722
 20
27.138203666
 10
0.4744227469
 20
27.1497280075
 10
0.4775526141
 20
27.161596705
 10
0.4803653475
 20
27.1738006094
 10
0.4828571519
 20
27.1863276373
 10
0.4850231549
 20
27.1991539675
 10
0.4862833637
 20
27.207863115
 10
0.4873934422
 20
27.2167166333
 10
0.4883503459
 20
27.2257377617
 10
0.4891511195
 20
27.2349294424
 10
0.4897931643
 20
27.2442134302
 10
0.4902739705
 20
27.2534911829
 10
0.4904837568
 20
27.2590302106
 10
0.4906324984
 20
27.2646084075
 10
0.4907180996
 20
27.2703026629
 10
0.490738465
 20
27.2761898657
 10
0.4906914991
 20
27.2823469051
  0
LINE
  5
432
100
AcDbEntity
  8
CURVE
100
AcDbLine
 62
253
  6
CONTINUOUS
 10
1.027999866
 20
25.1836279816
 11
0.5891502834
 21
25.3900767557
  0
LINE
  5
433
100
AcDbEntity
  8
CURVE
100
AcDbLine
 62
253
  6
CONTINUOUS
 10
0.1365921072
 20
26.6210369616
 11
-0.106606586
 21
26.7368293208
  0
LINE
  5
434
100
AcDbEntity
  8
CURVE
100
AcDbLine
 62
253
  6
CONTINUOUS
 10
-0.1216322224
 20
27.1694483287
 11
0.1375706818
 21
27.046022822
  0
LINE
  5
435
100
AcDbEntity
  8
CURVE
100
AcDbLine
 62
253
  6
CONTINUOUS
 10
-0.1066065864
 20
25.7202081179
 11
-0.5571982821
 21
25.9358802952
  0
LINE
  5
436
100
AcDbEntity
  8
CURVE
100
AcDbLine
 62
253
  6
CONTINUOUS
 10
-1.1644650986
 20
26.2288988325
 11
-0.6897597303
 21
25.9996119466
  0
LINE
  5
437
100
AcDbEntity
  8
CURVE
100
AcDbLine
 62
253
  6
CONTINUOUS
 10
-1.3513377368
 20
28.9173814442
 11
-1.7849454179
 21
29.1288848959
  0
LINE
  5
438
100
AcDbEntity
  8
CURVE
100
AcDbLine
 62
253
  6
CONTINUOUS
 10
-1.3706267051
 20
27.2488983878
 11
-1.7997184879
 21
27.458253832
  0
LINE
  5
439
100
AcDbEntity
  8
CURVE
100
AcDbLine
 62
253
  6
CONTINUOUS
 10
-1.8912133007
 20
27.101777969
 11
-1.2808839796
 21
26.8039912561
  0
LINE
  5
43A
100
AcDbEntity
  8
CURVE
100
AcDbLine
 62
253
  6
CONTINUOUS
 10
-2.7247249024
 20
29.5921632787
 11
-3.1635522421
 21
29.8108072176
  0
LINE
  5
43B
100
AcDbEntity
  8
CURVE
100
AcDbLine
 62
253
  6
CONTINUOUS
 10
-4.0414089037
 20
30.2527012899
 11
-4.4800286949
 21
30.4757750827
  0
LINE
  5
43C
100
AcDbEntity
  8
CURVE
100
AcDbLine
 62
253
  6
CONTINUOUS
 10
-5.3407601981
 20
30.9181802301
 11
-4.9047800677
 21
30.6934210341
  0
LINE
  5
43D
100
AcDbEntity
  8
CURVE
100
AcDbLine
 62
253
  6
CONTINUOUS
 10
-5.502165934
 20
31.0016269306
 11
-5.9357612172
 21
31.227276602
  0
LINE
  5
43E
100
AcDbEntity
  8
CURVE
100
AcDbLine
 62
253
  6
CONTINUOUS
 10
-6.7362807427
 20
31.6479946889
 11
-7.2028225639
 21
31.895686508
  0
LWPOLYLINE
  5
43F
100
AcDbEntity
  8
DRAFT
100
AcDbPolyline
 62
7
  6
CONTINUOUS
 90
11
 70
0
 10
8.3387847983
 20
30.8282812244
 10
8.4792968504
 20
30.6541578868
 10
8.6134555765
 20
30.4732072319
 10
8.7413158469
 20
30.2854940463
 10
8.8614320186
 20
30.0931047071
 10
8.9737000228
 20
29.8959771197
 10
9.0781896739
 20
29.6941534263
 10
9.1737122463
 20
29.4898740135
 10
9.2601527442
 20
29.2831006772
 10
9.337595549
 20
29.0738536365
 10
9.4051497813
 20
28.8644601582
  0
LWPOLYLINE
  5
440
100
AcDbEntity
  8
RACCORDO
100
AcDbPolyline
 62
253
  6
CONTINUOUS
 90
3
 70
0
 10
7.8735365287
 20
32.2351620179
 10
7.5318687864
 20
32.1386672089
 10
7.1822512454
 20
32.0311240958
  0
LWPOLYLINE
  5
441
100
AcDbEntity
  8
CURVE
100
AcDbPolyline
 62
253
  6
CONTINUOUS
 90
32
 70
0
 10
-0.5571982741
 20
28.5032934681
 10
-0.5061143332
 20
28.4876643895
 10
-0.4554590329
 20
28.4718792436
 10
-0.4052028036
 20
28.4558508077
 10
-0.3553160753
 20
28.4394918594
 10
-0.3057692784
 20
28.4227151759
 10
-0.2565328429
 20
28.4054335349
 10
-0.2075771992
 20
28.3875597136
 10
-0.1588727775
 20
28.3690064896
 10
-0.1200775929
 20
28.3536202611
 10
-0.0814531891
 20
28.3377235402
 10
-0.0430284895
 20
28.3212964747
 10
-0.0048324176
 20
28.3043192125
 10
0.0331061032
 20
28.2867719012
 10
0.0707605682
 20
28.2686354736
 10
0.1081141479
 20
28.2498940012
 10
0.1451524315
 20
28.2305323403
 10
0.1818610082
 20
28.2105353473
 10
0.2182254673
 20
28.1898878786
 10
0.2482582606
 20
28.1721727154
 10
0.2780477864
 20
28.1539798173
 10
0.3075997554
 20
28.1352936849
 10
0.3369189806
 20
28.1161004394
 10
0.3660066842
 20
28.0963926831
 10
0.3948631907
 20
28.0761646387
 10
0.4234831771
 20
28.0554093848
 10
0.4518387286
 20
28.0341154228
 10
0.479896283
 20
28.0122701102
 10
0.500727063
 20
27.9955094412
 10
0.5213773702
 20
27.9783826608
 10
0.541853234
 20
27.9608409037
 10
0.5621606837
 20
27.9428353048
  0
LWPOLYLINE
  5
442
100
AcDbEntity
  8
RACCORDO
100
AcDbPolyline
 62
7
  6
CONTINUOUS
 90
3
 70
0
 10
-11.2082733332
 20
37.199384087
 10
-9.4728462903
 20
36.4198599613
 10
-7.7083645897
 20
35.603647554
  0
LWPOLYLINE
  5
443
100
AcDbEntity
  8
RACCORDO
100
AcDbPolyline
 62
7
  6
CONTINUOUS
 90
5
 70
0
 10
-11.1684840025
 20
37.0522723099
 10
-9.4419952907
 20
36.2758998605
 10
-7.6858472882
 20
35.4631207212
 10
-5.9008712781
 20
34.6142444512
 10
-4.0875564459
 20
33.7294355745
  0
LINE
  5
444
100
AcDbEntity
  8
RACCORDO
100
AcDbLine
 62
7
  6
CONTINUOUS
 10
-7.7083645897
 20
35.603647554
 11
-5.9151292895
 21
34.7509730588
  0
LINE
  5
445
100
AcDbEntity
  8
RACCORDO
100
AcDbLine
 62
7
  6
CONTINUOUS
 10
-5.9151292895
 20
34.7509730588
 11
-4.0925229504
 21
33.8615898908
  0
LINE
  5
446
100
AcDbEntity
  8
RACCORDO
100
AcDbLine
 62
7
  6
CONTINUOUS
 10
-4.0875564459
 20
33.7294355745
 11
-2.2470828944
 21
32.8091991457
  0
LINE
  5
447
100
AcDbEntity
  8
RACCORDO
100
AcDbLine
 62
7
  6
CONTINUOUS
 10
-4.0925229504
 20
33.8615898908
 11
-2.2417600063
 21
32.9362052001
  0
LINE
  5
448
100
AcDbEntity
  8
RACCORDO
100
AcDbLine
 62
7
  6
CONTINUOUS
 10
-2.2470828944
 20
32.8091991457
 11
-0.3813212658
 21
31.854470679
  0
LINE
  5
449
100
AcDbEntity
  8
RACCORDO
100
AcDbLine
 62
7
  6
CONTINUOUS
 10
-2.2417600063
 20
32.9362052001
 11
-0.3660207971
 21
31.9764127798
  0
LINE
  5
44A
100
AcDbEntity
  8
RACCORDO
100
AcDbLine
 62
7
  6
CONTINUOUS
 10
-0.3813212658
 20
31.854470679
 11
1.5085483161
 21
30.8659249585
  0
LINE
  5
44B
100
AcDbEntity
  8
RACCORDO
100
AcDbLine
 62
7
  6
CONTINUOUS
 10
-0.3660207971
 20
31.9764127798
 11
1.533281764
 21
30.9828204934
  0
LINE
  5
44C
100
AcDbEntity
  8
RACCORDO
100
AcDbLine
 62
7
  6
CONTINUOUS
 10
1.5085483161
 20
30.8659249585
 11
3.4220366236
 21
29.8438857319
  0
LINE
  5
44D
100
AcDbEntity
  8
RACCORDO
100
AcDbLine
 62
7
  6
CONTINUOUS
 10
1.533281764
 20
30.9828204934
 11
3.456636373
 21
29.9551172919
  0
LINE
  5
44E
100
AcDbEntity
  8
RACCORDO
100
AcDbLine
 62
7
  6
CONTINUOUS
 10
3.4220366236
 20
29.8438857319
 11
5.3583123103
 21
28.7888741536
  0
LINE
  5
44F
100
AcDbEntity
  8
RACCORDO
100
AcDbLine
 62
7
  6
CONTINUOUS
 10
3.456636373
 20
29.9551172919
 11
5.4035891763
 21
28.8934528323
  0
LWPOLYLINE
  5
450
100
AcDbEntity
  8
RACCORDO
100
AcDbPolyline
 62
7
  6
CONTINUOUS
 90
4
 70
0
 10
5.4035891763
 20
28.8934528323
 10
5.5247887444
 20
28.8155561931
 10
5.6406841071
 20
28.7173656484
 10
5.7483502277
 20
28.6015200808
  0
LINE
  5
451
100
AcDbEntity
  8
RACCORDO
100
AcDbLine
 62
7
  6
CONTINUOUS
 10
5.4714093541
 20
28.7142131843
 11
5.3583123103
 21
28.7888741536
  0
LWPOLYLINE
  5
452
100
AcDbEntity
  8
RACCORDO
100
AcDbPolyline
 62
253
  6
CONTINUOUS
 90
11
 70
0
 10
6.5812987928
 20
31.0319819525
 10
6.919546092
 20
30.7177057216
 10
7.2387206631
 20
30.3661407041
 10
7.5337654569
 20
29.9825991537
 10
7.7990025207
 20
29.5727292742
 10
8.0305680358
 20
29.1430035061
 10
8.2254533945
 20
28.6999832954
 10
8.3800302482
 20
28.2499343476
 10
8.4918652744
 20
27.799555646
 10
8.5597693268
 20
27.3558700525
 10
8.5828571817
 20
26.9255788775
  0
LINE
  5
453
100
AcDbEntity
  8
RACCORDO
100
AcDbLine
 62
7
  6
CONTINUOUS
 10
8.1920223096
 20
31.2416319537
 11
7.8706983838
 21
31.5447817239
  0
LWPOLYLINE
  5
454
100
AcDbEntity
  8
DRAFT
100
AcDbPolyline
 62
7
  6
CONTINUOUS
 90
3
 70
0
 10
7.9306552251
 20
31.2357908763
 10
7.761697121
 20
31.3976471935
 10
7.5878207778
 20
31.5501842644
  0
LINE
  5
455
100
AcDbEntity
  8
DRAFT
100
AcDbLine
 62
7
  6
CONTINUOUS
 10
8.0946246573
 20
31.0645047632
 11
7.9306552251
 21
31.2357908763
  0
LWPOLYLINE
  5
456
100
AcDbEntity
  8
DRAFT
100
AcDbPolyline
 62
7
  6
CONTINUOUS
 90
3
 70
0
 10
9.1576113932
 20
-41.1374851551
 10
9.2518657827
 20
-40.9929560092
 10
9.3363266453
 20
-40.8373315691
  0
LWPOLYLINE
  5
457
100
AcDbEntity
  8
RACCORDO
100
AcDbPolyline
 62
7
  6
CONTINUOUS
 90
7
 70
0
 10
10.8624824435
 20
-39.2541843167
 10
11.4602282767
 20
-38.3519108547
 10
12.0035427129
 20
-37.3801260753
 10
12.491939254
 20
-36.3337770096
 10
12.9214819911
 20
-35.2123871393
 10
13.2858650006
 20
-34.0208228262
 10
13.4493252492
 20
-33.3678240338
  0
LINE
  5
458
100
AcDbEntity
  8
RACCORDO
100
AcDbLine
 62
253
  6
CONTINUOUS
 10
7.8490622895
 20
-41.3683853796
 11
7.6648402811
 21
-41.6286838702
  0
LINE
  5
459
100
AcDbEntity
  8
RACCORDO
100
AcDbLine
 62
7
  6
CONTINUOUS
 10
-11.1684840025
 20
37.0522723099
 11
-11.2680338905
 21
37.0838090904
  0
LINE
  5
45A
100
AcDbEntity
  8
RACCORDO
100
AcDbLine
 62
7
  6
CONTINUOUS
 10
-11.3145223298
 20
37.2350722269
 11
-11.2082733332
 21
37.199384087
  0
LINE
  5
45B
100
AcDbEntity
  8
RACCORDO
100
AcDbLine
 62
253
  6
CONTINUOUS
 10
-11.2238020224
 20
40.0741310489
 11
-9.4406001114
 21
39.2686055835
  0
LINE
  5
45C
100
AcDbEntity
  8
RACCORDO
100
AcDbLine
 62
253
  6
CONTINUOUS
 10
-11.4253389809
 20
39.7083855633
 11
-9.6429852656
 21
38.902743891
  0
LINE
  5
45D
100
AcDbEntity
  8
RACCORDO
100
AcDbLine
 62
253
  6
CONTINUOUS
 10
-9.4406001114
 20
39.2686055835
 11
-7.6265557067
 21
38.4262052241
  0
LINE
  5
45E
100
AcDbEntity
  8
RACCORDO
100
AcDbLine
 62
253
  6
CONTINUOUS
 10
-9.6429852656
 20
38.902743891
 11
-7.8306798235
 21
38.0606801365
  0
LINE
  5
45F
100
AcDbEntity
  8
RACCORDO
100
AcDbLine
 62
253
  6
CONTINUOUS
 10
-7.6265557067
 20
38.4262052241
 11
-5.7825168774
 21
37.547295788
  0
LINE
  5
460
100
AcDbEntity
  8
RACCORDO
100
AcDbLine
 62
253
  6
CONTINUOUS
 10
-7.8306798235
 20
38.0606801365
 11
-5.9887898521
 21
37.1824220989
  0
LWPOLYLINE
  5
461
100
AcDbEntity
  8
DRAFT
100
AcDbPolyline
 62
7
  6
CONTINUOUS
 90
3
 70
0
 10
-4.7874788968
 20
38.0651052439
 10
-6.6305702651
 20
38.9443183461
 10
-8.4442614553
 20
39.7876469133
  0
LINE
  5
462
100
AcDbEntity
  8
RACCORDO
100
AcDbLine
 62
7
  6
CONTINUOUS
 10
-4.6148773483
 20
38.2045811575
 11
-2.7172963688
 21
37.2861459867
  0
LINE
  5
463
100
AcDbEntity
  8
RACCORDO
100
AcDbLine
 62
253
  6
CONTINUOUS
 10
-5.9887898521
 20
37.1824220989
 11
-4.1173006787
 21
36.2679976159
  0
LINE
  5
464
100
AcDbEntity
  8
RACCORDO
100
AcDbLine
 62
253
  6
CONTINUOUS
 10
-5.7825168774
 20
37.547295788
 11
-3.9093861018
 21
36.6322911496
  0
LINE
  5
465
100
AcDbEntity
  8
DRAFT
100
AcDbLine
 62
7
  6
CONTINUOUS
 10
-2.9153740246
 20
37.1502148239
 11
-4.7874788968
 21
38.0651052439
  0
LINE
  5
466
100
AcDbEntity
  8
RACCORDO
100
AcDbLine
 62
253
  6
CONTINUOUS
 10
-4.1173006787
 20
36.2679976159
 11
-2.216970865
 21
35.3178325811
  0
LINE
  5
467
100
AcDbEntity
  8
RACCORDO
100
AcDbLine
 62
253
  6
CONTINUOUS
 10
-3.9093861018
 20
36.6322911496
 11
-2.0079587058
 21
35.6815773697
  0
LINE
  5
468
100
AcDbEntity
  8
DRAFT
100
AcDbLine
 62
7
  6
CONTINUOUS
 10
-1.014691035
 20
36.1998733305
 11
-2.9153740246
 21
37.1502148239
  0
LWPOLYLINE
  5
469
100
AcDbEntity
  8
RACCORDO
100
AcDbPolyline
 62
7
  6
CONTINUOUS
 90
3
 70
0
 10
-2.7172963688
 20
37.2861459867
 10
-0.7876726519
 20
36.3213272469
 10
1.168230886
 20
35.3130143384
  0
LINE
  5
46A
100
AcDbEntity
  8
RACCORDO
100
AcDbLine
 62
253
  6
CONTINUOUS
 10
-2.216970865
 20
35.3178325811
 11
-0.2893899899
 21
34.3327219633
  0
LINE
  5
46B
100
AcDbEntity
  8
DRAFT
100
AcDbLine
 62
7
  6
CONTINUOUS
 10
0.9140828439
 20
35.214324376
 11
-1.014691035
 21
36.1998733305
  0
LINE
  5
46C
100
AcDbEntity
  8
RACCORDO
100
AcDbLine
 62
253
  6
CONTINUOUS
 10
-2.0079587058
 20
35.6815773697
 11
-0.0789225044
 21
34.6954983473
  0
LINE
  5
46D
100
AcDbEntity
  8
DRAFT
100
AcDbLine
 62
7
  6
CONTINUOUS
 10
2.8704951233
 20
34.1937856534
 11
0.9140828439
 21
35.214324376
  0
LINE
  5
46E
100
AcDbEntity
  8
RACCORDO
100
AcDbLine
 62
253
  6
CONTINUOUS
 10
-0.2893899899
 20
34.3327219633
 11
1.6645902084
 21
33.3130450646
  0
LINE
  5
46F
100
AcDbEntity
  8
RACCORDO
100
AcDbLine
 62
253
  6
CONTINUOUS
 10
-0.0789225044
 20
34.6954983473
 11
1.8769271798
 21
33.6744634058
  0
LINE
  5
470
100
AcDbEntity
  8
RACCORDO
100
AcDbLine
 62
7
  6
CONTINUOUS
 10
1.168230886
 20
35.3130143384
 11
3.1480066877
 21
34.2622182082
  0
LINE
  5
471
100
AcDbEntity
  8
DRAFT
100
AcDbLine
 62
7
  6
CONTINUOUS
 10
4.8541313704
 20
33.1384505009
 11
2.8704951233
 21
34.1937856534
  0
LINE
  5
472
100
AcDbEntity
  8
RACCORDO
100
AcDbLine
 62
253
  6
CONTINUOUS
 10
1.6645902084
 20
33.3130450646
 11
3.6449137927
 21
32.2587944111
  0
LINE
  5
473
100
AcDbEntity
  8
RACCORDO
100
AcDbLine
 62
253
  6
CONTINUOUS
 10
1.8769271798
 20
33.6744634058
 11
3.8586878752
 21
32.6189612811
  0
LINE
  5
474
100
AcDbEntity
  8
DRAFT
100
AcDbLine
 62
7
  6
CONTINUOUS
 10
6.8645493781
 20
32.0485196912
 11
4.8541313704
 21
33.1384505009
  0
LINE
  5
475
100
AcDbEntity
  8
RACCORDO
100
AcDbLine
 62
253
  6
CONTINUOUS
 10
3.6449137927
 20
32.2587944111
 11
5.6511250636
 21
31.1701535411
  0
LINE
  5
476
100
AcDbEntity
  8
RACCORDO
100
AcDbLine
 62
253
  6
CONTINUOUS
 10
3.8586878752
 20
32.6189612811
 11
5.8655115228
 21
31.5294743172
  0
LINE
  5
477
100
AcDbEntity
  8
RACCORDO
100
AcDbLine
 62
7
  6
CONTINUOUS
 10
3.1480066877
 20
34.2622182082
 11
5.1528714224
 21
33.1682057002
  0
LINE
  5
478
100
AcDbEntity
  8
RACCORDO
100
AcDbLine
 62
7
  6
CONTINUOUS
 10
5.1528714224
 20
33.1682057002
 11
7.1822528656
 21
32.0311214837
  0
LINE
  5
479
100
AcDbEntity
  8
DRAFT
100
AcDbLine
 62
7
  6
CONTINUOUS
 10
7.0496389022
 20
31.9405823143
 11
6.8645493781
 21
32.0485196912
  0
LWPOLYLINE
  5
47A
100
AcDbEntity
  8
RACCORDO
100
AcDbPolyline
 62
253
  6
CONTINUOUS
 90
3
 70
0
 10
5.8655113376
 20
31.529474221
 10
6.2282803154
 20
31.3039832013
 10
6.5812987928
 20
31.0319819525
  0
LWPOLYLINE
  5
47B
100
AcDbEntity
  8
RACCORDO
100
AcDbPolyline
 62
253
  6
CONTINUOUS
 90
13
 70
0
 10
5.6511250636
 20
31.1701535411
 10
5.9940136701
 20
30.9566489575
 10
6.3198484926
 20
30.7082996864
 10
6.6285177699
 20
30.4250432688
 10
6.9243722438
 20
30.1012869769
 10
7.202872534
 20
29.7425171938
 10
7.4505126117
 20
29.3652548601
 10
7.6653849172
 20
28.968400272
 10
7.8491229493
 20
28.5528937931
 10
7.9934641997
 20
28.1382758949
 10
8.0955836066
 20
27.7310182117
 10
8.1581236637
 20
27.324541455
 10
8.1810392218
 20
26.9188189017
  0
LINE
  5
47C
100
AcDbEntity
  8
RACCORDO
100
AcDbLine
 62
7
  6
CONTINUOUS
 10
7.5340736761
 20
31.8079254461
 11
7.1822528656
 21
32.0311214837
  0
LINE
  5
47D
100
AcDbEntity
  8
RACCORDO
100
AcDbLine
 62
7
  6
CONTINUOUS
 10
7.8706983838
 20
31.5447817239
 11
7.5340736761
 21
31.8079254461
  0
LWPOLYLINE
  5
47E
100
AcDbEntity
  8
DRAFT
100
AcDbPolyline
 62
7
  6
CONTINUOUS
 90
4
 70
0
 10
7.5878207778
 20
31.5501842644
 10
7.4109652108
 20
31.6917050119
 10
7.2317813125
 20
31.8216461601
 10
7.0496389022
 20
31.9405823143
  0
LINE
  5
47F
100
AcDbEntity
  8
RACCORDO
100
AcDbLine
 62
7
  6
CONTINUOUS
 10
10.214120919
 20
-40.0866828008
 11
10.8624824435
 21
-39.2541843167
  0
LINE
  5
480
100
AcDbEntity
  8
RACCORDO
100
AcDbLine
 62
7
  6
CONTINUOUS
 10
9.5237259394
 20
-40.8451633949
 11
10.214120919
 21
-40.0866828008
  0
LWPOLYLINE
  5
481
100
AcDbEntity
  8
RACCORDO
100
AcDbPolyline
 62
7
  6
CONTINUOUS
 90
4
 70
0
 10
9.0615385017
 20
-41.2923871794
 10
9.2329141474
 20
-41.1080467353
 10
9.4294705616
 20
-40.8208756519
 10
9.5829998532
 20
-40.5007525219
  0
LWPOLYLINE
  5
482
100
AcDbEntity
  8
DRAFT
100
AcDbPolyline
 62
7
  6
CONTINUOUS
 90
3
 70
0
 10
8.9395760829
 20
-41.3929683467
 10
9.0534724222
 20
-41.2707850426
 10
9.1576113932
 20
-41.1374851551
  0
LWPOLYLINE
  5
483
100
AcDbEntity
  8
RACCORDO
100
AcDbPolyline
 62
253
  6
CONTINUOUS
 90
8
 70
0
 10
9.7758547073
 20
-39.3602944284
 10
10.436081869
 20
-38.6928685456
 10
11.0249411242
 20
-38.0028575566
 10
11.5444814219
 20
-37.294379961
 10
11.9960872895
 20
-36.5692794383
 10
12.386372381
 20
-35.8325139059
 10
12.7241370565
 20
-35.091816709
 10
13.0140815151
 20
-34.3509518997
  0
LWPOLYLINE
  5
484
100
AcDbEntity
  8
RACCORDO
100
AcDbPolyline
 62
253
  6
CONTINUOUS
 90
5
 70
0
 10
7.6648402811
 20
-41.6286838702
 10
7.4491952062
 20
-41.8431517029
 10
7.2004095731
 20
-42.0091079569
 10
6.9204788225
 20
-42.1290719542
 10
6.6230738861
 20
-42.1976370043
  0
LWPOLYLINE
  5
485
100
AcDbEntity
  8
RACCORDO
100
AcDbPolyline
 62
253
  6
CONTINUOUS
 90
8
 70
0
 10
9.9854492795
 20
32.5189376482
 10
9.7189558699
 20
32.5272107828
 10
9.4394051308
 20
32.5174863702
 10
9.1476179505
 20
32.4908105002
 10
8.8443802815
 20
32.4483071484
 10
8.5304666213
 20
32.3909743374
 10
8.2066213953
 20
32.3196216241
 10
7.8735365287
 20
32.2351620179
  0
LWPOLYLINE
  5
486
100
AcDbEntity
  8
RACCORDO
100
AcDbPolyline
 62
7
  6
CONTINUOUS
 90
3
 70
0
 10
-11.2680338905
 20
37.0838090904
 10
-11.3588935579
 20
37.0932674565
 10
-11.4410852283
 20
37.0806376104
  0
LINE
  5
487
100
AcDbEntity
  8
RACCORDO
100
AcDbLine
 62
7
  6
CONTINUOUS
 10
-11.2171650202
 20
37.1641318031
 11
-11.1263123019
 21
37.1546699447
  0
LINE
  5
488
100
AcDbEntity
  8
DRAFT
100
AcDbLine
 62
7
  6
CONTINUOUS
 10
-10.3898280688
 20
40.6603005794
 11
-10.5484957132
 21
40.7117358612
  0
LINE
  5
489
100
AcDbEntity
  8
RACCORDO
100
AcDbLine
 62
7
  6
CONTINUOUS
 10
-10.1073311367
 20
40.6759056597
 11
-10.4134908019
 21
40.7817028922
  0
LINE
  5
48A
100
AcDbEntity
  8
RACCORDO
100
AcDbLine
 62
253
  6
CONTINUOUS
 10
-11.5431920708
 20
40.1895657998
 11
-11.223802197
 21
40.0741309575
  0
LINE
  5
48B
100
AcDbEntity
  8
RACCORDO
100
AcDbLine
 62
253
  6
CONTINUOUS
 10
-5.6018943311
 20
40.2974245964
 11
-5.4836116427
 21
40.253545379
  0
LINE
  5
48C
100
AcDbEntity
  8
RACCORDO
100
AcDbLine
 62
7
  6
CONTINUOUS
 10
-4.4890877777
 20
39.9115816221
 11
-4.7035200275
 21
39.9925359333
  0
LWPOLYLINE
  5
48D
100
AcDbEntity
  8
RACCORDO
100
AcDbPolyline
 62
253
  6
CONTINUOUS
 90
3
 70
0
 10
-4.5550393211
 20
39.9364017553
 10
-4.2949224027
 20
39.8360629014
 10
-4.2794503356
 20
39.8298907277
  0
LWPOLYLINE
  5
48E
100
AcDbEntity
  8
RACCORDO
100
AcDbPolyline
 62
7
  6
CONTINUOUS
 90
3
 70
0
 10
-4.0759233229
 20
39.7485274499
 10
-4.2794503356
 20
39.8298907277
 10
-4.4890877777
 20
39.9115816221
  0
LINE
  5
48F
100
AcDbEntity
  8
SUPERFICI
100
AcDbLine
 62
7
  6
CONTINUOUS
 10
-3.7565462896
 20
39.6211303999
 11
-4.23943931
 21
39.8141487816
  0
LINE
  5
490
100
AcDbEntity
  8
DRAFT
100
AcDbLine
 62
7
  6
CONTINUOUS
 10
-10.2281509227
 20
40.5948698417
 11
-10.3898280688
 21
40.6603005794
  0
LWPOLYLINE
  5
491
100
AcDbEntity
  8
RACCORDO
100
AcDbPolyline
 62
7
  6
CONTINUOUS
 90
3
 70
0
 10
-10.1073311367
 20
40.6759056597
 10
-8.309312412
 20
39.8992970142
 10
-6.47839701
 20
39.0754272368
  0
LINE
  5
492
100
AcDbEntity
  8
DRAFT
100
AcDbLine
 62
7
  6
CONTINUOUS
 10
-8.4442614553
 20
39.7876469133
 11
-10.2281509227
 21
40.5948698417
  0
LINE
  5
493
100
AcDbEntity
  8
RACCORDO
100
AcDbLine
 62
7
  6
CONTINUOUS
 10
-6.47839701
 20
39.0754272368
 11
-4.6148773483
 21
38.2045811575
  0
LWPOLYLINE
  5
494
100
AcDbEntity
  8
SUPERFICI
100
AcDbPolyline
 62
7
  6
CONTINUOUS
 90
8
 70
0
 10
7.8278972846
 20
34.0662073149
 10
6.7197225555
 20
34.6749850996
 10
4.9836045845
 20
35.5955298401
 10
3.2424483481
 20
36.4782588423
 10
1.4969273927
 20
37.322709606
 10
-0.2517784215
 20
38.1282181331
 10
-2.0029948162
 20
38.8944082743
 10
-3.7565462896
 20
39.6211303999
  0
LINE
  5
495
100
AcDbEntity
  8
RACCORDO
100
AcDbLine
 62
253
  6
CONTINUOUS
 10
9.9608039413
 20
32.8359277815
 11
9.8712598011
 21
32.8853236746
  0
LINE
  5
496
100
AcDbEntity
  8
RACCORDO
100
AcDbLine
 62
253
  6
CONTINUOUS
 10
8.2660962396
 20
33.820399104
 11
8.2899295423
 21
33.807075362
  0
LWPOLYLINE
  5
497
100
AcDbEntity
  8
RACCORDO
100
AcDbPolyline
 62
7
  6
CONTINUOUS
 90
3
 70
0
 10
8.9951523414
 20
33.4039848568
 10
8.2899295423
 20
33.807075362
 10
7.8244662438
 20
34.068117124
  0
LINE
  5
498
100
AcDbEntity
  8
RACCORDO
100
AcDbLine
 62
253
  6
CONTINUOUS
 10
8.8651456723
 20
33.478140088
 11
9.0492354818
 21
33.3714193511
  0
LWPOLYLINE
  5
499
100
AcDbEntity
  8
RACCORDO
100
AcDbPolyline
 62
253
  6
CONTINUOUS
 90
3
 70
0
 10
9.0492354818
 20
33.3714193511
 10
9.2257536764
 20
33.2683625704
 10
9.3960793173
 20
33.1682482153
  0
LINE
  5
49A
100
AcDbEntity
  8
RACCORDO
100
AcDbLine
 62
7
  6
CONTINUOUS
 10
9.70953411
 20
32.9856441341
 11
8.9951523414
 21
33.4039848568
  0
LINE
  5
49B
100
AcDbEntity
  8
RACCORDO
100
AcDbLine
 62
253
  6
CONTINUOUS
 10
9.3960793173
 20
33.1682482153
 11
9.7190648533
 21
32.9765448257
  0
LINE
  5
49C
100
AcDbEntity
  8
RACCORDO
100
AcDbLine
 62
7
  6
CONTINUOUS
 10
9.9725735328
 20
32.8289374722
 11
9.70953411
 21
32.9856441341
  0
LWPOLYLINE
  5
49D
100
AcDbEntity
  8
RACCORDO
100
AcDbPolyline
 62
253
  6
CONTINUOUS
 90
28
 70
0
 10
9.7190648533
 20
32.9765448257
 10
9.922379874
 20
32.8544393912
 10
9.9703169012
 20
32.825150425
 10
10.0150671732
 20
32.7974426649
 10
10.0565451643
 20
32.7713519541
 10
10.0948237942
 20
32.7468061354
 10
10.130133963
 20
32.7236220107
 10
10.162551143
 20
32.7017231836
 10
10.1919752584
 20
32.6811248142
 10
10.2183690892
 20
32.6617685364
 10
10.2417869465
 20
32.6435694391
 10
10.2621344248
 20
32.6265190004
 10
10.2791435648
 20
32.6106555033
 10
10.2928518245
 20
32.5958603589
 10
10.3031604576
 20
32.5821141536
 10
10.3095887046
 20
32.5695871134
 10
10.3122068552
 20
32.5581392849
 10
10.3108644931
 20
32.5477374357
 10
10.3047398156
 20
32.5386952957
 10
10.2937991444
 20
32.5308730894
 10
10.2779689645
 20
32.5241844077
 10
10.2563574706
 20
32.5190088603
 10
10.2291507666
 20
32.5151512613
 10
10.1960394165
 20
32.5125529686
 10
10.1553652357
 20
32.5117574362
 10
10.1065070568
 20
32.5128045281
 10
10.0499004638
 20
32.515266749
 10
9.9854492795
 20
32.5189376482
  0
LINE
  5
49E
100
AcDbEntity
  8
RACCORDO
100
AcDbLine
 62
7
  6
CONTINUOUS
 10
10.1626938662
 20
32.713585107
 11
9.9608039413
 21
32.8359277815
  0
LINE
  5
49F
100
AcDbEntity
  8
RACCORDO
100
AcDbLine
 62
253
  6
CONTINUOUS
 10
8.0294450345
 20
-41.7539306889
 11
7.7967541811
 21
-41.9843123402
  0
LINE
  5
4A0
100
AcDbEntity
  8
RACCORDO
100
AcDbLine
 62
7
  6
CONTINUOUS
 10
9.0616579618
 20
-41.2925514843
 11
9.5237259394
 21
-40.8451633949
  0
LINE
  5
4A1
100
AcDbEntity
  8
RACCORDO
100
AcDbLine
 62
7
  6
CONTINUOUS
 10
9.0019664854
 20
-41.345196134
 11
9.0615385017
 21
-41.2923871794
  0
LINE
  5
4A2
100
AcDbEntity
  8
RACCORDO
100
AcDbLine
 62
7
  6
CONTINUOUS
 10
-10.4134908019
 20
40.7817028922
 11
-10.7049341379
 21
40.8325954547
  0
LINE
  5
4A3
100
AcDbEntity
  8
RACCORDO
100
AcDbLine
 62
253
  6
CONTINUOUS
 10
-11.8539656059
 20
40.2491372212
 11
-11.5431920708
 21
40.1895657998
  0
LWPOLYLINE
  5
4A4
100
AcDbEntity
  8
RACCORDO
100
AcDbPolyline
 62
253
  6
CONTINUOUS
 90
3
 70
0
 10
-12.0089617126
 20
39.8722228123
 10
-11.7253569557
 20
39.8161446465
 10
-11.4253389809
 20
39.7083855633
  0
LWPOLYLINE
  5
4A5
100
AcDbEntity
  8
RACCORDO
100
AcDbPolyline
 62
7
  6
CONTINUOUS
 90
5
 70
0
 10
-6.5691313999
 20
40.5560232603
 10
-7.3481962886
 20
40.7135733197
 10
-8.1165181435
 20
40.8241124852
 10
-8.8716811202
 20
40.8888550659
 10
-9.6113626013
 20
40.9091623617
  0
LINE
  5
4A6
100
AcDbEntity
  8
RACCORDO
100
AcDbLine
 62
253
  6
CONTINUOUS
 10
-6.5842029059
 20
40.5291745449
 11
-6.0379838105
 21
40.405624841
  0
LWPOLYLINE
  5
4A7
100
AcDbEntity
  8
DRAFT
100
AcDbPolyline
 62
7
  6
CONTINUOUS
 90
3
 70
0
 10
-10.5484957132
 20
40.7117358612
 10
-10.7041663146
 20
40.7491699767
 10
-10.857411001
 20
40.7726259535
  0
LINE
  5
4A8
100
AcDbEntity
  8
RACCORDO
100
AcDbLine
 62
7
  6
CONTINUOUS
 10
-5.7817789602
 20
40.350716071
 11
-6.5691313999
 21
40.5560232603
  0
LINE
  5
4A9
100
AcDbEntity
  8
RACCORDO
100
AcDbLine
 62
253
  6
CONTINUOUS
 10
-6.0379838105
 20
40.405624841
 11
-5.4836340118
 21
40.2534792939
  0
LINE
  5
4AA
100
AcDbEntity
  8
RACCORDO
100
AcDbLine
 62
7
  6
CONTINUOUS
 10
-5.601923929
 20
40.2973186357
 11
-5.7817789602
 21
40.350716071
  0
LINE
  5
4AB
100
AcDbEntity
  8
RACCORDO
100
AcDbLine
 62
7
  6
CONTINUOUS
 10
-5.6024873892
 20
40.2976048153
 11
-5.6018943311
 21
40.2974245964
  0
LINE
  5
4AC
100
AcDbEntity
  8
RACCORDO
100
AcDbLine
 62
253
  6
CONTINUOUS
 10
-5.4836340118
 20
40.2534792939
 11
-5.2676905204
 21
40.1867422864
  0
LINE
  5
4AD
100
AcDbEntity
  8
RACCORDO
100
AcDbLine
 62
7
  6
CONTINUOUS
 10
-5.3799886427
 20
40.227909003
 11
-5.6024873892
 21
40.2976048153
  0
LINE
  5
4AE
100
AcDbEntity
  8
RACCORDO
100
AcDbLine
 62
253
  6
CONTINUOUS
 10
-5.2676905204
 20
40.1867422864
 11
-5.0414815369
 21
40.1117821805
  0
LINE
  5
4AF
100
AcDbEntity
  8
RACCORDO
100
AcDbLine
 62
7
  6
CONTINUOUS
 10
-5.1511164571
 20
40.1519562148
 11
-5.3799886427
 21
40.227909003
  0
LWPOLYLINE
  5
4B0
100
AcDbEntity
  8
RACCORDO
100
AcDbPolyline
 62
253
  6
CONTINUOUS
 90
3
 70
0
 10
-5.0414815369
 20
40.1117821805
 10
-4.8050413672
 20
40.0287148439
 10
-4.5550393211
 20
39.9364017553
  0
LWPOLYLINE
  5
4B1
100
AcDbEntity
  8
RACCORDO
100
AcDbPolyline
 62
7
  6
CONTINUOUS
 90
3
 70
0
 10
-4.7035200275
 20
39.9925359333
 10
-4.9245096016
 20
40.0729474847
 10
-5.1511164571
 20
40.1519562148
  0
LWPOLYLINE
  5
4B2
100
AcDbEntity
  8
RACCORDO
100
AcDbPolyline
 62
253
  6
CONTINUOUS
 90
3
 70
0
 10
7.7967541811
 20
-41.9843123402
 10
7.5303940772
 20
-42.1647203362
 10
7.4507153311
 20
-42.2056933451
  0
LWPOLYLINE
  5
4B3
100
AcDbEntity
  8
DRAFT
100
AcDbPolyline
 62
7
  6
CONTINUOUS
 90
5
 70
0
 10
8.4582073721
 20
-41.7294782988
 10
8.5470854895
 20
-41.6842459318
 10
8.686362418
 20
-41.5997105736
 10
8.817231009
 20
-41.5026598104
 10
8.9395760829
 20
-41.3929683467
  0
LINE
  5
4B4
100
AcDbEntity
  8
RACCORDO
100
AcDbLine
 62
253
  6
CONTINUOUS
 10
8.5828571817
 20
-40.0083295562
 11
9.6177367313
 21
-39.508643774
  0
LINE
  5
4B5
100
AcDbEntity
  8
RACCORDO
100
AcDbLine
 62
253
  6
CONTINUOUS
 10
7.4507153311
 20
-42.2056933451
 11
7.439496622
 21
-42.2110461853
  0
LINE
  5
4B6
100
AcDbEntity
  8
DRAFT
100
AcDbLine
 62
7
  6
CONTINUOUS
 10
7.4394625377
 20
-42.2110622969
 11
8.4582173351
 21
-41.7294969008
  0
LWPOLYLINE
  5
4B7
100
AcDbEntity
  8
RACCORDO
100
AcDbPolyline
 62
253
  6
CONTINUOUS
 90
10
 70
0
 10
8.5828571817
 20
-40.0083295562
 10
8.5449825091
 20
-40.023840017
 10
8.502578252
 20
-40.0360612034
 10
8.4567762456
 20
-40.0446705308
 10
8.4087951352
 20
-40.0494420612
 10
8.3599139208
 20
-40.0502515029
 10
8.3114380401
 20
-40.0470809986
 10
8.2646555884
 20
-40.0400196902
 10
8.2208031352
 20
-40.0292593865
 10
8.1810392606
 20
-40.0150895477
  0
LWPOLYLINE
  5
4B8
100
AcDbEntity
  8
RACCORDO
100
AcDbPolyline
 62
7
  6
CONTINUOUS
 90
3
 70
0
 10
-10.9989401211
 20
40.8264044152
 10
-11.2491376783
 20
40.768453064
 10
-11.2613238152
 20
40.7629070626
  0
LWPOLYLINE
  5
4B9
100
AcDbEntity
  8
DRAFT
100
AcDbPolyline
 62
7
  6
CONTINUOUS
 90
3
 70
0
 10
-11.153317556
 20
40.7774099103
 10
-11.294290918
 20
40.7584803111
 10
-11.4306673667
 20
40.7254293548
  0
LINE
  5
4BA
100
AcDbEntity
  8
RACCORDO
100
AcDbLine
 62
253
  6
CONTINUOUS
 10
-10.1073015863
 20
40.6759015162
 11
-9.6406381392
 21
40.7248109691
  0
LINE
  5
4BB
100
AcDbEntity
  8
RACCORDO
100
AcDbLine
 62
7
  6
CONTINUOUS
 10
-10.3335400689
 20
40.8863790517
 11
-10.9990086161
 21
40.8266139876
  0
LWPOLYLINE
  5
4BC
100
AcDbEntity
  8
RACCORDO
100
AcDbPolyline
 62
253
  6
CONTINUOUS
 90
7
 70
0
 10
-9.6406381392
 20
40.7248109691
 10
-9.1606214504
 20
40.752060708
 10
-8.6679212922
 20
40.7566769891
 10
-8.1635066699
 20
40.7377363818
 10
-7.6479115694
 20
40.6942437555
 10
-7.1212518933
 20
40.625074683
 10
-6.5842029059
 20
40.5291745449
  0
LINE
  5
4BD
100
AcDbEntity
  8
RACCORDO
100
AcDbLine
 62
7
  6
CONTINUOUS
 10
-9.6113626013
 20
40.9091623617
 11
-10.3335400689
 21
40.8863790517
  0
LINE
  5
4BE
100
AcDbEntity
  8
RACCORDO
100
AcDbLine
 62
7
  6
CONTINUOUS
 10
-10.7049341379
 20
40.8325954547
 11
-10.9989401211
 21
40.8264044152
  0
LWPOLYLINE
  5
4BF
100
AcDbEntity
  8
DRAFT
100
AcDbPolyline
 62
7
  6
CONTINUOUS
 90
3
 70
0
 10
-10.857411001
 20
40.7726259535
 10
-11.0076813378
 20
40.782070392
 10
-11.153317556
 20
40.7774099103
  0
ELLIPSE
  5
4C0
100
AcDbEntity
  8
CURVE
100
AcDbEllipse
 62
253
  6
CONTINUOUS
 10
125.5227781512
 20
62.440501158
 30
0.0
 11
181.9687849205
 21
99.1527753525
 31
0.0
 40
0.0339945595
 41
8.5915401502
 42
8.5992467918
  0
ELLIPSE
  5
4C1
100
AcDbEntity
  8
CURVE
100
AcDbEllipse
 62
253
  6
CONTINUOUS
 10
125.5227781512
 20
63.3124236712
 30
0.0
 11
181.9698712362
 21
99.0136136036
 31
0.0
 40
0.0334447892
 41
2.3083485766
 42
2.3196165452
  0
ELLIPSE
  5
4C2
100
AcDbEntity
  8
CURVE
100
AcDbEllipse
 62
253
  6
CONTINUOUS
 10
125.5227781512
 20
63.344623788
 30
0.0
 11
181.9788983149
 21
97.7376687026
 31
0.0
 40
0.0283553294
 41
2.3225845742
 42
2.3231355406
  0
ELLIPSE
  5
4C3
100
AcDbEntity
  8
CURVE
100
AcDbEllipse
 62
253
  6
CONTINUOUS
 10
125.5227781512
 20
71.7060078517
 30
0.0
 11
-140.2988611821
 21
195.4405658048
 31
0.0
 40
0.5931829123
 41
1.5181639236
 42
1.5187153184
  0
ELLIPSE
  5
4C4
100
AcDbEntity
  8
CURVE
100
AcDbEllipse
 62
253
  6
CONTINUOUS
 10
125.5227781512
 20
71.781806002
 30
0.0
 11
-139.7432833254
 21
197.6262909051
 31
0.0
 40
0.5900079991
 41
1.5116757668
 42
1.5229423987
  0
ELLIPSE
  5
4C5
100
AcDbEntity
  8
CURVE
100
AcDbEllipse
 62
253
  6
CONTINUOUS
 10
125.5227781512
 20
62.9049425521
 30
0.0
 11
181.9689342612
 21
99.1337962698
 31
0.0
 40
0.0339196424
 41
8.5906244113
 42
8.6014893032
  0
ELLIPSE
  5
4C6
100
AcDbEntity
  8
CURVE
100
AcDbEllipse
 62
253
  6
CONTINUOUS
 10
125.5227781512
 20
71.3815755241
 30
0.0
 11
-139.714690942
 21
197.7399448564
 31
0.0
 40
0.5898421344
 41
1.5112864351
 42
1.5221568437
  0
ELLIPSE
  5
4C7
100
AcDbEntity
  8
CURVE
100
AcDbEllipse
 62
253
  6
CONTINUOUS
 10
125.5227781512
 20
105.7798229538
 30
0.0
 11
142.9298606686
 21
732.9708327659
 31
0.0
 40
0.1537200791
 41
-4.5571253502
 42
-4.5564262737
  0
ELLIPSE
  5
4C8
100
AcDbEntity
  8
CURVE
100
AcDbEllipse
 62
253
  6
CONTINUOUS
 10
125.5227781512
 20
48.6797464564
 30
0.0
 11
-121.7347976344
 21
857.199224485
 31
0.0
 40
0.1578333648
 41
-4.6942848053
 42
-4.6935821328
  0
ELLIPSE
  5
4C9
100
AcDbEntity
  8
CURVE
100
AcDbEllipse
 62
253
  6
CONTINUOUS
 10
125.5227781512
 20
-6.5280568169
 30
0.0
 11
-125.7775053267
 21
2586.3048505651
 31
0.0
 40
0.0508620405
 41
1.5596362452
 42
1.5596798977
  0
ELLIPSE
  5
4CA
100
AcDbEntity
  8
CURVE
100
AcDbEllipse
 62
253
  6
CONTINUOUS
 10
125.5227781512
 20
74.6122116966
 30
0.0
 11
-140.4732791076
 21
194.7629954705
 31
0.0
 40
0.5941611356
 41
1.4560902184
 42
1.4566404402
  0
ELLIPSE
  5
4CB
100
AcDbEntity
  8
CURVE
100
AcDbEllipse
 62
253
  6
CONTINUOUS
 10
125.5227781512
 20
74.5697987046
 30
0.0
 11
-139.7571583211
 21
197.5711803097
 31
0.0
 40
0.5900883999
 41
1.4526162655
 42
1.4622555469
  0
ELLIPSE
  5
4CC
100
AcDbEntity
  8
CURVE
100
AcDbEllipse
 62
253
  6
CONTINUOUS
 10
125.5227781512
 20
74.1625620393
 30
0.0
 11
-139.7084646857
 21
197.7647095928
 31
0.0
 40
0.5898059834
 41
1.4530338293
 42
1.4616413421
  0
ELLIPSE
  5
4CD
100
AcDbEntity
  8
CURVE
100
AcDbEllipse
 62
253
  6
CONTINUOUS
 10
125.5227781512
 20
57.6452154703
 30
0.0
 11
142.9249329438
 21
733.1908634675
 31
0.0
 40
0.153682473
 41
-4.6177340007
 42
-4.6170354357
  0
ELLIPSE
  5
4CE
100
AcDbEntity
  8
CURVE
100
AcDbEllipse
 62
253
  6
CONTINUOUS
 10
125.5227781512
 20
96.5570008663
 30
0.0
 11
-121.7347976344
 21
857.199224485
 31
0.0
 40
0.1578333648
 41
-4.6337206787
 42
-4.6330181751
  0
ELLIPSE
  5
4CF
100
AcDbEntity
  8
CURVE
100
AcDbEllipse
 62
253
  6
CONTINUOUS
 10
125.5227781512
 20
128.744048375
 30
0.0
 11
-125.7775053265
 21
2586.3048503485
 31
0.0
 40
0.0508620405
 41
-4.6698868064
 42
-4.6698431764
  0
ELLIPSE
  5
4D0
100
AcDbEntity
  8
CURVE
100
AcDbEllipse
 62
253
  6
CONTINUOUS
 10
125.5227781512
 20
82.9437168708
 30
0.0
 11
-140.4510613792
 21
194.8490838455
 31
0.0
 40
0.5940370112
 41
1.5168480984
 42
1.5174014114
  0
ELLIPSE
  5
4D1
100
AcDbEntity
  8
CURVE
100
AcDbEllipse
 62
253
  6
CONTINUOUS
 10
125.5227781512
 20
83.0378852809
 30
0.0
 11
-139.7580635333
 21
197.5675858197
 31
0.0
 40
0.5900936433
 41
1.5115414459
 42
1.5228136902
  0
ELLIPSE
  5
4D2
100
AcDbEntity
  8
CURVE
100
AcDbEllipse
 62
253
  6
CONTINUOUS
 10
125.5227781512
 20
74.5678187725
 30
0.0
 11
181.9691514369
 21
99.1061108051
 31
0.0
 40
0.0338103234
 41
2.3081410026
 42
2.3121223507
  0
ELLIPSE
  5
4D3
100
AcDbEntity
  8
CURVE
100
AcDbEllipse
 62
253
  6
CONTINUOUS
 10
125.5227781512
 20
71.6882061554
 30
0.0
 11
181.9808794051
 21
97.4211740373
 31
0.0
 40
0.0270792496
 41
2.3838829382
 42
2.3844360218
  0
ELLIPSE
  5
4D4
100
AcDbEntity
  8
CURVE
100
AcDbEllipse
 62
253
  6
CONTINUOUS
 10
125.5227781512
 20
74.1632508707
 30
0.0
 11
181.9689181469
 21
99.1358464669
 31
0.0
 40
0.0339277361
 41
2.3074343125
 42
2.3120528599
  0
ELLIPSE
  5
4D5
100
AcDbEntity
  8
CURVE
100
AcDbEllipse
 62
253
  6
CONTINUOUS
 10
125.5227781512
 20
82.6406494576
 30
0.0
 11
-139.7078451237
 21
197.7671741851
 31
0.0
 40
0.5898023854
 41
1.5113451273
 42
1.5222137899
  0
ELLIPSE
  5
4D6
100
AcDbEntity
  8
CURVE
100
AcDbEllipse
 62
253
  6
CONTINUOUS
 10
125.5227781512
 20
71.781380643
 30
0.0
 11
181.9697487743
 21
99.0294315374
 31
0.0
 40
0.0335073318
 41
2.3688750301
 42
2.380145514
  0
ELLIPSE
  5
4D7
100
AcDbEntity
  8
CURVE
100
AcDbEllipse
 62
253
  6
CONTINUOUS
 10
125.5227781512
 20
63.3100349935
 30
0.0
 11
-139.7359400484
 21
197.6554690635
 31
0.0
 40
0.5899654241
 41
1.4511744153
 42
1.4624357814
  0
ELLIPSE
  5
4D8
100
AcDbEntity
  8
CURVE
100
AcDbEllipse
 62
253
  6
CONTINUOUS
 10
125.5227781512
 20
71.3831936508
 30
0.0
 11
181.9689342612
 21
99.1337962698
 31
0.0
 40
0.0339196424
 41
2.3680024713
 42
2.3788709423
  0
ELLIPSE
  5
4D9
100
AcDbEntity
  8
CURVE
100
AcDbEllipse
 62
253
  6
CONTINUOUS
 10
125.5227781512
 20
62.905593369
 30
0.0
 11
-139.7222975206
 21
197.7096974794
 31
0.0
 40
0.5898862842
 41
1.4506578486
 42
1.4615266196
  0
ELLIPSE
  5
4DA
100
AcDbEntity
  8
CURVE
100
AcDbEllipse
 62
253
  6
CONTINUOUS
 10
125.5227781512
 20
63.3515491932
 30
0.0
 11
-140.435840576
 21
194.9080980017
 31
0.0
 40
0.5939518954
 41
1.4564119353
 42
1.4569645774
  0
ELLIPSE
  5
4DB
100
AcDbEntity
  8
CURVE
100
AcDbEllipse
 62
253
  6
CONTINUOUS
 10
125.5227781512
 20
106.1578826185
 30
0.0
 11
151.1451926737
 21
491.1779570963
 31
0.0
 40
0.2064140838
 41
-4.4961160623
 42
-4.4928775302
  0
ELLIPSE
  5
4DC
100
AcDbEntity
  8
CURVE
100
AcDbEllipse
 62
253
  6
CONTINUOUS
 10
125.5227781512
 20
78.1669480584
 30
0.0
 11
-120.6584917294
 21
636.2421999516
 31
0.0
 40
0.2141564631
 41
-4.679859737
 42
-4.6767169482
  0
ELLIPSE
  5
4DD
100
AcDbEntity
  8
CURVE
100
AcDbEllipse
 62
253
  6
CONTINUOUS
 10
125.5227781512
 20
78.331503295
 30
0.0
 11
-120.3953272725
 21
564.4540209256
 31
0.0
 40
0.2418052881
 41
-4.6816689351
 42
-4.6764417292
  0
ELLIPSE
  5
4DE
100
AcDbEntity
  8
CURVE
100
AcDbEllipse
 62
253
  6
CONTINUOUS
 10
125.5227781512
 20
103.1265211804
 30
0.0
 11
154.6626073285
 21
429.4433753681
 31
0.0
 40
0.2233932668
 41
-4.463906786
 42
-4.4586077945
  0
ELLIPSE
  5
4DF
100
AcDbEntity
  8
CURVE
100
AcDbEllipse
 62
253
  6
CONTINUOUS
 10
125.5227781512
 20
95.470054202
 30
0.0
 11
-125.6380756264
 21
2455.0349824345
 31
0.0
 40
0.053635862
 41
-4.6879929298
 42
-4.6872860995
  0
ELLIPSE
  5
4E0
100
AcDbEntity
  8
CURVE
100
AcDbEllipse
 62
253
  6
CONTINUOUS
 10
125.5227781512
 20
99.9914854578
 30
0.0
 11
-124.5943896509
 21
1751.0403899414
 31
0.0
 40
0.075764037
 41
-4.6775653433
 42
-4.6760241206
  0
ELLIPSE
  5
4E1
100
AcDbEntity
  8
CURVE
100
AcDbEllipse
 62
253
  6
CONTINUOUS
 10
125.5227781512
 20
94.1379355468
 30
0.0
 11
159.8685800333
 21
358.5765653074
 31
0.0
 40
0.2425785137
 41
-4.4253408371
 42
-4.42190049
  0
ELLIPSE
  5
4E2
100
AcDbEntity
  8
CURVE
100
AcDbEllipse
 62
253
  6
CONTINUOUS
 10
125.5227781512
 20
91.2844951489
 30
0.0
 11
-120.3251295877
 21
491.135035371
 31
0.0
 40
0.2780291493
 41
-4.6561000181
 42
-4.652695967
  0
ELLIPSE
  5
4E3
100
AcDbEntity
  8
CURVE
100
AcDbEllipse
 62
253
  6
CONTINUOUS
 10
125.5227781512
 20
112.0126080525
 30
0.0
 11
134.2397452731
 21
1682.4453400236
 31
0.0
 40
0.0730466964
 41
-4.6580793071
 42
-4.6565910306
  0
ELLIPSE
  5
4E4
100
AcDbEntity
  8
CURVE
100
AcDbEllipse
 62
253
  6
CONTINUOUS
 10
125.5227781512
 20
110.809455614
 30
0.0
 11
132.7849062818
 21
2221.3765371282
 31
0.0
 40
0.0560317166
 41
-4.6723875108
 42
-4.6716450636
  0
ELLIPSE
  5
4E5
100
AcDbEntity
  8
CURVE
100
AcDbEllipse
 62
253
  6
CONTINUOUS
 10
125.5227781512
 20
90.0312558222
 30
0.0
 11
-120.3304137312
 21
487.7341574504
 31
0.0
 40
0.2799582467
 41
-4.6570307122
 42
-4.6529947052
  0
ELLIPSE
  5
4E6
100
AcDbEntity
  8
CURVE
100
AcDbEllipse
 62
253
  6
CONTINUOUS
 10
125.5227781512
 20
92.8693553232
 30
0.0
 11
160.3961338451
 21
352.3282831003
 31
0.0
 40
0.2441083626
 41
-4.4201142815
 42
-4.4160237101
  0
ELLIPSE
  5
4E7
100
AcDbEntity
  8
CURVE
100
AcDbEllipse
 62
253
  6
CONTINUOUS
 10
125.5227781512
 20
100.5648588347
 30
0.0
 11
-120.7148750404
 21
648.9469415
 31
0.0
 40
0.2098868497
 41
-4.6375901116
 42
-4.6366987802
  0
ELLIPSE
  5
4E8
100
AcDbEntity
  8
CURVE
100
AcDbEllipse
 62
253
  6
CONTINUOUS
 10
125.5227781512
 20
101.3725871158
 30
0.0
 11
-120.4445886986
 21
580.9314710955
 31
0.0
 40
0.2348719339
 41
-4.6361472362
 42
-4.6310895971
  0
ELLIPSE
  5
4E9
100
AcDbEntity
  8
CURVE
100
AcDbEllipse
 62
253
  6
CONTINUOUS
 10
125.5227781512
 20
88.7791924343
 30
0.0
 11
153.9049509026
 21
441.5585480933
 31
0.0
 40
0.2200061411
 41
-4.5007501793
 42
-4.4955803435
  0
ELLIPSE
  5
4EA
100
AcDbEntity
  8
CURVE
100
AcDbEllipse
 62
253
  6
CONTINUOUS
 10
125.5227781512
 20
86.6775213463
 30
0.0
 11
151.4505673709
 21
485.2013915708
 31
0.0
 40
0.208015294
 41
-4.5247139213
 42
-4.5237645604
  0
ELLIPSE
  5
4EB
100
AcDbEntity
  8
CURVE
100
AcDbEllipse
 62
253
  6
CONTINUOUS
 10
125.5227781512
 20
86.5195346068
 30
0.0
 11
150.6267155434
 21
501.6447711997
 31
0.0
 40
0.2036396151
 41
-4.5352441752
 42
-4.5335310626
  0
ELLIPSE
  5
4EC
100
AcDbEntity
  8
CURVE
100
AcDbEllipse
 62
253
  6
CONTINUOUS
 10
125.5227781512
 20
100.9539747454
 30
0.0
 11
-120.8443347063
 21
676.7994769842
 31
0.0
 40
0.2010796219
 41
-4.6408096256
 42
-4.6392286051
  0
ENDSEC
  0
SECTION
  2
OBJECTS
  0
DICTIONARY
  5
C
100
AcDbDictionary
280
0
281
1
  3
ACAD_GROUP
350
D
  3
ACAD_MLINESTYLE
350
17
  3
ACAD_LAYOUT
350
1A
  3
ACAD_PLOTSETTINGS
350
19
  3
ACAD_PLOTSTYLENAME
350
E
  0
DICTIONARY
  5
D
102
{ACAD_REACTORS
330
C
102
}
100
AcDbDictionary
280
0
281
1
  0
ACDBDICTIONARYWDFLT
  5
E
102
{ACAD_REACTORS
330
C
102
}
100
AcDbDictionary
281
1
  3
Normal
350
F
100
AcDbDictionaryWithDefault
340
F
  0
DICTIONARY
  5
17
102
{ACAD_REACTORS
330
C
102
}
100
AcDbDictionary
280
0
281
1
  3
Standard
350
18
  0
DICTIONARY
  5
19
102
{ACAD_REACTORS
330
C
102
}
100
AcDbDictionary
281
1
  0
DICTIONARY
  5
1A
102
{ACAD_REACTORS
330
C
102
}
100
AcDbDictionary
281
1
  3
Model
350
4ED
  3
Layout1
350
4EE
  0
ACDBPLACEHOLDER
  5
F
102
{ACAD_REACTORS
330
E
102
}
  0
MLINESTYLE
  5
18
102
{ACAD_REACTORS
330
17
102
}
100
AcDbMlineStyle
  2
STANDARD
 70
0
  3

 62
256
 51
90.0
 52
90.0
 71
2
 49
0.5
 62
256
  6
BYLAYER
 49
-0.5
 62
256
  6
BYLAYER
  0
LAYOUT
  5
4ED
102
{ACAD_REACTORS
330
1A
102
}
100
AcDbPlotSettings
  1

  2
none_device
  4
ISO_A4_(297.00_x_210.00_MM)
  6

 40
0.0
 41
0.0
 42
0.0
 43
0.0
 44
297.0
 45
210.0
 46
0.0
 47
0.0
 48
0.0
 49
0.0
140
0.0
141
0.0
142
1.0
143
1.0
 70
1024
 72
1
 73
0
 74
0
  7

 75
0
147
1.0
148
0.0
149
0.0
100
AcDbLayout
  1
Model
 70
0
 71
0
 10
0.0
 20
0.0
 11
297.0
 21
210.0
 12
0.0
 22
0.0
 32
0.0
 14
0.0
 24
0.0
 34
0.0
 15
0.0
 25
0.0
 35
0.0
146
0.0
 13
0.0
 23
0.0
 33
0.0
 16
1.0
 26
0.0
 36
0.0
 17
0.0
 27
1.0
 37
0.0
 76
0
330
216
345
0
346
0
  0
LAYOUT
  5
4EE
102
{ACAD_REACTORS
330
1A
102
}
100
AcDbPlotSettings
  1

  2
none_device
  4
ISO_A4_(297.00_x_210.00_MM)
  6

 40
0.0
 41
0.0
 42
0.0
 43
0.0
 44
297.0
 45
210.0
 46
0.0
 47
0.0
 48
0.0
 49
0.0
140
0.0
141
0.0
142
1.0
143
1.0
 70
0
 72
1
 73
0
 74
0
  7

 75
0
147
1.0
148
0.0
149
0.0
100
AcDbLayout
  1
Layout1
 70
0
 71
1
 10
0.0
 20
0.0
 11
297.0
 21
210.0
 12
0.0
 22
0.0
 32
0.0
 14
0.0
 24
0.0
 34
0.0
 15
0.0
 25
0.0
 35
0.0
146
0.0
 13
0.0
 23
0.0
 33
0.0
 16
1.0
 26
0.0
 36
0.0
 17
0.0
 27
1.0
 37
0.0
 76
0
330
217
345
0
346
0
  0
ENDSEC
  0
EOF
