  0
SECTION
  2
HEADER
  9
$ACADVER
  1
AC1024
  9
$DWGCODEPAGE
  3
ANSI_1252
  9
$EXTMAX
 10
297.0
 20
210.0
 30
0.0
  9
$EXTMIN
 10
0.0
 20
0.0
 30
0.0
  9
$LIMMIN
 10
0.0
 20
0.0
  9
$LIMMAX
 10
297.0
 20
210.0
  9
$VIEWCTR
 10
148.5
 20
105.0
  9
$VIEWSIZE
 40
210.0
  9
$CLAYER
  8
0
  9
$LTSCALE
 40
16.335
  9
$CELTYPE
  6
BYLAYER
  9
$DIMSCALE
 40
1.0
  9
$DIMASZ
 40
3.0
  9
$DIMEXO
 40
0.5
  9
$DIMDLI
 40
11.286
  9
$DIMEXE
 40
1.5
  9
$DIMCEN
 40
2.673
  9
$DIMLFAC
 40
1.0
  9
$DIMBLK
  1
_FILLED
  9
$DIMALT
 70
0
  9
$DIMALTF
 40
0.0393700787
  9
$DIMTXT
 40
3.0
  9
$DIMTOL
 70
1
  9
$DIMLIM
 70
0
  9
$DIMTFAC
 40
1.0
  9
$DIMTP
 40
0.01
  9
$DIMTM
 40
0.01
  9
$DIMGAP
 40
0.625
  9
$DIMDSEP
 70
44
  9
$AUNITS
 70
0
  9
$PDMODE
 70
3
  9
$PDSIZE
 40
3.0
  9
$HANDSEED
  5
400
  9
$TILEMODE
 70
1
  9
$MEASUREMENT
 70
1
  9
$INSUNITS
 70
4
  0
ENDSEC
  0
SECTION
  2
CLASSES
  0
CLASS
  1
ACDBDICTIONARYWDFLT
  2
AcDbDictionaryWithDefault
  3
AutoCAD 2000
 90
0
 91
1
280
0
281
0
  0
CLASS
  1
ACDBPLACEHOLDER
  2
AcDbPlaceHolder
  3
AutoCAD 2000
 90
0
 91
1
280
0
281
0
  0
CLASS
  1
LAYOUT
  2
AcDbLayout
  3
AutoCAD 2000
 90
0
 91
0
280
0
281
0
  0
ENDSEC
  0
SECTION
  2
TABLES
  0
TABLE
  2
VPORT
  5
8
100
AcDbSymbolTable
 70
2
  0
VPORT
  5
1F4
100
AcDbSymbolTableRecord
100
AcDbViewportTableRecord
  2
*ACTIVE
 70
0
 10
0.0
 20
0.0
 11
1.0
 21
1.0
 12
148.5
 22
105.0
 13
0.0
 23
0.0
 14
1.0
 24
1.0
 15
0.0
 25
0.0
 16
0.0
 26
0.0
 36
1.0
 17
0.0
 27
0.0
 37
0.0
 40
210.0
 41
1.4142857143
 42
50.0
 43
0.0
 44
0.0
 50
0.0
 51
0.0
 71
0
 72
100
 73
1
 74
1
 75
0
 76
0
 77
0
 78
0
  0
ENDTAB
  0
TABLE
  2
LTYPE
  5
5
100
AcDbSymbolTable
 70
6
  0
LTYPE
  5
14
100
AcDbSymbolTableRecord
100
AcDbLinetypeTableRecord
  2
BYBLOCK
 70
0
  3

 72
65
 73
0
 40
0.0
  0
LTYPE
  5
15
100
AcDbSymbolTableRecord
100
AcDbLinetypeTableRecord
  2
BYLAYER
 70
0
  3

 72
65
 73
0
 40
0.0
  0
LTYPE
  5
16
100
AcDbSymbolTableRecord
100
AcDbLinetypeTableRecord
  2
CONTINUOUS
 70
64
  3
Solid line
 72
65
 73
0
 40
0.0
  0
LTYPE
  5
1F5
100
AcDbSymbolTableRecord
100
AcDbLinetypeTableRecord
  2
CENTER
 70
64
  3
____ _ ____ _ ____ _ ____ _ ____ _ ____ _ ____
 72
65
 73
4
 40
0.6
 49
0.375
 74
0
 49
-0.075
 74
0
 49
0.075
 74
0
 49
-0.075
 74
0
  0
LTYPE
  5
1F6
100
AcDbSymbolTableRecord
100
AcDbLinetypeTableRecord
  2
HIDDEN
 70
64
  3
- - - - - - - - - - - - - - - - - - - -
 72
65
 73
2
 40
0.2
 49
0.1
 74
0
 49
-0.1
 74
0
  0
LTYPE
  5
1F7
100
AcDbSymbolTableRecord
100
AcDbLinetypeTableRecord
  2
PHANTOM
 70
64
  3
_____ _ _ _____ _ _ _____ _ _ _____
 72
65
 73
6
 40
0.8
 49
0.45
 74
0
 49
-0.05
 74
0
 49
0.1
 74
0
 49
-0.05
 74
0
 49
0.1
 74
0
 49
-0.05
 74
0
  0
LTYPE
  5
1F8
100
AcDbSymbolTableRecord
100
AcDbLinetypeTableRecord
  2
DOT
 70
64
  3
. . . . . . . . . . . . . . . . . . . .
 72
65
 73
2
 40
0.2
 49
0.1
 74
0
 49
-0.1
 74
0
  0
LTYPE
  5
1F9
100
AcDbSymbolTableRecord
100
AcDbLinetypeTableRecord
  2
DASHED
 70
64
  3
- - - - - - - - - - - - - - - - - - - -
 72
65
 73
2
 40
0.2
 49
0.1
 74
0
 49
-0.1
 74
0
  0
ENDTAB
  0
TABLE
  2
LAYER
  5
2
100
AcDbSymbolTable
 70
36
  0
LAYER
  5
10
100
AcDbSymbolTableRecord
100
AcDbLayerTableRecord
  2
0
 70
0
 62
7
  6
CONTINUOUS
370
-3
390
F
  0
LAYER
  5
1FA
100
AcDbSymbolTableRecord
100
AcDbLayerTableRecord
  2
DEFAULT_1
 70
0
 62
7
  6
CENTER
370
-3
390
F
  0
LAYER
  5
1FB
100
AcDbSymbolTableRecord
100
AcDbLayerTableRecord
  2
DEFAULT_2
 70
0
 62
7
  6
HIDDEN
370
-3
390
F
  0
LAYER
  5
1FC
100
AcDbSymbolTableRecord
100
AcDbLayerTableRecord
  2
DEFAULT_3
 70
0
 62
7
  6
PHANTOM
370
-3
390
F
  0
LAYER
  5
1FD
100
AcDbSymbolTableRecord
100
AcDbLayerTableRecord
  2
Livello_1
 70
0
 62
7
  6
CONTINUOUS
370
-3
390
F
  0
LAYER
  5
1FE
100
AcDbSymbolTableRecord
100
AcDbLayerTableRecord
  2
SNAPLINE
 70
0
 62
7
  6
CONTINUOUS
370
-3
390
F
  0
ENDTAB
  0
TABLE
  2
STYLE
  5
3
100
AcDbSymbolTable
 70
1
  0
STYLE
  5
11
100
AcDbSymbolTableRecord
100
AcDbTextStyleTableRecord
  2
STANDARD
 70
0
 40
0.0
 41
0.8
 50
0.0
 71
0
 42
0.2
  3
txt
  4

  0
STYLE
  5
1FF
100
AcDbSymbolTableRecord
100
AcDbTextStyleTableRecord
  2
TEXTSTYLE_1
 70
0
 40
0.0
 41
0.8
 50
0.0
 71
0
 42
0.2
  3
gdt
  4

  0
ENDTAB
  0
TABLE
  2
VIEW
  5
6
100
AcDbSymbolTable
 70
0
  0
ENDTAB
  0
TABLE
  2
UCS
  5
7
100
AcDbSymbolTable
 70
0
  0
ENDTAB
  0
TABLE
  2
APPID
  5
9
100
AcDbSymbolTable
 70
1
  0
APPID
  5
200
100
AcDbSymbolTableRecord
100
AcDbRegAppTableRecord
  2
ACAD
 70
0
  0
ENDTAB
  0
TABLE
  2
BLOCK_RECORD
  5
1
100
AcDbSymbolTable
 70
0
  0
BLOCK_RECORD
  5
201
100
AcDbSymbolTableRecord
100
AcDbBlockTableRecord
  2
*Model_Space
  0
BLOCK_RECORD
  5
202
100
AcDbSymbolTableRecord
100
AcDbBlockTableRecord
  2
*Paper_Space
  0
BLOCK_RECORD
  5
203
100
AcDbSymbolTableRecord
100
AcDbBlockTableRecord
  2
_FILLED
  0
ENDTAB
  0
TABLE
  2
DIMSTYLE
  5
A
100
AcDbSymbolTable
 70
1
100
AcDbDimStyleTable
 71
0
  0
DIMSTYLE
105
204
100
AcDbSymbolTableRecord
100
AcDbDimStyleTableRecord
  2
STANDARD
 70
0
  3

  4

 40
1.0
 41
3.0
 42
0.5
 43
0.38
 44
1.5
 45
0.0
 46
0.0
 47
0.01
 48
0.01
140
3.0
141
0.09
142
0.0
143
25.4
144
1.0
145
0.0
146
1.0
147
0.625
 71
1
 72
0
 73
0
 74
0
 75
0
 76
0
 77
1
 78
8
 79
2
170
0
171
1
172
0
173
0
174
0
175
0
176
0
177
0
178
0
270
2
179
2
271
2
272
2
273
2
274
2
275
0
280
0
281
0
282
0
283
1
284
8
285
0
286
0
287
3
288
0
340
11
278
44
341
203
342
203
343
203
344
203
  0
ENDTAB
  0
ENDSEC
  0
SECTION
  2
BLOCKS
  0
BLOCK
  5
20
100
AcDbEntity
  8
0
100
AcDbBlockBegin
  2
*Model_Space
 70
0
 10
0.0
 20
0.0
 30
0.0
  3
*Model_Space
  1

  0
ENDBLK
  5
21
100
AcDbEntity
  8
0
100
AcDbBlockEnd
  0
BLOCK
  5
1C
100
AcDbEntity
  8
0
100
AcDbBlockBegin
  2
*Paper_Space
 70
0
 10
0.0
 20
0.0
 30
0.0
  3
*Paper_Space
  1

  0
ENDBLK
  5
1D
100
AcDbEntity
  8
0
100
AcDbBlockEnd
  0
BLOCK
  5
205
100
AcDbEntity
  8
0
100
AcDbBlockBegin
  2
_FILLED
 70
64
 10
0.0
 20
0.0
  3
_FILLED
  1

  0
SOLID
  5
206
100
AcDbEntity
  8
0
  6
BYBLOCK
 62
0
100
AcDbTrace
 10
0.0
 20
0.0
 11
-1.0
 21
0.3166666667
 12
-1.0
 22
-0.3166666667
 13
-1.0
 23
-0.3166666667
  0
ENDBLK
  5
207
100
AcDbEntity
  8
0
  6
BYBLOCK
 62
0
100
AcDbBlockEnd
  0
ENDSEC
  0
SECTION
  2
ENTITIES
  0
LWPOLYLINE
  5
208
100
AcDbEntity
  8
0
100
AcDbPolyline
 62
7
  6
CONTINUOUS
 90
9
 70
0
 10
-1.4837299473
 20
-44.831761075
 10
-1.4721213511
 20
-44.9441335538
 10
-1.4441181462
 20
-45.0318201067
 10
-1.3937748401
 20
-45.118104719
 10
-1.3263504476
 20
-45.1873136862
 10
-1.2443867648
 20
-45.2375370833
 10
-1.1503248476
 20
-45.266994844
 10
-1.0464585367
 20
-45.2739351267
 10
-0.9349637829
 20
-45.2565394132
  0
LWPOLYLINE
  5
209
100
AcDbEntity
  8
0
100
AcDbPolyline
 62
7
  6
CONTINUOUS
 90
50
 70
0
 10
-13.5808747508
 20
-79.0433632494
 10
-13.5775355141
 20
-79.6303203233
 10
-13.5674270108
 20
-80.2137049707
 10
-13.5504130512
 20
-80.793151015
 10
-13.5263574452
 20
-81.3682922793
 10
-13.4951240033
 20
-81.938762587
 10
-13.4565765355
 20
-82.5041957612
 10
-13.410578852
 20
-83.0642256253
 10
-13.356994763
 20
-83.6184860025
 10
-13.2956880787
 20
-84.166610716
 10
-13.2265226093
 20
-84.7082335892
 10
-13.1493621649
 20
-85.2429884452
 10
-13.0640705557
 20
-85.7705091073
 10
-12.9705115919
 20
-86.2904293988
 10
-12.8685490838
 20
-86.8023831429
 10
-12.7580468414
 20
-87.3060041629
 10
-12.6388686749
 20
-87.8009262821
 10
-12.5108783946
 20
-88.2867833236
 10
-12.3739398106
 20
-88.7632091108
 10
-12.2279167331
 20
-89.2298374669
 10
-12.0726729723
 20
-89.6863022152
 10
-11.9080723383
 20
-90.1322371789
 10
-11.7339786414
 20
-90.5672761813
 10
-11.5850111628
 20
-90.9134422421
 10
-11.4295769247
 20
-91.2519330161
 10
-11.2676022521
 20
-91.5825504109
 10
-11.0990134697
 20
-91.9050963345
 10
-10.9237369023
 20
-92.2193726945
 10
-10.7416988747
 20
-92.5251813986
 10
-10.5528257117
 20
-92.8223243546
 10
-10.3570437381
 20
-93.1106034703
 10
-10.1542792786
 20
-93.3898206533
 10
-9.9444586581
 20
-93.6597778114
 10
-9.7275082013
 20
-93.9202768524
 10
-9.503354233
 20
-94.1711196839
 10
-9.2719230781
 20
-94.4121082138
 10
-9.0331410612
 20
-94.6430443497
 10
-8.7869345073
 20
-94.8637299995
 10
-8.533229741
 20
-95.0739670708
 10
-8.2719530872
 20
-95.2735574713
 10
-8.0030308707
 20
-95.4623031089
 10
-7.7263894162
 20
-95.6400058913
 10
-7.4419550485
 20
-95.8064677262
 10
-7.1496540925
 20
-95.9614905212
 10
-6.8494128728
 20
-96.1048761843
 10
-6.5411577144
 20
-96.2364266231
 10
-6.2248149419
 20
-96.3559437454
 10
-5.9003108803
 20
-96.4632294588
 10
-5.5675718542
 20
-96.5580856712
 10
-5.2265241884
 20
-96.6403142902
  0
LINE
  5
20A
100
AcDbEntity
  8
0
100
AcDbLine
 62
7
  6
CONTINUOUS
 10
-48.4437585464
 20
-71.9743625657
 11
-48.4437585464
 21
83.0132444187
  0
LINE
  5
20B
100
AcDbEntity
  8
0
100
AcDbLine
 62
7
  6
CONTINUOUS
 10
-46.3198669087
 20
-73.2266678528
 11
-46.3198669087
 21
80.3846460183
  0
LINE
  5
20C
100
AcDbEntity
  8
0
100
AcDbLine
 62
7
  6
CONTINUOUS
 10
-19.1247404434
 20
74.5733168374
 11
-19.1247404434
 21
74.07115202
  0
LINE
  5
20D
100
AcDbEntity
  8
0
100
AcDbLine
 62
7
  6
CONTINUOUS
 10
-17.7814919216
 20
75.8171491524
 11
-17.7814919216
 21
73.0368845501
  0
LWPOLYLINE
  5
20E
100
AcDbEntity
  8
0
100
AcDbPolyline
 62
7
  6
CONTINUOUS
 90
18
 70
0
 10
-15.9612150665
 20
74.1705682268
 10
-15.9612150665
 20
-80.1688563864
 10
-15.8826325548
 20
-83.2866964944
 10
-15.6570633907
 20
-86.097517475
 10
-15.2987574486
 20
-88.62417719
 10
-14.8217118069
 20
-90.8836868196
 10
-14.23850115
 20
-92.8962982925
 10
-13.5599468132
 20
-94.6823408965
 10
-12.7950720882
 20
-96.2609449341
 10
-11.9509512204
 20
-97.6498398153
 10
-11.0325978627
 20
-98.8651294677
 10
-10.0429191644
 20
-99.9210755374
 10
-8.982749632
 20
-100.829955644
 10
-7.8509227285
 20
-101.6021378964
 10
-6.6441282028
 20
-102.246703186
 10
-5.3553854728
 20
-102.7736414048
 10
-3.9642961108
 20
-103.202671908
 10
-3.2819770748
 20
-103.3811285185
  0
LWPOLYLINE
  5
20F
100
AcDbEntity
  8
0
100
AcDbPolyline
 62
7
  6
CONTINUOUS
 90
17
 70
0
 10
-15.3681070144
 20
74.5843317013
 10
-15.3681070144
 20
-81.2912427668
 10
-15.2886167881
 20
-83.8845625748
 10
-15.0562676459
 20
-86.3348595451
 10
-14.6813214915
 20
-88.6306350035
 10
-14.1751224276
 20
-90.7628421028
 10
-13.5498313081
 20
-92.7243804366
 10
-12.8180535025
 20
-94.5103918702
 10
-11.9923837971
 20
-96.1183957169
 10
-11.084907567
 20
-97.5482263253
 10
-10.106707495
 20
-98.8017595313
 10
-9.0674283264
 20
-99.8824410021
 10
-7.9749484204
 20
-100.7946544691
 10
-6.8351972853
 20
-101.5429878985
 10
-5.6521439104
 20
-102.1314692799
 10
-4.4279619595
 20
-102.5628499985
 10
-3.1633554644
 20
-102.8380110022
  0
LINE
  5
210
100
AcDbEntity
  8
0
100
AcDbLine
 62
7
  6
CONTINUOUS
 10
-14.2510868497
 20
-78.3841660144
 11
-14.2510868497
 21
-77.0106972252
  0
LINE
  5
211
100
AcDbEntity
  8
0
100
AcDbLine
 62
7
  6
CONTINUOUS
 10
-14.2510868497
 20
-9.0201793219
 11
-14.2510868497
 21
-7.6438862087
  0
LINE
  5
212
100
AcDbEntity
  8
0
100
AcDbLine
 62
7
  6
CONTINUOUS
 10
-14.2510868497
 20
60.4709019531
 11
-14.2510868497
 21
61.8471950663
  0
LWPOLYLINE
  5
213
100
AcDbEntity
  8
0
100
AcDbPolyline
 62
7
  6
CONTINUOUS
 90
15
 70
0
 10
-14.2180422582
 20
-74.6331812335
 10
-14.2180422582
 20
-73.2266678528
 10
-14.2152100027
 20
-73.1554655351
 10
-14.2070529983
 20
-73.0906783578
 10
-14.1940337438
 20
-73.0318765527
 10
-14.1765489178
 20
-72.9786634389
 10
-14.154928563
 20
-72.9306873199
 10
-14.1294410371
 20
-72.8876563066
 10
-14.1003074849
 20
-72.849355834
 10
-14.0677313559
 20
-72.8156681368
 10
-14.0319515349
 20
-72.7865923178
 10
-13.9933333395
 20
-72.762262493
 10
-13.9525220636
 20
-72.7429583113
 10
-13.9106991843
 20
-72.7290921092
 10
-13.9036949906
 20
-72.7273273594
  0
LWPOLYLINE
  5
214
100
AcDbEntity
  8
0
100
AcDbPolyline
 62
7
  6
CONTINUOUS
 90
15
 70
0
 10
-14.2180422582
 20
-5.266370217
 10
-14.2180422582
 20
-3.8595744039
 10
-14.2152080535
 20
-3.789400842
 10
-14.2070277886
 20
-3.7252329322
 10
-14.1939408817
 20
-3.6667048495
 10
-14.1763263947
 20
-3.6134842388
 10
-14.154504592
 20
-3.5652847707
 10
-14.1287451734
 20
-3.5218816687
 10
-14.0992862046
 20
-3.483129963
 10
-14.0663696526
 20
-3.44898469
 10
-14.0303024927
 20
-3.4195213763
 10
-13.9915573517
 20
-3.3949531748
 10
-13.9509333554
 20
-3.3756357134
 10
-13.9097994265
 20
-3.3620364035
 10
-13.9036949906
 20
-3.3605163429
  0
LWPOLYLINE
  5
215
100
AcDbEntity
  8
0
100
AcDbPolyline
 62
7
  6
CONTINUOUS
 90
15
 70
0
 10
-14.2180422582
 20
64.224711058
 10
-14.2180422582
 20
65.6315068711
 10
-14.2152080535
 20
65.701681493
 10
-14.2070272825
 20
65.7658597829
 10
-14.1939369599
 20
65.8244197779
 10
-14.1763112798
 20
65.8777059335
 10
-14.1544627405
 20
65.9260167422
 10
-14.1286497849
 20
65.969589427
 10
-14.0990949136
 20
66.0085819061
 10
-14.0660191492
 20
66.0430526591
 10
-14.0297020374
 20
66.0729397425
 10
-13.9905822742
 20
66.0980416192
 10
-13.9494236206
 20
66.1180067164
 10
-13.907580291
 20
66.1323516099
 10
-13.9036949906
 20
66.1333892561
  0
LINE
  5
216
100
AcDbEntity
  8
0
100
AcDbLine
 62
7
  6
CONTINUOUS
 10
-13.779424732
 20
59.9385168682
 11
-13.779424732
 21
-2.8916785494
  0
LINE
  5
217
100
AcDbEntity
  8
0
100
AcDbLine
 62
7
  6
CONTINUOUS
 10
-13.5836990748
 20
72.2178305734
 11
-13.5836990748
 21
66.1774487114
  0
LINE
  5
218
100
AcDbEntity
  8
0
100
AcDbLine
 62
7
  6
CONTINUOUS
 10
-13.5808747508
 20
74.1649195787
 11
-13.5808747508
 21
73.3071723624
  0
LINE
  5
219
100
AcDbEntity
  8
0
100
AcDbLine
 62
7
  6
CONTINUOUS
 10
-13.4043544972
 20
-9.5497400827
 11
-13.4043544972
 21
-72.5426165661
  0
LINE
  5
21A
100
AcDbEntity
  8
0
100
AcDbLine
 62
7
  6
CONTINUOUS
 10
-12.8087045534
 20
64.6274596686
 11
-12.8087045534
 21
60.8459721879
  0
LINE
  5
21B
100
AcDbEntity
  8
0
100
AcDbLine
 62
7
  6
CONTINUOUS
 10
-12.8087045534
 20
-4.8579729583
 11
-12.8087045534
 21
-8.6451090871
  0
LINE
  5
21C
100
AcDbEntity
  8
0
100
AcDbLine
 62
7
  6
CONTINUOUS
 10
-12.8087045534
 20
-74.2250664072
 11
-12.8087045534
 21
-78.0065538879
  0
LINE
  5
21D
100
AcDbEntity
  8
0
100
AcDbLine
 62
7
  6
CONTINUOUS
 10
-12.3121883841
 20
64.0371759406
 11
-12.3121883841
 21
61.7839302075
  0
LINE
  5
21E
100
AcDbEntity
  8
0
100
AcDbLine
 62
7
  6
CONTINUOUS
 10
-12.3121883841
 20
-5.4567296585
 11
-12.3121883841
 21
-7.7071510676
  0
LINE
  5
21F
100
AcDbEntity
  8
0
100
AcDbLine
 62
7
  6
CONTINUOUS
 10
-12.3121883841
 20
-74.8181744592
 11
-12.3121883841
 21
-77.0685958683
  0
LINE
  5
220
100
AcDbEntity
  8
0
100
AcDbLine
 62
7
  6
CONTINUOUS
 10
-11.6529911491
 20
-76.9776526337
 11
-11.6529911491
 21
-74.7241244681
  0
LINE
  5
221
100
AcDbEntity
  8
0
100
AcDbLine
 62
7
  6
CONTINUOUS
 10
-11.6529911491
 20
-7.6108416172
 11
-11.6529911491
 21
-5.3629620998
  0
LINE
  5
222
100
AcDbEntity
  8
0
100
AcDbLine
 62
7
  6
CONTINUOUS
 10
-11.6529911491
 20
61.8802396578
 11
-11.6529911491
 21
64.1281191753
  0
LINE
  5
223
100
AcDbEntity
  8
0
100
AcDbLine
 62
7
  6
CONTINUOUS
 10
-11.1536506557
 20
65.0327501709
 11
-11.1536506557
 21
61.2515451226
  0
LINE
  5
224
100
AcDbEntity
  8
0
100
AcDbLine
 62
7
  6
CONTINUOUS
 10
-11.1536506557
 20
-4.4580486717
 11
-11.1536506557
 21
-8.2395361524
  0
LINE
  5
225
100
AcDbEntity
  8
0
100
AcDbLine
 62
7
  6
CONTINUOUS
 10
-11.1536506557
 20
-73.8194934725
 11
-11.1536506557
 21
-77.6038052773
  0
LINE
  5
226
100
AcDbEntity
  8
0
100
AcDbLine
 62
7
  6
CONTINUOUS
 10
-7.6232455837
 20
-16.8918529029
 11
-7.6232455837
 21
-10.112345435
  0
LINE
  5
227
100
AcDbEntity
  8
0
100
AcDbLine
 62
7
  6
CONTINUOUS
 10
-7.6232455837
 20
26.5626321824
 11
-7.6232455837
 21
33.3062707348
  0
LINE
  5
228
100
AcDbEntity
  8
0
100
AcDbLine
 62
7
  6
CONTINUOUS
 10
-7.6207036921
 20
-67.1007089719
 11
-7.6207036921
 21
-60.3460555557
  0
LINE
  5
229
100
AcDbEntity
  8
0
100
AcDbLine
 62
7
  6
CONTINUOUS
 10
-7.2786780487
 20
-82.8855736974
 11
-7.2786780487
 21
-67.3159224651
  0
LINE
  5
22A
100
AcDbEntity
  8
0
100
AcDbLine
 62
7
  6
CONTINUOUS
 10
-7.2786780487
 20
-60.1531542226
 11
-7.2786780487
 21
-17.2725717858
  0
LINE
  5
22B
100
AcDbEntity
  8
0
100
AcDbLine
 62
7
  6
CONTINUOUS
 10
-7.2786780487
 20
-10.0185778763
 11
-7.2786780487
 21
26.3445943652
  0
LINE
  5
22C
100
AcDbEntity
  8
0
100
AcDbLine
 62
7
  6
CONTINUOUS
 10
-7.2786780487
 20
33.2509139832
 11
-7.2786780487
 21
68.2572809475
  0
LINE
  5
22D
100
AcDbEntity
  8
0
100
AcDbLine
 62
7
  6
CONTINUOUS
 10
-6.4014429964
 20
33.3393153262
 11
-6.4014429964
 21
26.7750213516
  0
LINE
  5
22E
100
AcDbEntity
  8
0
100
AcDbLine
 62
7
  6
CONTINUOUS
 10
-6.4014429964
 20
-10.0516224678
 11
-6.4014429964
 21
-16.585696175
  0
LINE
  5
22F
100
AcDbEntity
  8
0
100
AcDbLine
 62
7
  6
CONTINUOUS
 10
-6.4014429964
 20
-60.1585204383
 11
-6.4014429964
 21
-66.6954184696
  0
LWPOLYLINE
  5
230
100
AcDbEntity
  8
0
100
AcDbPolyline
 62
7
  6
CONTINUOUS
 90
9
 70
0
 10
-6.1531849117
 20
68.6597471257
 10
-6.1531849117
 20
33.4633031524
 10
-6.2733668861
 20
33.4312647569
 10
-6.9040641438
 20
33.268586684
 10
-7.1518658985
 20
33.2122207436
 10
-7.2826746437
 20
33.2009576575
 10
-7.4301834756
 20
33.2127722237
 10
-7.554917948
 20
33.2486007002
 10
-7.6537482835
 20
33.3034464107
  0
LWPOLYLINE
  5
231
100
AcDbEntity
  8
0
100
AcDbPolyline
 62
7
  6
CONTINUOUS
 90
9
 70
0
 10
-6.1531849117
 20
26.6177065016
 10
-6.1531849117
 20
-9.9248103176
 10
-6.3193901101
 20
-9.9699480418
 10
-6.8268386101
 20
-10.0986672146
 10
-7.0580983398
 20
-10.1453900265
 10
-7.266927442
 20
-10.1648688358
 10
-7.4366459604
 20
-10.156003985
 10
-7.5140900928
 20
-10.1399496456
 10
-7.5902009922
 20
-10.1151697591
  0
LWPOLYLINE
  5
232
100
AcDbEntity
  8
0
100
AcDbPolyline
 62
7
  6
CONTINUOUS
 90
8
 70
0
 10
-6.1531849117
 20
-16.740186701
 10
-6.1531849117
 20
-60.0040299124
 10
-6.2520747244
 20
-60.0322988735
 10
-6.9019176253
 20
-60.2140121421
 10
-7.1820861659
 20
-60.2853325885
 10
-7.4174349401
 20
-60.3347198317
 10
-7.5923626287
 20
-60.3561168341
 10
-7.7144712508
 20
-60.3460555557
  0
LWPOLYLINE
  5
233
100
AcDbEntity
  8
0
100
AcDbPolyline
 62
7
  6
CONTINUOUS
 90
28
 70
0
 10
-6.1531849117
 20
-66.8499089956
 10
-6.1531849117
 20
-82.6980385799
 10
-6.1396349776
 20
-83.3515770718
 10
-6.1096026833
 20
-83.8705762781
 10
-6.047592853
 20
-84.5221674004
 10
-5.9592390858
 20
-85.1660775903
 10
-5.8453655231
 20
-85.7986066376
 10
-5.7070161754
 20
-86.4163197928
 10
-5.5454141209
 20
-87.0161185058
 10
-5.3619157192
 20
-87.5952905351
 10
-5.1579631142
 20
-88.1515385161
 10
-4.9350379104
 20
-88.6829880385
 10
-4.694618281
 20
-89.188177739
 10
-4.4381410429
 20
-89.6660347732
 10
-4.1669695387
 20
-90.1158393336
 10
-3.8823675951
 20
-90.5371817434
 10
-3.5854794004
 20
-90.9299152346
 10
-3.2773148811
 20
-91.2941069608
 10
-2.9587400244
 20
-91.6299892056
 10
-2.6304715643
 20
-91.9379122199
 10
-2.2930754782
 20
-92.2182996763
 10
-1.9469688063
 20
-92.4716074003
 10
-1.5924243708
 20
-92.6982858042
 10
-1.2295780247
 20
-92.8987462984
 10
-0.8584380839
 20
-93.0733318608
 10
-0.4788965978
 20
-93.2222918805
 10
-0.0907420893
 20
-93.3457613382
 10
0.3063266404
 20
-93.4437443218
  0
LINE
  5
234
100
AcDbEntity
  8
0
100
AcDbLine
 62
7
  6
CONTINUOUS
 10
-5.7038349542
 20
-29.0661017531
 11
-5.7038349542
 21
-32.524768994
  0
LINE
  5
235
100
AcDbEntity
  8
0
100
AcDbLine
 62
7
  6
CONTINUOUS
 10
-5.6623173905
 20
-32.9385324685
 11
-5.6623173905
 21
-35.9035078641
  0
LINE
  5
236
100
AcDbEntity
  8
0
100
AcDbLine
 62
7
  6
CONTINUOUS
 10
-18.4378648326
 20
81.5126810469
 11
-18.5014121239
 21
75.3841802744
  0
LINE
  5
237
100
AcDbEntity
  8
0
100
AcDbLine
 62
7
  6
CONTINUOUS
 10
-47.0095668262
 20
81.2590567466
 11
-46.9762398031
 21
81.6341269814
  0
LINE
  5
238
100
AcDbEntity
  8
0
100
AcDbLine
 62
7
  6
CONTINUOUS
 10
22.8565772134
 20
-94.7316360921
 11
21.6073786827
 21
-95.0793103836
  0
LINE
  5
239
100
AcDbEntity
  8
0
100
AcDbLine
 62
7
  6
CONTINUOUS
 10
3.6932560503
 20
-95.5453238531
 11
2.6643547961
 21
-95.8294508533
  0
LINE
  5
23A
100
AcDbEntity
  8
0
100
AcDbLine
 62
7
  6
CONTINUOUS
 10
17.009379117
 20
-94.764963116
 11
15.2303373931
 21
-95.2338009096
  0
LINE
  5
23B
100
AcDbEntity
  8
0
100
AcDbLine
 62
7
  6
CONTINUOUS
 10
15.2277955015
 20
-95.9839413792
 11
17.009379117
 21
-95.5151035857
  0
LINE
  5
23C
100
AcDbEntity
  8
0
100
AcDbLine
 62
7
  6
CONTINUOUS
 10
26.356762018
 20
-89.6981257567
 11
25.2617715809
 21
-89.9822527569
  0
LINE
  5
23D
100
AcDbEntity
  8
0
100
AcDbLine
 62
7
  6
CONTINUOUS
 10
20.854413889
 20
-95.2945238768
 11
13.5727416037
 21
-97.1726993751
  0
LINE
  5
23E
100
AcDbEntity
  8
0
100
AcDbLine
 62
7
  6
CONTINUOUS
 10
12.8861484253
 20
-97.3904547599
 11
5.8225139573
 21
-99.2053653993
  0
LINE
  5
23F
100
AcDbEntity
  8
0
100
AcDbLine
 62
7
  6
CONTINUOUS
 10
23.9515676505
 20
-90.3573229917
 11
22.8565772134
 21
-90.6358013438
  0
LINE
  5
240
100
AcDbEntity
  8
0
100
AcDbLine
 62
7
  6
CONTINUOUS
 10
-0.8685921676
 20
-95.421336027
 11
-1.9940853045
 21
-95.7026387031
  0
LINE
  5
241
100
AcDbEntity
  8
0
100
AcDbLine
 62
7
  6
CONTINUOUS
 10
17.2935061172
 20
-93.8877280637
 11
14.6346874494
 21
-94.5469252987
  0
LINE
  5
242
100
AcDbEntity
  8
0
100
AcDbLine
 62
7
  6
CONTINUOUS
 10
12.6350660166
 20
-94.3263455898
 11
13.4182510778
 21
-94.1388104724
  0
LINE
  5
243
100
AcDbEntity
  8
0
100
AcDbLine
 62
7
  6
CONTINUOUS
 10
21.4198435653
 20
-90.9504310438
 11
20.7631882219
 21
-91.1049215698
  0
LWPOLYLINE
  5
244
100
AcDbEntity
  8
0
100
AcDbPolyline
 62
7
  6
CONTINUOUS
 90
22
 70
0
 10
7.1959827465
 20
-100.4630369022
 10
6.4707165702
 20
-100.6274185711
 10
5.3172162665
 20
-100.8816906743
 10
4.0981135316
 20
-101.1421582974
 10
2.9208729212
 20
-101.3851262754
 10
1.8275515937
 20
-101.6020873264
 10
0.8349310319
 20
-101.7903148382
 10
-0.0520651856
 20
-101.9497380711
 10
-0.8346785826
 20
-102.0816256603
 10
-1.5175224306
 20
-102.1879446042
 10
-2.107069915
 20
-102.2710162137
 10
-2.6107765032
 20
-102.3333180639
 10
-3.0365433142
 20
-102.3773637484
 10
-3.237992689
 20
-102.391203498
 10
-3.4740552861
 20
-102.3975208528
 10
-3.7466543701
 20
-102.3950756027
 10
-4.0560207399
 20
-102.3827568908
 10
-4.3989558034
 20
-102.3598396457
 10
-4.7647427041
 20
-102.3266044271
 10
-5.1230477587
 20
-102.2862267288
 10
-5.2180241028
 20
-102.2742058771
 10
-5.3728241746
 20
-102.2530934899
  0
LINE
  5
245
100
AcDbEntity
  8
0
100
AcDbLine
 62
7
  6
CONTINUOUS
 10
5.1302721308
 20
-99.3929005168
 11
3.6932560503
 21
-99.7047058927
  0
LINE
  5
246
100
AcDbEntity
  8
0
100
AcDbLine
 62
7
  6
CONTINUOUS
 10
13.478974045
 20
-92.9500524766
 11
12.8861484253
 21
-93.0768646268
  0
LINE
  5
247
100
AcDbEntity
  8
0
100
AcDbLine
 62
7
  6
CONTINUOUS
 10
13.478974045
 20
-93.2946200116
 11
12.8861484253
 21
-93.4188902701
  0
LWPOLYLINE
  5
248
100
AcDbEntity
  8
0
100
AcDbPolyline
 62
7
  6
CONTINUOUS
 90
32
 70
0
 10
10.17479733
 20
-101.8531692033
 10
10.1663443104
 20
-101.85482213
 10
10.1099683305
 20
-101.8644154591
 10
10.0550999824
 20
-101.871275776
 10
10.0018767772
 20
-101.8754597701
 10
9.9503736879
 20
-101.8770393693
 10
9.900621575
 20
-101.8760924339
 10
9.8526199015
 20
-101.8726963993
 10
9.8063458379
 20
-101.8669237729
 10
9.7617610151
 20
-101.8588388508
 10
9.7188167059
 20
-101.8484952798
 10
9.6774579281
 20
-101.8359342338
 10
9.6376267898
 20
-101.8211830708
 10
9.5992652822
 20
-101.8042543821
 10
9.5623176506
 20
-101.7851453839
 10
9.5267324227
 20
-101.7638376129
 10
9.492464141
 20
-101.7402968958
 10
9.4594748237
 20
-101.7144735644
 10
9.4277351679
 20
-101.6863028824
 10
9.3972255023
 20
-101.6557056499
 10
9.3679364988
 20
-101.6225889432
 10
9.3398696562
 20
-101.586846952
 10
9.3130375724
 20
-101.5483618718
 10
9.2874640275
 20
-101.5070048167
 10
9.2631839058
 20
-101.4626367203
 10
9.2402645154
 20
-101.415156763
 10
9.2187612917
 20
-101.3644260403
 10
9.1987326625
 20
-101.3102840713
 10
9.1802473248
 20
-101.2525628744
 10
9.1633837314
 20
-101.1910876299
 10
9.1482295647
 20
-101.1256772631
 10
9.134881212
 20
-101.0561449543
  0
LINE
  5
249
100
AcDbEntity
  8
0
100
AcDbLine
 62
7
  6
CONTINUOUS
 10
2.6643547961
 20
-99.9831842448
 11
1.2247968239
 21
-100.2644869209
  0
LWPOLYLINE
  5
24A
100
AcDbEntity
  8
0
100
AcDbPolyline
 62
7
  6
CONTINUOUS
 90
35
 70
0
 10
10.3313562822
 20
-96.9357731702
 10
10.2003945809
 20
-96.9606504578
 10
10.1306336721
 20
-96.9738514934
 10
10.0581528494
 20
-96.9875217037
 10
9.9830522062
 20
-97.0016317736
 10
9.905431836
 20
-97.0161523882
 10
9.8031559646
 20
-97.0351806814
 10
9.6971670407
 20
-97.0547660677
 10
9.587671418
 20
-97.0748481112
 10
9.4748754501
 20
-97.0953663758
 10
9.3589854906
 20
-97.1162604258
 10
9.2402078932
 20
-97.1374698249
 10
9.1187490114
 20
-97.1589341374
 10
8.9948151991
 20
-97.1805929272
 10
8.8686128096
 20
-97.2023857583
 10
8.7403481968
 20
-97.2242521947
 10
8.6102277143
 20
-97.2461318006
 10
8.4286608173
 20
-97.2761267461
 10
8.2445117427
 20
-97.3058752183
 10
8.0583169295
 20
-97.3352201073
 10
7.8706128163
 20
-97.3640043032
 10
7.6819358421
 20
-97.392070696
 10
7.4928224457
 20
-97.4192621758
 10
7.303809066
 20
-97.4454216327
 10
7.1154321418
 20
-97.4703919568
 10
6.9655493372
 20
-97.4894064625
 10
6.8166918418
 20
-97.5074789327
 10
6.669134312
 20
-97.5245289269
 10
6.5231514048
 20
-97.5404760049
 10
6.3790177766
 20
-97.5552397264
 10
6.2370080843
 20
-97.5687396512
 10
6.0973969845
 20
-97.5808953389
 10
5.9604591339
 20
-97.5916263494
 10
5.8264691892
 20
-97.6008522422
 10
5.6957018071
 20
-97.6084925772
  0
LWPOLYLINE
  5
24B
100
AcDbEntity
  8
0
100
AcDbPolyline
 62
7
  6
CONTINUOUS
 90
6
 70
0
 10
10.7263878185
 20
-96.8608939991
 10
10.6893311947
 20
-96.8677909652
 10
10.6485537215
 20
-96.8754502555
 10
10.6041554924
 20
-96.8838425552
 10
10.5562366009
 20
-96.8929385493
 10
10.3313562822
 20
-96.9357731702
  0
LINE
  5
24C
100
AcDbEntity
  8
0
100
AcDbLine
 62
7
  6
CONTINUOUS
 10
0.1930712457
 20
-100.3912990711
 11
-1.1722070038
 21
-100.6423814798
  0
LWPOLYLINE
  5
24D
100
AcDbEntity
  8
0
100
AcDbPolyline
 62
7
  6
CONTINUOUS
 90
59
 70
0
 10
14.4112834164
 20
-77.471344479
 10
14.6815916157
 20
-77.4255015869
 10
14.9542789065
 20
-77.3641379197
 10
15.2291300035
 20
-77.287001268
 10
15.5058755167
 20
-77.1938350668
 10
15.7841884964
 20
-77.0843886041
 10
16.0636820543
 20
-76.9584275861
 10
16.3439081937
 20
-76.8157448093
 10
16.6243579584
 20
-76.6561706625
 10
16.9044629868
 20
-76.4795831597
 10
17.1835985184
 20
-76.2859171908
 10
17.4610878543
 20
-76.0751726749
 10
17.7362082202
 20
-75.8474213187
 10
18.0081979189
 20
-75.6028117096
 10
18.2762645991
 20
-75.3415725289
 10
18.539594405
 20
-75.0640137368
 10
18.7973617261
 20
-74.7705256654
 10
19.0487392236
 20
-74.4615760473
 10
19.2929077979
 20
-74.1377051033
 10
19.5290661589
 20
-73.7995188995
 10
19.7564396865
 20
-73.4476812599
 10
19.8395920652
 20
-73.3118619622
 10
20.0535169323
 20
-72.9426869742
 10
20.256811525
 20
-72.5619663535
 10
20.4488828405
 20
-72.1704928395
 10
20.6291906261
 20
-71.7690651306
 10
20.7972480865
 20
-71.3584790008
 10
20.9526214098
 20
-70.9395193186
 10
21.0949282705
 20
-70.5129530857
 10
21.2238354757
 20
-70.0795235554
 10
21.336911751
 20
-69.6381405619
 10
21.4349383275
 20
-69.1958617581
 10
21.5178144296
 20
-68.7535292849
 10
21.5854713671
 20
-68.3120306989
 10
21.6378776477
 20
-67.8722944693
 10
21.6750438513
 20
-67.4352840532
 10
21.6970270812
 20
-67.0019905312
 10
21.7039347875
 20
-66.5734238574
 10
21.703918049
 20
-66.5638947862
 10
21.695589894
 20
-66.1414912337
 10
21.6726172752
 20
-65.7262640847
 10
21.63531547
 20
-65.3191973687
 10
21.5840533813
 20
-64.9212377408
 10
21.5192500828
 20
-64.5332827543
 10
21.4413699918
 20
-64.1561700568
 10
21.3509167929
 20
-63.7906679256
 10
21.2484262963
 20
-63.4374674956
 10
21.1344584595
 20
-63.0971769599
 10
21.0095888365
 20
-62.7703179266
 10
20.8743997317
 20
-62.4573240165
 10
20.7294713371
 20
-62.1585416853
 10
20.575373115
 20
-61.8742331676
 10
20.41265566
 20
-61.6045813599
 10
20.2418432407
 20
-61.3496964059
 10
20.0634271813
 20
-61.1096237066
 10
19.8778602034
 20
-60.8843530579
 10
19.6855518114
 20
-60.6738286115
 10
19.4868647692
 20
-60.4779593631
 10
19.2821126861
 20
-60.2966298847
  0
LWPOLYLINE
  5
24E
100
AcDbEntity
  8
0
100
AcDbPolyline
 62
7
  6
CONTINUOUS
 90
58
 70
0
 10
10.985660767
 20
-71.5690720634
 10
11.1092658388
 20
-71.5504321157
 10
11.2339734001
 20
-71.5247255355
 10
11.3596933985
 20
-71.4918394735
 10
11.4863118773
 20
-71.4516574613
 10
11.6136892561
 20
-71.4040639553
 10
11.7416590746
 20
-71.3489490796
 10
11.8700272639
 20
-71.286213459
 10
11.9985719965
 20
-71.2157730219
 10
12.1270441589
 20
-71.1375636408
 10
12.2551684738
 20
-71.0515454719
 10
12.3826452808
 20
-70.9577068507
 10
12.5091529614
 20
-70.8560676069
 10
12.634350966
 20
-70.7466816702
 10
12.7578833767
 20
-70.6296388614
 10
12.8793829089
 20
-70.5050657893
 10
12.9984752326
 20
-70.37312581
 10
13.1147834743
 20
-70.2340180453
 10
13.2279327505
 20
-70.087975499
 10
13.3375545797
 20
-69.9352623508
 10
13.4432910264
 20
-69.7761705454
 10
13.5149351512
 20
-69.6609724261
 10
13.6132191807
 20
-69.4918764058
 10
13.7066592215
 20
-69.3174563731
 10
13.7949831219
 20
-69.1380727229
 10
13.8779425738
 20
-68.9540889861
 10
13.955313482
 20
-68.7658677795
 10
14.0268957968
 20
-68.5737671539
 10
14.0925128781
 20
-68.3781373986
 10
14.1520104679
 20
-68.1793183295
 10
14.2038463744
 20
-67.9760063883
 10
14.2487393225
 20
-67.7724942858
 10
14.2866516588
 20
-67.569161485
 10
14.3175603663
 20
-67.3664061214
 10
14.3414592275
 20
-67.1646428962
 10
14.3583608661
 20
-66.9643003732
 10
14.3682985868
 20
-66.7658176849
 10
14.3711343426
 20
-66.6289217213
 10
14.3694008873
 20
-66.4347378152
 10
14.3609266583
 20
-66.2437892837
 10
14.3458499868
 20
-66.0565097886
 10
14.3243326709
 20
-65.8733173371
 10
14.2965585875
 20
-65.6946092899
 10
14.262731716
 20
-65.5207577309
 10
14.2230736191
 20
-65.3521053679
 10
14.1778204514
 20
-65.188962119
 10
14.127219588
 20
-65.0316025042
 10
14.0715259794
 20
-64.8802639301
 10
14.0109983501
 20
-64.7351459094
 10
13.945895355
 20
-64.5964102234
 10
13.8764718107
 20
-64.4641819904
 10
13.802975101
 20
-64.3385515767
 10
13.7256418499
 20
-64.2195772555
 10
13.6446949347
 20
-64.1072885049
 10
13.560340897
 20
-64.001689822
 10
13.4727677948
 20
-63.9027649264
 10
13.3821435212
 20
-63.8104812262
 10
13.2886146035
 20
-63.7247944258
  0
LINE
  5
24F
100
AcDbEntity
  8
0
100
AcDbLine
 62
7
  6
CONTINUOUS
 10
-11.6529911491
 20
-74.7241244681
 11
-12.3121883841
 21
-74.8181744592
  0
LINE
  5
250
100
AcDbEntity
  8
0
100
AcDbLine
 62
7
  6
CONTINUOUS
 10
-12.3093640601
 20
-77.0685958683
 11
-11.6529911491
 21
-76.9776526337
  0
LINE
  5
251
100
AcDbEntity
  8
0
100
AcDbLine
 62
7
  6
CONTINUOUS
 10
14.6677320408
 20
-96.8278494077
 11
12.8861484253
 21
-96.7976291402
  0
LINE
  5
252
100
AcDbEntity
  8
0
100
AcDbLine
 62
7
  6
CONTINUOUS
 10
14.6346874494
 20
-94.5469252987
 11
12.8833241012
 21
-94.5167050313
  0
LWPOLYLINE
  5
253
100
AcDbEntity
  8
0
100
AcDbPolyline
 62
7
  6
CONTINUOUS
 90
24
 70
0
 10
-3.1633554644
 20
-102.8380110022
 10
-2.9129674634
 20
-102.8727695554
 10
-2.5927908453
 20
-102.9085307984
 10
-2.2700995865
 20
-102.9348787743
 10
-1.9448432411
 20
-102.951762312
 10
-1.6170003318
 20
-102.9591192132
 10
-1.2865797577
 20
-102.9568807452
 10
-0.9535282494
 20
-102.9449715338
 10
-0.6177921913
 20
-102.9233055887
 10
-0.1631405716
 20
-102.8814495857
 10
0.3319649352
 20
-102.8263468521
 10
0.8691159357
 20
-102.7570584175
 10
1.4495939741
 20
-102.6726953809
 10
2.0742257885
 20
-102.5724567294
 10
2.7431716898
 20
-102.4556849992
 10
3.4556054574
 20
-102.3219511725
 10
4.2092091623
 20
-102.171189854
 10
4.9993316096
 20
-102.0039264627
 10
5.8174831259
 20
-101.8216870707
 10
6.6483679525
 20
-101.627812972
 10
7.4631430082
 20
-101.4293252871
 10
8.2002035261
 20
-101.2422797596
 10
8.6802518819
 20
-101.1156396512
 10
8.6965461183
 20
-101.1112192734
  0
LINE
  5
254
100
AcDbEntity
  8
0
100
AcDbLine
 62
7
  6
CONTINUOUS
 10
17.3542290844
 20
-93.3251227114
 11
16.9486561497
 21
-93.2643997442
  0
LINE
  5
255
100
AcDbEntity
  8
0
100
AcDbLine
 62
7
  6
CONTINUOUS
 10
10.2134905696
 20
-72.3245787488
 11
8.5722758597
 21
-72.040734181
  0
LWPOLYLINE
  5
256
100
AcDbEntity
  8
0
100
AcDbPolyline
 62
7
  6
CONTINUOUS
 90
34
 70
0
 10
0.3063266404
 20
-93.4437443218
 10
0.6667925821
 20
-93.5092873096
 10
1.2057245635
 20
-93.5690676878
 10
1.7584626468
 20
-93.5851501516
 10
2.3255876982
 20
-93.55640632
 10
2.9077693269
 20
-93.4813556714
 10
3.5057209328
 20
-93.3581673029
 10
8.4958621868
 20
-92.0679917268
 10
22.4582883238
 20
-88.448019831
 10
31.4233169449
 20
-86.1069977174
 10
32.0020225998
 20
-85.9311275374
 10
32.5780413096
 20
-85.7094372405
 10
33.1512636496
 20
-85.4409746346
 10
33.7212943474
 20
-85.1246642136
 10
34.2874164534
 20
-84.7593911001
 10
34.8485597789
 20
-84.3440978758
 10
35.4032749784
 20
-83.8778938418
 10
35.9497151381
 20
-83.3601756327
 10
36.4856273586
 20
-82.7907570407
 10
37.0083574964
 20
-82.1700042849
 10
37.5148717921
 20
-81.4989707536
 10
38.001799314
 20
-80.7795225885
 10
38.4654987007
 20
-80.014443716
 10
38.9021512891
 20
-79.2075066902
 10
39.3078801789
 20
-78.3634948811
 10
39.6788911593
 20
-77.4881630822
 10
40.0116271535
 20
-76.588128248
 10
40.253087385
 20
-75.8387192869
 10
40.5077290678
 20
-74.9158976587
 10
40.7162650871
 20
-73.9932196527
 10
40.8778442459
 20
-73.0781531761
 10
40.99232049
 20
-72.1775875418
 10
41.060191435
 20
-71.2976484817
 10
41.0825052219
 20
-70.4435789264
  0
LWPOLYLINE
  5
257
100
AcDbEntity
  8
0
100
AcDbPolyline
 62
7
  6
CONTINUOUS
 90
17
 70
0
 10
-4.8073944983
 20
-88.8900866438
 10
-4.5989583901
 20
-88.9330584853
 10
-4.3717777601
 20
-88.9748609297
 10
-4.1278905331
 20
-89.0147248906
 10
-3.8698239005
 20
-89.0519114986
 10
-3.8159091279
 20
-89.0590780182
 10
-3.5457381891
 20
-89.0920317631
 10
-3.2693418105
 20
-89.1208595785
 10
-2.989494259
 20
-89.1452172601
 10
-2.7087292988
 20
-89.164871337
 10
-2.4292908205
 20
-89.1796881008
 10
-2.1531136159
 20
-89.1896197414
 10
-1.8818262214
 20
-89.1946896737
 10
-1.6167682261
 20
-89.1949784435
 10
-1.3590158435
 20
-89.1906110027
 10
-1.109411186
 20
-89.181745694
 10
-0.8685921676
 20
-89.1685649959
  0
LWPOLYLINE
  5
258
100
AcDbEntity
  8
0
100
AcDbPolyline
 62
7
  6
CONTINUOUS
 90
25
 70
0
 10
-5.2265241884
 20
-96.6403142902
 10
-5.0823698427
 20
-96.6705770941
 10
-4.9367147071
 20
-96.6985885293
 10
-4.7895554718
 20
-96.7243390342
 10
-4.6408888271
 20
-96.7478190473
 10
-4.4907114632
 20
-96.7690190072
 10
-4.3390200704
 20
-96.7879293523
 10
-4.1858113389
 20
-96.8045405211
 10
-4.031081959
 20
-96.8188429521
 10
-3.8748286209
 20
-96.8308270837
 10
-3.7170480148
 20
-96.8404833545
 10
-3.5577368311
 20
-96.8478022029
 10
-3.3968917599
 20
-96.8527740675
 10
-3.2345094915
 20
-96.8553893866
 10
-3.0705867161
 20
-96.8556385989
 10
-2.905120124
 20
-96.8535121428
 10
-2.7381064054
 20
-96.8490004567
 10
-2.5695422506
 20
-96.8420939792
 10
-2.3994243499
 20
-96.8327831487
 10
-2.2277493933
 20
-96.8210584038
 10
-2.0545140713
 20
-96.8069101829
 10
-1.8797150741
 20
-96.7903289245
 10
-1.7033490918
 20
-96.7713050671
 10
-1.5254128148
 20
-96.7498290492
 10
-1.3459029333
 20
-96.7258913092
  0
LINE
  5
259
100
AcDbEntity
  8
0
100
AcDbLine
 62
7
  6
CONTINUOUS
 10
32.9459100444
 20
-72.1647220071
 11
22.5752745373
 21
-69.8202506069
  0
LINE
  5
25A
100
AcDbEntity
  8
0
100
AcDbLine
 62
7
  6
CONTINUOUS
 10
17.009379117
 20
-95.5151035857
 11
15.6330860037
 21
-95.2004738857
  0
LWPOLYLINE
  5
25B
100
AcDbEntity
  8
0
100
AcDbPolyline
 62
7
  6
CONTINUOUS
 90
32
 70
0
 10
12.5991971011
 20
-62.4891526506
 10
12.5430888808
 20
-62.4762121441
 10
12.4868855526
 20
-62.4646097477
 10
12.4305942836
 20
-62.4543398869
 10
12.3742222411
 20
-62.4453969872
 10
12.3177765923
 20
-62.4377754742
 10
12.2612645044
 20
-62.4314697733
 10
12.2046931447
 20
-62.4264743099
 10
12.1480696803
 20
-62.4227835097
 10
12.0914012786
 20
-62.420391798
 10
12.0346951068
 20
-62.4192936004
 10
11.977958332
 20
-62.4194833423
 10
11.9211981215
 20
-62.4209554493
 10
11.8644216425
 20
-62.4237043468
 10
11.8076360623
 20
-62.4277244604
 10
11.7508485481
 20
-62.4330102154
 10
11.6940662671
 20
-62.4395560374
 10
11.6372963865
 20
-62.447356352
 10
11.5805460736
 20
-62.4564055845
 10
11.5238224956
 20
-62.4666981604
 10
11.4671328198
 20
-62.4782285053
 10
11.4104842132
 20
-62.4909910447
 10
11.3538838433
 20
-62.504980204
 10
11.2973388772
 20
-62.5201904087
 10
11.2408564821
 20
-62.5366160843
 10
11.1844438253
 20
-62.5542516564
 10
11.128108074
 20
-62.5730915503
 10
11.0718563954
 20
-62.5931301915
 10
11.0156959568
 20
-62.6143620057
 10
10.9596339254
 20
-62.6367814182
 10
10.9036774683
 20
-62.6603828546
 10
10.8478337529
 20
-62.6851607402
  0
LINE
  5
25C
100
AcDbEntity
  8
0
100
AcDbLine
 62
7
  6
CONTINUOUS
 10
20.8569557806
 20
-95.2945238768
 11
17.5087196104
 21
-94.5167050313
  0
LINE
  5
25D
100
AcDbEntity
  8
0
100
AcDbLine
 62
7
  6
CONTINUOUS
 10
12.0586214764
 20
-79.3469780856
 11
-6.1229646443
 21
-75.121506863
  0
LINE
  5
25E
100
AcDbEntity
  8
0
100
AcDbLine
 62
7
  6
CONTINUOUS
 10
-5.5685498318
 20
-82.2263764623
 11
-6.1257889684
 21
-82.0967399881
  0
LINE
  5
25F
100
AcDbEntity
  8
0
100
AcDbLine
 62
7
  6
CONTINUOUS
 10
25.1708283462
 20
-93.9484510309
 11
23.9820703504
 21
-93.6699726789
  0
LINE
  5
260
100
AcDbEntity
  8
0
100
AcDbLine
 62
7
  6
CONTINUOUS
 10
-14.2510868497
 20
-77.697572836
 11
-15.3130326953
 21
-77.4464904272
  0
LINE
  5
261
100
AcDbEntity
  8
0
100
AcDbLine
 62
7
  6
CONTINUOUS
 10
22.7023691199
 20
-94.7014158247
 11
21.5161530157
 21
-94.4201131486
  0
LINE
  5
262
100
AcDbEntity
  8
0
100
AcDbLine
 62
7
  6
CONTINUOUS
 10
12.5082538664
 20
-96.3920562056
 11
9.7279892641
 21
-95.7300346465
  0
LWPOLYLINE
  5
263
100
AcDbEntity
  8
0
100
AcDbPolyline
 62
7
  6
CONTINUOUS
 90
49
 70
0
 10
8.6166177474
 20
-58.418171954
 10
8.5976176601
 20
-58.4136404875
 10
8.5785246285
 20
-58.4099148717
 10
8.5593491136
 20
-58.4069868751
 10
8.5401015766
 20
-58.4048482664
 10
8.5207924784
 20
-58.403490814
 10
8.5014322801
 20
-58.4029062865
 10
8.4820314428
 20
-58.4030864524
 10
8.4626004275
 20
-58.4040230804
 10
8.4431496953
 20
-58.4057079389
 10
8.4236897073
 20
-58.4081327965
 10
8.4042309244
 20
-58.4112894217
 10
8.3847838078
 20
-58.4151695831
 10
8.3653588185
 20
-58.4197650493
 10
8.3459664175
 20
-58.4250675888
 10
8.3266170659
 20
-58.4310689701
 10
8.3073212248
 20
-58.4377609618
 10
8.2880893553
 20
-58.4451353324
 10
8.2689319183
 20
-58.4531838505
 10
8.2498593749
 20
-58.4618982846
 10
8.2308821862
 20
-58.4712704033
 10
8.2120108132
 20
-58.4812919751
 10
8.1932557171
 20
-58.4919547686
 10
8.1746273587
 20
-58.5032505523
 10
8.1561361993
 20
-58.5151710948
 10
8.1377926999
 20
-58.5277081646
 10
8.1196073214
 20
-58.5408535303
 10
8.0983336734
 20
-58.557161956
 10
8.0773127504
 20
-58.5742949011
 10
8.0565618198
 20
-58.5922387784
 10
8.036098149
 20
-58.6109800007
 10
8.0159390056
 20
-58.6305049808
 10
7.9961016568
 20
-58.6508001317
 10
7.9766033702
 20
-58.6718518662
 10
7.9574614131
 20
-58.6936465972
 10
7.938693053
 20
-58.7161707373
 10
7.9203155572
 20
-58.7394106997
 10
7.9023461933
 20
-58.7633528969
 10
7.8848022286
 20
-58.787983742
 10
7.8677009305
 20
-58.8132896478
 10
7.8510595665
 20
-58.8392570271
 10
7.8348954039
 20
-58.8658722927
 10
7.8192257103
 20
-58.8931218575
 10
7.804067753
 20
-58.9209921344
 10
7.7894387994
 20
-58.9494695362
 10
7.775356117
 20
-58.9785404757
 10
7.7618369732
 20
-59.0081913659
 10
7.7488986355
 20
-59.0384086194
 10
7.7365583711
 20
-59.0691786493
  0
LWPOLYLINE
  5
264
100
AcDbEntity
  8
0
100
AcDbPolyline
 62
7
  6
CONTINUOUS
 90
69
 70
0
 10
34.6834342046
 20
-65.9257901639
 10
34.5944042056
 20
-65.9041526834
 10
34.5043363374
 20
-65.8880152323
 10
34.4132209579
 20
-65.8773733145
 10
34.3210527091
 20
-65.8722451369
 10
34.2278334768
 20
-65.8726702302
 10
34.1335753722
 20
-65.8787075002
 10
34.0383036592
 20
-65.8904327197
 10
33.9420595485
 20
-65.9079354876
 10
33.8449027843
 20
-65.9313156972
 10
33.7469139444
 20
-65.9606795746
 10
33.6481963819
 20
-65.9961353616
 10
33.5488777368
 20
-66.0377887346
 10
33.4491109499
 20
-66.085738066
 10
33.3490747194
 20
-66.1400696506
 10
33.2489733482
 20
-66.2008530321
 10
33.1490359437
 20
-66.2681365758
 10
33.0495149547
 20
-66.3419434402
 10
32.9506840453
 20
-66.4222680983
 10
32.852835343
 20
-66.5090735502
 10
32.7562761208
 20
-66.6022893509
 10
32.6613250073
 20
-66.7018105452
 10
32.5683078483
 20
-66.8074975658
 10
32.4775533612
 20
-66.9191771057
 10
32.3893887424
 20
-67.036643926
 10
32.30413539
 20
-67.1596635159
 10
32.222104896
 20
-67.2879754789
 10
32.1454726871
 20
-67.4179769347
 10
32.070748047
 20
-67.5557466398
 10
32.000138095
 20
-67.6977766555
 10
31.9338680447
 20
-67.8437451326
 10
31.8721409098
 20
-67.9933296306
 10
31.8151374748
 20
-68.1462108439
 10
31.7630167621
 20
-68.3020758738
 10
31.7159169173
 20
-68.4606210056
 10
31.6741625331
 20
-68.6209210335
 10
31.6380983106
 20
-68.7814970469
 10
31.607762103
 20
-68.9420180415
 10
31.5831786539
 20
-69.1021345341
 10
31.5643574185
 20
-69.2614804822
 10
31.5512904859
 20
-69.4196758382
 10
31.5439506923
 20
-69.5763297452
 10
31.5422652138
 20
-69.7275603111
 10
31.5460809912
 20
-69.8798479706
 10
31.5553918775
 20
-70.029253657
 10
31.57006535
 20
-70.1753949689
 10
31.5899472018
 20
-70.3179066207
 10
31.6148632184
 20
-70.4564453826
 10
31.644621457
 20
-70.590694542
 10
31.679015063
 20
-70.7203676967
 10
31.7178255288
 20
-70.8452117282
 10
31.760826279
 20
-70.9650088384
 10
31.8077864538
 20
-71.0795775855
 10
31.8584747602
 20
-71.1887729042
 10
31.9126632599
 20
-71.2924851393
 10
31.9701309811
 20
-71.3906381666
 10
32.0306672489
 20
-71.4831867029
 10
32.0940746551
 20
-71.5701129333
 10
32.1601716025
 20
-71.6514225938
 10
32.2287943812
 20
-71.7271406527
 10
32.299798749
 20
-71.7973067352
 10
32.3730610049
 20
-71.8619704231
 10
32.4484785583
 20
-71.9211865598
 10
32.5259700055
 20
-71.9750106719
 10
32.6054747399
 20
-72.0234946127
 10
32.6869521284
 20
-72.0666825173
 10
32.7703802984
 20
-72.1046071455
 10
32.8557545879
 20
-72.1372866773
 10
32.9430857203
 20
-72.1647220071
  0
LINE
  5
265
100
AcDbEntity
  8
0
100
AcDbLine
 62
7
  6
CONTINUOUS
 10
6.9672124978
 20
-73.6650029465
 11
-5.7038349542
 21
-70.5373464852
  0
LINE
  5
266
100
AcDbEntity
  8
0
100
AcDbLine
 62
7
  6
CONTINUOUS
 10
7.1242449154
 20
-66.7533171128
 11
4.2640519423
 21
-66.0472360984
  0
LWPOLYLINE
  5
267
100
AcDbEntity
  8
0
100
AcDbPolyline
 62
7
  6
CONTINUOUS
 90
45
 70
0
 10
-3.8282013475
 20
-75.9902689431
 10
-3.8806475794
 20
-75.9770203923
 10
-3.9332765787
 20
-75.9657027557
 10
-3.9860684983
 20
-75.9562984843
 10
-4.0390034912
 20
-75.9487900291
 10
-4.0920617102
 20
-75.9431598411
 10
-4.1452233083
 20
-75.9393903713
 10
-4.1984684383
 20
-75.9374640707
 10
-4.2517772531
 20
-75.9373633901
 10
-4.3051299056
 20
-75.9390707807
 10
-4.3585065488
 20
-75.9425686934
 10
-4.4118873355
 20
-75.9478395792
 10
-4.4652524186
 20
-75.954865889
 10
-4.518581951
 20
-75.9636300739
 10
-4.5718560856
 20
-75.9741145849
 10
-4.6250549753
 20
-75.9863018728
 10
-4.678158773
 20
-76.0001743887
 10
-4.7311476317
 20
-76.0157145836
 10
-4.7840017041
 20
-76.0329049085
 10
-4.8367011432
 20
-76.0517278143
 10
-4.8892261019
 20
-76.072165752
 10
-4.9415567331
 20
-76.0942011726
 10
-4.9936731896
 20
-76.1178165272
 10
-5.0455556244
 20
-76.1429942666
 10
-5.1020872335
 20
-76.1723417794
 10
-5.1582882402
 20
-76.203519339
 10
-5.2141325696
 20
-76.2365038896
 10
-5.2695941468
 20
-76.2712723754
 10
-5.3246468969
 20
-76.3078017409
 10
-5.3792647451
 20
-76.3460689302
 10
-5.4334216163
 20
-76.3860508878
 10
-5.4870914358
 20
-76.4277245577
 10
-5.5402481286
 20
-76.4710668845
 10
-5.5928656197
 20
-76.5160548123
 10
-5.6449178343
 20
-76.5626652855
 10
-5.6963786975
 20
-76.6108752483
 10
-5.7472221343
 20
-76.660661645
 10
-5.79742207
 20
-76.71200142
 10
-5.8469524294
 20
-76.7648715175
 10
-5.8957871378
 20
-76.8192488819
 10
-5.9439001203
 20
-76.8751104573
 10
-5.9912653019
 20
-76.9324331881
 10
-6.0378566077
 20
-76.9911940187
 10
-6.0836479629
 20
-77.0513698932
 10
-6.1286132924
 20
-77.112937756
  0
LWPOLYLINE
  5
268
100
AcDbEntity
  8
0
100
AcDbPolyline
 62
7
  6
CONTINUOUS
 90
49
 70
0
 10
21.284558443
 20
-55.180084422
 10
21.2655743385
 20
-55.1752523347
 10
21.2464966751
 20
-55.1712435614
 10
21.2273359258
 20
-55.1680491594
 10
21.2081025638
 20
-55.1656601864
 10
21.1888070621
 20
-55.1640676997
 10
21.169459894
 20
-55.1632627569
 10
21.1500715324
 20
-55.1632364155
 10
21.1306524505
 20
-55.1639797328
 10
21.1112131214
 20
-55.1654837666
 10
21.0917640183
 20
-55.1677395741
 10
21.0723156141
 20
-55.1707382129
 10
21.052878382
 20
-55.1744707405
 10
21.0334627952
 20
-55.1789282143
 10
21.0140793267
 20
-55.1841016919
 10
20.9947384497
 20
-55.1899822308
 10
20.9754506371
 20
-55.1965608884
 10
20.9562263623
 20
-55.2038287221
 10
20.9370760982
 20
-55.2117767896
 10
20.9180103179
 20
-55.2203961482
 10
20.8990394946
 20
-55.2296778555
 10
20.8801741014
 20
-55.239612969
 10
20.8614246114
 20
-55.2501925461
 10
20.8428014977
 20
-55.2614076443
 10
20.8243152333
 20
-55.2732493211
 10
20.8059762915
 20
-55.285708634
 10
20.7877951453
 20
-55.2987766405
 10
20.7665260959
 20
-55.3149931822
 10
20.7455093538
 20
-55.3320326319
 10
20.7247622063
 20
-55.3498802287
 10
20.7043019406
 20
-55.3685212118
 10
20.6841458442
 20
-55.3879408202
 10
20.6643112042
 20
-55.4081242932
 10
20.6448153081
 20
-55.4290568699
 10
20.6256754431
 20
-55.4507237895
 10
20.6069088966
 20
-55.4731102909
 10
20.5885329559
 20
-55.4962016135
 10
20.5705649082
 20
-55.5199829963
 10
20.5530220409
 20
-55.5444396785
 10
20.5359216413
 20
-55.5695568992
 10
20.5192809968
 20
-55.5953198976
 10
20.5031173946
 20
-55.6217139128
 10
20.487448122
 20
-55.648724184
 10
20.4722904665
 20
-55.6763359502
 10
20.4576617152
 20
-55.7045344506
 10
20.4435791554
 20
-55.7333049245
 10
20.4300600746
 20
-55.7626326108
 10
20.4171217601
 20
-55.7925027488
 10
20.404781499
 20
-55.8229005775
  0
LINE
  5
269
100
AcDbEntity
  8
0
100
AcDbLine
 62
7
  6
CONTINUOUS
 10
-0.8685921676
 20
-89.1685649959
 11
1.1942941241
 21
-89.6981257567
  0
LINE
  5
26A
100
AcDbEntity
  8
0
100
AcDbLine
 62
7
  6
CONTINUOUS
 10
39.3311418738
 20
-53.5942264637
 11
40.6769322872
 21
-53.9419007552
  0
LINE
  5
26B
100
AcDbEntity
  8
0
100
AcDbLine
 62
7
  6
CONTINUOUS
 10
8.6137934234
 20
-58.418171954
 11
-6.0899200528
 21
-54.5265358351
  0
LINE
  5
26C
100
AcDbEntity
  8
0
100
AcDbLine
 62
7
  6
CONTINUOUS
 10
21.2817341189
 20
-55.180084422
 11
-4.901162057
 21
-48.2489107523
  0
LINE
  5
26D
100
AcDbEntity
  8
0
100
AcDbLine
 62
7
  6
CONTINUOUS
 10
13.1674511014
 20
-94.0475848054
 11
10.0064676162
 21
-93.203676777
  0
LINE
  5
26E
100
AcDbEntity
  8
0
100
AcDbLine
 62
7
  6
CONTINUOUS
 10
-14.3118098169
 20
-73.6319583551
 11
-15.1226732538
 21
-73.4113786462
  0
LINE
  5
26F
100
AcDbEntity
  8
0
100
AcDbLine
 62
7
  6
CONTINUOUS
 10
27.7966024226
 20
-93.1706321855
 11
26.3265417506
 21
-92.7650592508
  0
LINE
  5
270
100
AcDbEntity
  8
0
100
AcDbLine
 62
7
  6
CONTINUOUS
 10
28.0474023989
 20
-56.1564532487
 11
24.3240959937
 21
-55.1250101029
  0
LINE
  5
271
100
AcDbEntity
  8
0
100
AcDbLine
 62
7
  6
CONTINUOUS
 10
3.3512304069
 20
-62.5665391298
 11
-0.3695341066
 21
-61.5348135516
  0
LINE
  5
272
100
AcDbEntity
  8
0
100
AcDbLine
 62
7
  6
CONTINUOUS
 10
8.5090110008
 20
-61.2535108754
 11
4.7882464874
 21
-60.2220677296
  0
LINE
  5
273
100
AcDbEntity
  8
0
100
AcDbLine
 62
7
  6
CONTINUOUS
 10
33.2051829928
 20
-54.8465317508
 11
29.4815941553
 21
-53.8122642809
  0
LINE
  5
274
100
AcDbEntity
  8
0
100
AcDbLine
 62
7
  6
CONTINUOUS
 10
24.4317027403
 20
-83.6218749792
 11
15.178087398
 21
-81.0432671146
  0
LINE
  5
275
100
AcDbEntity
  8
0
100
AcDbLine
 62
7
  6
CONTINUOUS
 10
0.1930712457
 20
-100.3912990711
 11
-1.1527191678
 21
-100.0162288363
  0
LINE
  5
276
100
AcDbEntity
  8
0
100
AcDbLine
 62
7
  6
CONTINUOUS
 10
16.3227859386
 20
-93.4519348616
 11
12.8531038338
 21
-92.481214683
  0
LWPOLYLINE
  5
277
100
AcDbEntity
  8
0
100
AcDbPolyline
 62
7
  6
CONTINUOUS
 90
68
 70
0
 10
-6.1588335598
 20
-75.3364379238
 10
-3.8310256716
 20
-75.9930932672
 10
-3.7387570076
 20
-76.0216673457
 10
-3.648705837
 20
-76.0560717321
 10
-3.560854569
 20
-76.09630596
 10
-3.4752046449
 20
-76.1423916459
 10
-3.3917789468
 20
-76.1943689862
 10
-3.3106238268
 20
-76.2522925594
 10
-3.2318106707
 20
-76.3162265019
 10
-3.1554369193
 20
-76.3862391501
 10
-3.0816264878
 20
-76.4623972595
 10
-3.0105295363
 20
-76.544759934
 10
-2.9423215589
 20
-76.6333724159
 10
-2.8772017785
 20
-76.7282599055
 10
-2.8153908465
 20
-76.8294215957
 10
-2.7571278729
 20
-76.9368251221
 10
-2.7026668314
 20
-77.0504016372
 10
-2.6522724147
 20
-77.1700417177
 10
-2.6062154418
 20
-77.2955923036
 10
-2.5647679514
 20
-77.4268548419
 10
-2.5281981411
 20
-77.5635847658
 10
-2.4967653325
 20
-77.7054923851
 10
-2.4707151548
 20
-77.8522451918
 10
-2.4502751378
 20
-78.0034715111
 10
-2.4356508878
 20
-78.15876535
 10
-2.4270229941
 20
-78.3176922261
 10
-2.4245447697
 20
-78.4797957096
 10
-2.4248364506
 20
-78.5157294277
 10
-2.4300190567
 20
-78.6809979585
 10
-2.4415670683
 20
-78.8482005681
 10
-2.4595213075
 20
-79.0168652976
 10
-2.4838973197
 20
-79.1865314923
 10
-2.5146877289
 20
-79.3567545001
 10
-2.5518649178
 20
-79.5271094738
 10
-2.5953838964
 20
-79.6971942687
 10
-2.6446412306
 20
-79.8632793904
 10
-2.6995084882
 20
-80.026440634
 10
-2.7598274641
 20
-80.1863287282
 10
-2.8254142801
 20
-80.3425822086
 10
-2.8960580888
 20
-80.4948308741
 10
-2.9715203385
 20
-80.6426999368
 10
-3.0515347188
 20
-80.785814815
 10
-3.0729613302
 20
-80.8220544454
 10
-3.1582704687
 20
-80.9586361853
 10
-3.2473247586
 20
-81.0894981266
 10
-3.3397623277
 20
-81.2143226358
 10
-3.4352066981
 20
-81.332821621
 10
-3.5332718708
 20
-81.4447413638
 10
-3.6335678824
 20
-81.5498664404
 10
-3.7357066111
 20
-81.6480225224
 10
-3.8393075911
 20
-81.739077908
 10
-3.9440035956
 20
-81.8229437076
 10
-4.0494457645
 20
-81.8995726789
 10
-4.1553080896
 20
-81.9689567825
 10
-4.2612911096
 20
-82.0311235887
 10
-4.3671247198
 20
-82.086131713
 10
-4.472570046
 20
-82.1340654914
 10
-4.5774203795
 20
-82.1750291177
 10
-4.6815012046
 20
-82.2091404695
 10
-4.7846693801
 20
-82.2365248356
 10
-4.8868115574
 20
-82.2573087416
 10
-4.9878419289
 20
-82.2716140481
 10
-5.0876994124
 20
-82.2795524711
 10
-5.1863443814
 20
-82.281220649
 10
-5.2837550526
 20
-82.2766958564
 10
-5.379923648
 20
-82.2660324378
 10
-5.474852445
 20
-82.2492590114
 10
-5.5685498318
 20
-82.2263764623
  0
LINE
  5
278
100
AcDbEntity
  8
0
100
AcDbLine
 62
7
  6
CONTINUOUS
 10
40.6438876957
 20
-48.4364458697
 11
39.3311418738
 21
-48.0641999589
  0
LWPOLYLINE
  5
279
100
AcDbEntity
  8
0
100
AcDbPolyline
 62
7
  6
CONTINUOUS
 90
48
 70
0
 10
22.4207840113
 20
-62.4422688713
 10
34.6834342046
 20
-65.9257901639
 10
34.8172342706
 20
-65.9699683196
 10
34.9463319553
 20
-66.0265879726
 10
35.0707388835
 20
-66.0956887582
 10
35.1903710012
 20
-66.1773959015
 10
35.3050355843
 20
-66.2718919267
 10
35.4144229921
 20
-66.3793827464
 10
35.5181040802
 20
-66.5000595936
 10
35.6155338967
 20
-66.6340586478
 10
35.7060619793
 20
-66.7814205685
 10
35.7889492296
 20
-66.9420524862
 10
35.8633909175
 20
-67.1156952547
 10
35.928544853
 20
-67.3018988354
 10
35.9835631727
 20
-67.5000084309
 10
36.0276256209
 20
-67.7091633011
 10
36.0599717873
 20
-67.9283090718
 10
36.0799296481
 20
-68.1562228951
 10
36.0869380288
 20
-68.3915493048
 10
36.0869433035
 20
-68.3988773712
 10
36.08015963
 20
-68.6401592816
 10
36.0597614847
 20
-68.8853038567
 10
36.02566373
 20
-69.1328715055
 10
35.9778858261
 20
-69.3814925501
 10
35.9165340881
 20
-69.6298911655
 10
35.8417633996
 20
-69.8728540639
 10
35.7551628771
 20
-70.1092686162
 10
35.6572872397
 20
-70.3379792089
 10
35.5488163435
 20
-70.5577897637
 10
35.4305588301
 20
-70.7674934151
 10
35.4229653551
 20
-70.7800690016
 10
35.2955540307
 20
-70.9774418943
 10
35.1607919852
 20
-71.1619157022
 10
35.0198698973
 20
-71.3325938951
 10
34.8740075286
 20
-71.4887517667
 10
34.724415075
 20
-71.6298566344
 10
34.5722547688
 20
-71.7555754742
 10
34.4186060033
 20
-71.865769314
 10
34.2644366787
 20
-71.9604752077
 10
34.1105825803
 20
-72.03987784
 10
33.9577356199
 20
-72.1042735888
 10
33.8064408978
 20
-72.1540301681
 10
33.6571018871
 20
-72.1895448757
 10
33.5099926266
 20
-72.2112041307
 10
33.3652755833
 20
-72.2193465238
 10
33.2230237368
 20
-72.2142311282
 10
33.0832453737
 20
-72.196012337
 10
32.9459100444
 20
-72.1647220071
  0
LINE
  5
27A
100
AcDbEntity
  8
0
100
AcDbLine
 62
7
  6
CONTINUOUS
 10
12.8861484253
 20
-93.4188902701
 11
11.352540462
 21
-92.980272744
  0
LINE
  5
27B
100
AcDbEntity
  8
0
100
AcDbLine
 62
7
  6
CONTINUOUS
 10
12.7288335753
 20
-97.3300142251
 11
10.8865269925
 21
-96.8004534643
  0
LINE
  5
27C
100
AcDbEntity
  8
0
100
AcDbLine
 62
7
  6
CONTINUOUS
 10
7.2815597654
 20
-58.9257029872
 11
-6.009991682
 21
-55.0809506476
  0
LINE
  5
27D
100
AcDbEntity
  8
0
100
AcDbLine
 62
7
  6
CONTINUOUS
 10
19.9495004609
 20
-55.6876154552
 11
-5.2155093246
 21
-48.4034012782
  0
LINE
  5
27E
100
AcDbEntity
  8
0
100
AcDbLine
 62
7
  6
CONTINUOUS
 10
5.1330964548
 20
-99.3900761927
 11
3.6932560503
 21
-98.951741099
  0
LINE
  5
27F
100
AcDbEntity
  8
0
100
AcDbLine
 62
7
  6
CONTINUOUS
 10
2.6643547961
 20
-99.9831842448
 11
1.2273387156
 21
-99.5445667187
  0
LINE
  5
280
100
AcDbEntity
  8
0
100
AcDbLine
 62
7
  6
CONTINUOUS
 10
21.4280341051
 20
-97.9200155207
 11
19.3868951087
 21
-97.2966872012
  0
LINE
  5
281
100
AcDbEntity
  8
0
100
AcDbLine
 62
7
  6
CONTINUOUS
 10
9.134881212
 20
-101.0561449543
 11
7.1931584224
 21
-100.4630369022
  0
LINE
  5
282
100
AcDbEntity
  8
0
100
AcDbLine
 62
7
  6
CONTINUOUS
 10
12.8861484253
 20
-93.0768646268
 11
11.7581133967
 21
-92.7320146593
  0
LINE
  5
283
100
AcDbEntity
  8
0
100
AcDbLine
 62
7
  6
CONTINUOUS
 10
16.3860507975
 20
-84.5818627263
 11
18.4271897939
 21
-85.2080153699
  0
LWPOLYLINE
  5
284
100
AcDbEntity
  8
0
100
AcDbPolyline
 62
7
  6
CONTINUOUS
 90
24
 70
0
 10
12.4255011715
 20
-81.7905832602
 10
12.8222035873
 20
-81.9140563991
 10
13.1919322706
 20
-82.0392510729
 10
13.5357177596
 20
-82.165855896
 10
13.8545798553
 20
-82.2935691938
 10
14.1495264902
 20
-82.4220998148
 10
14.4215524081
 20
-82.5511679926
 10
14.6716376187
 20
-82.680506247
 10
14.9006922925
 20
-82.8098288329
 10
15.1096011
 20
-82.9388477111
 10
15.2992976707
 20
-83.067321929
 10
15.4706938457
 20
-83.1950243312
 10
15.6246768079
 20
-83.3217418313
 10
15.7621057858
 20
-83.4472752718
 10
15.8838083126
 20
-83.571438645
 10
15.9905760553
 20
-83.6940573627
 10
16.0831602929
 20
-83.8149651338
 10
16.1622672238
 20
-83.9339988423
 10
16.2285534543
 20
-84.0509905915
 10
16.2826222822
 20
-84.1657557713
 10
16.3250218151
 20
-84.2780755921
 10
16.3562466184
 20
-84.3876719626
 10
16.3767456502
 20
-84.4941718536
 10
16.3860507975
 20
-84.5818627263
  0
LINE
  5
285
100
AcDbEntity
  8
0
100
AcDbLine
 62
7
  6
CONTINUOUS
 10
4.945278905
 20
-59.7532299361
 11
9.2286487707
 21
-61.0990203495
  0
LINE
  5
286
100
AcDbEntity
  8
0
100
AcDbLine
 62
7
  6
CONTINUOUS
 10
24.4811284113
 20
-54.6561723093
 11
28.7644982771
 21
-56.0019627228
  0
LINE
  5
287
100
AcDbEntity
  8
0
100
AcDbLine
 62
7
  6
CONTINUOUS
 10
-0.2122192566
 20
-61.065975758
 11
4.0711506092
 21
-62.4120486039
  0
LINE
  5
288
100
AcDbEntity
  8
0
100
AcDbLine
 62
7
  6
CONTINUOUS
 10
29.6389090053
 20
-53.3431440549
 11
33.9222788711
 21
-54.6892169008
  0
LWPOLYLINE
  5
289
100
AcDbEntity
  8
0
100
AcDbPolyline
 62
7
  6
CONTINUOUS
 90
65
 70
0
 10
11.352540462
 20
-62.0974189039
 10
12.8971632891
 20
-62.5857445334
 10
13.0377567261
 20
-62.6441916018
 10
13.1749668628
 20
-62.7116224137
 10
13.3087660693
 20
-62.7880762361
 10
13.4390939185
 20
-62.8736151112
 10
13.5658546204
 20
-62.9683173644
 10
13.6889151698
 20
-63.072270304
 10
13.8081043081
 20
-63.1855622562
 10
13.9232123773
 20
-63.3082741083
 10
14.0339921245
 20
-63.4404705609
 10
14.1401604933
 20
-63.5821913166
 10
14.2414014142
 20
-63.7334424561
 10
14.3373695764
 20
-63.894188276
 10
14.4276951341
 20
-64.0643438735
 10
14.5119892607
 20
-64.2437687731
 10
14.5898504267
 20
-64.4322618763
 10
14.6608712324
 20
-64.6295579924
 10
14.7246455897
 20
-64.835326158
 10
14.780776012
 20
-65.0491698876
 10
14.8288807483
 20
-65.2706294063
 10
14.8686004927
 20
-65.4991858224
 10
14.8996044089
 20
-65.7342670865
 10
14.9215952405
 20
-65.9752554906
 10
14.9343133269
 20
-66.2214963719
 10
14.937539401
 20
-66.472307632
 10
14.937219292
 20
-66.5080632572
 10
14.9294079937
 20
-66.763040089
 10
14.9118144235
 20
-67.0208122035
 10
14.8843787066
 20
-67.2806882983
 10
14.8470770694
 20
-67.541995059
 10
14.7999183814
 20
-67.8040834901
 10
14.7429402732
 20
-68.0663339957
 10
14.676205013
 20
-68.3281602073
 10
14.5997114815
 20
-68.5834678319
 10
14.5145528557
 20
-68.8343875878
 10
14.4209640545
 20
-69.0803959762
 10
14.3192181819
 20
-69.3209510015
 10
14.2096285002
 20
-69.555497178
 10
14.0925495932
 20
-69.7834715344
 10
13.9683775474
 20
-70.0043105478
 10
13.8489506214
 20
-70.1995997572
 10
13.7125451633
 20
-70.4050968383
 10
13.5705978962
 20
-70.601678223
 10
13.4236655524
 20
-70.7888861311
 10
13.2723231607
 20
-70.9663097305
 10
13.1171562263
 20
-71.1335915134
 10
12.958752387
 20
-71.2904322081
 10
12.797692879
 20
-71.4365939717
 10
12.6345441584
 20
-71.5719017064
 10
12.4698500106
 20
-71.696242442
 10
12.3041244443
 20
-71.8095628318
 10
12.1378456116
 20
-71.9118649029
 10
11.9714509316
 20
-72.0032002782
 10
11.8053335241
 20
-72.0836631438
 10
11.6398399959
 20
-72.1533822673
 10
11.475269563
 20
-72.2125123856
 10
11.3118744425
 20
-72.2612252722
 10
11.1498614174
 20
-72.2997007766
 10
10.9893944436
 20
-72.3281180985
 10
10.8305981616
 20
-72.3466475287
 10
10.6735621564
 20
-72.3554428498
 10
10.51834581
 20
-72.3546345593
 10
10.3649835838
 20
-72.3443240374
 10
10.2134905696
 20
-72.3245787488
  0
LINE
  5
28A
100
AcDbEntity
  8
0
100
AcDbLine
 62
7
  6
CONTINUOUS
 10
13.6060686276
 20
-92.9195497768
 11
12.7288335753
 21
-92.6410714247
  0
LINE
  5
28B
100
AcDbEntity
  8
0
100
AcDbLine
 62
7
  6
CONTINUOUS
 10
-11.6529911491
 20
-76.9776526337
 11
-12.3121883841
 21
-76.7598972488
  0
LINE
  5
28C
100
AcDbEntity
  8
0
100
AcDbLine
 62
7
  6
CONTINUOUS
 10
-11.6529911491
 20
-7.6108416172
 11
-12.3121883841
 21
-7.3899794759
  0
LINE
  5
28D
100
AcDbEntity
  8
0
100
AcDbLine
 62
7
  6
CONTINUOUS
 10
44.5191427351
 20
-62.4120486039
 11
43.8624873918
 21
-62.1886445709
  0
LINE
  5
28E
100
AcDbEntity
  8
0
100
AcDbLine
 62
7
  6
CONTINUOUS
 10
1.2273387156
 20
-96.1384319052
 11
-0.8685921676
 21
-95.421336027
  0
LINE
  5
28F
100
AcDbEntity
  8
0
100
AcDbLine
 62
7
  6
CONTINUOUS
 10
-1.9969096286
 20
-95.7026387031
 11
0.1930712457
 21
-96.4556034969
  0
LINE
  5
290
100
AcDbEntity
  8
0
100
AcDbLine
 62
7
  6
CONTINUOUS
 10
5.6957018071
 20
-94.9855428249
 11
4.8212910789
 21
-94.6709131249
  0
LINE
  5
291
100
AcDbEntity
  8
0
100
AcDbLine
 62
7
  6
CONTINUOUS
 10
0.8497265891
 20
-95.1702536183
 11
2.6643547961
 21
-95.8294508533
  0
LWPOLYLINE
  5
292
100
AcDbEntity
  8
0
100
AcDbPolyline
 62
7
  6
CONTINUOUS
 90
22
 70
0
 10
-1.1722070038
 20
-96.8278494077
 10
-3.339875718
 20
-96.0226346188
 10
-3.4951395091
 20
-96.0398781404
 10
-3.725602073
 20
-96.0710045709
 10
-4.075820004
 20
-96.1210423444
 10
-4.3710941097
 20
-96.1604857898
 10
-4.6292291236
 20
-96.190458761
 10
-4.8645820309
 20
-96.2127882215
 10
-5.0829006916
 20
-96.2282860529
 10
-5.287164647
 20
-96.2374519225
 10
-5.479185156
 20
-96.2406596069
 10
-5.6601960462
 20
-96.2382215978
 10
-5.8311138141
 20
-96.2304148461
 10
-5.9926662577
 20
-96.2174916432
 10
-6.1454615256
 20
-96.1996841005
 10
-6.2900274402
 20
-96.177205632
 10
-6.4268348555
 20
-96.1502509574
 10
-6.5563119093
 20
-96.1189953496
 10
-6.6788528209
 20
-96.083593502
 10
-6.7948232701
 20
-96.0441782229
 10
-6.9045635526
 20
-96.0008590841
 10
-7.0083902364
 20
-95.9537211118
  0
LINE
  5
293
100
AcDbEntity
  8
0
100
AcDbLine
 62
7
  6
CONTINUOUS
 10
3.6932560503
 20
-95.5453238531
 11
2.7250777633
 21
-95.1730779423
  0
LWPOLYLINE
  5
294
100
AcDbEntity
  8
0
100
AcDbPolyline
 62
7
  6
CONTINUOUS
 90
41
 70
0
 10
18.5099424888
 20
-57.5742639256
 10
18.375181561
 20
-57.5207915631
 10
18.238820936
 20
-57.4699492112
 10
18.1006165923
 20
-57.4224011508
 10
17.9603245083
 20
-57.378811663
 10
17.8177006623
 20
-57.3398450288
 10
17.6388704718
 20
-57.2964355695
 10
17.4588983224
 20
-57.2594232942
 10
17.2777750647
 20
-57.228797874
 10
17.0954925159
 20
-57.2045581336
 10
16.9120441061
 20
-57.186711852
 10
16.72742554
 20
-57.1752754897
 10
16.5416354657
 20
-57.1702738402
 10
16.3546761467
 20
-57.1717396081
 10
16.1665541306
 20
-57.1797129107
 10
15.9772809087
 20
-57.1942407068
 10
15.7868735609
 20
-57.2153761538
 10
15.5953553802
 20
-57.2431778952
 10
15.4027564698
 20
-57.2777092828
 10
15.2091143089
 20
-57.3190375377
 10
15.0144742796
 20
-57.3672328532
 10
14.8188901505
 20
-57.4223674485
 10
14.6224245107
 20
-57.4845145764
 10
14.4251491494
 20
-57.5537474929
 10
14.2271453754
 20
-57.6301383983
 10
14.028504271
 20
-57.7137573548
 10
13.8293268774
 20
-57.8046711932
 10
13.6297243041
 20
-57.902942416
 10
13.4298177611
 20
-58.0086281083
 10
13.2297385088
 20
-58.1217788683
 10
13.0296277236
 20
-58.2424377669
 10
12.8296362763
 20
-58.3706393496
 10
12.6299244231
 20
-58.5064086929
 10
12.4306614089
 20
-58.649760525
 10
12.2320249834
 20
-58.8006984252
 10
12.0342008338
 20
-58.9592141109
 10
11.8373819356
 20
-59.125286824
 10
11.6417678295
 20
-59.2988828247
 10
11.4475638283
 20
-59.4799550026
 10
11.2549801632
 20
-59.6684426093
 10
11.2257283118
 20
-59.6978731845
  0
LINE
  5
295
100
AcDbEntity
  8
0
100
AcDbLine
 62
7
  6
CONTINUOUS
 10
9.5404541467
 20
-102.3607002365
 11
9.4746247677
 21
-102.3345290852
  0
LWPOLYLINE
  5
296
100
AcDbEntity
  8
0
100
AcDbPolyline
 62
7
  6
CONTINUOUS
 90
47
 70
0
 10
9.4746247677
 20
-102.3345290852
 10
9.4442082339
 20
-102.3223552915
 10
9.4295961056
 20
-102.3164600298
 10
9.4153705838
 20
-102.3106786924
 10
9.4015235542
 20
-102.3050009049
 10
9.3880469023
 20
-102.299416293
 10
9.3749325138
 20
-102.2939144824
 10
9.3621722742
 20
-102.2884850985
 10
9.3497580692
 20
-102.2831177672
 10
9.3376817845
 20
-102.2778021139
 10
9.3259353055
 20
-102.2725277645
 10
9.3145105179
 20
-102.2672843444
 10
9.3033993074
 20
-102.2620614793
 10
9.2925935595
 20
-102.2568487948
 10
9.2820851598
 20
-102.2516359167
 10
9.271865994
 20
-102.2464124705
 10
9.2619279477
 20
-102.2411680818
 10
9.2522629064
 20
-102.2358923763
 10
9.2428627559
 20
-102.2305749797
 10
9.2337193816
 20
-102.2252055175
 10
9.2248246692
 20
-102.2197736154
 10
9.2161705044
 20
-102.2142688991
 10
9.2077487727
 20
-102.2086809941
 10
9.1985420514
 20
-102.2022822473
 10
9.18960768
 20
-102.1957503134
 10
9.180934105
 20
-102.1890704213
 10
9.172509773
 20
-102.1822277996
 10
9.1643231303
 20
-102.175207677
 10
9.1563626236
 20
-102.1679952821
 10
9.1486166994
 20
-102.1605758437
 10
9.141073804
 20
-102.1529345904
 10
9.1337223841
 20
-102.145056751
 10
9.1265508862
 20
-102.136927554
 10
9.1195477567
 20
-102.1285322283
 10
9.1127014421
 20
-102.1198560025
 10
9.1060003891
 20
-102.1108841052
 10
9.0994330439
 20
-102.1016017652
 10
9.0929878533
 20
-102.0919942111
 10
9.0866532636
 20
-102.0820466717
 10
9.0804177214
 20
-102.0717443756
 10
9.0742696732
 20
-102.0610725515
 10
9.0681975654
 20
-102.0500164281
 10
9.0621898447
 20
-102.0385612341
 10
9.0562349574
 20
-102.0266921982
 10
9.0503213502
 20
-102.014394549
 10
9.0444374694
 20
-102.0016535153
 10
9.0385717616
 20
-101.9884543257
  0
LINE
  5
297
100
AcDbEntity
  8
0
100
AcDbLine
 62
7
  6
CONTINUOUS
 10
4.1318735764
 20
-94.7951833834
 11
5.1302721308
 21
-95.2004738857
  0
LINE
  5
298
100
AcDbEntity
  8
0
100
AcDbLine
 62
7
  6
CONTINUOUS
 10
26.7318322528
 20
-88.8570420523
 11
27.7966024226
 21
-89.2928352544
  0
LINE
  5
299
100
AcDbEntity
  8
0
100
AcDbLine
 62
7
  6
CONTINUOUS
 10
12.8833241012
 20
-94.5167050313
 11
12.7288335753
 21
-94.45315774
  0
LINE
  5
29A
100
AcDbEntity
  8
0
100
AcDbLine
 62
7
  6
CONTINUOUS
 10
21.4500638327
 20
-90.9529729355
 11
20.385293663
 21
-90.5146378417
  0
LINE
  5
29B
100
AcDbEntity
  8
0
100
AcDbLine
 62
7
  6
CONTINUOUS
 10
23.9515676505
 20
-90.3573229917
 11
22.8870799132
 21
-89.9187054656
  0
LINE
  5
29C
100
AcDbEntity
  8
0
100
AcDbLine
 62
7
  6
CONTINUOUS
 10
19.7924680433
 20
-90.6358013438
 11
20.854413889
 21
-91.0744188699
  0
LINE
  5
29D
100
AcDbEntity
  8
0
100
AcDbLine
 62
7
  6
CONTINUOUS
 10
21.7949138002
 20
-90.1974662501
 11
22.8565772134
 21
-90.6358013438
  0
LINE
  5
29E
100
AcDbEntity
  8
0
100
AcDbLine
 62
7
  6
CONTINUOUS
 10
26.356762018
 20
-89.6981257567
 11
25.2948161723
 21
-89.2595082305
  0
LINE
  5
29F
100
AcDbEntity
  8
0
100
AcDbLine
 62
7
  6
CONTINUOUS
 10
24.2026500593
 20
-89.5436352307
 11
25.2617715809
 21
-89.9822527569
  0
LINE
  5
2A0
100
AcDbEntity
  8
0
100
AcDbLine
 62
7
  6
CONTINUOUS
 10
-5.2762322919
 20
1.206980523
 11
-6.0650660011
 21
1.5461818423
  0
LINE
  5
2A1
100
AcDbEntity
  8
0
100
AcDbLine
 62
7
  6
CONTINUOUS
 10
41.9566335177
 20
-54.2203791072
 11
42.1746713349
 21
-54.31697099
  0
LINE
  5
2A2
100
AcDbEntity
  8
0
100
AcDbLine
 62
7
  6
CONTINUOUS
 10
12.8861484253
 20
-96.7976291402
 11
12.6350660166
 21
-96.6708169901
  0
LWPOLYLINE
  5
2A3
100
AcDbEntity
  8
0
100
AcDbPolyline
 62
7
  6
CONTINUOUS
 90
15
 70
0
 10
-39.3169628608
 20
-93.1706321855
 10
-39.8827972619
 20
-92.8604426949
 10
-41.0832721936
 20
-92.0919892092
 10
-42.1810520768
 20
-91.2278796111
 10
-43.1864776846
 20
-90.2603758341
 10
-44.106748091
 20
-89.1794936947
 10
-44.9461692897
 20
-87.9729954793
 10
-45.7051699777
 20
-86.6287248342
 10
-46.3808530433
 20
-85.1366487189
 10
-46.9717073451
 20
-83.4794995428
 10
-47.4738392349
 20
-81.6380110364
 10
-47.8811624332
 20
-79.5909536094
 10
-48.185561572
 20
-77.3151334878
 10
-48.3770268649
 20
-74.7853567963
 10
-48.4437585464
 20
-71.9743625657
  0
LWPOLYLINE
  5
2A4
100
AcDbEntity
  8
0
100
AcDbPolyline
 62
7
  6
CONTINUOUS
 90
27
 70
0
 10
-1.7127826284
 20
-94.2627982986
 10
-2.0187379444
 20
-94.0947217345
 10
-2.3579376892
 20
-93.8871523153
 10
-2.7009084267
 20
-93.6538669488
 10
-3.041848944
 20
-93.3973049892
 10
-3.3771104041
 20
-93.1191569718
 10
-3.7042496235
 20
-92.8206374949
 10
-4.0215564661
 20
-92.502628568
 10
-4.3277890306
 20
-92.1657642559
 10
-4.6220130598
 20
-91.8104850168
 10
-4.9034987718
 20
-91.4370749182
 10
-5.1716516379
 20
-91.0456884989
 10
-5.4259643723
 20
-90.6363710277
 10
-5.6659827895
 20
-90.2090743524
 10
-5.891281077
 20
-89.7636696847
 10
-6.1014436675
 20
-89.2999581772
 10
-6.296051865
 20
-88.8176798476
 10
-6.4746739711
 20
-88.3165212282
 10
-6.6368580404
 20
-87.796121997
 10
-6.7821266365
 20
-87.2560807725
 10
-6.9099731283
 20
-86.6959602049
 10
-7.019859181
 20
-86.1152914625
 10
-7.1112131765
 20
-85.5135781901
 10
-7.1834293573
 20
-84.8903000015
 10
-7.2358675302
 20
-84.2449155575
 10
-7.267853203
 20
-83.5768652737
 10
-7.2786780487
 20
-82.8855736974
  0
LINE
  5
2A5
100
AcDbEntity
  8
0
100
AcDbLine
 62
7
  6
CONTINUOUS
 10
-0.0246841392
 20
-16.5196069921
 11
-5.2762322919
 21
-13.3944924223
  0
LINE
  5
2A6
100
AcDbEntity
  8
0
100
AcDbLine
 62
7
  6
CONTINUOUS
 10
-6.4014429964
 20
-66.6954184696
 11
-6.1531849117
 21
-66.8499089956
  0
LINE
  5
2A7
100
AcDbEntity
  8
0
100
AcDbLine
 62
7
  6
CONTINUOUS
 10
-6.4014429964
 20
-16.585696175
 11
-6.1531849117
 21
-16.740186701
  0
LWPOLYLINE
  5
2A8
100
AcDbEntity
  8
0
100
AcDbPolyline
 62
7
  6
CONTINUOUS
 90
82
 70
0
 10
4.2973789662
 20
3.6672492096
 10
4.2693455516
 20
3.6880720227
 10
4.1528872372
 20
3.7683291781
 10
4.0353032295
 20
3.8395914667
 10
3.9168578112
 20
3.9019546114
 10
3.7977439478
 20
3.9555447771
 10
3.678090712
 20
4.0004997963
 10
3.5579709279
 20
4.0369532287
 10
3.4283351731
 20
4.0683486591
 10
3.2971274774
 20
4.0915740032
 10
3.164335801
 20
4.1066328084
 10
3.02995523
 20
4.1134938345
 10
2.893992678
 20
4.1120933382
 10
2.7564716092
 20
4.1023382747
 10
2.6174366547
 20
4.0841103992
 10
2.4769579927
 20
4.0572712187
 10
2.3351353652
 20
4.0216677187
 10
2.1921016042
 20
3.9771387602
 10
2.0480255443
 20
3.9235220165
 10
1.903114206
 20
3.8606612905
 10
1.7576141379
 20
3.7884140296
 10
1.611811823
 20
3.7066588275
 10
1.4660330697
 20
3.6153026816
 10
1.3206413375
 20
3.5142877607
 10
1.1760349787
 20
3.4035974292
 10
1.0326434264
 20
3.2832612838
 10
0.8909224012
 20
3.1533589798
 10
0.7513482691
 20
3.0140226658
 10
0.6144117267
 20
2.8654379021
 10
0.4806110387
 20
2.7078430084
 10
0.3504450794
 20
2.5415268651
 10
0.2244064485
 20
2.366825276
 10
0.1029749244
 20
2.1841160695
 10
-0.0133885036
 20
1.9938131835
 10
-0.0408723306
 20
1.9464324942
 10
-0.1502114142
 20
1.7475332747
 10
-0.2534576287
 20
1.5422830193
 10
-0.3502683337
 20
1.3311661879
 10
-0.4403352339
 20
1.1146680935
 10
-0.5233843992
 20
0.8932690586
 10
-0.5991754868
 20
0.6674393064
 10
-0.6675002947
 20
0.4376346497
 10
-0.728429915
 20
0.2036012044
 10
-0.7808656869
 20
-0.0307056518
 10
-0.8247561328
 20
-0.2647873322
 10
-0.8600700548
 20
-0.4981178484
 10
-0.8867998779
 20
-0.7301468717
 10
-0.9049648187
 20
-0.9603037841
 10
-0.9146137395
 20
-1.1880027259
 10
-0.9157330972
 20
-1.2464730331
 10
-0.9147829913
 20
-1.4701283424
 10
-0.9055697714
 20
-1.6897478817
 10
-0.8882783335
 20
-1.9047517616
 10
-0.8631274076
 20
-2.1145824463
 10
-0.8303674341
 20
-2.3187125857
 10
-0.7902774572
 20
-2.5166522472
 10
-0.7431611154
 20
-2.707955235
 10
-0.6893418613
 20
-2.8922242222
 10
-0.6291575825
 20
-3.0691144835
 10
-0.5629548201
 20
-3.2383360898
 10
-0.4910827959
 20
-3.3996545063
 10
-0.4138874595
 20
-3.5528896132
 10
-0.3317057501
 20
-3.6979132396
 10
-0.2448602478
 20
-3.8346453596
 10
-0.1536543593
 20
-3.9630491404
 10
-0.0583681505
 20
-4.0831250612
 10
0.0407450919
 20
-4.1949043319
 10
0.1434615165
 20
-4.2984418427
 10
0.2495885568
 20
-4.3938088675
 10
0.3589659684
 20
-4.4810857288
 10
0.4714660741
 20
-4.5603546165
 10
0.586993251
 20
-4.6316927324
 10
0.7054827122
 20
-4.6951659114
 10
0.8268986551
 20
-4.7508228507
 10
0.9512318598
 20
-4.7986900514
 10
1.0784968377
 20
-4.8387675547
 10
1.0787354511
 20
-4.8388302533
 10
1.2228752641
 20
-4.8729173665
 10
1.3561737061
 20
-4.8968939798
 10
1.4808378498
 20
-4.9116913425
 10
1.5984011275
 20
-4.9179587371
 10
1.710015697
 20
-4.9161540339
  0
LWPOLYLINE
  5
2A9
100
AcDbEntity
  8
0
100
AcDbPolyline
 62
7
  6
CONTINUOUS
 90
82
 70
0
 10
-0.8135178484
 20
-2.0641516005
 10
-0.8000395372
 20
-2.0743613716
 10
-0.7436361499
 20
-2.1138181035
 10
-0.6864851762
 20
-2.1486886069
 10
-0.6287078602
 20
-2.1790263394
 10
-0.5703874805
 20
-2.2048967178
 10
-0.5115736709
 20
-2.2263667052
 10
-0.4522868015
 20
-2.2434961782
 10
-0.3849405014
 20
-2.2600140885
 10
-0.3167723512
 20
-2.2722764347
 10
-0.2477740984
 20
-2.2802860281
 10
-0.1779410121
 20
-2.2840272249
 10
-0.107274352
 20
-2.283467096
 10
-0.0357838531
 20
-2.278557079
 10
0.0365098381
 20
-2.2692351053
 10
0.1095728438
 20
-2.2554281786
 10
0.1833559193
 20
-2.237055364
 10
0.2577925648
 20
-2.2140311373
 10
0.3327974516
 20
-2.1862690258
 10
0.4082652219
 20
-2.1536854599
 10
0.4840697215
 20
-2.1162037413
 10
0.5600637184
 20
-2.0737580173
 10
0.6360791491
 20
-2.0262971433
 10
0.7119279228
 20
-1.9737883021
 10
0.7874032981
 20
-1.916220247
 10
0.8622818197
 20
-1.8536060386
 10
0.9363257817
 20
-1.7859851525
 10
1.0092861538
 20
-1.7134248597
 10
1.080905879
 20
-1.636020807
 10
1.1509234296
 20
-1.553896763
 10
1.2190764878
 20
-1.4672035366
 10
1.2851056093
 20
-1.3761171185
 10
1.3487577281
 20
-1.2808361368
 10
1.4097893713
 20
-1.1815787529
 10
1.4251330919
 20
-1.1552642994
 10
1.4824820479
 20
-1.051443625
 10
1.536663777
 20
-0.9443079936
 10
1.5874970778
 20
-0.8341144885
 10
1.6348189585
 20
-0.7211208384
 10
1.6784846961
 20
-0.605582266
 10
1.7183674619
 20
-0.4877487266
 10
1.7543575847
 20
-0.3678625715
 10
1.7857132329
 20
-0.2458084201
 10
1.8126529713
 20
-0.123588259
 10
1.83514856
 20
-0.0014657716
 10
1.8531826038
 20
0.120280909
 10
1.8667503142
 20
0.2413608777
 10
1.8758611696
 20
0.3614726633
 10
1.8805404016
 20
0.4803069605
 10
1.8810359026
 20
0.5109554329
 10
1.880195347
 20
0.6276658805
 10
1.8750569909
 20
0.7422668613
 10
1.8657179023
 20
0.8544537195
 10
1.8522928659
 20
0.9639340104
 10
1.8349132087
 20
1.0704316077
 10
1.8137251129
 20
1.1736904716
 10
1.7888874638
 20
1.2734779136
 10
1.7605693053
 20
1.3695872193
 10
1.7289469939
 20
1.4618395226
 10
1.694201158
 20
1.5500848638
 10
1.6565135718
 20
1.6342024092
 10
1.616064053
 20
1.7140998477
 10
1.5730274856
 20
1.7897120169
 10
1.5275710555
 20
1.8609988417
 10
1.4798517724
 20
1.9279426873
 10
1.4300143329
 20
1.990545242
 10
1.3781893663
 20
2.0488240503
 10
1.3244920866
 20
2.102808816
 10
1.2690213633
 20
2.1525375905
 10
1.2118592105
 20
2.1980529517
 10
1.1530706842
 20
2.239398273
 10
1.0927041691
 20
2.2766141685
 10
1.0307920256
 20
2.3097351914
 10
0.9673515627
 20
2.3387868515
 10
0.9023862902
 20
2.3637830046
 10
0.8358874012
 20
2.384723655
 10
0.7658870174
 20
2.3999586205
 10
0.6930863516
 20
2.4113579454
 10
0.6181414404
 20
2.4186939777
 10
0.5418089288
 20
2.4217959599
 10
0.495850384
 20
2.4215837733
 10
0.4192996027
 20
2.4177682465
  0
LWPOLYLINE
  5
2AA
100
AcDbEntity
  8
0
100
AcDbPolyline
 62
7
  6
CONTINUOUS
 90
84
 70
0
 10
19.2821126861
 20
-60.2938055607
 10
19.2614515188
 20
-60.2765574446
 10
19.0316097935
 20
-60.0965321962
 10
18.7963226817
 20
-59.9333924014
 10
18.5556019022
 20
-59.786810904
 10
18.3093928007
 20
-59.6565105901
 10
18.0575790843
 20
-59.542275436
 10
17.7999883101
 20
-59.4439598395
 10
17.5363979861
 20
-59.3614961893
 10
17.2684854829
 20
-59.2956966464
 10
16.9974243431
 20
-59.2465705389
 10
16.7232041696
 20
-59.2141053081
 10
16.4458294792
 20
-59.1983560898
 10
16.1653289585
 20
-59.1994412197
 10
15.8817647734
 20
-59.2175359513
 10
15.595241681
 20
-59.2528644153
 10
15.3059156915
 20
-59.3056899077
 10
15.0140020209
 20
-59.3763036491
 10
14.7197820819
 20
-59.465012213
 10
14.4236092628
 20
-59.5721238775
 10
14.1259132556
 20
-59.6979342089
 10
13.8272027082
 20
-59.84271124
 10
13.5280660024
 20
-60.0066806576
 10
13.2291699982
 20
-60.1900114577
 10
12.9312566363
 20
-60.3928025589
 10
12.6351373654
 20
-60.6150708778
 10
12.3416854451
 20
-60.8567413542
 10
12.0518262784
 20
-61.1176393724
 10
11.7665260308
 20
-61.3974859436
 10
11.4867788966
 20
-61.6958959017
 10
11.2135934615
 20
-62.0123792248
 10
10.9479786728
 20
-62.3463454399
 10
10.6909299595
 20
-62.6971109014
 10
10.4434160375
 20
-63.0639085914
 10
10.3515597576
 20
-63.2081141038
 10
10.1188184659
 20
-63.5955481307
 10
9.8979551122
 20
-63.9965005369
 10
9.6897168438
 20
-64.410005803
 10
9.4947824089
 20
-64.8350864038
 10
9.3137606197
 20
-65.2707656187
 10
9.1471906434
 20
-65.7160790544
 10
8.9955438843
 20
-66.1700846685
 10
8.859227184
 20
-66.6318711783
 10
8.7366027232
 20
-67.1030182455
 10
8.6312582691
 20
-67.574884113
 10
8.5432983256
 20
-68.0464729531
 10
8.4727870466
 20
-68.5167336765
 10
8.419741503
 20
-68.984565908
 10
8.3841252998
 20
-69.4488279286
 10
8.365842823
 20
-69.9083465976
 10
8.3634861854
 20
-70.0710324526
 10
8.3684519912
 20
-70.5220064112
 10
8.3902198796
 20
-70.9649603737
 10
8.4284152132
 20
-71.3987309312
 10
8.4825958165
 20
-71.8221990839
 10
8.5522563547
 20
-72.2343057141
 10
8.6368346689
 20
-72.6340658412
 10
8.7357198907
 20
-73.0205810458
 10
8.8482620672
 20
-73.393049531
 10
8.9737829525
 20
-73.7507734101
 10
9.1115875654
 20
-74.0931629547
 10
9.260976094
 20
-74.4197376977
 10
9.4212557301
 20
-74.7301244353
 10
9.5917520434
 20
-75.0240523136
 10
9.7718195545
 20
-75.3013452944
 10
9.9608512222
 20
-75.5619123798
 10
10.1582866249
 20
-75.8057360263
 10
10.3636186784
 20
-76.032859202
 10
10.5763987921
 20
-76.2433715418
 10
10.7962404186
 20
-76.4373950399
 10
11.0228209967
 20
-76.6150696884
 10
11.2558823314
 20
-76.7765394382
 10
11.4952294883
 20
-76.9219388168
 10
11.7407283166
 20
-77.0513804973
 10
11.992301744
 20
-77.1649440659
 10
12.2499250167
 20
-77.2626661889
 10
12.5136200821
 20
-77.3445323288
 10
12.772519511
 20
-77.4112985041
 10
13.0360531498
 20
-77.4618419061
 10
13.3045984011
 20
-77.4961639128
 10
13.5785377678
 20
-77.5141553116
 10
13.858248855
 20
-77.5156005852
 10
14.144093706
 20
-77.500184176
 10
14.4084590923
 20
-77.471344479
  0
LWPOLYLINE
  5
2AB
100
AcDbEntity
  8
0
100
AcDbPolyline
 62
7
  6
CONTINUOUS
 90
82
 70
0
 10
0.844077941
 20
1.3284264575
 10
0.8165055789
 20
1.3523232736
 10
0.7871512359
 20
1.3743622703
 10
0.7555926223
 20
1.3948472329
 10
0.7212253985
 20
1.4141066125
 10
0.6831293149
 20
1.4325431139
 10
0.6397540322
 20
1.4507461207
 10
0.5880023502
 20
1.4698139155
 10
0.5819806684
 20
1.4719021196
 10
0.5410230402
 20
1.4814287029
 10
0.4995518239
 20
1.4883761059
 10
0.4575644982
 20
1.4927425832
 10
0.4150611086
 20
1.4945155822
 10
0.372045764
 20
1.4936725302
 10
0.3285281295
 20
1.4901819114
 10
0.2845248733
 20
1.4840046259
 10
0.2400610269
 20
1.4750956108
 10
0.1951712166
 20
1.4634056983
 10
0.1499007278
 20
1.4488836736
 10
0.1043063608
 20
1.4314784878
 10
0.0584570444
 20
1.4111415739
 10
0.0124341724
 20
1.3878292033
 10
-0.0336683649
 20
1.361504816
 10
-0.079744475
 20
1.3321412481
 10
-0.1256764963
 20
1.2997227803
 10
-0.1713361682
 20
1.2642469288
 10
-0.2165859252
 20
1.2257259034
 10
-0.2612804836
 20
1.1841876709
 10
-0.3052686749
 20
1.1396765705
 10
-0.3483954639
 20
1.092253453
 10
-0.3905040793
 20
1.0419953346
 10
-0.4314381748
 20
0.988994583
 10
-0.4710439377
 20
0.933357676
 10
-0.5091720661
 20
0.8752035962
 10
-0.513234224
 20
0.8687154386
 10
-0.5495484953
 20
0.8079358954
 10
-0.5840597627
 20
0.7449877404
 10
-0.6166507724
 20
0.6800179249
 10
-0.6472146193
 20
0.6131754595
 10
-0.6756549898
 20
0.5446094642
 10
-0.7018861287
 20
0.474467414
 10
-0.7258325693
 20
0.4028936115
 10
-0.7474286655
 20
0.3300279031
 10
-0.7665673582
 20
0.2561079842
 10
-0.7830244137
 20
0.1820878938
 10
-0.796782725
 20
0.1081272448
 10
-0.8078317399
 20
0.03439439
 10
-0.8161685294
 20
-0.0389345912
 10
-0.8217987964
 20
-0.1116772244
 10
-0.8247377779
 20
-0.1836462921
 10
-0.8249709144
 20
-0.1957582501
 10
-0.8247961762
 20
-0.2665474506
 10
-0.8220062421
 20
-0.3360765509
 10
-0.8166588683
 20
-0.4041605758
 10
-0.8088225999
 20
-0.4706216988
 10
-0.7985760902
 20
-0.5352917417
 10
-0.7860071079
 20
-0.5980144788
 10
-0.7712112577
 20
-0.6586476449
 10
-0.7542904577
 20
-0.7170645619
 10
-0.7353512284
 20
-0.7731553166
 10
-0.7145028559
 20
-0.8268274481
 10
-0.6918554975
 20
-0.8780061255
 10
-0.6675182944
 20
-0.9266338261
 10
-0.6415975557
 20
-0.9726695426
 10
-0.614195066
 20
-1.0160875681
 10
-0.5854065638
 20
-1.0568759199
 10
-0.555320424
 20
-1.0950344717
 10
-0.5240165719
 20
-1.1305728675
 10
-0.4915656426
 20
-1.1635082889
 10
-0.4580283953
 20
-1.1938631476
 10
-0.4234553821
 20
-1.2216627671
 10
-0.3878868664
 20
-1.2469331139
 10
-0.351352979
 20
-1.2696986331
 10
-0.313874095
 20
-1.2899802329
 10
-0.2754614114
 20
-1.3077934622
 10
-0.2361176955
 20
-1.3231469104
 10
-0.1958381771
 20
-1.3360408584
 10
-0.1591321576
 20
-1.3453389925
 10
-0.1206284749
 20
-1.3524644552
 10
-0.0798663285
 20
-1.3574326431
 10
-0.0361477601
 20
-1.3602350975
 10
0.0001699125
 20
-1.3608949102
  0
LWPOLYLINE
  5
2AC
100
AcDbEntity
  8
0
100
AcDbPolyline
 62
7
  6
CONTINUOUS
 90
48
 70
0
 10
13.2886146035
 20
-63.7247944258
 10
13.2543188978
 20
-63.6946589679
 10
13.1947625392
 20
-63.6452880893
 10
13.1340960489
 20
-63.5986453278
 10
13.0723045309
 20
-63.5546857261
 10
13.0093690818
 20
-63.5133695353
 10
12.9452669274
 20
-63.4746624685
 10
12.879971581
 20
-63.438535929
 10
12.8134530221
 20
-63.4049672111
 10
12.7456778947
 20
-63.3739396717
 10
12.6766097215
 20
-63.34544287
 10
12.6415760577
 20
-63.3321410381
 10
12.6062091314
 20
-63.3194726746
 10
12.5344763351
 20
-63.2960442604
 10
12.461370087
 20
-63.2751620359
 10
12.3874449184
 20
-63.2558805639
 10
12.3129757321
 20
-63.239378225
 10
12.2379639912
 20
-63.2256515676
 10
12.162411777
 20
-63.2147011501
 10
12.0863221145
 20
-63.2065314289
 10
12.0096993045
 20
-63.2011506085
 10
11.9325492569
 20
-63.1985704521
 10
11.8548798238
 20
-63.1988060547
 10
11.776701128
 20
-63.2018755763
 10
11.6980258827
 20
-63.2077999391
 10
11.6188697007
 20
-63.2166024882
 10
11.5392513873
 20
-63.2283086192
 10
11.4591932146
 20
-63.2429453737
 10
11.3787211737
 20
-63.2605410068
 10
11.2978652009
 20
-63.2811245303
 10
11.2166593745
 20
-63.3047252335
 10
11.1351420796
 20
-63.3313721888
 10
11.0533561374
 20
-63.3610937442
 10
10.9713488966
 20
-63.3939170098
 10
10.8891722841
 20
-63.4298673428
 10
10.8068828131
 20
-63.468967837
 10
10.7245415472
 20
-63.5112388233
 10
10.6422140186
 20
-63.5566973871
 10
10.5599701009
 20
-63.6053569094
 10
10.4778838347
 20
-63.6572266365
 10
10.3960332094
 20
-63.7123112873
 10
10.3144999
 20
-63.7706107009
 10
10.2333689623
 20
-63.8321195321
 10
10.1527284907
 20
-63.8968269991
 10
10.0726692394
 20
-63.9647166864
 10
9.9932842145
 20
-64.0357664085
 10
9.9146682411
 20
-64.1099481337
 10
9.8714649262
 20
-64.1523970882
  0
LWPOLYLINE
  5
2AD
100
AcDbEntity
  8
0
100
AcDbPolyline
 62
7
  6
CONTINUOUS
 90
65
 70
0
 10
0.2235739455
 20
2.2358817772
 10
0.2285169964
 20
2.2309288367
 10
0.3253847082
 20
2.131476733
 10
0.4137142863
 20
2.036158582
 10
0.4947749628
 20
1.9438559768
 10
0.569459319
 20
1.8537828228
 10
0.6384266512
 20
1.7653559739
 10
0.7021819693
 20
1.678123512
 10
0.7611226632
 20
1.5917220263
 10
0.815567583
 20
1.5058497013
 10
0.8657759391
 20
1.4202485939
 10
0.9119600076
 20
1.3346925327
 10
0.9542939094
 20
1.2489786116
 10
0.9929198188
 20
1.1629210677
 10
1.0253693322
 20
1.1133349012
 10
1.0557962113
 20
1.0603097332
 10
1.0840545152
 20
1.0038745151
 10
1.1099896402
 20
0.9440819399
 10
1.133441439
 20
0.8810110123
 10
1.1542476263
 20
0.8147687739
 10
1.1722473427
 20
0.7454910651
 10
1.1872847265
 20
0.6733422491
 10
1.199212337
 20
0.5985138803
 10
1.2078942696
 20
0.5212223669
 10
1.213208819
 20
0.4417057414
 10
1.2150505746
 20
0.3602197122
 10
1.2133318688
 20
0.2770332133
 10
1.2112898554
 20
0.2376874079
 10
1.2042373869
 20
0.1525966711
 10
1.1935097179
 20
0.0665989809
 10
1.179094099
 20
-0.0200338576
 10
1.1609925114
 20
-0.1070392915
 10
1.139219805
 20
-0.194166642
 10
1.1137123488
 20
-0.2788257471
 10
1.0850164033
 20
-0.3618254031
 10
1.0532396546
 20
-0.442925771
 10
1.0185098017
 20
-0.5218785351
 10
0.9809754067
 20
-0.5984302353
 10
0.9408061288
 20
-0.6723262654
 10
0.9134283156
 20
-0.7187235855
 10
0.8693896984
 20
-0.787621668
 10
0.8233407256
 20
-0.8531252481
 10
0.7755263642
 20
-0.9150329936
 10
0.7261993017
 20
-0.973169386
 10
0.6756152195
 20
-1.0273882248
 10
0.6240278406
 20
-1.0775750316
 10
0.5716840152
 20
-1.1236481967
 10
0.5188191005
 20
-1.1655588029
 10
0.4656528618
 20
-1.2032891534
 10
0.412386072
 20
-1.2368501165
 10
0.3591979303
 20
-1.2662774639
 10
0.306244361
 20
-1.2916274273
 10
0.253657198
 20
-1.3129717115
 10
0.2015442179
 20
-1.3303922103
 10
0.1641852731
 20
-1.3499976496
 10
0.0673245428
 20
-1.3980261732
 10
-0.0330144946
 20
-1.4437832064
 10
-0.1372674511
 20
-1.4873717468
 10
-0.2458758944
 20
-1.5288660624
 10
-0.3019629129
 20
-1.5488471842
 10
-0.3592920392
 20
-1.5683153462
 10
-0.4778064137
 20
-1.6056936257
 10
-0.6018620085
 20
-1.6410121116
 10
-0.7319522539
 20
-1.6742735881
 10
-0.8685921676
 20
-1.7054624452
  0
LWPOLYLINE
  5
2AE
100
AcDbEntity
  8
0
100
AcDbPolyline
 62
7
  6
CONTINUOUS
 90
29
 70
0
 10
-2.5236460653
 20
-4.2900013903
 10
-2.4876149493
 20
-4.3274348259
 10
-2.4510602166
 20
-4.3640791697
 10
-2.4139856497
 20
-4.3999277828
 10
-2.3763950312
 20
-4.4349740265
 10
-2.3382921438
 20
-4.4692112619
 10
-2.29968077
 20
-4.5026328502
 10
-2.2605646924
 20
-4.5352321526
 10
-2.2209476935
 20
-4.5670025303
 10
-2.1808335559
 20
-4.5979373445
 10
-2.1402260622
 20
-4.6280299564
 10
-2.099128995
 20
-4.6572737271
 10
-2.0575461369
 20
-4.685662018
 10
-2.0154812704
 20
-4.71318819
 10
-1.9729381781
 20
-4.7398456046
 10
-1.9299206426
 20
-4.7656276227
 10
-1.8864324465
 20
-4.7905276057
 10
-1.8424773723
 20
-4.8145389147
 10
-1.7980592027
 20
-4.837654911
 10
-1.7531817201
 20
-4.8598689556
 10
-1.7078487072
 20
-4.8811744099
 10
-1.6620639465
 20
-4.9015646349
 10
-1.6158312207
 20
-4.9210329919
 10
-1.5691543123
 20
-4.9395728421
 10
-1.5220370038
 20
-4.9571775466
 10
-1.4744830779
 20
-4.9738404668
 10
-1.4264963172
 20
-4.9895549636
 10
-1.3780805041
 20
-5.0043143984
 10
-1.3292394214
 20
-5.0181121323
  0
LWPOLYLINE
  5
2AF
100
AcDbEntity
  8
0
100
AcDbPolyline
 62
7
  6
CONTINUOUS
 90
87
 70
0
 10
34.6588625853
 20
-67.8398345778
 10
34.6278899659
 20
-67.8004827663
 10
34.5953568198
 20
-67.7637539093
 10
34.5785012135
 20
-67.7463452153
 10
34.5612590808
 20
-67.7295698699
 10
34.5256309991
 20
-67.6979055142
 10
34.4884523101
 20
-67.6686965439
 10
34.4496923184
 20
-67.6418923291
 10
34.4093107469
 20
-67.6174565864
 10
34.3672587565
 20
-67.5953678796
 10
34.3234801164
 20
-67.5756199209
 10
34.2779124981
 20
-67.558221656
 10
34.2366261387
 20
-67.5449751461
 10
34.1921857078
 20
-67.5340355913
 10
34.1472521952
 20
-67.5259230317
 10
34.1018199013
 20
-67.5206321341
 10
34.055885182
 20
-67.5181699501
 10
34.0094480649
 20
-67.5185552064
 10
33.9625138816
 20
-67.5218172735
 10
33.9150948732
 20
-67.5279948171
 10
33.8672117219
 20
-67.5371341443
 10
33.8188949679
 20
-67.5492872731
 10
33.7701862644
 20
-67.5645097548
 10
33.7211394323
 20
-67.5828582969
 10
33.6718212708
 20
-67.6043882365
 10
33.6223120901
 20
-67.6291509267
 10
33.5727059296
 20
-67.657191107
 10
33.5231104353
 20
-67.6885443359
 10
33.4736463754
 20
-67.723234569
 10
33.4244467875
 20
-67.7612719717
 10
33.3756557604
 20
-67.802651051
 10
33.3274268735
 20
-67.8473491879
 10
33.2799213324
 20
-67.895325638
 10
33.233305857
 20
-67.946521049
 10
33.187750395
 20
-68.0008575236
 10
33.1434257444
 20
-68.0582392257
 10
33.1005011761
 20
-68.1185535033
 10
33.0591421476
 20
-68.181672471
 10
33.0195081942
 20
-68.2474549759
 10
32.981959983
 20
-68.315354099
 10
32.9462598707
 20
-68.3858830979
 10
32.9127348116
 20
-68.4585204626
 10
32.8814961044
 20
-68.5330963611
 10
32.8526431998
 20
-68.6094415943
 10
32.8262638284
 20
-68.687389524
 10
32.8024343822
 20
-68.7667777335
 10
32.781767906
 20
-68.846438045
 10
32.7640201774
 20
-68.9262203935
 10
32.7492094192
 20
-69.0059538034
 10
32.737346925
 20
-69.0854574808
 10
32.7284358695
 20
-69.1645418295
 10
32.7224701746
 20
-69.24300982
 10
32.7194334807
 20
-69.320658716
 10
32.7192195061
 20
-69.3923301457
 10
32.7217576776
 20
-69.4677325223
 10
32.7270971822
 20
-69.5416301638
 10
32.7351659751
 20
-69.6138255011
 10
32.7458805549
 20
-69.6841303515
 10
32.7591469336
 20
-69.7523685893
 10
32.7748619435
 20
-69.8183785347
 10
32.7929148388
 20
-69.882014957
 10
32.813189136
 20
-69.9431506028
 10
32.8355646219
 20
-70.0016771909
 10
32.8599194568
 20
-70.0575058399
 10
32.8861322934
 20
-70.1105669248
 10
32.9140843402
 20
-70.1608093888
 10
32.943661302
 20
-70.2081995541
 10
32.9747551431
 20
-70.2527194998
 10
33.007265628
 20
-70.2943650798
 10
33.0411016076
 20
-70.3331436655
 10
33.0761820295
 20
-70.3690716957
 10
33.1124366606
 20
-70.4021721162
 10
33.1498065196
 20
-70.4324717852
 10
33.1882440245
 20
-70.4599989166
 10
33.2277128667
 20
-70.4847806235
 10
33.2681876298
 20
-70.5068406203
 10
33.3096531775
 20
-70.52619713
 10
33.3521038401
 20
-70.5428610376
 10
33.3955424343
 20
-70.5568343212
 10
33.439851564
 20
-70.5661213047
 10
33.486090406
 20
-70.5729035054
 10
33.5341596016
 20
-70.5770770208
 10
33.583907362
 20
-70.5785397462
 10
33.63511902
 20
-70.5771994531
 10
33.6875070892
 20
-70.5729835671
 10
33.740703122
 20
-70.565850536
 10
33.7457586175
 20
-70.5650248609
  0
LWPOLYLINE
  5
2B0
100
AcDbEntity
  8
0
100
AcDbPolyline
 62
7
  6
CONTINUOUS
 90
89
 70
0
 10
-3.8530553992
 20
-77.907137681
 10
-3.8547311087
 20
-77.9048805894
 10
-3.885984267
 20
-77.8652942855
 10
-3.9186840316
 20
-77.8284430668
 10
-3.9528127894
 20
-77.7942580124
 10
-3.9883634402
 20
-77.7626787824
 10
-4.025339047
 20
-77.7336548894
 10
-4.0637522912
 20
-77.7071468529
 10
-4.0835066359
 20
-77.6948258818
 10
-4.103624739
 20
-77.6831271992
 10
-4.1449398666
 20
-77.6616034927
 10
-4.1877203721
 20
-77.6425699357
 10
-4.2320039753
 20
-77.6260287338
 10
-4.2778337375
 20
-77.611995817
 10
-4.3218972182
 20
-77.6009014773
 10
-4.3664626695
 20
-77.5926324414
 10
-4.411538114
 20
-77.5871825452
 10
-4.4571297051
 20
-77.58455848
 10
-4.5032400702
 20
-77.584779094
 10
-4.5498666323
 20
-77.5878743612
 10
-4.5969999531
 20
-77.5938840202
 10
-4.6446221431
 20
-77.6028558987
 10
-4.6927053853
 20
-77.6148439462
 10
-4.7412106132
 20
-77.6299060087
 10
-4.7900863891
 20
-77.6481013889
 10
-4.8392680216
 20
-77.6694882448
 10
-4.8886769629
 20
-77.6941208865
 10
-4.9382205211
 20
-77.722047045
 10
-4.9877919181
 20
-77.7533051908
 10
-5.0372707179
 20
-77.7879219895
 10
-5.0865236359
 20
-77.8259099862
 10
-5.1354057302
 20
-77.8672656086
 10
-5.1837619552
 20
-77.9119675769
 10
-5.2314290429
 20
-77.9599757926
 10
-5.2782376565
 20
-78.0112307661
 10
-5.324014743
 20
-78.0656536133
 10
-5.3685860002
 20
-78.1231466287
 10
-5.4117783618
 20
-78.1835944081
 10
-5.4534224044
 20
-78.2468654677
 10
-5.4933545844
 20
-78.3128142789
 10
-5.5303130121
 20
-78.3792078043
 10
-5.5663780148
 20
-78.4498652392
 10
-5.6002712144
 20
-78.5226297752
 10
-5.6318783712
 20
-78.5973252535
 10
-5.6610975899
 20
-78.6737760947
 10
-5.6878392219
 20
-78.7518093574
 10
-5.7120254939
 20
-78.8312565127
 10
-5.7326370676
 20
-78.9109597611
 10
-5.7503290652
 20
-78.9907777547
 10
-5.7650836463
 20
-79.0705398134
 10
-5.7768898654
 20
-79.1500653516
 10
-5.7857448684
 20
-79.2291648734
 10
-5.791655037
 20
-79.3076413237
 10
-5.7946370298
 20
-79.3852917999
 10
-5.7947186676
 20
-79.461909616
 10
-5.7947088951
 20
-79.4624532981
 10
-5.7919137508
 20
-79.5377461992
 10
-5.7863236031
 20
-79.6115109728
 10
-5.7780118718
 20
-79.6835497846
 10
-5.7670634708
 20
-79.7536743202
 10
-5.7535738199
 20
-79.8217084814
 10
-5.7376475159
 20
-79.8874907966
 10
-5.7193967059
 20
-79.9508764391
 10
-5.698939221
 20
-80.0117387637
 10
-5.6763965403
 20
-80.0699703004
 10
-5.6518916619
 20
-80.1254831714
 10
-5.6255469598
 20
-80.1782089296
 10
-5.5974820996
 20
-80.2280978419
 10
-5.5678120816
 20
-80.2751176668
 10
-5.5366454666
 20
-80.3192519913
 10
-5.5040828288
 20
-80.3604982058
 10
-5.4702154694
 20
-80.3988652008
 10
-5.4351244122
 20
-80.4343708708
 10
-5.3988796914
 20
-80.4670395091
 10
-5.3615399351
 20
-80.4968991713
 10
-5.3231522391
 20
-80.5239790807
 10
-5.2837523178
 20
-80.5483071394
 10
-5.2433649137
 20
-80.5699076038
 10
-5.2020044408
 20
-80.5887989731
 10
-5.1596758317
 20
-80.6049921317
 10
-5.1163755502
 20
-80.6184887763
 10
-5.0735527571
 20
-80.6284495424
 10
-5.0292533313
 20
-80.6358368723
 10
-4.9834188668
 20
-80.6406003725
 10
-4.9359982215
 20
-80.6426738909
 10
-4.8869517551
 20
-80.641977928
 10
-4.8362563717
 20
-80.6384227815
 10
-4.7839116401
 20
-80.6319126113
 10
-4.7687012587
 20
-80.6295036401
  0
LINE
  5
2B1
100
AcDbEntity
  8
0
100
AcDbLine
 62
7
  6
CONTINUOUS
 10
-13.779424732
 20
-3.5480514604
 11
-12.8087045534
 21
-4.8579729583
  0
LINE
  5
2B2
100
AcDbEntity
  8
0
100
AcDbLine
 62
7
  6
CONTINUOUS
 10
-13.779424732
 20
-72.9120381528
 11
-12.8087045534
 21
-74.2250664072
  0
LWPOLYLINE
  5
2B3
100
AcDbEntity
  8
0
100
AcDbPolyline
 62
7
  6
CONTINUOUS
 90
34
 70
0
 10
8.5310407285
 20
-71.2572666874
 10
8.5363997722
 20
-71.2645760331
 10
8.5790723712
 20
-71.3212696966
 10
8.6225611378
 20
-71.3764188615
 10
8.6668528349
 20
-71.4300324137
 10
8.711935078
 20
-71.4821192961
 10
8.7577963478
 20
-71.5326884438
 10
8.8044260007
 20
-71.581748719
 10
8.8518142744
 20
-71.6293088464
 10
8.8999522919
 20
-71.6753773484
 10
8.9488320615
 20
-71.719962482
 10
8.9984464741
 20
-71.7630721761
 10
9.0487892969
 20
-71.8047139702
 10
9.0998551642
 20
-71.8448949551
 10
9.1516395649
 20
-71.8836217143
 10
9.2041388276
 20
-71.9209002687
 10
9.2573501018
 20
-71.9567360231
 10
9.3112713371
 20
-71.9911337145
 10
9.3659012591
 20
-72.0240973642
 10
9.4212393434
 20
-72.0556302323
 10
9.477285786
 20
-72.085734775
 10
9.5340414731
 20
-72.1144126057
 10
9.5915079473
 20
-72.1416644589
 10
9.6496873729
 20
-72.1674901582
 10
9.7085824989
 20
-72.1918885872
 10
9.7681966215
 20
-72.2148576648
 10
9.8285335439
 20
-72.2363943232
 10
9.8895975369
 20
-72.2564944907
 10
9.9513932971
 20
-72.2751530778
 10
10.0030264598
 20
-72.2866333902
 10
10.0551612224
 20
-72.2978561243
 10
10.1076891309
 20
-72.3085637017
 10
10.1605017314
 20
-72.318498544
 10
10.2134905696
 20
-72.3274030729
  0
LWPOLYLINE
  5
2B4
100
AcDbEntity
  8
0
100
AcDbPolyline
 62
7
  6
CONTINUOUS
 90
15
 70
0
 10
9.6480608933
 20
-14.3570220612
 10
9.6219213462
 20
-14.320848649
 10
9.5904779126
 20
-14.2837939636
 10
9.553309312
 20
-14.2458232132
 10
9.5099892208
 20
-14.2069410954
 10
9.4601119634
 20
-14.1671984537
 10
9.4033289826
 20
-14.126702924
 10
9.3394045119
 20
-14.0856364209
 10
9.2683068337
 20
-14.0442847737
 10
9.1903699193
 20
-14.0030905562
 10
9.1066083849
 20
-13.9627550621
 10
9.0194173897
 20
-13.9244609681
 10
8.9344782428
 20
-13.8904656514
 10
8.8682868578
 20
-13.8663868994
 10
8.859227184
 20
-13.8633302159
  0
LINE
  5
2B5
100
AcDbEntity
  8
0
100
AcDbLine
 62
7
  6
CONTINUOUS
 10
43.9562549505
 20
-57.7231058035
 11
45.0210251202
 21
-59.2538894427
  0
LINE
  5
2B6
100
AcDbEntity
  8
0
100
AcDbLine
 62
7
  6
CONTINUOUS
 10
-12.2155965014
 20
-72.2887098333
 11
-11.1536506557
 21
-73.8194934725
  0
LINE
  5
2B7
100
AcDbEntity
  8
0
100
AcDbLine
 62
7
  6
CONTINUOUS
 10
42.3014834851
 20
-58.1286787381
 11
43.3634293308
 21
-59.662004269
  0
LINE
  5
2B8
100
AcDbEntity
  8
0
100
AcDbLine
 62
7
  6
CONTINUOUS
 10
-12.2155965014
 20
-2.9218988168
 11
-11.1536506557
 21
-4.4580486717
  0
LINE
  5
2B9
100
AcDbEntity
  8
0
100
AcDbLine
 62
7
  6
CONTINUOUS
 10
-12.2155965014
 20
66.5691824582
 11
-11.1536506557
 21
65.0327501709
  0
LWPOLYLINE
  5
2BA
100
AcDbEntity
  8
0
100
AcDbPolyline
 62
7
  6
CONTINUOUS
 90
7
 70
0
 10
21.6954975933
 20
-55.6737762673
 10
21.6627046753
 20
-55.5681714375
 10
21.6068828604
 20
-55.4479669189
 10
21.539277821
 20
-55.3497026442
 10
21.4619681053
 20
-55.2728378261
 10
21.3760674285
 20
-55.2164788735
 10
21.2817341189
 20
-55.180084422
  0
LINE
  5
2BB
100
AcDbEntity
  8
0
100
AcDbLine
 62
7
  6
CONTINUOUS
 10
17.5087196104
 20
-93.8270050965
 11
17.3542290844
 21
-93.3251227114
  0
LWPOLYLINE
  5
2BC
100
AcDbEntity
  8
0
100
AcDbPolyline
 62
7
  6
CONTINUOUS
 90
9
 70
0
 10
9.0275568978
 20
-58.9175124474
 10
9.0115986493
 20
-58.8616543066
 10
8.9737547328
 20
-58.7618650336
 10
8.9279951863
 20
-58.6742054783
 10
8.8755437721
 20
-58.5989703831
 10
8.8173840139
 20
-58.5360557762
 10
8.7541909742
 20
-58.4851480693
 10
8.6863122416
 20
-58.445914922
 10
8.6137934234
 20
-58.418171954
  0
LWPOLYLINE
  5
2BD
100
AcDbEntity
  8
0
100
AcDbPolyline
 62
7
  6
CONTINUOUS
 90
39
 70
0
 10
22.4925218424
 20
-62.9029161251
 10
22.4379144847
 20
-62.6919031602
 10
22.3798326201
 20
-62.4836452187
 10
22.3183007651
 20
-62.2782168316
 10
22.2533434366
 20
-62.0756925295
 10
22.1849851511
 20
-61.8761468433
 10
22.1132504255
 20
-61.6796543037
 10
22.0381637764
 20
-61.4862894414
 10
21.9597497205
 20
-61.2961267873
 10
21.8780327746
 20
-61.1092408722
 10
21.7930374552
 20
-60.9257062267
 10
21.7047882792
 20
-60.7455973817
 10
21.6133097633
 20
-60.568988868
 10
21.518626424
 20
-60.3959552163
 10
21.4207627782
 20
-60.2265709574
 10
21.3197433425
 20
-60.0609106221
 10
21.2155926337
 20
-59.8990487411
 10
21.1083351683
 20
-59.7410598452
 10
20.9979954633
 20
-59.5870184653
 10
20.8960746768
 20
-59.4518179491
 10
20.7916950072
 20
-59.3199296236
 10
20.6848743274
 20
-59.1914078218
 10
20.5756305099
 20
-59.0663068766
 10
20.4639814274
 20
-58.9446811209
 10
20.3499449527
 20
-58.8265848878
 10
20.2335389583
 20
-58.71207251
 10
20.1147813169
 20
-58.6011983205
 10
19.9936899013
 20
-58.4940166524
 10
19.8702825841
 20
-58.3905818384
 10
19.744577238
 20
-58.2909482116
 10
19.6165917356
 20
-58.1951701048
 10
19.4863439497
 20
-58.1033018511
 10
19.3538517528
 20
-58.0153977833
 10
19.2191330178
 20
-57.9315122344
 10
19.0822056172
 20
-57.8516995373
 10
18.9430874237
 20
-57.7760140249
 10
18.80179631
 20
-57.7045100302
 10
18.6583501489
 20
-57.6372418861
 10
18.5127668128
 20
-57.5742639256
  0
LWPOLYLINE
  5
2BE
100
AcDbEntity
  8
0
100
AcDbPolyline
 62
7
  6
CONTINUOUS
 90
47
 70
0
 10
8.4042285783
 20
-69.4064871325
 10
8.416403831
 20
-69.4548795619
 10
8.4441705301
 20
-69.557202398
 10
8.4741189852
 20
-69.6573636151
 10
8.5061865186
 20
-69.7552906518
 10
8.5403089918
 20
-69.8509167507
 10
8.5764211929
 20
-69.9441811115
 10
8.6144572322
 20
-70.0350289828
 10
8.6543509425
 20
-70.1234116887
 10
8.6960362777
 20
-70.2092865954
 10
8.7394477049
 20
-70.2926170156
 10
8.7845205865
 20
-70.3733720555
 10
8.8311915469
 20
-70.4515264072
 10
8.8793988204
 20
-70.5270600907
 10
8.9290825777
 20
-70.5999581503
 10
8.9801852271
 20
-70.67021031
 10
9.0326516885
 20
-70.7378105938
 10
9.0864296386
 20
-70.8027569157
 10
9.1414697248
 20
-70.8650506464
 10
9.1977257481
 20
-70.92469616
 10
9.255154814
 20
-70.9817003684
 10
9.3137174495
 20
-71.0360722467
 10
9.3733776898
 20
-71.0878223559
 10
9.4341031305
 20
-71.1369623674
 10
9.4958649509
 20
-71.1835045932
 10
9.5586379049
 20
-71.2274615264
 10
9.622400284
 20
-71.2688453962
 10
9.687133852
 20
-71.3076677401
 10
9.7528237535
 20
-71.3439389974
 10
9.8194583988
 20
-71.3776681255
 10
9.8870293259
 20
-71.4088622438
 10
9.9555310431
 20
-71.4375263041
 10
10.0249608536
 20
-71.4636627925
 10
10.0953186658
 20
-71.4872714618
 10
10.1666067902
 20
-71.5083490962
 10
10.2360664292
 20
-71.5269751678
 10
10.3063405573
 20
-71.5430377223
 10
10.3774428449
 20
-71.5565326289
 10
10.4493860315
 20
-71.567450907
 10
10.5221814868
 20
-71.5757789161
 10
10.5958387536
 20
-71.5814985937
 10
10.6703650734
 20
-71.5845877441
 10
10.7457648975
 20
-71.585020377
 10
10.8220393843
 20
-71.5827671009
 10
10.8991858853
 20
-71.5777955695
 10
10.9771974218
 20
-71.5700709842
 10
10.985660767
 20
-71.5690720634
  0
LWPOLYLINE
  5
2BF
100
AcDbEntity
  8
0
100
AcDbPolyline
 62
7
  6
CONTINUOUS
 90
43
 70
0
 10
7.3809759722
 20
-73.7257259138
 10
7.4318580068
 20
-73.9295676867
 10
7.4860005712
 20
-74.130876374
 10
7.5433806783
 20
-74.3295858505
 10
7.603975341
 20
-74.5256299914
 10
7.6677615722
 20
-74.7189426714
 10
7.7347163848
 20
-74.9094577656
 10
7.8048167918
 20
-75.0971091489
 10
7.8780398061
 20
-75.2818306962
 10
7.9543624405
 20
-75.4635562826
 10
8.0337617081
 20
-75.6422197829
 10
8.1162146216
 20
-75.8177550722
 10
8.201698194
 20
-75.9900960253
 10
8.2901894383
 20
-76.1591765173
 10
8.3816653672
 20
-76.3249304231
 10
8.4761029939
 20
-76.4872916175
 10
8.573479331
 20
-76.6461939757
 10
8.6737713917
 20
-76.8015713725
 10
8.7769561887
 20
-76.9533576829
 10
8.883010735
 20
-77.1014867818
 10
8.9919120435
 20
-77.2458925442
 10
9.1036371271
 20
-77.3865088451
 10
9.2181629988
 20
-77.5232695593
 10
9.3354666713
 20
-77.656108562
 10
9.4555251578
 20
-77.7849597279
 10
9.578315471
 20
-77.9097569321
 10
9.7038146238
 20
-78.0304340494
 10
9.8319996293
 20
-78.146924955
 10
9.9628475002
 20
-78.2591635237
 10
10.0963352495
 20
-78.3670836304
 10
10.2324398902
 20
-78.4706191502
 10
10.3711384351
 20
-78.5697039579
 10
10.5124078971
 20
-78.6642719285
 10
10.6562252891
 20
-78.7542569371
 10
10.8025676242
 20
-78.8395928584
 10
10.9514119151
 20
-78.9202135676
 10
11.1027351748
 20
-78.9960529395
 10
11.2565144162
 20
-79.0670448491
 10
11.4127266522
 20
-79.1331231713
 10
11.5713488957
 20
-79.1942217811
 10
11.7323581596
 20
-79.2502745534
 10
11.8957314569
 20
-79.3012153633
 10
12.0614458005
 20
-79.3469780856
  0
LWPOLYLINE
  5
2C0
100
AcDbEntity
  8
0
100
AcDbPolyline
 62
7
  6
CONTINUOUS
 90
105
 70
0
 10
-5.7478944095
 20
67.5068580453
 10
-5.7358227685
 20
67.4547579212
 10
-5.7208336739
 20
67.4003384497
 10
-5.7039894725
 20
67.3482588552
 10
-5.6853949824
 20
67.2985891807
 10
-5.6651541876
 20
67.2513808899
 10
-5.6433683745
 20
67.2066679216
 10
-5.6201344035
 20
67.1644681619
 10
-5.5955431552
 20
67.1247852597
 10
-5.5696781828
 20
67.0876107087
 10
-5.5426145923
 20
67.0529261183
 10
-5.5144181631
 20
67.0207056009
 10
-5.485144716
 20
66.9909182071
 10
-5.4548397297
 20
66.9635303476
 10
-5.4235382013
 20
66.9385081473
 10
-5.3912647421
 20
66.9158196808
 10
-5.3580338966
 20
66.8954370467
 10
-5.3238506653
 20
66.8773382425
 10
-5.2887112091
 20
66.861508807
 10
-5.2526037056
 20
66.8479432067
 10
-5.2155093246
 20
66.8366459465
 10
-5.1785787075
 20
66.8275304892
 10
-5.141175554
 20
66.8208317567
 10
-5.1032942502
 20
66.8165483768
 10
-5.0649312142
 20
66.8146902852
 10
-5.0260864386
 20
66.8152779952
 10
-4.9867650391
 20
66.8183415567
 10
-4.9469787657
 20
66.8239192104
 10
-4.9067474331
 20
66.8320557557
 10
-4.8661002254
 20
66.8428006608
 10
-4.8250768335
 20
66.8562059504
 10
-4.7837283841
 20
66.8723239196
 10
-4.7421181221
 20
66.8912047279
 10
-4.7003218092
 20
66.9128939389
 10
-4.65842781
 20
66.9374300769
 10
-4.6165368386
 20
66.9648422828
 10
-4.5747613526
 20
66.99514815
 10
-4.5332245924
 20
67.0283518295
 10
-4.4920592774
 20
67.0644424825
 10
-4.4514059914
 20
67.1033931544
 10
-4.4114113049
 20
67.1451601256
 10
-4.3722256977
 20
67.1896827734
 10
-4.334001364
 20
67.2368839549
 10
-4.2968899838
 20
67.2866708912
 10
-4.2610405525
 20
67.3389365067
 10
-4.2265973546
 20
67.393561153
 10
-4.2112799337
 20
67.4194175541
 10
-4.1791574456
 20
67.4772055657
 10
-4.1487935104
 20
67.536951445
 10
-4.1202958402
 20
67.5985077844
 10
-4.0937615504
 20
67.661726326
 10
-4.0692770804
 20
67.7264598848
 10
-4.0469183812
 20
67.7925640376
 10
-4.0267513288
 20
67.8598985525
 10
-4.0095515164
 20
67.9262845065
 10
-3.9948304462
 20
67.99288281
 10
-3.9826083259
 20
68.0595416363
 10
-3.9728991927
 20
68.12609912
 10
-3.9657097177
 20
68.1923842259
 10
-3.9610380526
 20
68.2582179849
 10
-3.9588727697
 20
68.3234151088
 10
-3.9591919515
 20
68.3877859782
 10
-3.9599171732
 20
68.4109325789
 10
-3.9635619391
 20
68.4737913078
 10
-3.9695793318
 20
68.5352995771
 10
-3.9779001411
 20
68.5952771282
 10
-3.9884445374
 20
68.6535535999
 10
-4.0011231833
 20
68.7099711374
 10
-4.0158386704
 20
68.76438666
 10
-4.0324872302
 20
68.8166736801
 10
-4.0509606483
 20
68.8667235931
 10
-4.071148305
 20
68.9144463882
 10
-4.0929392583
 20
68.959770765
 10
-4.1162242923
 20
69.0026436711
 10
-4.1408978574
 20
69.0430293047
 10
-4.1668598422
 20
69.0809076463
 10
-4.1940171294
 20
69.1162726002
 10
-4.2222848993
 20
69.1491298329
 10
-4.2515876604
 20
69.1794943969
 10
-4.2818599928
 20
69.2073882269
 10
-4.3130470043
 20
69.2328375905
 10
-4.3451045027
 20
69.2558705663
 10
-4.3779988978
 20
69.2765146167
 10
-4.4117068497
 20
69.2947943138
 10
-4.4462146886
 20
69.3107292668
 10
-4.4815176341
 20
69.3243322945
 10
-4.51761885
 20
69.3356078726
 10
-4.5573227608
 20
69.3444986155
 10
-4.5972330211
 20
69.3509132971
 10
-4.6373518261
 20
69.354866419
 10
-4.6776808085
 20
69.3563626913
 10
-4.7182199478
 20
69.355397297
 10
-4.7589664637
 20
69.3519563792
 10
-4.799913728
 20
69.346017752
 10
-4.8410502243
 20
69.3375518237
 10
-4.8823585872
 20
69.3265227186
 10
-4.9238147485
 20
69.3128895728
 10
-4.9653872151
 20
69.2966079758
 10
-5.0070365
 20
69.2776315235
 10
-5.0487147229
 20
69.2559134451
 10
-5.0903653931
 20
69.2314082634
 10
-5.1319233835
 20
69.2040734455
 10
-5.1733150983
 20
69.1738710001
 10
-5.214458832
 20
69.1407689787
 10
-5.2155093246
 20
69.1398822154
  0
LWPOLYLINE
  5
2C1
100
AcDbEntity
  8
0
100
AcDbPolyline
 62
7
  6
CONTINUOUS
 90
45
 70
0
 10
7.6346002726
 20
-59.6758434569
 10
7.6364123604
 20
-59.7009231366
 10
7.6386988514
 20
-59.7257215504
 10
7.6414557429
 20
-59.7502292976
 10
7.6446790321
 20
-59.7744369775
 10
7.6483647162
 20
-59.7983351895
 10
7.6525087927
 20
-59.8219145328
 10
7.6571072587
 20
-59.8451656068
 10
7.6621561116
 20
-59.8680790107
 10
7.6676513485
 20
-59.8906453439
 10
7.6735889668
 20
-59.9128552057
 10
7.6799649638
 20
-59.9346991954
 10
7.6867753366
 20
-59.9561679123
 10
7.6940160827
 20
-59.9772519557
 10
7.7016831992
 20
-59.997941925
 10
7.7097726835
 20
-60.0182284193
 10
7.7182805327
 20
-60.0381020381
 10
7.7272027443
 20
-60.0575533807
 10
7.7365353154
 20
-60.0765730463
 10
7.7462742433
 20
-60.0951516343
 10
7.7564155254
 20
-60.113279744
 10
7.7669551588
 20
-60.1309479747
 10
7.7769228064
 20
-60.146670232
 10
7.7872161555
 20
-60.1619941196
 10
7.7978321593
 20
-60.1769124821
 10
7.8087677711
 20
-60.1914181641
 10
7.8200199442
 20
-60.2055040103
 10
7.8315856318
 20
-60.2191628652
 10
7.8434617874
 20
-60.2323875734
 10
7.8556453642
 20
-60.2451709795
 10
7.8681333154
 20
-60.2575059282
 10
7.8809225944
 20
-60.2693852639
 10
7.8940101545
 20
-60.2808018314
 10
7.907392949
 20
-60.2917484751
 10
7.9210679311
 20
-60.3022180398
 10
7.9350320542
 20
-60.31220337
 10
7.9492822715
 20
-60.3216973102
 10
7.9638155364
 20
-60.3306927052
 10
7.9786288021
 20
-60.3391823994
 10
7.993719022
 20
-60.3471592375
 10
8.0090831493
 20
-60.3546160641
 10
8.0247181373
 20
-60.3615457238
 10
8.0406209394
 20
-60.3679410611
 10
8.0567885088
 20
-60.3737949207
 10
8.0732177988
 20
-60.3791001472
  0
LINE
  5
2C2
100
AcDbEntity
  8
0
100
AcDbLine
 62
7
  6
CONTINUOUS
 10
-5.2762322919
 20
-13.3944924223
 11
-5.2762322919
 21
1.206980523
  0
LWPOLYLINE
  5
2C3
100
AcDbEntity
  8
0
100
AcDbPolyline
 62
7
  6
CONTINUOUS
 90
18
 70
0
 10
-2.5069825534
 20
11.6767498045
 10
-2.5069825534
 20
1.4385750957
 10
-2.5348032751
 20
1.3554970387
 10
-2.5885061024
 20
1.1862770979
 10
-2.6394433517
 20
1.0112548658
 10
-2.7399914591
 20
0.6085686778
 10
-2.8190653626
 20
0.2057239426
 10
-2.8765135462
 20
-0.1953499017
 10
-2.9123116323
 20
-0.5925901436
 10
-2.926587256
 20
-0.983834598
 10
-2.9268570613
 20
-1.0271205651
 10
-2.91759939
 20
-1.4084133137
 10
-2.887840658
 20
-1.7782077562
 10
-2.8384150999
 20
-2.1344611054
 10
-2.7703202752
 20
-2.4753179495
 10
-2.6846865519
 20
-2.7991612746
 10
-2.582737957
 20
-3.1046495216
 10
-2.4657474221
 20
-3.3907366103
  0
LINE
  5
2C4
100
AcDbEntity
  8
0
100
AcDbLine
 62
7
  6
CONTINUOUS
 10
-2.4657474221
 20
-3.3907366103
 11
-2.4657474221
 21
-14.7707855356
  0
LWPOLYLINE
  5
2C5
100
AcDbEntity
  8
0
100
AcDbPolyline
 62
7
  6
CONTINUOUS
 90
31
 70
0
 10
-2.2146650134
 20
71.2276225588
 10
-2.2146650134
 20
68.6295268582
 10
-2.2152112535
 20
68.5513811432
 10
-2.2217372754
 20
68.3498641674
 10
-2.2355347591
 20
68.1518879845
 10
-2.2564640191
 20
67.9577091571
 10
-2.2843747081
 20
67.7675769364
 10
-2.3191064616
 20
67.5817315752
 10
-2.3604897675
 20
67.4004027362
 10
-2.4083470501
 20
67.2238080458
 10
-2.4624939518
 20
67.0521518364
 10
-2.5227407885
 20
66.8856241214
 10
-2.5888941462
 20
66.7243998365
 10
-2.660758582
 20
66.5686383753
 10
-2.7381383894
 20
66.4184834391
 10
-2.8208393819
 20
66.274063207
 10
-2.9086706509
 20
66.1354908263
 10
-3.0014462547
 20
66.0028652102
 10
-3.0989867953
 20
65.8762721208
 10
-3.2011208474
 20
65.7557855082
 10
-3.3076862063
 20
65.6414690679
 10
-3.4185309286
 20
65.5333779734
 10
-3.5335141483
 20
65.4315607385
 10
-3.6525066543
 20
65.3360611608
 10
-3.7753912269
 20
65.2469202972
 10
-3.9020627339
 20
65.1641784253
 10
-4.0324279975
 20
65.0878769462
 10
-4.1664054453
 20
65.0180601888
 10
-4.3039245674
 20
64.9547770801
 10
-4.4449252025
 20
64.8980826544
 10
-4.589356681
 20
64.8480393775
  0
LINE
  5
2C6
100
AcDbEntity
  8
0
100
AcDbLine
 62
7
  6
CONTINUOUS
 10
-1.9940853045
 20
-95.7026387031
 11
-1.9940853045
 21
-96.4858237643
  0
LINE
  5
2C7
100
AcDbEntity
  8
0
100
AcDbLine
 62
7
  6
CONTINUOUS
 10
-1.4837299473
 20
-19.3244432137
 11
-1.4837299473
 21
-44.831761075
  0
LINE
  5
2C8
100
AcDbEntity
  8
0
100
AcDbLine
 62
7
  6
CONTINUOUS
 10
-1.1722070038
 20
-100.6423814798
 11
-1.1722070038
 21
-96.8278494077
  0
LINE
  5
2C9
100
AcDbEntity
  8
0
100
AcDbLine
 62
7
  6
CONTINUOUS
 10
-0.9956867502
 20
76.5204058427
 11
-0.9956867502
 21
77.3838017072
  0
LWPOLYLINE
  5
2CA
100
AcDbEntity
  8
0
100
AcDbPolyline
 62
7
  6
CONTINUOUS
 90
26
 70
0
 10
-0.9321394589
 20
75.2904127157
 10
-0.9321394589
 20
72.5378264891
 10
-0.9344164472
 20
72.3848095844
 10
-0.9411303774
 20
72.2381307132
 10
-0.9521282653
 20
72.0972479355
 10
-0.9672879677
 20
71.9616388942
 10
-0.9763993151
 20
71.8956516095
 10
-0.9865133764
 20
71.8308341651
 10
-1.0097020533
 20
71.7045479094
 10
-1.0368055152
 20
71.5822935556
 10
-1.0678113355
 20
71.46359207
 10
-1.1027462028
 20
71.3479667441
 10
-1.1416800447
 20
71.2349369273
 10
-1.1847316267
 20
71.1240102168
 10
-1.2320762549
 20
71.0146723819
 10
-1.2839565661
 20
70.9063739149
 10
-1.3406979896
 20
70.7985114537
 10
-1.4027315217
 20
70.6904011713
 10
-1.470628409
 20
70.5812390986
 10
-1.5451551822
 20
70.4700391486
 10
-1.6273656082
 20
70.3555307216
 10
-1.7187649274
 20
70.2359771842
 10
-1.8216306245
 20
70.1088229368
 10
-1.939722725
 20
69.9699135668
 10
-2.0801859873
 20
69.8114079578
 10
-2.2451677132
 20
69.6307497367
  0
LINE
  5
2CB
100
AcDbEntity
  8
0
100
AcDbLine
 62
7
  6
CONTINUOUS
 10
-0.7748246089
 20
-89.2928352544
 11
-0.7748246089
 21
-90.0760203156
  0
LWPOLYLINE
  5
2CC
100
AcDbEntity
  8
0
100
AcDbPolyline
 62
7
  6
CONTINUOUS
 90
28
 70
0
 10
-0.557069224
 20
-61.220466284
 10
-0.557069224
 20
-61.8161162277
 10
-0.5574667266
 20
-61.8326063739
 10
-0.5586500793
 20
-61.8487950401
 10
-0.5606084748
 20
-61.8647055101
 10
-0.5633350518
 20
-61.8803604959
 10
-0.5668269335
 20
-61.8957820201
 10
-0.5710852431
 20
-61.9109912987
 10
-0.5761150971
 20
-61.926008627
 10
-0.581925575
 20
-61.940853274
 10
-0.5885296695
 20
-61.955543388
 10
-0.59594422
 20
-61.9700959173
 10
-0.6041898329
 20
-61.9845265492
 10
-0.6132907945
 20
-61.9988496689
 10
-0.6232749825
 20
-62.0130783412
 10
-0.6341737818
 20
-62.0272243148
 10
-0.646022013
 20
-62.0412980506
 10
-0.6588578801
 20
-62.0553087747
 10
-0.6727229478
 20
-62.0692645564
 10
-0.6876621578
 20
-62.0831724124
 10
-0.7037238974
 20
-62.0970384385
 10
-0.7209601377
 20
-62.1108679733
 10
-0.7394266613
 20
-62.1246657977
 10
-0.7591834122
 20
-62.1384363794
 10
-0.78029501
 20
-62.1521841743
 10
-0.8028314905
 20
-62.165914005
 10
-0.8268693691
 20
-62.1796315444
 10
-0.8330056844
 20
-62.1829959228
  0
LINE
  5
2CD
100
AcDbEntity
  8
0
100
AcDbLine
 62
7
  6
CONTINUOUS
 10
0.0882888231
 20
77.6651043833
 11
0.0882888231
 21
76.807357167
  0
LINE
  5
2CE
100
AcDbEntity
  8
0
100
AcDbLine
 62
7
  6
CONTINUOUS
 10
0.1930712457
 20
-96.4556034969
 11
0.1930712457
 21
-100.3912990711
  0
LINE
  5
2CF
100
AcDbEntity
  8
0
100
AcDbLine
 62
7
  6
CONTINUOUS
 10
0.5379212131
 20
-95.2338009096
 11
0.5379212131
 21
-95.8294508533
  0
LINE
  5
2D0
100
AcDbEntity
  8
0
100
AcDbLine
 62
7
  6
CONTINUOUS
 10
1.2273387156
 20
-100.2644869209
 11
1.2273387156
 21
-96.1384319052
  0
LINE
  5
2D1
100
AcDbEntity
  8
0
100
AcDbLine
 62
7
  6
CONTINUOUS
 10
2.6643547961
 20
-95.8294508533
 11
2.6643547961
 21
-99.9831842448
  0
LWPOLYLINE
  5
2D2
100
AcDbEntity
  8
0
100
AcDbPolyline
 62
7
  6
CONTINUOUS
 90
15
 70
0
 10
3.6023128156
 20
-62.8173391061
 10
3.6023128156
 20
-65.5397050652
 10
3.6010731737
 20
-65.5615479769
 10
3.5972324517
 20
-65.584929963
 10
3.5905641361
 20
-65.6100530436
 10
3.580789742
 20
-65.6371209538
 10
3.567586649
 20
-65.6663377741
 10
3.5505951644
 20
-65.6979083812
 10
3.5294240346
 20
-65.7320415611
 10
3.5036524395
 20
-65.7689586078
 10
3.4728223279
 20
-65.8089158645
 10
3.4363997055
 20
-65.8522687194
 10
3.3936154099
 20
-65.8996868032
 10
3.3426500671
 20
-65.9531654846
 10
3.3181858154
 20
-65.9783225914
  0
LINE
  5
2D3
100
AcDbEntity
  8
0
100
AcDbLine
 62
7
  6
CONTINUOUS
 10
3.6932560503
 20
-99.7047058927
 11
3.6932560503
 21
-95.5453238531
  0
LWPOLYLINE
  5
2D4
100
AcDbEntity
  8
0
100
AcDbPolyline
 62
7
  6
CONTINUOUS
 90
23
 70
0
 10
4.0711506092
 20
-62.4120486039
 10
4.0711506092
 20
-65.3798483236
 10
4.0671874316
 20
-65.4764765981
 10
4.0546331899
 20
-65.574635382
 10
4.0340239196
 20
-65.6672269932
 10
4.0059667272
 20
-65.7534004261
 10
3.9710422276
 20
-65.8326766127
 10
3.9297445866
 20
-65.9048497915
 10
3.8824431802
 20
-65.969890623
 10
3.829362228
 20
-66.0278595194
 10
3.7705748723
 20
-66.0788336223
 10
3.7060086675
 20
-66.1228484724
 10
3.6354596672
 20
-66.1598544287
 10
3.5586122315
 20
-66.1896873022
 10
3.4750616099
 20
-66.2120520032
 10
3.3844351755
 20
-66.2265064563
 10
3.2864758255
 20
-66.2325102592
 10
3.1806457252
 20
-66.2294670647
 10
3.0663832967
 20
-66.2166576482
 10
2.9431155806
 20
-66.1932536522
 10
1.679413581
 20
-65.9000910745
 10
-3.2241642911
 20
-64.7613145766
 10
-6.213907879
 20
-64.0668200692
  0
LWPOLYLINE
  5
2D5
100
AcDbEntity
  8
0
100
AcDbPolyline
 62
7
  6
CONTINUOUS
 90
25
 70
0
 10
4.5399884027
 20
-59.9102623537
 10
4.5399884027
 20
-60.5033704058
 10
4.539612251
 20
-60.5192584631
 10
4.5384918905
 20
-60.534875144
 10
4.5366366642
 20
-60.5502437118
 10
4.5340521359
 20
-60.5653869861
 10
4.5307400416
 20
-60.5803272606
 10
4.5266982586
 20
-60.5950862265
 10
4.521920787
 20
-60.6096849023
 10
4.5163977438
 20
-60.6241435765
 10
4.5101153648
 20
-60.6384817676
 10
4.5030560082
 20
-60.6527182045
 10
4.4951981536
 20
-60.6668708323
 10
4.4865163869
 20
-60.6809568494
 10
4.4769813593
 20
-60.6949927769
 10
4.4665597078
 20
-60.7089945701
 10
4.4552139184
 20
-60.7229777745
 10
4.4429021091
 20
-60.7369577377
 10
4.4295777042
 20
-60.7509498876
 10
4.415188956
 20
-60.7649700946
 10
4.399678256
 20
-60.7790351433
 10
4.3829811505
 20
-60.7931633519
 10
4.3650249272
 20
-60.8073753985
 10
4.3457265726
 20
-60.8216954459
 10
4.3275992336
 20
-60.8343811853
  0
LINE
  5
2D6
100
AcDbEntity
  8
0
100
AcDbLine
 62
7
  6
CONTINUOUS
 10
-2.1816204219
 20
71.6303711694
 11
-2.2146650134
 21
71.2276225588
  0
LINE
  5
2D7
100
AcDbEntity
  8
0
100
AcDbLine
 62
7
  6
CONTINUOUS
 10
15.178087398
 20
-81.0432671146
 11
12.4255011715
 21
-81.7877589362
  0
LINE
  5
2D8
100
AcDbEntity
  8
0
100
AcDbLine
 62
7
  6
CONTINUOUS
 10
18.4271897939
 20
-85.2080153699
 11
24.4288784163
 21
-83.6218749792
  0
LINE
  5
2D9
100
AcDbEntity
  8
0
100
AcDbLine
 62
7
  6
CONTINUOUS
 10
1.1942941241
 20
-89.6981257567
 11
-3.4034230093
 21
-90.8868837525
  0
LWPOLYLINE
  5
2DA
100
AcDbEntity
  8
0
100
AcDbPolyline
 62
7
  6
CONTINUOUS
 90
55
 70
0
 10
-4.7658769346
 20
-80.6266793161
 10
-4.7230923652
 20
-80.6177000663
 10
-4.6799266531
 20
-80.6062237406
 10
-4.6364085648
 20
-80.5922046294
 10
-4.5925755497
 20
-80.5755960859
 10
-4.54847431
 20
-80.5563522078
 10
-4.5041612107
 20
-80.5344295822
 10
-4.4597025124
 20
-80.5097890556
 10
-4.4151744084
 20
-80.4823974881
 10
-4.3706628524
 20
-80.4522294464
 10
-4.3262631658
 20
-80.4192687866
 10
-4.2820794216
 20
-80.3835100779
 10
-4.2382236075
 20
-80.3449598172
 10
-4.1948145793
 20
-80.3036373893
 10
-4.1519768262
 20
-80.2595757339
 10
-4.1098390778
 20
-80.2128216879
 10
-4.068532792
 20
-80.1634359871
 10
-4.0281905698
 20
-80.1114929217
 10
-3.9889445473
 20
-80.0570796581
 10
-3.9509248184
 20
-80.000295253
 10
-3.9142579389
 20
-79.9412494006
 10
-3.8790655586
 20
-79.8800609627
 10
-3.8727633309
 20
-79.8685848448
 10
-3.8394887336
 20
-79.8050699941
 10
-3.8079565888
 20
-79.7397577745
 10
-3.7782592263
 20
-79.672785608
 10
-3.7504802884
 20
-79.6042915359
 10
-3.7246946377
 20
-79.5344127345
 10
-3.7009684503
 20
-79.4632841888
 10
-3.6793594697
 20
-79.3910375409
 10
-3.6605975033
 20
-79.3191092195
 10
-3.6442266973
 20
-79.2470422549
 10
-3.6302624022
 20
-79.1749648873
 10
-3.6187152731
 20
-79.10301204
 10
-3.6095905357
 20
-79.0313246894
 10
-3.6028872837
 20
-78.9600490385
 10
-3.5985978314
 20
-78.8893354918
 10
-3.5967071493
 20
-78.8193374383
 10
-3.596624064
 20
-78.8078201173
 10
-3.5974990781
 20
-78.7388892657
 10
-3.6007066852
 20
-78.6710690242
 10
-3.6062000936
 20
-78.6045099287
 10
-3.6139245166
 20
-78.5393573272
 10
-3.6238176252
 20
-78.4757496918
 10
-3.6358101937
 20
-78.4138170444
 10
-3.6498269241
 20
-78.3536795541
 10
-3.6657874277
 20
-78.295446356
 10
-3.6836073331
 20
-78.2392146317
 10
-3.7031994882
 20
-78.1850689812
 10
-3.7244752184
 20
-78.1330811015
 10
-3.7473456022
 20
-78.0833097765
 10
-3.7717227302
 20
-78.0358011677
 10
-3.7975209109
 20
-77.990589387
 10
-3.8246577958
 20
-77.9476973222
 10
-3.8530553992
 20
-77.907137681
  0
LWPOLYLINE
  5
2DB
100
AcDbEntity
  8
0
100
AcDbPolyline
 62
7
  6
CONTINUOUS
 90
55
 70
0
 10
33.7457586175
 20
-70.5593762128
 10
33.7888482303
 20
-70.550341034
 10
33.8323027286
 20
-70.5388116466
 10
33.8760900453
 20
-70.5247444643
 10
33.9201696034
 20
-70.508095308
 10
33.9644918164
 20
-70.4888210204
 10
34.0089977514
 20
-70.4668811277
 10
34.0536189717
 20
-70.4422395126
 10
34.0982775739
 20
-70.4148660555
 10
34.1428864307
 20
-70.3847382017
 10
34.1873496457
 20
-70.3518424077
 10
34.2315632195
 20
-70.3161754207
 10
34.2754159211
 20
-70.2777453481
 10
34.3187903465
 20
-70.2365724757
 10
34.3615641431
 20
-70.1926898041
 10
34.4036113657
 20
-70.1461432806
 10
34.4448039253
 20
-70.0969917136
 10
34.4850130858
 20
-70.0453063747
 10
34.5241109615
 20
-69.9911703022
 10
34.5619719664
 20
-69.9346773361
 10
34.5984741708
 20
-69.8759309238
 10
34.6335005254
 20
-69.8150427455
 10
34.6401601279
 20
-69.8029098036
 10
34.6732490055
 20
-69.7396733711
 10
34.7046049762
 20
-69.6746194485
 10
34.7341390126
 20
-69.6078760686
 10
34.7617701863
 20
-69.5395717439
 10
34.7874257106
 20
-69.4698341485
 10
34.8110408208
 20
-69.398788944
 10
34.8325585148
 20
-69.3265587617
 10
34.8514423184
 20
-69.2537086773
 10
34.8679133238
 20
-69.1808030462
 10
34.8819576613
 20
-69.1079752291
 10
34.8935666318
 20
-69.0353644048
 10
34.9027373894
 20
-68.9631147736
 10
34.9094735763
 20
-68.8913745753
 10
34.913785881
 20
-68.8202949281
 10
34.9143962905
 20
-68.8051615729
 10
34.915790288
 20
-68.7351381938
 10
34.9148164332
 20
-68.6661716527
 10
34.9115165562
 20
-68.5984103301
 10
34.9059403233
 20
-68.531997659
 10
34.8981448476
 20
-68.4670705243
 10
34.888194116
 20
-68.4037577679
 10
34.8761582454
 20
-68.3421788505
 10
34.8621125871
 20
-68.2824427168
 10
34.8461367051
 20
-68.2246469007
 10
34.8283132578
 20
-68.1688768989
 10
34.8087268176
 20
-68.1152058279
 10
34.7874626617
 20
-68.0636943696
 10
34.7646055681
 20
-68.0143909978
 10
34.740238649
 20
-67.9673324699
 10
34.7144422492
 20
-67.9225445588
 10
34.6872929338
 20
-67.8800429939
 10
34.6588625853
 20
-67.8398345778
  0
LWPOLYLINE
  5
2DC
100
AcDbEntity
  8
0
100
AcDbPolyline
 62
7
  6
CONTINUOUS
 90
58
 70
0
 10
9.1487203999
 20
-70.7802383541
 10
9.2629380831
 20
-70.7575740815
 10
9.3781129152
 20
-70.7283027485
 10
9.4941441257
 20
-70.6923155608
 10
9.6109071789
 20
-70.6495038515
 10
9.7282525014
 20
-70.599763533
 10
9.8460046931
 20
-70.5429996544
 10
9.9639622782
 20
-70.4791309539
 10
10.0818980356
 20
-70.4080942812
 10
10.1995599434
 20
-70.3298487593
 10
10.3166727452
 20
-70.2443795492
 10
10.4329401338
 20
-70.1517010838
 10
10.5480475163
 20
-70.0518596482
 10
10.6616653012
 20
-69.944935198
 10
10.7734526219
 20
-69.8310423364
 10
10.8830613854
 20
-69.7103303998
 10
10.9901405171
 20
-69.5829826444
 10
11.0943402577
 20
-69.4492145625
 10
11.195316368
 20
-69.3092714007
 10
11.2927340984
 20
-69.1634249869
 10
11.3679012005
 20
-69.0426756005
 10
11.4580553335
 20
-68.8870626841
 10
11.5437256478
 20
-68.7265659248
 10
11.6246593921
 20
-68.5615239269
 10
11.7006263293
 20
-68.392278091
 10
11.7714190807
 20
-68.2191687641
 10
11.8368529584
 20
-68.0425317747
 10
11.8967653499
 20
-67.8626954062
 10
11.9510147298
 20
-67.6799778361
 10
11.999009176
 20
-67.4935418905
 10
12.0406167786
 20
-67.30685174
 10
12.0758013734
 20
-67.1202526617
 10
12.1045398741
 20
-66.9341077776
 10
12.1268243058
 20
-66.7487962517
 10
12.1426637449
 20
-66.5647109336
 10
12.1520860877
 20
-66.3822554418
 10
12.1550224943
 20
-66.2396885603
 10
12.1531002667
 20
-66.0612537499
 10
12.1449654963
 20
-65.8857590108
 10
12.1307451399
 20
-65.7136074043
 10
12.1105880812
 20
-65.5451882362
 10
12.0846639018
 20
-65.3808723503
 10
12.0531610958
 20
-65.2210077314
 10
12.0162847674
 20
-65.0659155848
 10
11.9742538759
 20
-64.915887038
 10
11.9272981137
 20
-64.7711805861
 10
11.875654516
 20
-64.6320203661
 10
11.8195639116
 20
-64.4985953099
 10
11.7592673271
 20
-64.3710591827
 10
11.6950024507
 20
-64.2495314823
 10
11.6270002551
 20
-64.1340991388
 10
11.5554818667
 20
-64.0248189296
 10
11.480655751
 20
-63.9217205079
 10
11.4027152714
 20
-63.8248099279
 10
11.3218366617
 20
-63.7340735493
 10
11.2381774371
 20
-63.6494821981
 10
11.1518752579
 20
-63.5709954704
 10
11.0630472461
 20
-63.4985660688
  0
LINE
  5
2DD
100
AcDbEntity
  8
0
100
AcDbLine
 62
7
  6
CONTINUOUS
 10
-14.2180422582
 20
-73.2266678528
 11
-15.3407110711
 21
-73.4142029702
  0
LINE
  5
2DE
100
AcDbEntity
  8
0
100
AcDbLine
 62
7
  6
CONTINUOUS
 10
43.8624873918
 20
-62.5029918385
 11
44.5191427351
 21
-62.4120486039
  0
LINE
  5
2DF
100
AcDbEntity
  8
0
100
AcDbLine
 62
7
  6
CONTINUOUS
 10
-14.2510868497
 20
-8.3304793871
 11
-15.3130326953
 21
-8.0796794108
  0
LINE
  5
2E0
100
AcDbEntity
  8
0
100
AcDbLine
 62
7
  6
CONTINUOUS
 10
-14.3118098169
 20
-4.2651473386
 11
-15.1226732538
 21
-4.0499338454
  0
LINE
  5
2E1
100
AcDbEntity
  8
0
100
AcDbLine
 62
7
  6
CONTINUOUS
 10
8.859227184
 20
-13.8633302159
 11
5.1136086188
 21
-12.7793546426
  0
LINE
  5
2E2
100
AcDbEntity
  8
0
100
AcDbLine
 62
7
  6
CONTINUOUS
 10
-6.4014429964
 20
26.7750213516
 11
-6.1531849117
 21
26.6177065016
  0
LINE
  5
2E3
100
AcDbEntity
  8
0
100
AcDbLine
 62
7
  6
CONTINUOUS
 10
-46.008343973
 20
80.2908784596
 11
-47.0095668262
 21
81.2590567466
  0
LWPOLYLINE
  5
2E4
100
AcDbEntity
  8
0
100
AcDbPolyline
 62
7
  6
CONTINUOUS
 90
15
 70
0
 10
-17.9690270391
 20
73.1665210244
 10
-18.0726337933
 20
73.2850889682
 10
-18.2136838448
 20
73.4115581383
 10
-18.3962756098
 20
73.5448059185
 10
-18.6215111364
 20
73.6816405017
 10
-18.8832085385
 20
73.8153222472
 10
-19.0284784417
 20
73.8801215191
 10
-19.2820552934
 20
73.9773844613
 10
-19.4766415837
 20
74.0312231704
 10
-21.3050739094
 20
74.5098110756
 10
-22.2480602272
 20
74.7544915771
 10
-28.9953956654
 20
76.4973141693
 10
-36.9731689862
 20
78.5518743536
 10
-43.630487568
 20
80.2641942459
 10
-46.416458789
 20
80.9802959621
  0
LINE
  5
2E5
100
AcDbEntity
  8
0
100
AcDbLine
 62
7
  6
CONTINUOUS
 10
-13.779424732
 20
65.9430298147
 11
-12.8087045534
 21
64.6274596686
  0
LINE
  5
2E6
100
AcDbEntity
  8
0
100
AcDbLine
 62
7
  6
CONTINUOUS
 10
9.6949446726
 20
43.6215494903
 11
9.0687920291
 21
45.7479830733
  0
LWPOLYLINE
  5
2E7
100
AcDbEntity
  8
0
100
AcDbPolyline
 62
7
  6
CONTINUOUS
 90
45
 70
0
 10
20.3025409681
 20
-56.4377559248
 10
20.3041711263
 20
-56.4624702661
 10
20.3062754132
 20
-56.4869381081
 10
20.3088505122
 20
-56.5111483116
 10
20.3118931069
 20
-56.5350897378
 10
20.3153998806
 20
-56.5587512476
 10
20.3193675169
 20
-56.5821217019
 10
20.3237926991
 20
-56.6051899618
 10
20.3286721108
 20
-56.6279448883
 10
20.3340024354
 20
-56.6503753423
 10
20.3397803563
 20
-56.6724701847
 10
20.3460025571
 20
-56.6942182767
 10
20.3526657211
 20
-56.7156084792
 10
20.3597665318
 20
-56.7366296531
 10
20.3673016727
 20
-56.7572706594
 10
20.3752678273
 20
-56.7775203592
 10
20.3836616789
 20
-56.7973676134
 10
20.392479911
 20
-56.816801283
 10
20.4017192071
 20
-56.8358102289
 10
20.4113762507
 20
-56.8543833122
 10
20.4214477252
 20
-56.8725093939
 10
20.431930314
 20
-56.8901773348
 10
20.4418576059
 20
-56.9058993716
 10
20.4521223334
 20
-56.9212217155
 10
20.462721972
 20
-56.9361358881
 10
20.4736539974
 20
-56.9506334107
 10
20.4849158851
 20
-56.964705805
 10
20.4965051108
 20
-56.9783445923
 10
20.5084191499
 20
-56.991541294
 10
20.5206554782
 20
-57.0042874317
 10
20.5332115711
 20
-57.0165745268
 10
20.5460849044
 20
-57.0283941007
 10
20.5592729535
 20
-57.0397376749
 10
20.5727731941
 20
-57.0505967709
 10
20.5865831017
 20
-57.0609629101
 10
20.6007001519
 20
-57.0708276139
 10
20.6151218203
 20
-57.080182404
 10
20.6298455826
 20
-57.0890188015
 10
20.6448689142
 20
-57.0973283282
 10
20.6601892909
 20
-57.1051025053
 10
20.6758041881
 20
-57.1123328544
 10
20.6917110814
 20
-57.1190108969
 10
20.7079074465
 20
-57.1251281543
 10
20.7243907589
 20
-57.130676148
 10
20.7411584943
 20
-57.1356463995
  0
LINE
  5
2E8
100
AcDbEntity
  8
0
100
AcDbLine
 62
7
  6
CONTINUOUS
 10
14.6346874494
 20
-94.5469252987
 11
14.6677320408
 21
-96.8278494077
  0
LWPOLYLINE
  5
2E9
100
AcDbEntity
  8
0
100
AcDbPolyline
 62
7
  6
CONTINUOUS
 90
58
 70
0
 10
9.0606014893
 20
-59.1519313442
 10
9.0608942674
 20
-59.1864784501
 10
9.0595322295
 20
-59.2425947327
 10
9.0559069937
 20
-59.2994756662
 10
9.0500339784
 20
-59.3566046801
 10
9.0419577594
 20
-59.4135189752
 10
9.0317448216
 20
-59.4698158798
 10
9.0194768231
 20
-59.5251541344
 10
9.0052447378
 20
-59.5792515741
 10
8.9883769585
 20
-59.635538288
 10
8.9695299728
 20
-59.6906712792
 10
8.9487663738
 20
-59.7445246955
 10
8.9261583743
 20
-59.7969687965
 10
8.9017882508
 20
-59.8478713765
 10
8.8757485474
 20
-59.8970994574
 10
8.8481419914
 20
-59.9445212237
 10
8.8204947225
 20
-59.9878899665
 10
8.790217254
 20
-60.0313431442
 10
8.7587751007
 20
-60.0725851854
 10
8.7263072247
 20
-60.1115194084
 10
8.6929553852
 20
-60.148062611
 10
8.6588619232
 20
-60.1821463988
 10
8.624167474
 20
-60.2137180293
 10
8.5890087139
 20
-60.2427407207
 10
8.5535162394
 20
-60.2691934056
 10
8.517812672
 20
-60.2930699437
 10
8.482011061
 20
-60.3143778368
 10
8.4462136388
 20
-60.3331365158
 10
8.4105109601
 20
-60.349375285
 10
8.3749814353
 20
-60.3631310196
 10
8.3396912523
 20
-60.3744457155
 10
8.3046946624
 20
-60.3833639869
 10
8.2700345987
 20
-60.3899306008
 10
8.2357435847
 20
-60.3941881271
 10
8.2018448866
 20
-60.396174774
 10
8.1683538595
 20
-60.3959224623
 10
8.1352794347
 20
-60.3934551861
 10
8.1026256934
 20
-60.3887876885
 10
8.0703934747
 20
-60.3819244713
 10
7.984464014
 20
-60.3525367218
 10
7.8074592858
 20
-60.2932617813
 10
7.6385863234
 20
-60.2383591095
 10
7.497281613
 20
-60.1941255757
 10
7.386109919
 20
-60.1610367504
 10
7.302536147
 20
-60.1378544662
 10
7.2423520725
 20
-60.1228145496
 10
7.2009758462
 20
-60.1140744464
 10
7.1740219396
 20
-60.1099098037
 10
7.1575719393
 20
-60.1088123349
 10
7.1218195397
 20
-60.1088327051
 10
7.0054125085
 20
-60.109657371
 10
6.8989331467
 20
-60.1119484487
 10
6.8077031355
 20
-60.115591594
 10
6.7323122417
 20
-60.1203247493
 10
6.6717447484
 20
-60.1258622581
 10
6.6243551329
 20
-60.1319292305
 10
6.5882799882
 20
-60.1382751099
 10
6.5616395631
 20
-60.1446812504
  0
LINE
  5
2EA
100
AcDbEntity
  8
0
100
AcDbLine
 62
7
  6
CONTINUOUS
 10
5.1164329429
 20
13.6681806975
 11
5.1164329429
 21
4.2685478014
  0
LINE
  5
2EB
100
AcDbEntity
  8
0
100
AcDbLine
 62
7
  6
CONTINUOUS
 10
5.1164329429
 20
-3.3768974225
 11
5.1164329429
 21
-12.7768127509
  0
LINE
  5
2EC
100
AcDbEntity
  8
0
100
AcDbLine
 62
7
  6
CONTINUOUS
 10
5.1302721308
 20
-95.2004738857
 11
5.1302721308
 21
-99.3929005168
  0
LINE
  5
2ED
100
AcDbEntity
  8
0
100
AcDbLine
 62
7
  6
CONTINUOUS
 10
5.6957018071
 20
-99.2358680992
 11
5.6957018071
 21
-94.9855428249
  0
LWPOLYLINE
  5
2EE
100
AcDbEntity
  8
0
100
AcDbPolyline
 62
7
  6
CONTINUOUS
 90
10
 70
0
 10
7.4165624554
 20
-42.5423639939
 10
7.4165624554
 20
-17.035328565
 10
7.407140835
 20
-16.9320072715
 10
7.3760777845
 20
-16.8304258228
 10
7.3257497216
 20
-16.7445179083
 10
7.2586206233
 20
-16.6760338887
 10
7.1770480382
 20
-16.6266528056
 10
7.0832606169
 20
-16.5980725923
 10
6.9794378693
 20
-16.5920843499
 10
6.867796291
 20
-16.6105502267
  0
LINE
  5
2EF
100
AcDbEntity
  8
0
100
AcDbLine
 62
7
  6
CONTINUOUS
 10
7.474743531
 20
-66.7863617043
 11
7.474743531
 21
-68.85207232
  0
LINE
  5
2F0
100
AcDbEntity
  8
0
100
AcDbLine
 62
7
  6
CONTINUOUS
 10
7.474743531
 20
-71.7566071808
 11
7.474743531
 21
-73.3811583787
  0
LWPOLYLINE
  5
2F1
100
AcDbEntity
  8
0
100
AcDbPolyline
 62
7
  6
CONTINUOUS
 90
15
 70
0
 10
8.7572690855
 20
-61.5045932842
 10
8.7572690855
 20
-64.2269592433
 10
8.7560307862
 20
-64.2489412344
 10
8.7521943618
 20
-64.2724723785
 10
8.7455355673
 20
-64.297746564
 10
8.7357812701
 20
-64.3249558801
 10
8.7226185572
 20
-64.3542873377
 10
8.7057041508
 20
-64.385920137
 10
8.6846743335
 20
-64.420023249
 10
8.6591556082
 20
-64.4567536859
 10
8.6287755242
 20
-64.496257671
 10
8.5931691285
 20
-64.5386832374
 10
8.5519574791
 20
-64.5842391043
 10
8.5045614908
 20
-64.633482311
 10
8.475683977
 20
-64.662470013
  0
LWPOLYLINE
  5
2F2
100
AcDbEntity
  8
0
100
AcDbPolyline
 62
7
  6
CONTINUOUS
 90
28
 70
0
 10
9.2286487707
 20
-61.0990203495
 10
9.2286487707
 20
-64.0668200692
 10
9.2273164042
 20
-64.123151601
 10
9.2207116599
 20
-64.2032031841
 10
9.2087943259
 20
-64.2802802932
 10
9.1918564261
 20
-64.3537477532
 10
9.170211258
 20
-64.4231574438
 10
9.1441656613
 20
-64.4882211352
 10
9.113998614
 20
-64.5487783784
 10
9.0799458462
 20
-64.6047636757
 10
9.0421897233
 20
-64.6561754607
 10
9.0008535659
 20
-64.703048204
 10
8.9559996544
 20
-64.7454282203
 10
8.907630266
 20
-64.7833533673
 10
8.8556911529
 20
-64.816836647
 10
8.8000768811
 20
-64.845853622
 10
8.7406374339
 20
-64.8703334716
 10
8.6771854797
 20
-64.8901534041
 10
8.6095037447
 20
-64.9051360248
 10
8.5374322977
 20
-64.915041297
 10
8.4608132239
 20
-64.9195999066
 10
8.3793814101
 20
-64.9185136497
 10
8.2928621344
 20
-64.9114345735
 10
8.20097519
 20
-64.8979692912
 10
8.1034380662
 20
-64.8776835062
 10
7.0599194785
 20
-64.6432298349
 10
5.3346876682
 20
-64.258051662
 10
4.1923141112
 20
-64.0035552103
  0
LINE
  5
2F3
100
AcDbEntity
  8
0
100
AcDbLine
 62
7
  6
CONTINUOUS
 10
9.3998028086
 20
14.4516481911
 11
9.3998028086
 21
-13.4221707981
  0
LINE
  5
2F4
100
AcDbEntity
  8
0
100
AcDbLine
 62
7
  6
CONTINUOUS
 10
9.7279892641
 20
-95.7328589705
 11
9.7279892641
 21
-93.3883875703
  0
LINE
  5
2F5
100
AcDbEntity
  8
0
100
AcDbLine
 62
7
  6
CONTINUOUS
 10
10.8837026685
 20
-96.1384319052
 11
10.8837026685
 21
-96.7010372575
  0
LINE
  5
2F6
100
AcDbEntity
  8
0
100
AcDbLine
 62
7
  6
CONTINUOUS
 10
11.3855850535
 20
41.497657799
 11
11.3855850535
 21
40.6288957189
  0
LINE
  5
2F7
100
AcDbEntity
  8
0
100
AcDbLine
 62
7
  6
CONTINUOUS
 10
11.4352931569
 20
49.8604813335
 11
11.4352931569
 21
43.3235833022
  0
LINE
  5
2F8
100
AcDbEntity
  8
0
100
AcDbLine
 62
7
  6
CONTINUOUS
 10
11.5428999035
 20
-43.7311219897
 11
11.5428999035
 21
40.6317200429
  0
LINE
  5
2F9
100
AcDbEntity
  8
0
100
AcDbLine
 62
7
  6
CONTINUOUS
 10
11.5979742226
 20
43.2713333072
 11
11.5979742226
 21
41.6521483249
  0
LINE
  5
2FA
100
AcDbEntity
  8
0
100
AcDbLine
 62
7
  6
CONTINUOUS
 10
11.6505066501
 20
78.6194434824
 11
11.6505066501
 21
50.0728705026
  0
LINE
  5
2FB
100
AcDbEntity
  8
0
100
AcDbLine
 62
7
  6
CONTINUOUS
 10
12.6350660166
 20
-96.6708169901
 11
12.6350660166
 21
-94.3263455898
  0
LINE
  5
2FC
100
AcDbEntity
  8
0
100
AcDbLine
 62
7
  6
CONTINUOUS
 10
12.6765835802
 20
80.025956863
 11
12.6765835802
 21
80.8839865117
  0
LINE
  5
2FD
100
AcDbEntity
  8
0
100
AcDbLine
 62
7
  6
CONTINUOUS
 10
12.8861484253
 20
-93.0768646268
 11
12.8861484253
 21
-93.2313551527
  0
LINE
  5
2FE
100
AcDbEntity
  8
0
100
AcDbLine
 62
7
  6
CONTINUOUS
 10
12.8861484253
 20
-96.7976291402
 11
12.8861484253
 21
-97.3904547599
  0
LINE
  5
2FF
100
AcDbEntity
  8
0
100
AcDbLine
 62
7
  6
CONTINUOUS
 10
13.6060686276
 20
-93.2643997442
 11
13.6060686276
 21
-92.9195497768
  0
LINE
  5
300
100
AcDbEntity
  8
0
100
AcDbLine
 62
7
  6
CONTINUOUS
 10
13.7218659139
 20
81.2480418828
 11
13.7218659139
 21
80.3846460183
  0
LWPOLYLINE
  5
301
100
AcDbEntity
  8
0
100
AcDbPolyline
 62
7
  6
CONTINUOUS
 90
64
 70
0
 10
-2.319447436
 20
71.9308792492
 10
-2.3026865731
 20
71.9958868879
 10
-2.2878257416
 20
72.0610502649
 10
-2.274878072
 20
72.1262749598
 10
-2.2638536936
 20
72.1914616696
 10
-2.2547592747
 20
72.2565065419
 10
-2.2475975728
 20
72.3213016203
 10
-2.2423670066
 20
72.3857354052
 10
-2.2390612631
 20
72.4496935295
 10
-2.2376689533
 20
72.5130595474
 10
-2.2378670993
 20
72.559903441
 10
-2.239771052
 20
72.6219097599
 10
-2.2435228024
 20
72.6829549823
 10
-2.2490858756
 20
72.7429253878
 10
-2.2564183351
 20
72.8017110432
 10
-2.265473076
 20
72.859206887
 10
-2.2761982277
 20
72.9153137463
 10
-2.2885376597
 20
72.9699392571
 10
-2.3024315773
 20
73.0229986601
 10
-2.3178171948
 20
73.0744154491
 10
-2.3346294673
 20
73.1241218542
 10
-2.3528018639
 20
73.1720591489
 10
-2.3722671609
 20
73.2181777752
 10
-2.3929582382
 20
73.2624372889
 10
-2.4148088577
 20
73.3048061314
 10
-2.4377544095
 20
73.3452612405
 10
-2.4617326094
 20
73.3837875149
 10
-2.4866841365
 20
73.4203771525
 10
-2.512553201
 20
73.4550288827
 10
-2.5392880341
 20
73.487747113
 10
-2.5668412963
 20
73.5185410128
 10
-2.595170399
 20
73.5474235546
 10
-2.6242377402
 20
73.5744105325
 10
-2.654010853
 20
73.5995195766
 10
-2.6844624689
 20
73.6227691812
 10
-2.7155704989
 20
73.6441777608
 10
-2.747317936
 20
73.6637627504
 10
-2.7796926843
 20
73.6815397609
 10
-2.8126873211
 20
73.6975218012
 10
-2.8462987983
 20
73.7117185768
 10
-2.8805280925
 20
73.7241358727
 10
-2.9153798121
 20
73.7347750247
 10
-2.9518016494
 20
73.7435970449
 10
-2.9885239101
 20
73.7505566672
 10
-3.0255574451
 20
73.7556599925
 10
-3.0629126375
 20
73.758907055
 10
-3.1005988423
 20
73.7602920064
 10
-3.1386238084
 20
73.7598033932
 10
-3.1769930898
 20
73.7574245277
 10
-3.2157094558
 20
73.7531339531
 10
-3.2547723068
 20
73.7469060018
 10
-3.2941771061
 20
73.7387114441
 10
-3.3339148336
 20
73.728518224
 10
-3.3739714714
 20
73.7162922757
 10
-3.4143275292
 20
73.7019984147
 10
-3.454957618
 20
73.6856012963
 10
-3.4958300814
 20
73.6670664297
 10
-3.5369066955
 20
73.6463612378
 10
-3.5781424451
 20
73.6234561473
 10
-3.6194853898
 20
73.5983256934
 10
-3.6608766288
 20
73.5709496189
 10
-3.7022503739
 20
73.5413139477
 10
-3.7435341426
 20
73.509412005
 10
-3.7646540562
 20
73.4921655882
  0
LWPOLYLINE
  5
302
100
AcDbEntity
  8
0
100
AcDbPolyline
 62
7
  6
CONTINUOUS
 90
18
 70
0
 10
-12.2791437927
 20
-78.5084362729
 10
-13.7822490561
 20
-78.9137267752
 10
-13.8339129148
 20
-78.9157951823
 10
-13.8924402408
 20
-78.9185708903
 10
-13.9439725863
 20
-78.9177524123
 10
-13.9880583154
 20
-78.912612879
 10
-14.0269700774
 20
-78.9031716476
 10
-14.061891837
 20
-78.8893884903
 10
-14.0935782461
 20
-78.8710682606
 10
-14.122523641
 20
-78.8478179135
 10
-14.1490088665
 20
-78.8190336476
 10
-14.17311631
 20
-78.7839087778
 10
-14.1946642515
 20
-78.7416299389
 10
-14.2133445642
 20
-78.691359937
 10
-14.2288490319
 20
-78.6318870152
 10
-14.240718768
 20
-78.5618636383
 10
-14.2483651856
 20
-78.479818808
 10
-14.2510868497
 20
-78.3841660144
  0
LINE
  5
303
100
AcDbEntity
  8
0
100
AcDbLine
 62
7
  6
CONTINUOUS
 10
44.8334900028
 20
-63.0960998906
 11
43.5207441808
 21
-63.4434917497
  0
LINE
  5
304
100
AcDbEntity
  8
0
100
AcDbLine
 62
7
  6
CONTINUOUS
 10
-11.3414682055
 20
-77.6670701361
 11
-12.6542140275
 21
-78.0090957795
  0
LINE
  5
305
100
AcDbEntity
  8
0
100
AcDbLine
 62
7
  6
CONTINUOUS
 10
43.8958144156
 20
-63.9428322431
 11
42.1746713349
 21
-64.3481227454
  0
LINE
  5
306
100
AcDbEntity
  8
0
100
AcDbLine
 62
7
  6
CONTINUOUS
 10
44.5191427351
 20
-60.0977974711
 11
43.8624873918
 21
-60.252287997
  0
LWPOLYLINE
  5
307
100
AcDbEntity
  8
0
100
AcDbPolyline
 62
7
  6
CONTINUOUS
 90
25
 70
0
 10
-6.3778726818
 20
-66.9287583932
 10
-6.5372390708
 20
-66.9644442998
 10
-6.7434184691
 20
-67.0112435081
 10
-6.9110308232
 20
-67.0500312058
 10
-7.0352856571
 20
-67.079533612
 10
-7.1213631987
 20
-67.1007089719
 10
-7.1521040743
 20
-67.1079849567
 10
-7.2009679091
 20
-67.1187934115
 10
-7.244067162
 20
-67.1273583243
 10
-7.2825422009
 20
-67.1340268569
 10
-7.3172558102
 20
-67.139058757
 10
-7.3488818329
 20
-67.1426519648
 10
-7.3779610394
 20
-67.1449583513
 10
-7.4049381906
 20
-67.1460936779
 10
-7.4301877747
 20
-67.1461439404
 10
-7.4540326923
 20
-67.1451692911
 10
-7.4767584958
 20
-67.143206207
 10
-7.4986248963
 20
-67.1402682484
 10
-7.5093170509
 20
-67.1384306987
 10
-7.5198667035
 20
-67.1363474363
 10
-7.5406014922
 20
-67.1314415682
 10
-7.561061819
 20
-67.1255102416
 10
-7.5814837596
 20
-67.1184852262
 10
-7.6021182435
 20
-67.1102654541
 10
-7.6232455837
 20
-67.1007089719
  0
LINE
  5
308
100
AcDbEntity
  8
0
100
AcDbLine
 62
7
  6
CONTINUOUS
 10
-6.4014429964
 20
-66.6925941456
 11
-7.529478025
 21
-66.9436765543
  0
LINE
  5
309
100
AcDbEntity
  8
0
100
AcDbLine
 62
7
  6
CONTINUOUS
 10
-6.3076754377
 20
-66.9131738545
 11
-6.3778726818
 21
-66.9287583932
  0
LINE
  5
30A
100
AcDbEntity
  8
0
100
AcDbLine
 62
7
  6
CONTINUOUS
 10
20.1373180108
 20
-56.5950707749
 11
19.5442099587
 21
-56.6916626576
  0
LWPOLYLINE
  5
30B
100
AcDbEntity
  8
0
100
AcDbPolyline
 62
7
  6
CONTINUOUS
 90
19
 70
0
 10
41.2892719019
 20
-54.6350010378
 10
41.2430523911
 20
-54.6424688794
 10
41.2161401721
 20
-54.6462136539
 10
41.1939945689
 20
-54.6484926399
 10
41.1741893153
 20
-54.6496373529
 10
41.155537549
 20
-54.6497661287
 10
41.1372997958
 20
-54.6489008222
 10
41.1189282724
 20
-54.647001741
 10
41.0999570428
 20
-54.6439791129
 10
41.0800279213
 20
-54.639715436
 10
41.0588338659
 20
-54.6340785035
 10
41.0359080522
 20
-54.6268662786
 10
41.0107345745
 20
-54.6178189335
 10
40.9827174474
 20
-54.6066077351
 10
40.951144882
 20
-54.592818369
 10
40.9151435671
 20
-54.5759265724
 10
40.8736158642
 20
-54.5552623627
 10
40.8251487692
 20
-54.5299564489
 10
40.7678755219
 20
-54.4988574593
  0
LINE
  5
30C
100
AcDbEntity
  8
0
100
AcDbLine
 62
7
  6
CONTINUOUS
 10
7.4690948828
 20
-59.8303339828
 11
6.8759868308
 21
-59.9241015415
  0
LWPOLYLINE
  5
30D
100
AcDbEntity
  8
0
100
AcDbPolyline
 62
7
  6
CONTINUOUS
 90
66
 70
0
 10
-1.3292394214
 20
-5.0181121323
 10
0.8717563167
 20
-5.5778931605
 10
1.0292215657
 20
-5.6164944089
 10
1.188643158
 20
-5.6446959544
 10
1.3500443296
 20
-5.6625071975
 10
1.5134390013
 20
-5.6698881708
 10
1.6788249369
 20
-5.6667528084
 10
1.8461768609
 20
-5.6529736168
 10
2.0154397366
 20
-5.6283877163
 10
2.1865224041
 20
-5.5928041784
 10
2.3592917779
 20
-5.5460125338
 10
2.5335678003
 20
-5.4877922855
 10
2.7091193391
 20
-5.4179232157
 10
2.885661213
 20
-5.3361962316
 10
3.0628525125
 20
-5.242424453
 10
3.2402963665
 20
-5.1364542006
 10
3.4175412699
 20
-5.0181755131
 10
3.5940840446
 20
-4.8875317937
 10
3.7693744416
 20
-4.7445281827
 10
3.9428213211
 20
-4.5892382743
 10
4.1138002582
 20
-4.4218088382
 10
4.281662339
 20
-4.2424622913
 10
4.4457438264
 20
-4.051496767
 10
4.605376315
 20
-3.8492837579
 10
4.7598969501
 20
-3.6362634463
 10
4.9086582827
 20
-3.4129379664
 10
5.0361214821
 20
-3.2052573602
 10
5.1722188876
 20
-2.9641344025
 10
5.3007192213
 20
-2.7147190237
 10
5.4211472515
 20
-2.4576693861
 10
5.5330760215
 20
-2.1936480117
 10
5.6361273736
 20
-1.9233126974
 10
5.7299711704
 20
-1.6473085293
 10
5.8143234175
 20
-1.3662611259
 10
5.8868849875
 20
-1.0825870429
 10
5.9487384235
 20
-0.7982423198
 10
5.9997997099
 20
-0.5139146691
 10
6.0400144655
 20
-0.2303339084
 10
6.0693631984
 20
0.0517328441
 10
6.0878662637
 20
0.331487657
 10
6.0955882745
 20
0.6081099595
 10
6.0935927375
 20
0.8467592769
 10
6.0814764072
 20
1.1148512882
 10
6.0591057999
 20
1.3771055719
 10
6.0267774834
 20
1.632742539
 10
5.9848344136
 20
1.8810280889
 10
5.9336609073
 20
2.1212849291
 10
5.8736761795
 20
2.3529022767
 10
5.805326693
 20
2.5753434838
 10
5.7290776369
 20
2.7881512497
 10
5.6454038878
 20
2.9909502302
 10
5.5547808174
 20
3.183447004
 10
5.457675298
 20
3.3654274952
 10
5.354537219
 20
3.5367520736
 10
5.2457917766
 20
3.6973486385
 10
5.1318327452
 20
3.8472040553
 10
5.0130168755
 20
3.9863543364
 10
4.8896595159
 20
4.1148739649
 10
4.7620315037
 20
4.2328647423
 10
4.6303573342
 20
4.3404445151
 10
4.4948145817
 20
4.4377361042
 10
4.355534515
 20
4.5248567223
 10
4.2126038269
 20
4.601908134
 10
4.0660673642
 20
4.6689677704
 10
3.9159317242
 20
4.7260809745
 10
3.7621695573
 20
4.7732545105
  0
LINE
  5
30E
100
AcDbEntity
  8
0
100
AcDbLine
 62
7
  6
CONTINUOUS
 10
-5.2044944608
 20
-0.9691611634
 11
-3.7895081079
 21
-1.3414070742
  0
LWPOLYLINE
  5
30F
100
AcDbEntity
  8
0
100
AcDbPolyline
 62
7
  6
CONTINUOUS
 90
5
 70
0
 10
3.7621695573
 20
4.7732545105
 10
1.5803792228
 20
5.4075976939
 10
1.4914948625
 20
5.4348812044
 10
1.4780680838
 20
5.438347522
 10
1.3736387018
 20
5.4629544454
  0
LINE
  5
310
100
AcDbEntity
  8
0
100
AcDbLine
 62
7
  6
CONTINUOUS
 10
39.3613621412
 20
-3.5480514604
 11
40.6438876957
 21
-3.9561662867
  0
LINE
  5
311
100
AcDbEntity
  8
0
100
AcDbLine
 62
7
  6
CONTINUOUS
 10
41.9566335177
 20
-4.14087708
 11
42.1746713349
 21
-4.2346446388
  0
LINE
  5
312
100
AcDbEntity
  8
0
100
AcDbLine
 62
7
  6
CONTINUOUS
 10
43.9562549505
 20
11.6685592647
 11
45.0210251202
 21
10.1324094098
  0
LINE
  5
313
100
AcDbEntity
  8
0
100
AcDbLine
 62
7
  6
CONTINUOUS
 10
42.3014834851
 20
11.2632687625
 11
43.3634293308
 21
9.7296607992
  0
LINE
  5
314
100
AcDbEntity
  8
0
100
AcDbLine
 62
7
  6
CONTINUOUS
 10
15.178087398
 20
-81.0404427905
 11
15.178087398
 21
-82.8717345095
  0
LINE
  5
315
100
AcDbEntity
  8
0
100
AcDbLine
 62
7
  6
CONTINUOUS
 10
15.2303373931
 20
-95.2338009096
 11
15.2303373931
 21
-95.9867657033
  0
LINE
  5
316
100
AcDbEntity
  8
0
100
AcDbLine
 62
7
  6
CONTINUOUS
 10
15.9779359712
 20
-91.8245593396
 11
15.9779359712
 21
-93.2946200116
  0
LINE
  5
317
100
AcDbEntity
  8
0
100
AcDbLine
 62
7
  6
CONTINUOUS
 10
17.009379117
 20
-95.5151035857
 11
17.009379117
 21
-94.764963116
  0
LINE
  5
318
100
AcDbEntity
  8
0
100
AcDbLine
 62
7
  6
CONTINUOUS
 10
17.5087196104
 20
-96.0446643465
 11
17.5087196104
 21
-93.8270050965
  0
LINE
  5
319
100
AcDbEntity
  8
0
100
AcDbLine
 62
7
  6
CONTINUOUS
 10
20.854413889
 20
-91.0744188699
 11
20.854413889
 21
-95.2945238768
  0
LINE
  5
31A
100
AcDbEntity
  8
0
100
AcDbLine
 62
7
  6
CONTINUOUS
 10
21.4500638327
 20
-95.1702536183
 11
21.4500638327
 21
-90.9529729355
  0
LINE
  5
31B
100
AcDbEntity
  8
0
100
AcDbLine
 62
7
  6
CONTINUOUS
 10
22.8565772134
 20
-90.6358013438
 11
22.8565772134
 21
-94.7316360921
  0
LWPOLYLINE
  5
31C
100
AcDbEntity
  8
0
100
AcDbPolyline
 62
7
  6
CONTINUOUS
 90
24
 70
0
 10
23.0443947632
 20
81.5734040142
 10
23.0443947632
 20
78.6993718532
 10
23.0462526738
 20
78.610875057
 10
23.0518844822
 20
78.5203467219
 10
23.061364422
 20
78.428046672
 10
23.0747454581
 20
78.3342819703
 10
23.0920541784
 20
78.2394072131
 10
23.113285924
 20
78.1438230382
 10
23.1384004714
 20
78.0479725331
 10
23.1673186258
 20
77.9523353323
 10
23.1999200865
 20
77.8574193495
 10
23.2360429145
 20
77.7637503085
 10
23.2423990522
 20
77.7482806143
 10
23.2823150558
 20
77.6568626927
 10
23.3251466379
 20
77.5680478743
 10
23.3706008807
 20
77.4823040764
 10
23.418368272
 20
77.4000529584
 10
23.4681310945
 20
77.3216614151
 10
23.5195717079
 20
77.2474359258
 10
23.5723802403
 20
77.1776198776
 10
23.6262613204
 20
77.1123937221
 10
23.6809396153
 20
77.0518776181
 10
23.7361640768
 20
76.9961360902
 10
23.7917109089
 20
76.945184181
  0
LINE
  5
31D
100
AcDbEntity
  8
0
100
AcDbLine
 62
7
  6
CONTINUOUS
 10
23.9515676505
 20
-94.3263455898
 11
23.9515676505
 21
-90.3573229917
  0
LWPOLYLINE
  5
31E
100
AcDbEntity
  8
0
100
AcDbPolyline
 62
7
  6
CONTINUOUS
 90
30
 70
0
 10
24.139102768
 20
-54.816029051
 10
24.139102768
 20
-55.4091371031
 10
24.1386928097
 20
-55.4253853607
 10
24.1374676586
 20
-55.4414755141
 10
24.1354319753
 20
-55.4574194006
 10
24.132587243
 20
-55.4732280139
 10
24.1289318728
 20
-55.4889112824
 10
24.1244613549
 20
-55.5044778433
 10
24.1191684585
 20
-55.5199348147
 10
24.1130434812
 20
-55.535287569
 10
24.1060745504
 20
-55.5505395088
 10
24.0982479781
 20
-55.565691848
 10
24.0895486711
 20
-55.5807433992
 10
24.0799605999
 20
-55.5956903676
 10
24.069467327
 20
-55.6105261537
 10
24.0580526018
 20
-55.6252411645
 10
24.0457010214
 20
-55.6398226363
 10
24.0323987666
 20
-55.6542544694
 10
24.0181344117
 20
-55.6685170804
 10
24.002899815
 20
-55.6825872763
 10
23.9866910877
 20
-55.6964381581
 10
23.9695096387
 20
-55.7100390635
 10
23.9513632878
 20
-55.7233555631
 10
23.9322674303
 20
-55.7363495233
 10
23.9122462269
 20
-55.7489792581
 10
23.8913337835
 20
-55.7611997881
 10
23.8695752659
 20
-55.7729632317
 10
23.8470278837
 20
-55.7842193486
 10
23.8237616604
 20
-55.7949162564
 10
23.8165649606
 20
-55.7980465258
  0
LINE
  5
31F
100
AcDbEntity
  8
0
100
AcDbLine
 62
7
  6
CONTINUOUS
 10
25.2617715809
 20
-89.9822527569
 11
25.2617715809
 21
-93.9484510309
  0
LWPOLYLINE
  5
320
100
AcDbEntity
  8
0
100
AcDbPolyline
 62
7
  6
CONTINUOUS
 90
72
 70
0
 10
21.7285421848
 20
-55.9081951641
 10
21.728405823
 20
-55.9661370309
 10
21.7254937166
 20
-56.0273137837
 10
21.7196738361
 20
-56.0913482202
 10
21.7108565904
 20
-56.1577666023
 10
21.6990027067
 20
-56.2260095265
 10
21.6841282026
 20
-56.295450174
 10
21.6734678657
 20
-56.3386221504
 10
21.6545708877
 20
-56.4005894338
 10
21.6332166993
 20
-56.461256659
 10
21.6094932485
 20
-56.5204321047
 10
21.5835051734
 20
-56.5779175756
 10
21.5553744424
 20
-56.6335113929
 10
21.5252404136
 20
-56.6870119623
 10
21.5213624339
 20
-56.6935057893
 10
21.4891945059
 20
-56.7443706086
 10
21.4554349661
 20
-56.7926578878
 10
21.4202776221
 20
-56.8382064982
 10
21.3839229025
 20
-56.8808763464
 10
21.3465738168
 20
-56.9205513518
 10
21.3084317171
 20
-56.9571414444
 10
21.269692102
 20
-56.9905834408
 10
21.2305407005
 20
-57.0208407488
 10
21.1911500406
 20
-57.0479019365
 10
21.1516766597
 20
-57.0717782806
 10
21.1122590581
 20
-57.0925004712
 10
21.0730164402
 20
-57.1101146805
 10
21.0340482373
 20
-57.1246782242
 10
20.9954343682
 20
-57.1362550327
 10
20.9572361645
 20
-57.1449111368
 10
20.9194978718
 20
-57.1507103444
 10
20.8822486275
 20
-57.1537102579
 10
20.8455048095
 20
-57.1539587539
 10
20.8092726508
 20
-57.151491018
 10
20.7735510072
 20
-57.1463271997
 10
20.7383341702
 20
-57.1384707235
 10
20.6398456346
 20
-57.1061815471
 10
20.4426360555
 20
-57.0430286138
 10
20.2612179482
 20
-56.9868892928
 10
20.1155949957
 20
-56.9438422012
 10
20.0064579846
 20
-56.913589815
 10
19.9290486221
 20
-56.894100772
 10
19.8771351523
 20
-56.8829314567
 10
19.8444891003
 20
-56.877714897
 10
19.8255126348
 20
-56.876373451
 10
19.8100090637
 20
-56.8763752614
 10
19.6753456916
 20
-56.8770803192
 10
19.5511032344
 20
-56.8794850236
 10
19.4482483475
 20
-56.8834359016
 10
19.3675038603
 20
-56.8885431346
 10
19.3067053561
 20
-56.8943965212
 10
19.2627615937
 20
-56.9006170059
 10
19.2324045827
 20
-56.9068761508
 10
19.2116741268
 20
-56.9135697043
 10
19.1855253236
 20
-56.9250093805
 10
19.1537787579
 20
-56.9420046211
 10
19.1168320498
 20
-56.9650092719
 10
19.075716894
 20
-56.9939594068
 10
19.0740862746
 20
-56.9951742651
 10
19.0303722368
 20
-57.0295605611
 10
18.9865947618
 20
-57.0675113286
 10
18.9441340781
 20
-57.1078783393
 10
18.9040237853
 20
-57.1496476349
 10
18.8669668824
 20
-57.1919904509
 10
18.8333919946
 20
-57.2342652199
 10
18.803518099
 20
-57.2759963324
 10
18.7774128201
 20
-57.3168457445
 10
18.7550396855
 20
-57.3565853938
 10
18.7362945505
 20
-57.3950734667
 10
18.7210330843
 20
-57.4322351139
 10
18.7090914394
 20
-57.4680471687
 10
18.7003019303
 20
-57.5025260946
  0
LWPOLYLINE
  5
321
100
AcDbEntity
  8
0
100
AcDbPolyline
 62
7
  6
CONTINUOUS
 90
20
 70
0
 10
22.5120096784
 20
-63.0960998906
 10
22.5096330452
 20
-63.3470205318
 10
22.4998567056
 20
-63.8456958857
 10
22.4966652236
 20
-63.9854918622
 10
22.4783451291
 20
-64.7386727269
 10
22.4606304417
 20
-65.4778488736
 10
22.4508390203
 20
-65.9764434589
 10
22.4484623871
 20
-66.2265806761
 10
22.4461667649
 20
-66.425692578
 10
22.4367748692
 20
-66.8371736986
 10
22.4339985538
 20
-66.9517148749
 10
22.4230953947
 20
-67.4602971417
 10
22.4174156322
 20
-67.8858614804
 10
22.416502182
 20
-68.2506989417
 10
22.4198534099
 20
-68.5638937674
 10
22.426929884
 20
-68.8313987434
 10
22.4371766744
 20
-69.0581062402
 10
22.4500415681
 20
-69.2484277561
 10
22.4649883856
 20
-69.4064765318
 10
22.4815069786
 20
-69.5361236067
  0
LINE
  5
322
100
AcDbEntity
  8
0
100
AcDbLine
 62
7
  6
CONTINUOUS
 10
44.8334900028
 20
-59.2510651186
 11
43.5207441808
 21
-59.5987394101
  0
LINE
  5
323
100
AcDbEntity
  8
0
100
AcDbLine
 62
7
  6
CONTINUOUS
 10
-11.3414682055
 20
-73.8194934725
 11
-12.6542140275
 21
-74.1643434399
  0
LINE
  5
324
100
AcDbEntity
  8
0
100
AcDbLine
 62
7
  6
CONTINUOUS
 10
-0.714384074
 20
-61.3472784342
 11
-6.2469524704
 21
-62.7871188387
  0
LINE
  5
325
100
AcDbEntity
  8
0
100
AcDbLine
 62
7
  6
CONTINUOUS
 10
-13.9036949906
 20
-72.7273273594
 11
-12.2155965014
 21
-72.2887098333
  0
LINE
  5
326
100
AcDbEntity
  8
0
100
AcDbLine
 62
7
  6
CONTINUOUS
 10
42.2712632177
 20
-58.1588990055
 11
43.9562549505
 21
-57.7231058035
  0
LINE
  5
327
100
AcDbEntity
  8
0
100
AcDbLine
 62
7
  6
CONTINUOUS
 10
20.0737707195
 20
-55.9689181313
 11
9.289371738
 21
-58.7520070576
  0
LINE
  5
328
100
AcDbEntity
  8
0
100
AcDbLine
 62
7
  6
CONTINUOUS
 10
7.4083719156
 20
-59.2041813393
 11
5.1881707739
 21
-59.7752596637
  0
LINE
  5
329
100
AcDbEntity
  8
0
100
AcDbLine
 62
7
  6
CONTINUOUS
 10
23.9820703504
 20
-54.9402993095
 11
21.9217259504
 21
-55.4698600703
  0
LINE
  5
32A
100
AcDbEntity
  8
0
100
AcDbLine
 62
7
  6
CONTINUOUS
 10
31.2993291188
 20
-53.8453088724
 11
36.5656333477
 21
-52.5009408393
  0
LINE
  5
32B
100
AcDbEntity
  8
0
100
AcDbLine
 62
7
  6
CONTINUOUS
 10
36.5656333477
 20
-52.5009408393
 11
37.648147972
 21
-52.2247432625
  0
LINE
  5
32C
100
AcDbEntity
  8
0
100
AcDbLine
 62
7
  6
CONTINUOUS
 10
37.648147972
 20
-52.2247432625
 11
37.8745843707
 21
-52.1670333622
  0
LINE
  5
32D
100
AcDbEntity
  8
0
100
AcDbLine
 62
7
  6
CONTINUOUS
 10
37.8745843707
 20
-52.1670333622
 11
37.9243460607
 21
-52.1543860591
  0
LINE
  5
32E
100
AcDbEntity
  8
0
100
AcDbLine
 62
7
  6
CONTINUOUS
 10
37.6732636519
 20
-51.4070699135
 11
29.9837589728
 21
-53.345968379
  0
LINE
  5
32F
100
AcDbEntity
  8
0
100
AcDbLine
 62
7
  6
CONTINUOUS
 10
41.9566335177
 20
-54.2203791072
 11
40.8921457804
 21
-54.471461516
  0
LWPOLYLINE
  5
330
100
AcDbEntity
  8
0
100
AcDbPolyline
 62
7
  6
CONTINUOUS
 90
63
 70
0
 10
9.1984285033
 20
-59.3781597012
 10
9.2254913211
 20
-59.3723411241
 10
9.2524994958
 20
-59.3669136658
 10
9.2794411461
 20
-59.3618805046
 10
9.3063043907
 20
-59.3572448189
 10
9.3330773481
 20
-59.3530097868
 10
9.3597481369
 20
-59.3491785869
 10
9.3863048758
 20
-59.3457543973
 10
9.4127356834
 20
-59.3427403965
 10
9.4390286783
 20
-59.3401397628
 10
9.465171979
 20
-59.3379556744
 10
9.4911537043
 20
-59.3361913097
 10
9.5169619726
 20
-59.334849847
 10
9.5425849027
 20
-59.3339344646
 10
9.5680106132
 20
-59.333448341
 10
9.5932272226
 20
-59.3333946543
 10
9.6182228496
 20
-59.333776583
 10
9.6429856128
 20
-59.3345973053
 10
9.6675036307
 20
-59.3358599995
 10
9.6917650221
 20
-59.3375678441
 10
9.7157579055
 20
-59.3397240173
 10
9.7394703995
 20
-59.3423316974
 10
9.7628906228
 20
-59.3453940628
 10
9.7860066939
 20
-59.3489142918
 10
9.8088067315
 20
-59.3528955627
 10
9.8312788542
 20
-59.3573410538
 10
9.8534111806
 20
-59.3622539435
 10
9.8751918293
 20
-59.3676374101
 10
9.8966089189
 20
-59.3734946319
 10
9.917650568
 20
-59.3798287873
 10
9.9383048953
 20
-59.3866430545
 10
9.9585600194
 20
-59.3939406119
 10
9.9784040588
 20
-59.4017246378
 10
9.9978251322
 20
-59.4099983105
 10
10.0168113582
 20
-59.4187648084
 10
10.0353508554
 20
-59.4280273098
 10
10.0534317424
 20
-59.437788993
 10
10.0710421379
 20
-59.4480530363
 10
10.0881701604
 20
-59.4588226181
 10
10.1048039286
 20
-59.4701009167
 10
10.1209315611
 20
-59.4818911104
 10
10.1365411764
 20
-59.4941963775
 10
10.1516208932
 20
-59.5070198964
 10
10.1661588302
 20
-59.5203648453
 10
10.1801431059
 20
-59.5342344027
 10
10.1935618389
 20
-59.5486317467
 10
10.2064031478
 20
-59.5635600559
 10
10.2186551513
 20
-59.5790225084
 10
10.230305968
 20
-59.5950222826
 10
10.2413437165
 20
-59.6115625569
 10
10.2517565154
 20
-59.6286465095
 10
10.2615324832
 20
-59.6462773187
 10
10.2706597387
 20
-59.664458163
 10
10.2791264005
 20
-59.6831922206
 10
10.2869205871
 20
-59.7024826699
 10
10.2940304171
 20
-59.7223326891
 10
10.3004440092
 20
-59.7427454566
 10
10.3061494821
 20
-59.7637241508
 10
10.3111349542
 20
-59.7852719498
 10
10.3153885442
 20
-59.8073920322
 10
10.3188983707
 20
-59.8300875762
 10
10.3216525524
 20
-59.8533617601
 10
10.3236392079
 20
-59.8772177622
  0
LWPOLYLINE
  5
331
100
AcDbEntity
  8
0
100
AcDbPolyline
 62
7
  6
CONTINUOUS
 90
71
 70
0
 10
3.7621695573
 20
4.7732545105
 10
3.6145923042
 20
4.8098155557
 10
3.4652623706
 20
4.8372508117
 10
3.3141660181
 20
4.8555680908
 10
3.161296607
 20
4.8647376852
 10
3.0066595271
 20
4.8646946516
 10
2.8502771668
 20
4.8553420418
 10
2.6921937932
 20
4.836555064
 10
2.532480212
 20
4.8081861331
 10
2.3712380772
 20
4.7700707362
 10
2.2086037233
 20
4.7220340143
 10
2.0447513941
 20
4.6638979346
 10
1.879895748
 20
4.5954888988
 10
1.7142935279
 20
4.5166456088
 10
1.5482442919
 20
4.4272269841
 10
1.3820901208
 20
4.3271199041
 10
1.2162142405
 20
4.2162465293
 10
1.0510385294
 20
4.0945709477
 10
0.8870199222
 20
3.9621048932
 10
0.7246457667
 20
3.818912302
 10
0.5644282444
 20
3.6651125046
 10
0.406898013
 20
3.5008819003
 10
0.2525972793
 20
3.3264540283
 10
0.1020725462
 20
3.1421180226
 10
-0.0441326999
 20
2.9482155188
 10
-0.1854850898
 20
2.74513616
 10
-0.3214680019
 20
2.5333119143
 10
-0.3307091713
 20
2.5182724677
 10
-0.4603664716
 20
2.2976792031
 10
-0.583548676
 20
2.0695729345
 10
-0.6998512405
 20
1.8344781686
 10
-0.8089057267
 20
1.5929259633
 10
-0.9103806137
 20
1.3454472267
 10
-1.0039811852
 20
1.0925666806
 10
-1.0894486109
 20
0.8347975935
 10
-1.1665583556
 20
0.5726373397
 10
-1.2358567829
 20
0.3064295896
 10
-1.2957276486
 20
0.039689136
 10
-1.3461038031
 20
-0.2270271692
 10
-1.3869402082
 20
-0.4931309164
 10
-1.4182176426
 20
-0.758005411
 10
-1.4399462328
 20
-1.0210100353
 10
-1.4521686608
 20
-1.2814857108
 10
-1.454962886
 20
-1.5387614195
 10
-1.4549171046
 20
-1.5446322291
 10
-1.448197777
 20
-1.7976751488
 10
-1.4323644793
 20
-2.0458972856
 10
-1.4076397711
 20
-2.2886553107
 10
-1.374282713
 20
-2.5253355314
 10
-1.3325859507
 20
-2.7553622628
 10
-1.2828717803
 20
-2.9782053468
 10
-1.2254873167
 20
-3.1933865059
 10
-1.1607989294
 20
-3.4004842697
 10
-1.0891861447
 20
-3.5991372898
 10
-1.0110352354
 20
-3.7890459408
 10
-0.9267327198
 20
-3.9699721917
 10
-0.8366589884
 20
-4.1417378086
 10
-0.7411822504
 20
-4.3042210211
 10
-0.6406529701
 20
-4.4573518364
 10
-0.5353989261
 20
-4.6011062177
 10
-0.4257209954
 20
-4.73549937
 10
-0.3118897332
 20
-4.8605783751
 10
-0.1941427878
 20
-4.9764144168
 10
-0.0726831686
 20
-5.0830948246
 10
0.0523216398
 20
-5.180715145
 10
0.1807397413
 20
-5.2693714332
 10
0.3124741114
 20
-5.3491529341
 10
0.4474611584
 20
-5.4201353038
 10
0.5856686374
 20
-5.4823744982
 10
0.7270930044
 20
-5.5359014316
 10
0.8717563167
 20
-5.5807174846
  0
LINE
  5
332
100
AcDbEntity
  8
0
100
AcDbLine
 62
7
  6
CONTINUOUS
 10
40.6769322872
 20
1.8910318098
 11
39.3613621412
 21
2.2358817772
  0
LINE
  5
333
100
AcDbEntity
  8
0
100
AcDbLine
 62
7
  6
CONTINUOUS
 10
44.5191427351
 20
6.9798988967
 11
43.8624873918
 21
7.2004786056
  0
LWPOLYLINE
  5
334
100
AcDbEntity
  8
0
100
AcDbPolyline
 62
7
  6
CONTINUOUS
 90
87
 70
0
 10
-3.7013891973
 20
69.3963308399
 10
-3.7119362167
 20
69.4070125628
 10
-3.7558029795
 20
69.4487561165
 10
-3.7999883529
 20
69.4866373884
 10
-3.8442836454
 20
69.5206376499
 10
-3.8885360478
 20
69.5507959654
 10
-3.932639458
 20
69.5771886144
 10
-3.9765268066
 20
69.5999131591
 10
-4.0201636577
 20
69.6190760486
 10
-4.0635428174
 20
69.6347828987
 10
-4.1066796996
 20
69.6471308162
 10
-4.1557589918
 20
69.6596862364
 10
-4.2054172882
 20
69.6691005467
 10
-4.2556631799
 20
69.6753800603
 10
-4.3065031105
 20
69.6785168554
 10
-4.3579395217
 20
69.6784895668
 10
-4.409968971
 20
69.6752645488
 10
-4.4625802732
 20
69.6687974037
 10
-4.5157527146
 20
69.6590348637
 10
-4.5694543914
 20
69.6459169973
 10
-4.6236407208
 20
69.629379706
 10
-4.6782531743
 20
69.60935746
 10
-4.7332182803
 20
69.5857862181
 10
-4.7884469412
 20
69.5586064599
 10
-4.8438341064
 20
69.5277662508
 10
-4.8992588397
 20
69.4932242507
 10
-4.9545848051
 20
69.4549525652
 10
-5.0096611916
 20
69.4129393389
 10
-5.0643240712
 20
69.3671909828
 10
-5.1183981758
 20
69.3177339408
 10
-5.1716990469
 20
69.264615907
 10
-5.2240354986
 20
69.2079064317
 10
-5.2752123086
 20
69.1476968759
 10
-5.3250330368
 20
69.0840997124
 10
-5.3733028639
 20
69.0172472014
 10
-5.4198313345
 20
68.9472895051
 10
-5.4644349015
 20
68.8743923349
 10
-5.4744720156
 20
68.8571085477
 10
-5.5164333513
 20
68.780900229
 10
-5.5560591659
 20
68.7022525368
 10
-5.5932124622
 20
68.6213629052
 10
-5.6277702247
 20
68.5384295656
 10
-5.6596235308
 20
68.4536490201
 10
-5.688677312
 20
68.3672138188
 10
-5.714849818
 20
68.2793106751
 10
-5.73801073
 20
68.1895480905
 10
-5.7579219692
 20
68.099652514
 10
-5.7745612772
 20
68.0098227017
 10
-5.7879146493
 20
67.9202683866
 10
-5.7979776792
 20
67.8312089668
 10
-5.8047568251
 20
67.7428717837
 10
-5.8082705382
 20
67.6554899923
 10
-5.8085151092
 20
67.6426400046
 10
-5.808320199
 20
67.5566978348
 10
-5.8049533567
 20
67.4723115306
 10
-5.7984860289
 20
67.3897103955
 10
-5.7890031075
 20
67.3091144129
 10
-5.7766020411
 20
67.230731091
 10
-5.7613915511
 20
67.1547525727
 10
-5.7434899918
 20
67.081353139
 10
-5.7230234095
 20
67.0106872116
 10
-5.7001233717
 20
66.9428879387
 10
-5.6749246499
 20
66.8780664122
 10
-5.6475628385
 20
66.816311533
 10
-5.6181719962
 20
66.7576905112
 10
-5.5868823857
 20
66.7022499547
 10
-5.5538183786
 20
66.6500174838
 10
-5.5190965819
 20
66.601003789
 10
-5.4828242263
 20
66.5552050433
 10
-5.4450978479
 20
66.512605574
 10
-5.40600228
 20
66.4731807031
 10
-5.3656099638
 20
66.4368996689
 10
-5.3239805782
 20
66.4037285451
 10
-5.2811609798
 20
66.3736330862
 10
-5.2371854389
 20
66.3465814305
 10
-5.1920761498
 20
66.3225466037
 10
-5.1458439874
 20
66.301508773
 10
-5.0984894768
 20
66.2834572123
 10
-5.0500039348
 20
66.2683919461
 10
-5.0036352385
 20
66.2570154785
 10
-4.9553670244
 20
66.248428452
 10
-4.9051834397
 20
66.2427109873
 10
-4.8530941245
 20
66.2399558621
 10
-4.7991436234
 20
66.2402634352
 10
-4.7434226142
 20
66.243734955
 10
-4.6860812594
 20
66.2504638072
 10
-4.658270188
 20
66.2548351906
  0
LWPOLYLINE
  5
335
100
AcDbEntity
  8
0
100
AcDbPolyline
 62
7
  6
CONTINUOUS
 90
55
 70
0
 10
-1.9223474735
 20
73.8065128558
 10
-1.9508214779
 20
73.8362377182
 10
-1.9881250403
 20
73.8722551252
 10
-2.0264177341
 20
73.9060681625
 10
-2.0656937703
 20
73.9377121656
 10
-2.1059520729
 20
73.967218493
 10
-2.1471961118
 20
73.994614034
 10
-2.1894336884
 20
74.0199207596
 10
-2.2326766747
 20
74.0431553227
 10
-2.2769407124
 20
74.0643287142
 10
-2.3222448753
 20
74.0834459787
 10
-2.3686113026
 20
74.1005059948
 10
-2.4160393187
 20
74.1154939077
 10
-2.4620042051
 20
74.1272540181
 10
-2.508403751
 20
74.1367598397
 10
-2.5552418197
 20
74.144015018
 10
-2.6025215058
 20
74.14901721
 10
-2.6502445377
 20
74.1517583031
 10
-2.698410668
 20
74.1522247264
 10
-2.7470170626
 20
74.1503978546
 10
-2.7960576968
 20
74.1462545023
 10
-2.8455227692
 20
74.139767508
 10
-2.8953981437
 20
74.1309064004
 10
-2.9456648282
 20
74.1196381426
 10
-2.9962985015
 20
74.1059279455
 10
-3.0472690963
 20
74.08974014
 10
-3.0985404486
 20
74.0710390981
 10
-3.1500700221
 20
74.0497901882
 10
-3.2018087161
 20
74.0259607522
 10
-3.2537007642
 20
73.999521086
 10
-3.3056837318
 20
73.9704454075
 10
-3.3576886157
 20
73.9387127937
 10
-3.4096400516
 20
73.9043080657
 10
-3.4614566296
 20
73.8672226034
 10
-3.5130513174
 20
73.8274550704
 10
-3.5643319872
 20
73.7850120297
 10
-3.615202039
 20
73.7399084336
 10
-3.6655611111
 20
73.6921679747
 10
-3.7153058637
 20
73.6418232863
 10
-3.7643308196
 20
73.5889159857
 10
-3.812529245
 20
73.5334965594
 10
-3.8597940485
 20
73.4756240913
 10
-3.9060186787
 20
73.4153658437
 10
-3.9510979995
 20
73.3527967019
 10
-3.9949291225
 20
73.2879985006
 10
-4.0374121791
 20
73.2210592503
 10
-4.0605991045
 20
73.1826367799
 10
-4.1007735264
 20
73.1125705813
 10
-4.1393403728
 20
73.0406571726
 10
-4.1762198182
 20
72.9670003245
 10
-4.2113376168
 20
72.8917050491
 10
-4.244625244
 20
72.8148767459
 10
-4.2760199431
 20
72.736620408
 10
-4.3054646859
 20
72.6570398971
 10
-4.3329080566
 20
72.5762372963
  0
LWPOLYLINE
  5
336
100
AcDbEntity
  8
0
100
AcDbPolyline
 62
7
  6
CONTINUOUS
 90
105
 70
0
 10
23.8275798244
 20
78.8538623791
 10
23.8413721511
 20
78.7921202969
 10
23.858760277
 20
78.7272200333
 10
23.8785000539
 20
78.6648833686
 10
23.9004653175
 20
78.6052267755
 10
23.9245281101
 20
78.5483452632
 10
23.9505610676
 20
78.4943126396
 10
23.9784397303
 20
78.4431823969
 10
24.0080447024
 20
78.3949891557
 10
24.0392635998
 20
78.3497505879
 10
24.071992734
 20
78.3074697251
 10
24.1061385019
 20
78.2681375533
 10
24.1416184558
 20
78.2317357979
 10
24.1783620468
 20
78.1982398036
 10
24.216311039
 20
78.1676214235
 10
24.2554196041
 20
78.1398518385
 10
24.2956541114
 20
78.1149042357
 10
24.3369926373
 20
78.0927562857
 10
24.3794242232
 20
78.0733923675
 10
24.4229479194
 20
78.0568054989
 10
24.4675716559
 20
78.0429989422
 10
24.5130132885
 20
78.0319041659
 10
24.5590158468
 20
78.0237425809
 10
24.6055830365
 20
78.0185126367
 10
24.6527158592
 20
78.0162257777
 10
24.7004108074
 20
78.01690556
 10
24.7486580533
 20
78.0205864076
 10
24.7974396833
 20
78.0273120164
 10
24.8467280314
 20
78.0371334255
 10
24.8964841623
 20
78.0501067899
 10
24.9466565555
 20
78.066290896
 10
24.9971800402
 20
78.0857444758
 10
25.0479750272
 20
78.1085233853
 10
25.0989470808
 20
78.1346777246
 10
25.1499868683
 20
78.1642489845
 10
25.2009705148
 20
78.1972673165
 10
25.25176038
 20
78.2337490246
 10
25.3022062579
 20
78.2736943813
 10
25.3521469809
 20
78.3170858608
 10
25.4014123893
 20
78.3638868758
 10
25.4498256068
 20
78.4140410796
 10
25.4972055414
 20
78.4674722736
 10
25.5433695162
 20
78.5240849266
 10
25.5881359251
 20
78.5837652816
 10
25.6313268062
 20
78.6463829921
 10
25.6727702305
 20
78.7117932026
 10
25.6930860854
 20
78.7460150791
 10
25.7315509723
 20
78.8152647416
 10
25.7678453845
 20
78.8868174385
 10
25.8018428199
 20
78.9604971325
 10
25.8334295533
 20
79.0361272713
 10
25.8625046588
 20
79.1135330245
 10
25.8889797196
 20
79.1925432364
 10
25.9127782761
 20
79.2729920693
 10
25.9338179525
 20
79.354764541
 10
25.9518255345
 20
79.4366906031
 10
25.9667796367
 20
79.5185834208
 10
25.9786666894
 20
79.6002451044
 10
25.9874822971
 20
79.6814679205
 10
25.9932325269
 20
79.7620359233
 10
25.9959350657
 20
79.841727009
 10
25.9961691072
 20
79.8727126255
 10
25.9946832495
 20
79.9507528212
 10
25.9902553423
 20
80.0272872724
 10
25.982958191
 20
80.1020978928
 10
25.972877614
 20
80.1749763138
 10
25.9601114419
 20
80.2457270241
 10
25.9447681178
 20
80.3141702057
 10
25.9269649422
 20
80.3801441369
 10
25.9068260293
 20
80.4435070529
 10
25.8844800536
 20
80.504138386
 10
25.860057877
 20
80.5619393426
 10
25.8336901458
 20
80.6168328113
 10
25.8055049459
 20
80.6687626275
 10
25.775625594
 20
80.7176922514
 10
25.7441686298
 20
80.7636029368
 10
25.711242062
 20
80.8064914795
 10
25.6769439056
 20
80.8463676465
 10
25.6413610345
 20
80.8832513832
 10
25.604568363
 20
80.9171698953
 10
25.5666283582
 20
80.948154696
 10
25.527590878
 20
80.9762386996
 10
25.4874933203
 20
81.0014534371
 10
25.4463610633
 20
81.0238264572
 10
25.404208168
 20
81.0433789695
 10
25.3610383103
 20
81.0601237751
 10
25.3168459
 20
81.0740635208
 10
25.2697905867
 20
81.0848797453
 10
25.2222629092
 20
81.0927396485
 10
25.1742919141
 20
81.0976425744
 10
25.1259096036
 20
81.099579583
 10
25.077152201
 20
81.0985341737
 10
25.0280613589
 20
81.0944832552
 10
24.9786852643
 20
81.0873983402
 10
24.9290795976
 20
81.0772469388
 10
24.8793083056
 20
81.0639941088
 10
24.8294441545
 20
81.0476041153
 10
24.7795690391
 20
81.0280421468
 10
24.7297740297
 20
81.005276027
 10
24.680159152
 20
80.979277864
 10
24.6308329051
 20
80.9500255773
 10
24.5819115331
 20
80.9175042488
 10
24.533518078
 20
80.881707251
 10
24.4857812503
 20
80.8426371152
 10
24.4729378716
 20
80.8314540843
  0
LWPOLYLINE
  5
337
100
AcDbEntity
  8
0
100
AcDbPolyline
 62
7
  6
CONTINUOUS
 90
13
 70
0
 10
38.1754284694
 20
-51.4980131481
 10
38.1654408671
 20
-51.4189365559
 10
38.1370562194
 20
-51.3563747957
 10
38.0901079362
 20
-51.3038933177
 10
38.016693136
 20
-51.2532532615
 10
37.8890624753
 20
-51.1879005445
 10
37.7698555347
 20
-51.1257672373
 10
37.7132034265
 20
-51.1059943405
 10
37.2390039362
 20
-50.9678743531
 10
35.3399539792
 20
-50.4401464721
 10
30.341704898
 20
-49.0742626644
 10
20.7687130114
 20
-46.4777346632
 10
11.6973904295
 20
-44.0262638538
  0
LINE
  5
338
100
AcDbEntity
  8
0
100
AcDbLine
 62
7
  6
CONTINUOUS
 10
26.3070539146
 20
83.6117186865
 11
26.3070539146
 21
84.4722902269
  0
LINE
  5
339
100
AcDbEntity
  8
0
100
AcDbLine
 62
7
  6
CONTINUOUS
 10
26.356762018
 20
-93.6699726789
 11
26.356762018
 21
-89.6981257567
  0
LINE
  5
33A
100
AcDbEntity
  8
0
100
AcDbLine
 62
7
  6
CONTINUOUS
 10
27.5152997464
 20
84.7699739826
 11
27.5152997464
 21
83.9122267663
  0
LWPOLYLINE
  5
33B
100
AcDbEntity
  8
0
100
AcDbPolyline
 62
7
  6
CONTINUOUS
 90
9
 70
0
 10
27.7632753987
 20
81.0107986619
 10
27.7632753987
 20
78.0099543507
 10
27.7673085523
 20
77.937226238
 10
27.7833436452
 20
77.8066928312
 10
27.7929979869
 20
77.745716464
 10
27.8229142222
 20
77.5896523549
 10
27.8560260165
 20
77.4526282638
 10
27.8891556468
 20
77.3426692971
 10
27.9205902487
 20
77.259813881
  0
LINE
  5
33C
100
AcDbEntity
  8
0
100
AcDbLine
 62
7
  6
CONTINUOUS
 10
27.7966024226
 20
-89.2928352544
 11
27.7966024226
 21
-93.1734565095
  0
LWPOLYLINE
  5
33D
100
AcDbEntity
  8
0
100
AcDbPolyline
 62
7
  6
CONTINUOUS
 90
15
 70
0
 10
28.2956604835
 20
-56.4075356574
 10
28.2956604835
 20
-59.1299016165
 10
28.2944213499
 20
-59.1517608534
 10
28.2905777846
 20
-59.1752218694
 10
28.2838975747
 20
-59.2004873579
 10
28.2740982603
 20
-59.2277598357
 10
28.2608559978
 20
-59.257239031
 10
28.2438143115
 20
-59.2891202919
 10
28.2225925901
 20
-59.3235942123
 10
28.1967937094
 20
-59.3608489042
 10
28.1660079224
 20
-59.4010799356
 10
28.1298011795
 20
-59.4445253235
 10
28.0876346624
 20
-59.491596374
 10
28.0383981902
 20
-59.5435087577
 10
28.0143578074
 20
-59.5682367103
  0
LWPOLYLINE
  5
33E
100
AcDbEntity
  8
0
100
AcDbPolyline
 62
7
  6
CONTINUOUS
 90
24
 70
0
 10
28.7644982771
 20
-56.0019627228
 10
28.7644982771
 20
-58.9725867665
 10
28.7638636825
 20
-59.0115137479
 10
28.7564023391
 20
-59.1102589994
 10
28.7409169541
 20
-59.2044169054
 10
28.7179595964
 20
-59.2928951687
 10
28.6881078281
 20
-59.3750033064
 10
28.6518957272
 20
-59.450370743
 10
28.6097657426
 20
-59.5188564415
 10
28.5620389075
 20
-59.5804626699
 10
28.5089001221
 20
-59.6352589481
 10
28.4503955113
 20
-59.6833185108
 10
28.3864392893
 20
-59.7246679219
 10
28.3168277126
 20
-59.7592497617
 10
28.2412576251
 20
-59.7868978246
 10
28.1593470663
 20
-59.8073236843
 10
28.0707657095
 20
-59.8201023449
 10
27.9752596313
 20
-59.824726376
 10
27.8723297913
 20
-59.8206289851
 10
27.7614568041
 20
-59.8071303604
 10
27.6421118966
 20
-59.7834502035
 10
26.1404657519
 20
-59.4399402488
 10
21.8538789081
 20
-58.4559117018
 10
19.0725478411
 20
-57.8168733622
  0
LWPOLYLINE
  5
33F
100
AcDbEntity
  8
0
100
AcDbPolyline
 62
7
  6
CONTINUOUS
 90
29
 70
0
 10
29.2336185031
 20
-53.503283229
 10
29.2336185031
 20
-54.093566957
 10
29.2332145158
 20
-54.1103502117
 10
29.2320114618
 20
-54.1268393237
 10
29.2300198343
 20
-54.1430564335
 10
29.227246264
 20
-54.15902311
 10
29.2236934905
 20
-54.174760221
 10
29.2193603597
 20
-54.1902878053
 10
29.2142418458
 20
-54.2056249453
 10
29.2083290997
 20
-54.2207896479
 10
29.20160952
 20
-54.2357987345
 10
29.1940668458
 20
-54.2506677448
 10
29.1856812674
 20
-54.2654108561
 10
29.1764295508
 20
-54.2800408204
 10
29.1662851726
 20
-54.2945689198
 10
29.1552184601
 20
-54.3090049422
 10
29.1431967313
 20
-54.3233571753
 10
29.1301844323
 20
-54.3376324203
 10
29.1161432643
 20
-54.3518360241
 10
29.1010322982
 20
-54.3659719284
 10
29.0848080677
 20
-54.3800427377
 10
29.0674246365
 20
-54.394049805
 10
29.0488336301
 20
-54.4079933365
 10
29.028984218
 20
-54.4218725191
 10
29.0078230318
 20
-54.4356856745
 10
28.9852939911
 20
-54.4494304482
 10
28.9613379988
 20
-54.4631040451
 10
28.9358924456
 20
-54.4767035316
 10
28.935652315
 20
-54.4768277317
  0
LWPOLYLINE
  5
340
100
AcDbEntity
  8
0
100
AcDbPolyline
 62
7
  6
CONTINUOUS
 90
27
 70
0
 10
31.360052086
 20
79.885305525
 10
31.360052086
 20
77.259813881
 10
31.3619823653
 20
77.1943717034
 10
31.3682941801
 20
77.1154230586
 10
31.3796579708
 20
77.0231986969
 10
31.3965210731
 20
76.9188611532
 10
31.4190421184
 20
76.8044400263
 10
31.4224400548
 20
76.7886882323
 10
31.4510035198
 20
76.6667797298
 10
31.4841897418
 20
76.5421036613
 10
31.5213825076
 20
76.4171528766
 10
31.5619487314
 20
76.2940079323
 10
31.6052832642
 20
76.1743124672
 10
31.6508338246
 20
76.0593025719
 10
31.6981116757
 20
75.9498615539
 10
31.7466934207
 20
75.8465815471
 10
31.7962179453
 20
75.74982199
 10
31.8463811399
 20
75.6597606851
 10
31.8969299616
 20
75.5764363695
 10
31.9476566772
 20
75.4997832925
 10
31.9983936877
 20
75.4296589173
 10
32.0490090796
 20
75.3658659997
 10
32.0994029119
 20
75.3081702096
 10
32.1495041757
 20
75.2563142929
 10
32.199268325
 20
75.2100295918
 10
32.2486752654
 20
75.169045573
 10
32.2977276731
 20
75.1330978657
  0
LWPOLYLINE
  5
341
100
AcDbEntity
  8
0
100
AcDbPolyline
 62
7
  6
CONTINUOUS
 90
15
 70
0
 10
33.4534410775
 20
-55.0947898355
 10
33.4534410775
 20
-57.8168733622
 10
33.4522019439
 20
-57.8387326293
 10
33.4483583568
 20
-57.862193978
 10
33.4416779883
 20
-57.8874606417
 10
33.4318781036
 20
-57.9147359335
 10
33.4186343246
 20
-57.9442207734
 10
33.4015892051
 20
-57.9761123269
 10
33.3803604005
 20
-58.0106040347
 10
33.3545476551
 20
-58.0478886462
 10
33.3237353291
 20
-58.0881697525
 10
33.2874773522
 20
-58.1317006811
 10
33.2452062855
 20
-58.1789274832
 10
33.1957172062
 20
-58.2311784863
 10
33.1721384014
 20
-58.2554908883
  0
LWPOLYLINE
  5
342
100
AcDbEntity
  8
0
100
AcDbPolyline
 62
7
  6
CONTINUOUS
 90
29
 70
0
 10
33.9222788711
 20
-54.6892169008
 10
33.9222788711
 20
-57.6623828362
 10
33.9211595602
 20
-57.7137451478
 10
33.9148667536
 20
-57.793521261
 10
33.9032420274
 20
-57.8704050345
 10
33.8865730752
 20
-57.9437517252
 10
33.8651707178
 20
-58.0131027707
 10
33.8393408812
 20
-58.0781597095
 10
33.8093628448
 20
-58.138752725
 10
33.7754735283
 20
-58.1948081467
 10
33.7378571023
 20
-58.2463175448
 10
33.6966391001
 20
-58.2933098246
 10
33.6518842681
 20
-58.335826958
 10
33.6035974924
 20
-58.3739035795
 10
33.5517271982
 20
-58.4075504763
 10
33.4961706304
 20
-58.4367418952
 10
33.4367804162
 20
-58.4614064916
 10
33.3733718044
 20
-58.4814216417
 10
33.3057300218
 20
-58.4966107147
 10
33.2336897162
 20
-58.5067354897
 10
33.1571015278
 20
-58.5115261305
 10
33.0757026503
 20
-58.5106862633
 10
32.9892205941
 20
-58.5038700949
 10
32.8973773303
 20
-58.4906866755
 10
32.7998924906
 20
-58.4707043815
 10
32.1538636415
 20
-58.3239418697
 10
30.6095621206
 20
-57.9783298504
 10
30.0337043194
 20
-57.8500761158
 10
28.8915928597
 20
-57.5962936533
  0
LWPOLYLINE
  5
343
100
AcDbEntity
  8
0
100
AcDbPolyline
 62
7
  6
CONTINUOUS
 90
133
 70
0
 10
-0.1571449375
 20
0.1645225134
 10
-0.1643243707
 20
0.1355323601
 10
-0.1704370758
 20
0.1065599596
 10
-0.1754774518
 20
0.0776742111
 10
-0.1794430247
 20
0.0489471485
 10
-0.1823348744
 20
0.0204533642
 10
-0.1841580178
 20
-0.0077307044
 10
-0.1841934462
 20
-0.0085075828
 10
-0.1849277817
 20
-0.0362727617
 10
-0.1846193241
 20
-0.063541003
 10
-0.1832900488
 20
-0.0902372371
 10
-0.180966421
 20
-0.1162894586
 10
-0.1776791232
 20
-0.1416297757
 10
-0.1734626484
 20
-0.1661953713
 10
-0.1683547721
 20
-0.1899293355
 10
-0.1623959182
 20
-0.2127813297
 10
-0.1556284456
 20
-0.2347080573
 10
-0.1480958792
 20
-0.2556735217
 10
-0.1398421162
 20
-0.2756490682
 10
-0.1309106358
 20
-0.2946132119
 10
-0.1213437371
 20
-0.3125512684
 10
-0.1111818305
 20
-0.3294548088
 10
-0.1004628001
 20
-0.3453209647
 10
-0.0892214527
 20
-0.360151616
 10
-0.0774890646
 20
-0.3739524913
 10
-0.0652930313
 20
-0.3867322116
 10
-0.0526566267
 20
-0.3985013085
 10
-0.0395988691
 20
-0.4092712437
 10
-0.0261344942
 20
-0.4190534544
 10
-0.0122740296
 20
-0.4278584483
 10
0.0019760357
 20
-0.4356949677
 10
0.0166129978
 20
-0.4425692399
 10
0.0316376092
 20
-0.4484843277
 10
0.0470536919
 20
-0.4534395905
 10
0.0633869006
 20
-0.4572030899
 10
0.079882152
 20
-0.4599429393
 10
0.0965376428
 20
-0.4616604536
 10
0.1133505966
 20
-0.4623530678
 10
0.1303167238
 20
-0.462014607
 10
0.1474296824
 20
-0.4606356634
 10
0.1646805589
 20
-0.458204076
 10
0.1820573835
 20
-0.4547055087
 10
0.1995446968
 20
-0.450124114
 10
0.2171231835
 20
-0.4444432703
 10
0.2347693872
 20
-0.4376463735
 10
0.2524555199
 20
-0.4297176647
 10
0.2701493771
 20
-0.4206430678
 10
0.2878143673
 20
-0.4104110133
 10
0.3054096616
 20
-0.39901322
 10
0.3228904637
 20
-0.3864454068
 10
0.3402083982
 20
-0.3727079075
 10
0.3573120079
 20
-0.3578061632
 10
0.3741473455
 20
-0.3417510729
 10
0.3906586425
 20
-0.324559186
 10
0.4067890285
 20
-0.3062527291
 10
0.4224812781
 20
-0.2868594677
 10
0.4376785537
 20
-0.2664124105
 10
0.4523251185
 20
-0.2449493724
 10
0.4663669939
 20
-0.2225124194
 10
0.4706133631
 20
-0.2153245345
 10
0.4837791246
 20
-0.1916891441
 10
0.4962150859
 20
-0.1672123283
 10
0.5078794646
 20
-0.141945875
 10
0.5187340814
 20
-0.1159421702
 10
0.5287443955
 20
-0.0892535605
 10
0.5378794513
 20
-0.0619317823
 10
0.5461117529
 20
-0.0340274679
 10
0.5533812848
 20
-0.0058579934
 10
0.5595962976
 20
0.0223502938
 10
0.5647503389
 20
0.0505343661
 10
0.5688395666
 20
0.0786274641
 10
0.5718632108
 20
0.1065594842
 10
0.5738240126
 20
0.134257505
 10
0.5747286235
 20
0.1616464575
 10
0.5747976966
 20
0.1715741422
 10
0.5742786893
 20
0.1984049389
 10
0.5727398796
 20
0.2247157033
 10
0.5702064916
 20
0.2504321451
 10
0.5667082117
 20
0.2754830986
 10
0.5622788672
 20
0.2998015991
 10
0.556955964
 20
0.3233258654
 10
0.5507801003
 20
0.3460001435
 10
0.5437942759
 20
0.3677753731
 10
0.5360431235
 20
0.3886096453
 10
0.5275720938
 20
0.4084684367
 10
0.5184266251
 20
0.4273246125
 10
0.5086513284
 20
0.4451582073
 10
0.4982892154
 20
0.4619559983
 10
0.4873809949
 20
0.4777108986
 10
0.4759644552
 20
0.4924211993
 10
0.4640739471
 20
0.5060896945
 10
0.4517399782
 20
0.5187227249
 10
0.4389889215
 20
0.5303291719
 10
0.4258428424
 20
0.5409194367
 10
0.41231944
 20
0.5505044322
 10
0.3984320989
 20
0.5590946145
 10
0.3841900448
 20
0.5666990796
 10
0.369598592
 20
0.5733247418
 10
0.3546594727
 20
0.5789756146
 10
0.3393712319
 20
0.5836522035
 10
0.3236711127
 20
0.5875905093
 10
0.3077877082
 20
0.5905090506
 10
0.2917198674
 20
0.5924095057
 10
0.2754672299
 20
0.5932890147
 10
0.2590308398
 20
0.593140453
 10
0.2424137638
 20
0.5919528301
 10
0.2256216948
 20
0.5897118099
 10
0.2086635233
 20
0.5864003459
 10
0.1915518578
 20
0.5819994212
 10
0.1743034781
 20
0.5764888777
 10
0.1569397043
 20
0.5698483162
 10
0.1394866655
 20
0.5620580451
 10
0.1219754559
 20
0.5531000521
 10
0.1044421648
 20
0.5429589698
 10
0.0869277728
 20
0.5316230042
 10
0.0694779091
 20
0.5190847924
 10
0.05214247
 20
0.5053421581
 10
0.034975105
 20
0.4903987313
 10
0.0180325823
 20
0.4742644071
 10
0.0013740543
 20
0.4569556203
 10
-0.0149397526
 20
0.4384954234
 10
-0.0308473933
 20
0.4189133652
 10
-0.0462875705
 20
0.3982451746
 10
-0.0611999792
 20
0.3765322687
 10
-0.0755260955
 20
0.353821111
 10
-0.0792116542
 20
0.347650872
 10
-0.0927131796
 20
0.3237565472
 10
-0.1054938437
 20
0.299009537
 10
-0.1175084086
 20
0.2734678058
 10
-0.1287157316
 20
0.2471900366
 10
-0.139078833
 20
0.2202348597
 10
-0.1485648562
 20
0.1926601661
 10
-0.1571449375
 20
0.1645225134
  0
LWPOLYLINE
  5
344
100
AcDbEntity
  8
0
100
AcDbPolyline
 62
7
  6
CONTINUOUS
 90
133
 70
0
 10
22.6359975045
 20
71.5558090143
 10
22.6072242297
 20
71.4441620148
 10
22.5826059947
 20
71.3323216968
 10
22.5621732421
 20
71.2205521183
 10
22.5459450731
 20
71.1091324537
 10
22.5339273466
 20
70.9983551137
 10
22.526110898
 20
70.8885232649
 10
22.5224699666
 20
70.7799477536
 10
22.5221841119
 20
70.7470702377
 10
22.5239221275
 20
70.6407185747
 10
22.5296890257
 20
70.5364696732
 10
22.5393832622
 20
70.4346240577
 10
22.5528853234
 20
70.3354675731
 10
22.5700592382
 20
70.2392670618
 10
22.5907546404
 20
70.1462665181
 10
22.6148093114
 20
70.0566839011
 10
22.6420521054
 20
69.9707087454
 10
22.6723061413
 20
69.8885006691
 10
22.7053921336
 20
69.8101888208
 10
22.7411317365
 20
69.735872263
 10
22.7793507811
 20
69.6656212387
 10
22.8198823005
 20
69.5994792325
 10
22.8625692561
 20
69.537465711
 10
22.9072668968
 20
69.4795794095
 10
22.953844705
 20
69.4258020269
 10
23.0021878967
 20
69.3761021887
 10
23.0521984638
 20
69.3304395473
 10
23.1037957563
 20
69.2887688968
 10
23.1569166147
 20
69.2510441902
 10
23.2115150744
 20
69.2172223606
 10
23.2675616724
 20
69.187266858
 10
23.3250423974
 20
69.1611508298
 10
23.3839573325
 20
69.1388598821
 10
23.4443190498
 20
69.1203943795
 10
23.5061269602
 20
69.1049580004
 10
23.5686617287
 20
69.0935471417
 10
23.6319300093
 20
69.0861552852
 10
23.6959352505
 20
69.0827942005
 10
23.7606752163
 20
69.0834928267
 10
23.8261394883
 20
69.088295651
 10
23.8923070203
 20
69.097260593
 10
23.9591438181
 20
69.1104564203
 10
24.026600816
 20
69.1279597384
 10
24.0946120197
 20
69.1498516123
 10
24.1630929839
 20
69.176213894
 10
24.231939688
 20
69.2071253443
 10
24.3010278691
 20
69.2426576533
 10
24.3702128629
 20
69.2828714759
 10
24.4393299932
 20
69.3278126119
 10
24.5081955344
 20
69.3775084671
 10
24.5766082502
 20
69.4319649353
 10
24.6443514897
 20
69.4911638327
 10
24.7111957911
 20
69.5550610053
 10
24.7769019166
 20
69.6235852013
 10
24.8412242137
 20
69.6966377693
 10
24.9039141771
 20
69.7740932007
 10
24.9647240689
 20
69.8558004909
 10
25.023410452
 20
69.9415852466
 10
25.0797374962
 20
70.0312524314
 10
25.1007713926
 20
70.066808123
 10
25.1534316728
 20
70.1614467194
 10
25.2031701602
 20
70.2593313669
 10
25.2498092076
 20
70.3602209524
 10
25.2931884298
 20
70.463872486
 10
25.3331648817
 20
70.5700442898
 10
25.3696127918
 20
70.6784988131
 10
25.4024229189
 20
70.7890050327
 10
25.4311803983
 20
70.9003468283
 10
25.4557609021
 20
71.0117973564
 10
25.4761397097
 20
71.123103892
 10
25.4923028583
 20
71.2339998635
 10
25.5042489059
 20
71.3442065736
 10
25.5119905831
 20
71.4534354617
 10
25.5155562552
 20
71.5613909017
 10
25.5157680998
 20
71.582197223
 10
25.5144096463
 20
71.6881550847
 10
25.5090123882
 20
71.7920685439
 10
25.4996741567
 20
71.8936497376
 10
25.486509921
 20
71.9926236691
 10
25.4696504777
 20
72.0887322415
 10
25.4492406178
 20
72.1817378997
 10
25.42543683
 20
72.2714267145
 10
25.3984046215
 20
72.3576107699
 10
25.3683155614
 20
72.440129754
 10
25.3353441597
 20
72.5188516969
 10
25.299664701
 20
72.5936728457
 10
25.2614481469
 20
72.6645167098
 10
25.2208592103
 20
72.7313323437
 10
25.1780536889
 20
72.7940919667
 10
25.1331761285
 20
72.8527880339
 10
25.0863578696
 20
72.9074298855
 10
25.0377155089
 20
72.9580401022
 10
24.9873497986
 20
73.0046506929
 10
24.9353449852
 20
73.047299233
 10
24.8817685832
 20
73.0860250623
 10
24.8266715638
 20
73.1208656403
 10
24.7700889328
 20
73.1518531456
 10
24.7120406572
 20
73.1790113942
 10
24.6525328965
 20
73.202353136
 10
24.591559482
 20
73.2218777759
 10
24.529920753
 20
73.2370350923
 10
24.4675379738
 20
73.2481725011
 10
24.4044015263
 20
73.2552948881
 10
24.3405052039
 20
73.2583884302
 10
24.2758487577
 20
73.2574217853
 10
24.2104404649
 20
73.2523477989
 10
24.1442996473
 20
73.2431057183
 10
24.0774590662
 20
73.2296238894
 10
24.0099671241
 20
73.2118228939
 10
23.9418897986
 20
73.1896190695
 10
23.8733122415
 20
73.1629283379
 10
23.8043399741
 20
73.131670253
 10
23.7350996161
 20
73.0957721618
 10
23.6657390895
 20
73.0551733582
 10
23.5964272518
 20
73.009829093
 10
23.5273529257
 20
72.9597142962
 10
23.4587233149
 20
72.9048268609
 10
23.3907618206
 20
72.8451903441
 10
23.3237053049
 20
72.780855952
 10
23.2578008792
 20
72.7119037041
 10
23.193302326
 20
72.6384427081
 10
23.1304662899
 20
72.5606105185
 10
23.0695483926
 20
72.4785716061
 10
23.010799431
 20
72.3925150144
 10
22.9544618159
 20
72.3026513225
 10
22.9374592001
 20
72.2739462796
 10
22.88466833
 20
72.1795094495
 10
22.8348494192
 20
72.0819286188
 10
22.7881829097
 20
71.9814600456
 10
22.7448306149
 20
71.8783612757
 10
22.7049355491
 20
71.772887688
 10
22.668622248
 20
71.665289462
 10
22.6359975045
 20
71.5558090143
  0
LINE
  5
345
100
AcDbEntity
  8
0
100
AcDbLine
 62
7
  6
CONTINUOUS
 10
10.4148648749
 20
46.0928330407
 11
9.6949446726
 21
43.6215494903
  0
LINE
  5
346
100
AcDbEntity
  8
0
100
AcDbLine
 62
7
  6
CONTINUOUS
 10
4.2256411351
 20
-60.0675772037
 11
0.7254563305
 21
-61.0052527908
  0
LINE
  5
347
100
AcDbEntity
  8
0
100
AcDbLine
 62
7
  6
CONTINUOUS
 10
28.9218131271
 20
-53.657773755
 11
25.4190864309
 21
-54.5954493421
  0
LWPOLYLINE
  5
348
100
AcDbEntity
  8
0
100
AcDbPolyline
 62
7
  6
CONTINUOUS
 90
44
 70
0
 10
1.3764630258
 20
5.4629544454
 10
1.2861824262
 20
5.4780186058
 10
1.1956187267
 20
5.4897813224
 10
1.104809167
 20
5.4982726792
 10
1.0137909863
 20
5.5035227604
 10
0.9226014241
 20
5.5055616498
 10
0.8312777199
 20
5.5044194316
 10
0.7398571131
 20
5.5001261898
 10
0.6483768431
 20
5.4927120083
 10
0.5568741494
 20
5.4822069713
 10
0.4653862713
 20
5.4686411628
 10
0.3739504484
 20
5.4520446668
 10
0.28260392
 20
5.4324475672
 10
0.1913839256
 20
5.4098799483
 10
0.1003277046
 20
5.3843718939
 10
0.0094724965
 20
5.3559534881
 10
-0.0811444593
 20
5.324654815
 10
-0.1714859234
 20
5.2905059585
 10
-0.2615146563
 20
5.2535370028
 10
-0.3511934187
 20
5.2137780318
 10
-0.440484971
 20
5.1712591295
 10
-0.5293520739
 20
5.1260103801
 10
-0.6177574878
 20
5.0780618675
 10
-0.7056639735
 20
5.0274436757
 10
-0.8060912928
 20
4.9659714153
 10
-0.9057528936
 20
4.9010540444
 10
-1.0045921396
 20
4.8327373171
 10
-1.1025523941
 20
4.7610669874
 10
-1.1995770207
 20
4.6860888093
 10
-1.2956093828
 20
4.607848537
 10
-1.3905928439
 20
4.5263919244
 10
-1.4844707675
 20
4.4417647256
 10
-1.5771865171
 20
4.3540126947
 10
-1.668683456
 20
4.2631815857
 10
-1.7589049479
 20
4.1693171527
 10
-1.8477943562
 20
4.0724651497
 10
-1.9352950443
 20
3.9726713307
 10
-2.0213503758
 20
3.8699814499
 10
-2.105903714
 20
3.7644412612
 10
-2.1888984226
 20
3.6560965187
 10
-2.2702778649
 20
3.5449929765
 10
-2.3499854045
 20
3.4311763886
 10
-2.4279644048
 20
3.3146925091
 10
-2.5041582293
 20
3.195587092
  0
LWPOLYLINE
  5
349
100
AcDbEntity
  8
0
100
AcDbPolyline
 62
7
  6
CONTINUOUS
 90
8
 70
0
 10
40.707434987
 20
2.3929141948
 10
40.9932093486
 20
2.338069722
 10
40.9965273706
 20
2.3373900928
 10
41.1012825175
 20
2.3268098237
 10
41.2672160152
 20
2.3598696033
 10
41.8112740759
 20
2.5095665458
 10
41.8150995784
 20
2.5106532039
 10
42.1746713349
 20
2.6137763361
  0
LWPOLYLINE
  5
34A
100
AcDbEntity
  8
0
100
AcDbPolyline
 62
7
  6
CONTINUOUS
 90
105
 70
0
 10
32.7998924906
 20
77.4527152142
 10
32.8087756591
 20
77.4139897005
 10
32.8233473066
 20
77.3596228938
 10
32.839841917
 20
77.3074120177
 10
32.8581564744
 20
77.2574478807
 10
32.8781871451
 20
77.2098031079
 10
32.8998312014
 20
77.1645326414
 10
32.9229888527
 20
77.1216747198
 10
32.9475649324
 20
77.0812522756
 10
32.9734703963
 20
77.0432746752
 10
33.0006236044
 20
77.0077397268
 10
33.0289513621
 20
76.9746358749
 10
33.0583897129
 20
76.9439445082
 10
33.0888844751
 20
76.9156423109
 10
33.120391528
 20
76.8897035928
 10
33.1528768532
 20
76.8661025439
 10
33.186316346
 20
76.8448153612
 10
33.2206954129
 20
76.8258222063
 10
33.2560083801
 20
76.8091089572
 10
33.2922577373
 20
76.794668725
 10
33.3294532514
 20
76.7825031153
 10
33.3664283158
 20
76.7731430623
 10
33.4038852513
 20
76.766196147
 10
33.4418268855
 20
76.7616611467
 10
33.4802539629
 20
76.7595477428
 10
33.5191636271
 20
76.7598758007
 10
33.5585478993
 20
76.7626743443
 10
33.5983921975
 20
76.7679802348
 10
33.6386739417
 20
76.7758365696
 10
33.6793612892
 20
76.7862908329
 10
33.7204120433
 20
76.7993928338
 10
33.7617727753
 20
76.8151924802
 10
33.8033781996
 20
76.8337374469
 10
33.8451508357
 20
76.8550708002
 10
33.8870009853
 20
76.8792286545
 10
33.9288270466
 20
76.9062379383
 10
33.9705161755
 20
76.936114352
 10
34.0119452908
 20
76.9688605991
 10
34.0529824062
 20
77.0044649674
 10
34.0934882521
 20
77.0429003236
 10
34.1333181372
 20
77.0841235716
 10
34.1723239809
 20
77.1280755998
 10
34.2103564397
 20
77.1746817201
 10
34.2472670408
 20
77.2238525738
 10
34.2829102392
 20
77.2754854546
 10
34.3171453172
 20
77.329465979
 10
34.336743414
 20
77.3625642236
 10
34.3684283997
 20
77.4199652855
 10
34.3983491067
 20
77.4793136929
 10
34.4264018148
 20
77.5404695558
 10
34.4524929401
 20
77.6032925482
 10
34.4765390287
 20
77.6676436504
 10
34.4984665092
 20
77.7333866677
 10
34.5182112472
 20
77.8003895056
 10
34.5355376059
 20
77.8663223458
 10
34.5503887179
 20
77.9324772441
 10
34.5627447131
 20
77.9987061537
 10
34.5725916026
 20
78.0648509499
 10
34.5799224689
 20
78.1307442028
 10
34.5847386267
 20
78.1962103067
 10
34.5870507023
 20
78.2610669862
 10
34.5868795758
 20
78.3251271761
 10
34.5859588896
 20
78.3546851981
 10
34.5822120982
 20
78.4171709935
 10
34.576095476
 20
78.4783207593
 10
34.567678018
 20
78.5379547891
 10
34.557039373
 20
78.5959028452
 10
34.5442687679
 20
78.6520067924
 10
34.5294635989
 20
78.7061229074
 10
34.5127277413
 20
78.7581237539
 10
34.4941696469
 20
78.8078995379
 10
34.4739003057
 20
78.8553588895
 10
34.4520311567
 20
78.9004290486
 10
34.4286720272
 20
78.9430554674
 10
34.403929174
 20
78.9832008688
 10
34.3779034917
 20
79.0208438251
 10
34.3506889352
 20
79.0559769327
 10
34.3223711964
 20
79.0886046737
 10
34.2930266564
 20
79.1187410512
 10
34.2627216277
 20
79.1464070896
 10
34.2315118893
 20
79.1716282802
 10
34.1994425078
 20
79.1944320503
 10
34.1665479349
 20
79.2148453233
 10
34.1328523609
 20
79.2328922293
 10
34.0983703004
 20
79.2485920184
 10
34.0631073801
 20
79.2619572183
 10
34.0270612936
 20
79.2729920693
 10
33.9890205222
 20
79.2832100254
 10
33.9508031745
 20
79.2909325581
 10
33.912394705
 20
79.2961859571
 10
33.8737800813
 20
79.2989842859
 10
33.8349450148
 20
79.2993294904
 10
33.7958772445
 20
79.2972117741
 10
33.7565678384
 20
79.2926102494
 10
33.7170124771
 20
79.285493862
 10
33.6772126832
 20
79.2758225779
 10
33.6371769652
 20
79.2635488143
 10
33.5969218443
 20
79.2486190867
 10
33.5564727404
 20
79.2309758414
 10
33.5158646917
 20
79.2105594359
 10
33.4751428908
 20
79.1873102248
 10
33.4343630185
 20
79.1611707063
 10
33.3935913625
 20
79.1320876801
 10
33.3529047106
 20
79.1000143623
 10
33.3294532514
 20
79.0800907361
  0
LWPOLYLINE
  5
34B
100
AcDbEntity
  8
0
100
AcDbPolyline
 62
7
  6
CONTINUOUS
 90
43
 70
0
 10
45.8649331486
 20
91.361946333
 10
45.5650178307
 20
97.1543256385
 10
45.4898629137
 20
98.4891280923
 10
45.4469702233
 20
98.7412820994
 10
45.3508583284
 20
98.9574769321
 10
45.1864523927
 20
99.1411310587
 10
44.9303786471
 20
99.2981270396
 10
44.5521873266
 20
99.4268036794
 10
38.5875405035
 20
100.9724253795
 10
21.42609245
 20
105.4186581621
 10
18.7003019303
 20
106.1179098043
 10
17.9715989943
 20
106.2552612375
 10
17.3149307029
 20
106.3035012302
 10
16.6977722026
 20
106.2739669836
 10
16.073147512
 20
106.16965205
 10
15.8564900367
 20
106.1179098043
 10
9.978419515
 20
104.5974866691
 10
-23.6314746348
 20
95.9117375144
 10
-44.917316046
 20
90.4013202708
 10
-46.2591513943
 20
90.049200511
 10
-46.657460698
 20
89.9075050577
 10
-46.9084136109
 20
89.7621568152
 10
-46.9998580525
 20
89.679287402
 10
-47.0723475719
 20
89.5870786219
 10
-47.1709102998
 20
89.3675643562
 10
-47.2301465295
 20
89.0479776326
 10
-47.2921242792
 20
88.1153426093
 10
-47.5392294833
 20
83.5047405803
 10
-47.5678059187
 20
82.935563524
 10
-47.6023924309
 20
82.1995566578
 10
-47.6041075369
 20
82.1592165096
 10
-47.5906766113
 20
82.0552444021
 10
-47.4971003041
 20
81.9422870561
 10
-47.2573906869
 20
81.815961856
 10
-46.7613087478
 20
81.6671715729
 10
-45.1352956879
 20
81.2533756089
 10
-31.0327912586
 20
77.5961705524
 10
-26.4380169515
 20
76.4015818144
 10
-20.3465430308
 20
74.818750598
 10
-19.7683444653
 20
74.7138453915
 10
-19.0085411645
 20
74.6516117183
 10
-18.423931115
 20
74.6485730433
 10
-17.8422148889
 20
74.6944803395
  0
LINE
  5
34C
100
AcDbEntity
  8
0
100
AcDbLine
 62
7
  6
CONTINUOUS
 10
37.8636230934
 20
85.4845279691
 11
37.8636230934
 21
83.0765092776
  0
LINE
  5
34D
100
AcDbEntity
  8
0
100
AcDbLine
 62
7
  6
CONTINUOUS
 10
38.1754284694
 20
81.7939837231
 11
38.1754284694
 21
76.1619991198
  0
LINE
  5
34E
100
AcDbEntity
  8
0
100
AcDbLine
 62
7
  6
CONTINUOUS
 10
39.3311418738
 20
-48.0641999589
 11
39.3311418738
 21
-53.5942264637
  0
LINE
  5
34F
100
AcDbEntity
  8
0
100
AcDbLine
 62
7
  6
CONTINUOUS
 10
39.3613621412
 20
45.5632722799
 11
39.3613621412
 21
39.7767971507
  0
LINE
  5
350
100
AcDbEntity
  8
0
100
AcDbLine
 62
7
  6
CONTINUOUS
 10
39.3613621412
 20
2.2358817772
 11
39.3613621412
 21
-3.5480514604
  0
LINE
  5
351
100
AcDbEntity
  8
0
100
AcDbLine
 62
7
  6
CONTINUOUS
 10
40.100487747
 20
87.1392994345
 11
40.100487747
 21
87.9942223267
  0
LINE
  5
352
100
AcDbEntity
  8
0
100
AcDbLine
 62
7
  6
CONTINUOUS
 10
40.1115026109
 20
86.0140887299
 11
40.1115026109
 21
82.3594133994
  0
LINE
  5
353
100
AcDbEntity
  8
0
100
AcDbLine
 62
7
  6
CONTINUOUS
 10
40.707434987
 20
45.7177628058
 11
40.707434987
 21
38.9659337138
  0
LINE
  5
354
100
AcDbEntity
  8
0
100
AcDbLine
 62
7
  6
CONTINUOUS
 10
40.707434987
 20
-4.2679716626
 11
40.707434987
 21
2.3929141948
  0
LINE
  5
355
100
AcDbEntity
  8
0
100
AcDbLine
 62
7
  6
CONTINUOUS
 10
40.707434987
 20
-47.7470283672
 11
40.707434987
 21
-54.3997236849
  0
LINE
  5
356
100
AcDbEntity
  8
0
100
AcDbLine
 62
7
  6
CONTINUOUS
 10
41.0825052219
 20
-70.4435789264
 11
41.0825052219
 21
-54.7747939197
  0
LINE
  5
357
100
AcDbEntity
  8
0
100
AcDbLine
 62
7
  6
CONTINUOUS
 10
41.0825052219
 20
-47.5623175739
 11
41.0825052219
 21
-4.6430418975
  0
LINE
  5
358
100
AcDbEntity
  8
0
100
AcDbLine
 62
7
  6
CONTINUOUS
 10
41.0825052219
 20
2.5474047207
 11
41.0825052219
 21
38.5905810465
  0
LINE
  5
359
100
AcDbEntity
  8
0
100
AcDbLine
 62
7
  6
CONTINUOUS
 10
41.0825052219
 20
46.0321100734
 11
41.0825052219
 21
80.7597162532
  0
LINE
  5
35A
100
AcDbEntity
  8
0
100
AcDbLine
 62
7
  6
CONTINUOUS
 10
41.9566335177
 20
2.4841398618
 11
41.9566335177
 21
-4.14087708
  0
LINE
  5
35B
100
AcDbEntity
  8
0
100
AcDbLine
 62
7
  6
CONTINUOUS
 10
41.9566335177
 20
-47.6560851326
 11
41.9566335177
 21
-54.2203791072
  0
LINE
  5
35C
100
AcDbEntity
  8
0
100
AcDbLine
 62
7
  6
CONTINUOUS
 10
41.9566335177
 20
39.2444120658
 11
41.9566335177
 21
45.7810276647
  0
LWPOLYLINE
  5
35D
100
AcDbEntity
  8
0
100
AcDbPolyline
 62
7
  6
CONTINUOUS
 90
10
 70
0
 10
42.1746713349
 20
81.4491337556
 10
42.1746713349
 20
45.9660208905
 10
42.1279473849
 20
45.9539975356
 10
41.7299401996
 20
45.8570264406
 10
41.4172911591
 20
45.7921432085
 10
41.3002606067
 20
45.7784857731
 10
41.178937094
 20
45.7661082115
 10
41.1422731246
 20
45.7589898226
 10
40.9650812948
 20
45.7301403674
 10
40.707434987
 20
45.7177628058
  0
LWPOLYLINE
  5
35E
100
AcDbEntity
  8
0
100
AcDbPolyline
 62
7
  6
CONTINUOUS
 90
8
 70
0
 10
42.1746713349
 20
-4.2346446388
 10
42.1746713349
 20
-47.5623175739
 10
41.765840715
 20
-47.685183288
 10
41.3652671478
 20
-47.7951831671
 10
41.2672160152
 20
-47.8131175502
 10
41.1644536694
 20
-47.817375573
 10
40.9798580712
 20
-47.8073416596
 10
40.707434987
 20
-47.7498526913
  0
LWPOLYLINE
  5
35F
100
AcDbEntity
  8
0
100
AcDbPolyline
 62
7
  6
CONTINUOUS
 90
39
 70
0
 10
42.1746713349
 20
-54.31697099
 10
42.1746713349
 20
-69.6327154895
 10
42.1466310487
 20
-70.7717295665
 10
42.0625875637
 20
-71.9075379886
 10
41.9227868196
 20
-73.0370203582
 10
41.7276975956
 20
-74.1566498646
 10
41.4780764706
 20
-75.2624893847
 10
41.1750337835
 20
-76.3502046041
 10
40.8200967293
 20
-77.4150983533
 10
40.4152645786
 20
-78.4521698633
 10
39.9630500357
 20
-79.4562013889
 10
39.4665002559
 20
-80.4218724957
 10
39.1753132048
 20
-80.935507449
 10
38.6183601605
 20
-81.8296363466
 10
38.0287969444
 20
-82.670515152
 10
37.411489242
 20
-83.4541312869
 10
36.7714272199
 20
-84.1771769658
 10
36.1135762164
 20
-84.8371306079
 10
35.4427292124
 20
-85.4322905643
 10
34.7633724935
 20
-85.961759134
 10
34.0795737586
 20
-86.4253800338
 10
33.3948988413
 20
-86.8236366606
 10
32.7123598875
 20
-87.1575210897
 10
32.0343949046
 20
-87.428384748
 10
31.3628764101
 20
-87.6377813567
 10
23.4083262608
 20
-89.7270078366
 10
16.4083753783
 20
-91.5520025534
 10
7.1606462161
 20
-93.9415805477
 10
3.5387655243
 20
-94.8559063506
 10
2.8940040429
 20
-94.98731459
 10
2.2382108127
 20
-95.0662923114
 10
1.5683851284
 20
-95.0935568604
 10
0.8800550975
 20
-95.0694234032
 10
0.1648306889
 20
-94.9938697483
 10
-0.5996264797
 20
-94.8662452116
 10
-1.4314799522
 20
-94.7014158247
 10
-2.5092366619
 20
-94.4739484076
 10
-6.8683211383
 20
-93.5031857518
 10
-10.6848128621
 20
-92.6410714247
  0
LINE
  5
360
100
AcDbEntity
  8
0
100
AcDbLine
 62
7
  6
CONTINUOUS
 10
42.1746713349
 20
2.6137763361
 11
42.1746713349
 21
39.1534688312
  0
LINE
  5
361
100
AcDbEntity
  8
0
100
AcDbLine
 62
7
  6
CONTINUOUS
 10
43.3634293308
 20
79.1351650553
 11
43.3634293308
 21
75.3511356829
  0
LINE
  5
362
100
AcDbEntity
  8
0
100
AcDbLine
 62
7
  6
CONTINUOUS
 10
43.3634293308
 20
9.7296607992
 11
43.3634293308
 21
5.9456314268
  0
LINE
  5
363
100
AcDbEntity
  8
0
100
AcDbLine
 62
7
  6
CONTINUOUS
 10
43.3634293308
 20
-59.662004269
 11
43.3634293308
 21
-63.4406674256
  0
LINE
  5
364
100
AcDbEntity
  8
0
100
AcDbLine
 62
7
  6
CONTINUOUS
 10
43.8624873918
 20
78.5395151115
 11
43.8624873918
 21
76.285986946
  0
LINE
  5
365
100
AcDbEntity
  8
0
100
AcDbLine
 62
7
  6
CONTINUOUS
 10
43.8624873918
 20
9.1340108554
 11
43.8624873918
 21
6.883307014
  0
LINE
  5
366
100
AcDbEntity
  8
0
100
AcDbLine
 62
7
  6
CONTINUOUS
 10
43.8624873918
 20
-60.252287997
 11
43.8624873918
 21
-62.5058161626
  0
LINE
  5
367
100
AcDbEntity
  8
0
100
AcDbLine
 62
7
  6
CONTINUOUS
 10
43.9590792745
 20
89.7650735108
 11
43.9590792745
 21
81.0740635208
  0
LINE
  5
368
100
AcDbEntity
  8
0
100
AcDbLine
 62
7
  6
CONTINUOUS
 10
43.9590792745
 20
74.8517951895
 11
43.9590792745
 21
11.7374727717
  0
LINE
  5
369
100
AcDbEntity
  8
0
100
AcDbLine
 62
7
  6
CONTINUOUS
 10
43.9590792745
 20
5.5812936234
 11
43.9590792745
 21
-57.532746362
  0
LINE
  5
36A
100
AcDbEntity
  8
0
100
AcDbLine
 62
7
  6
CONTINUOUS
 10
44.5191427351
 20
-62.4120486039
 11
44.5191427351
 21
-60.0977974711
  0
LINE
  5
36B
100
AcDbEntity
  8
0
100
AcDbLine
 62
7
  6
CONTINUOUS
 10
44.5191427351
 20
6.9798988967
 11
44.5191427351
 21
9.2938675971
  0
LINE
  5
36C
100
AcDbEntity
  8
0
100
AcDbLine
 62
7
  6
CONTINUOUS
 10
44.5191427351
 20
76.3825788287
 11
44.5191427351
 21
78.6993718532
  0
LINE
  5
36D
100
AcDbEntity
  8
0
100
AcDbLine
 62
7
  6
CONTINUOUS
 10
45.0210251202
 20
79.5379136659
 11
45.0210251202
 21
75.7564261852
  0
LINE
  5
36E
100
AcDbEntity
  8
0
100
AcDbLine
 62
7
  6
CONTINUOUS
 10
45.0210251202
 20
10.1324094098
 11
45.0210251202
 21
6.3509219291
  0
LINE
  5
36F
100
AcDbEntity
  8
0
100
AcDbLine
 62
7
  6
CONTINUOUS
 10
45.0210251202
 20
-59.2538894427
 11
45.0210251202
 21
-63.0353769234
  0
LINE
  5
370
100
AcDbEntity
  8
0
100
AcDbLine
 62
7
  6
CONTINUOUS
 10
45.553410205
 20
92.0488219438
 11
45.553410205
 21
91.5466571264
  0
LWPOLYLINE
  5
371
100
AcDbEntity
  8
0
100
AcDbPolyline
 62
7
  6
CONTINUOUS
 90
32
 70
0
 10
46.1242060971
 20
90.410431558
 10
46.1242060971
 20
-63.6061728154
 10
46.0747046896
 20
-65.9848428021
 10
45.8790642807
 20
-68.850519009
 10
45.5410575175
 20
-71.6061052645
 10
45.0684842544
 20
-74.235514358
 10
44.4696693384
 20
-76.7276491894
 10
43.7529300936
 20
-79.0756415485
 10
42.9261574584
 20
-81.2760590058
 10
41.9964978274
 20
-83.3281421733
 10
40.9701194018
 20
-85.2331046081
 10
39.8520478927
 20
-86.9935078113
 10
38.6460593811
 20
-88.6127123646
 10
37.3546214651
 20
-90.0944009273
 10
35.9788765798
 20
-91.442167418
 10
34.5186630772
 20
-92.659167483
 10
32.9725701727
 20
-93.7478269472
 10
31.3380223584
 20
-94.7096063645
 10
30.3369024991
 20
-95.1625919392
 10
28.460601587
 20
-95.8443728883
 10
25.4913098614
 20
-96.7775825774
 10
21.9729331139
 20
-97.777987784
 10
21.3012219549
 20
-97.9587087603
 10
21.2377607349
 20
-98.271352522
 10
21.0281522005
 20
-98.6514268567
 10
20.6758785034
 20
-98.9720533153
 10
20.1703626022
 20
-99.2110140475
 10
18.5571094872
 20
-99.6575002896
 10
15.3413427523
 20
-100.5106533182
 10
10.2575500249
 20
-101.8367881238
 10
10.2244353902
 20
-101.8437337015
 10
10.17479733
 20
-101.8531692033
  0
LWPOLYLINE
  5
372
100
AcDbEntity
  8
0
100
AcDbPolyline
 62
7
  6
CONTINUOUS
 90
54
 70
0
 10
43.9590792745
 20
-64.1605876279
 10
43.9415866875
 20
-65.5780418741
 10
43.8847660939
 20
-67.0574934451
 10
43.7895262742
 20
-68.4988962051
 10
43.6568494683
 20
-69.9023926632
 10
43.4877028542
 20
-71.2681487192
 10
43.2830358566
 20
-72.5963526081
 10
43.0437774049
 20
-73.8872135807
 10
42.7708331661
 20
-75.1409603097
 10
42.4650827817
 20
-76.357839014
 10
42.127377142
 20
-77.538111297
 10
41.7585357298
 20
-78.6820516969
 10
41.3593440744
 20
-79.7899449549
 10
40.9305513542
 20
-80.8620830072
 10
40.4728681891
 20
-81.8987617172
 10
39.9869646665
 20
-82.9002773644
 10
39.4734686424
 20
-83.8669229181
 10
38.932964361
 20
-84.7989841253
 10
38.3659914316
 20
-85.6967354516
 10
37.7730442008
 20
-86.5604359185
 10
37.1545715536
 20
-87.3903248862
 10
36.5109771704
 20
-88.1866178362
 10
35.8426202622
 20
-88.9495022133
 10
35.1498167965
 20
-89.6791333869
 10
34.4328412216
 20
-90.3756307967
 10
34.0653577337
 20
-90.7114864152
 10
33.6919558969
 20
-91.0390509588
 10
32.9276055427
 20
-91.6692419002
 10
32.1399811714
 20
-92.2662286767
 10
31.3292413003
 20
-92.8299901301
 10
30.4955156175
 20
-93.3604565462
 10
29.6389090053
 20
-93.8575077963
 10
28.9893515216
 20
-94.1945973447
 10
28.2118003397
 20
-94.5533541081
 10
27.2951054354
 20
-94.9329971071
 10
26.2310770873
 20
-95.3316449629
 10
25.0174092376
 20
-95.7456555892
 10
23.6634828725
 20
-96.1683259024
 10
22.2034592037
 20
-96.5870095793
 10
20.7323962059
 20
-96.9753286419
 10
19.5508098126
 20
-97.2626898935
 10
19.3897194327
 20
-97.2995115253
 10
19.3578306592
 20
-97.485689386
 10
19.2924800832
 20
-97.7378612062
 10
19.2070074198
 20
-97.9409546194
 10
19.0965132452
 20
-98.1121185362
 10
18.9550021694
 20
-98.260088086
 10
18.774096323
 20
-98.3891090878
 10
18.5465357754
 20
-98.4986003539
 10
18.2616844041
 20
-98.5876857279
 10
17.259902056
 20
-98.8494847048
 10
12.8572293496
 20
-100.036309782
 10
12.1743826114
 20
-100.2215120061
 10
9.2563271465
 20
-101.0146273906
  0
LWPOLYLINE
  5
373
100
AcDbEntity
  8
0
100
AcDbPolyline
 62
7
  6
CONTINUOUS
 90
30
 70
0
 10
38.1754284694
 20
76.1648234439
 10
38.1703425124
 20
76.1321509039
 10
38.1528440401
 20
76.0895381085
 10
38.1203348625
 20
76.0386829624
 10
38.1128314289
 20
76.0289916893
 10
38.0643019484
 20
75.9763785732
 10
38.0084900855
 20
75.9304648453
 10
37.9493967285
 20
75.8941197766
 10
37.8896242692
 20
75.8683109115
 10
37.830578502
 20
75.8530180679
 10
37.7236758037
 20
75.8275327148
 10
37.1851755207
 20
75.6877481168
 10
35.7944390118
 20
75.3209972644
 10
34.6390285402
 20
75.0195734135
 10
34.0019513412
 20
74.8586386836
 10
33.7045234862
 20
74.7885303306
 10
33.5459022147
 20
74.759006875
 10
33.3840107947
 20
74.7390712411
 10
33.2186462251
 20
74.7287533418
 10
33.0495849578
 20
74.7281183747
 10
32.8765426088
 20
74.7372530262
 10
32.6990553106
 20
74.7562510945
 10
32.5161039806
 20
74.7852136859
 10
32.3246325944
 20
74.8243527915
 10
32.2773733958
 20
74.8351221469
 10
32.0771479642
 20
74.8822978893
 10
31.6672025592
 20
74.9803186391
 10
28.4447470761
 20
75.7603201417
 10
27.5609995691
 20
75.9746402402
 10
25.2315513134
 20
76.5398936787
  0
LWPOLYLINE
  5
374
100
AcDbEntity
  8
0
100
AcDbPolyline
 62
7
  6
CONTINUOUS
 90
133
 70
0
 10
1.5639981432
 20
-30.5389867491
 10
1.5362678384
 20
-30.6458682201
 10
1.5125305816
 20
-30.7528645375
 10
1.4928113036
 20
-30.8597310956
 10
1.4771245275
 20
-30.9662097561
 10
1.4654726517
 20
-31.0720305262
 10
1.4578443378
 20
-31.1769137674
 10
1.4542130833
 20
-31.2805729304
 10
1.4539076143
 20
-31.3092578316
 10
1.4553215939
 20
-31.410834935
 10
1.4605945397
 20
-31.5104159375
 10
1.4696310306
 20
-31.607722832
 10
1.4823190757
 20
-31.7024905667
 10
1.4985314316
 20
-31.7944709675
 10
1.5181274266
 20
-31.8834362599
 10
1.5409552311
 20
-31.9691820278
 10
1.5668544921
 20
-32.0515294768
 10
1.5956592292
 20
-32.1303269079
 10
1.6272008797
 20
-32.2054503505
 10
1.6613113771
 20
-32.2768033513
 10
1.6978261525
 20
-32.3443159543
 10
1.7365869605
 20
-32.4079429438
 10
1.777444445
 20
-32.4676614496
 10
1.820260378
 20
-32.5234680282
 10
1.8649095246
 20
-32.5753753459
 10
1.9112810996
 20
-32.6234085891
 10
1.9592798001
 20
-32.6676017225
 10
2.0088264098
 20
-32.7079937129
 10
2.0598579826
 20
-32.7446248203
 10
2.1123276233
 20
-32.7775330533
 10
2.1662038926
 20
-32.8067508712
 10
2.2214698748
 20
-32.832302204
 10
2.278121952
 20
-32.8541998487
 10
2.3361683406
 20
-32.8724432855
 10
2.3952476402
 20
-32.8866946482
 10
2.4550871439
 20
-32.8971126361
 10
2.5156913918
 20
-32.9036966918
 10
2.577061078
 20
-32.9064291242
 10
2.639190622
 20
-32.9052763499
 10
2.7020657406
 20
-32.9001906209
 10
2.7656610896
 20
-32.8911122222
 10
2.8299380478
 20
-32.8779721123
 10
2.8948427124
 20
-32.8606949585
 10
2.9603041758
 20
-32.8392025077
 10
3.0262331508
 20
-32.8134172131
 10
3.0925210067
 20
-32.7832660289
 10
3.1590392744
 20
-32.7486842622
 10
3.2256396699
 20
-32.709619366
 10
3.292154671
 20
-32.6660345409
 10
3.3583986688
 20
-32.6179120089
 10
3.4241696866
 20
-32.5652558249
 10
3.4892516395
 20
-32.5080940976
 10
3.5534170734
 20
-32.4464805125
 10
3.616430296
 20
-32.3804950764
 10
3.6780507852
 20
-32.3102440427
 10
3.7380367408
 20
-32.235859015
 10
3.7961486344
 20
-32.1574952778
 10
3.8521526123
 20
-32.0753294409
 10
3.9058236161
 20
-31.9895565215
 10
3.922554329
 20
-31.9612372091
 10
3.9727597968
 20
-31.8711280862
 10
4.0201174845
 20
-31.7780208879
 10
4.0644615613
 20
-31.6821471866
 10
4.1056432181
 20
-31.5837388586
 10
4.1435306457
 20
-31.4830251452
 10
4.1780085997
 20
-31.3802301014
 10
4.2089776232
 20
-31.2755704634
 10
4.2364492403
 20
-31.1687274141
 10
4.2599256163
 20
-31.061786342
 10
4.2793828979
 20
-30.9549909759
 10
4.2948076192
 20
-30.8485984959
 10
4.3061984094
 20
-30.7428778674
 10
4.3135675957
 20
-30.6381076496
 10
4.3169426221
 20
-30.5345732779
 10
4.3171764538
 20
-30.5061804705
 10
4.3155211056
 20
-30.4047344727
 10
4.3100114746
 20
-30.3052926242
 10
4.3007436348
 20
-30.2081319362
 10
4.2878301668
 20
-30.1135165439
 10
4.2713988417
 20
-30.0216937961
 10
4.2515908009
 20
-29.932890741
 10
4.2285582887
 20
-29.8473111703
 10
4.2024620224
 20
-29.7651333549
 10
4.173468299
 20
-29.6865085674
 10
4.141745954
 20
-29.6115604417
 10
4.1074632862
 20
-29.5403851764
 10
4.0707850589
 20
-29.4730525461
 10
4.0318696774
 20
-29.4096076497
 10
3.9908666269
 20
-29.3500732984
 10
3.9479142374
 20
-29.2944529274
 10
3.9031378238
 20
-29.2427339085
 10
3.856648236
 20
-29.1948911363
 10
3.808540832
 20
-29.150890766
 10
3.7588948826
 20
-29.1106939891
 10
3.7077733963
 20
-29.074260739
 10
3.6552233477
 20
-29.0415532339
 10
3.6012762824
 20
-29.012539272
 10
3.5459492588
 20
-28.9871952074
 10
3.4892460823
 20
-28.9655085499
 10
3.4311587777
 20
-28.9474801427
 10
3.3720185494
 20
-28.9330081811
 10
3.3121595788
 20
-28.9223797715
 10
3.2515769845
 20
-28.9155917737
 10
3.1902693509
 20
-28.9126582833
 10
3.128241119
 20
-28.9136094807
 10
3.0655049851
 20
-28.9184899986
 10
3.0020842383
 20
-28.927356819
 10
2.9380149673
 20
-28.9402767262
 10
2.873348066
 20
-28.9573233596
 10
2.8081509704
 20
-28.9785739254
 10
2.7425090606
 20
-29.0041056387
 10
2.676526667
 20
-29.033991988
 10
2.610327623
 20
-29.0682989218
 10
2.5440553168
 20
-29.1070810744
 10
2.477872205
 20
-29.1503781579
 10
2.4119587682
 20
-29.1982116531
 10
2.346511909
 20
-29.2505819333
 10
2.2817428187
 20
-29.3074659462
 10
2.2178743647
 20
-29.3688155658
 10
2.1551380821
 20
-29.4345566957
 10
2.0937708747
 20
-29.5045891736
 10
2.0340115536
 20
-29.5787874847
 10
1.9760973533
 20
-29.6570022482
 10
1.9202605658
 20
-29.7390623983
 10
1.8667254263
 20
-29.8247779443
 10
1.8506844717
 20
-29.8519676004
 10
1.8005224197
 20
-29.9420802264
 10
1.7531774917
 20
-30.0352525093
 10
1.7088174031
 20
-30.1312546925
 10
1.66759322
 20
-30.2298558594
 10
1.6296392765
 20
-30.3308269176
 10
1.5950735093
 20
-30.4339432145
 10
1.5639981432
 20
-30.5389867491
  0
LINE
  5
375
100
AcDbEntity
  8
0
100
AcDbLine
 62
7
  6
CONTINUOUS
 10
11.2918174948
 20
-44.0262638538
 11
-6.059417353
 21
-48.499993161
  0
LWPOLYLINE
  5
376
100
AcDbEntity
  8
0
100
AcDbPolyline
 62
7
  6
CONTINUOUS
 90
10
 70
0
 10
-0.9349637829
 20
-45.2565394132
 10
6.867796291
 20
-43.2512693324
 10
6.9816529379
 20
-43.2081789699
 10
7.092467945
 20
-43.141187076
 10
7.1954443025
 20
-43.0514405925
 10
7.2271113953
 20
-43.0168577384
 10
7.309600969
 20
-42.9034620222
 10
7.3694109123
 20
-42.7824994852
 10
7.4049538591
 20
-42.6605891485
 10
7.4165624554
 20
-42.5423639939
  0
LWPOLYLINE
  5
377
100
AcDbEntity
  8
0
100
AcDbPolyline
 62
7
  6
CONTINUOUS
 90
61
 70
0
 10
1.710015697
 20
-4.9133297098
 10
1.8391241712
 20
-4.9069194286
 10
1.9696560934
 20
-4.8929277837
 10
2.1015655768
 20
-4.8712389457
 10
2.2347839245
 20
-4.8417226541
 10
2.3692166458
 20
-4.8042390137
 10
2.5047408763
 20
-4.7586437502
 10
2.6412032889
 20
-4.7047938215
 10
2.7784185742
 20
-4.6425532683
 10
2.9161685666
 20
-4.5717991655
 10
3.0542020816
 20
-4.4924275219
 10
3.1922355167
 20
-4.4043589609
 10
3.3299542514
 20
-4.3075440052
 10
3.4670148538
 20
-4.2019677852
 10
3.6030480771
 20
-4.0876539963
 10
3.7376625902
 20
-3.9646679465
 10
3.8704493559
 20
-3.833118561
 10
4.0009865315
 20
-3.6931592526
 10
4.1288447387
 20
-3.5449876091
 10
4.253592525
 20
-3.3888439064
 10
4.3748018262
 20
-3.2250085094
 10
4.4920532398
 20
-3.0537982765
 10
4.6049409279
 20
-2.875562129
 10
4.617419041
 20
-2.8549735066
 10
4.7249543659
 20
-2.6694311527
 10
4.8272425135
 20
-2.4778692848
 10
4.9239662091
 20
-2.2807068473
 10
5.0148360958
 20
-2.0783674776
 10
5.0995913334
 20
-1.8712744664
 10
5.177999525
 20
-1.6598462099
 10
5.2498560536
 20
-1.4444922278
 10
5.3149829241
 20
-1.2256097878
 10
5.3717193291
 20
-1.0040400666
 10
5.4208731092
 20
-0.7820197173
 10
5.4623894703
 20
-0.5599924562
 10
5.4962309055
 20
-0.3384262904
 10
5.5223799638
 20
-0.1178109721
 10
5.5408418829
 20
0.1013453476
 10
5.5516469795
 20
0.3185202678
 10
5.5541848187
 20
0.4255146588
 10
5.5536469381
 20
0.6386440756
 10
5.5456673973
 20
0.84824957
 10
5.5303993615
 20
1.0538098609
 10
5.5080250786
 20
1.2548220624
 10
5.4787542446
 20
1.4508082409
 10
5.4428215973
 20
1.6413215194
 10
5.4004837971
 20
1.8259514864
 10
5.3520156889
 20
2.0043286986
 10
5.2977060687
 20
2.1761281061
 10
5.2378530995
 20
2.3410712851
 10
5.1727595321
 20
2.4989274204
 10
5.1027278857
 20
2.6495130371
 10
5.0280557386
 20
2.7926905349
 10
4.9490312624
 20
2.9283656243
 10
4.8659291131
 20
3.0564837964
 10
4.7790067719
 20
3.1770259823
 10
4.6885014053
 20
3.2900035714
 10
4.5946272914
 20
3.3954529586
 10
4.4975738424
 20
3.4934297882
 10
4.3975042343
 20
3.5840030554
 10
4.2945546421
 20
3.6672492096
  0
LWPOLYLINE
  5
378
100
AcDbEntity
  8
0
100
AcDbPolyline
 62
7
  6
CONTINUOUS
 90
88
 70
0
 10
26.3127025627
 20
81.1432594602
 10
26.2663725359
 20
81.1921269995
 10
26.2185671921
 20
81.237002605
 10
26.1691399152
 20
81.2781317761
 10
26.1179209947
 20
81.3157209341
 10
26.0648003615
 20
81.3498874461
 10
26.0096475761
 20
81.3807348424
 10
25.9522361535
 20
81.4083833071
 10
25.8923123663
 20
81.4329153559
 10
25.8295932679
 20
81.4543764843
 10
25.8190107174
 20
81.4576067278
 10
25.7586024429
 20
81.4719480656
 10
25.6974601037
 20
81.4824839558
 10
25.6355805561
 20
81.4892143572
 10
25.5729642373
 20
81.4921233443
 10
25.5096173494
 20
81.4911802126
 10
25.4455540436
 20
81.4863410088
 10
25.3807985439
 20
81.4775504751
 10
25.3153871489
 20
81.464744384
 10
25.2493700511
 20
81.4478522232
 10
25.1828129148
 20
81.4268001807
 10
25.1157981555
 20
81.4015143655
 10
25.0484258655
 20
81.3719241875
 10
24.9808143393
 20
81.3379658068
 10
24.9131001532
 20
81.2995855542
 10
24.8454377698
 20
81.2567432138
 10
24.777998648
 20
81.2094150526
 10
24.7109698566
 20
81.1575964837
 10
24.6445522132
 20
81.1013042525
 10
24.5789579889
 20
81.0405780506
 10
24.5144082469
 20
80.9754814801
 10
24.451129903
 20
80.9061023225
 10
24.3893526138
 20
80.8325520955
 10
24.3293056105
 20
80.7549649204
 10
24.271214601
 20
80.6734957565
 10
24.2152988574
 20
80.5883180916
 10
24.2093778143
 20
80.5788708162
 10
24.1561252024
 20
80.4898165056
 10
24.1055266046
 20
80.3975628166
 10
24.0577547676
 20
80.3023252374
 10
24.0129673009
 20
80.2043225149
 10
23.9713062943
 20
80.1037737734
 10
23.9328983423
 20
80.0008959144
 10
23.8978549219
 20
79.8959013472
 10
23.866273064
 20
79.7889960746
 10
23.8379381229
 20
79.6800035863
 10
23.8135660601
 20
79.5709069753
 10
23.7931814903
 20
79.4619453342
 10
23.7767990556
 20
79.3533704211
 10
23.7644218467
 20
79.2454450604
 10
23.7560399209
 20
79.1384410667
 10
23.7516289903
 20
79.0326366968
 10
23.7512455894
 20
79.0132328194
 10
23.7514853003
 20
78.9092952521
 10
23.7555756741
 20
78.8072810965
 10
23.7634288055
 20
78.7074619394
 10
23.7749409172
 20
78.6100978408
 10
23.7899934587
 20
78.5154336652
 10
23.8084546661
 20
78.4236957403
 10
23.8301815393
 20
78.3350889871
 10
23.855022169
 20
78.2497946461
 10
23.8828183273
 20
78.1679686916
 10
23.9134082287
 20
78.0897409885
 10
23.9466293589
 20
78.0152152098
 10
23.9823212733
 20
77.9444694946
 10
24.020328276
 20
77.8775577947
 10
24.0605018984
 20
77.8145118324
 10
24.1027031136
 20
77.7553435752
 10
24.1468042364
 20
77.7000481202
 10
24.1926904737
 20
77.6486068799
 10
24.2402611034
 20
77.6009909608
 10
24.2894302716
 20
77.5571646304
 10
24.3401274089
 20
77.5170887776
 10
24.3922972752
 20
77.4807242774
 10
24.4458996509
 20
77.4480351826
 10
24.5009087026
 20
77.418991672
 10
24.5573120548
 20
77.3935726975
 10
24.6151096118
 20
77.3717682832
 10
24.6743121769
 20
77.3535814397
 10
24.735973612
 20
77.3389354726
 10
24.7988064256
 20
77.3279797215
 10
24.8628967702
 20
77.3207261404
 10
24.9283316916
 20
77.3172100851
 10
24.9951971156
 20
77.3174893462
 10
25.0635757359
 20
77.3216428108
 10
25.1335448005
 20
77.3297687474
 10
25.2051737845
 20
77.3419827034
 10
25.2066972617
 20
77.3422841435
  0
LWPOLYLINE
  5
379
100
AcDbEntity
  8
0
100
AcDbPolyline
 62
7
  6
CONTINUOUS
 90
24
 70
0
 10
41.3002606067
 20
80.9170311032
 10
41.2867299536
 20
80.9409809882
 10
41.2698424353
 20
80.9651522275
 10
41.2493231825
 20
80.9896075436
 10
41.2248618651
 20
81.0143844731
 10
41.1961228007
 20
81.0394945893
 10
41.1627563651
 20
81.0649226707
 10
41.1244126635
 20
81.0906253337
 10
41.0807590247
 20
81.1165286451
 10
41.0315037668
 20
81.1425241615
 10
40.9764300997
 20
81.1684626775
 10
40.9154464293
 20
81.1941446575
 10
40.8486634749
 20
81.2193058211
 10
40.7765157748
 20
81.2435956279
 10
40.6999570161
 20
81.2665456861
 10
40.6207751734
 20
81.2875256833
 10
40.6136674283
 20
81.289277014
 10
40.5414671651
 20
81.3087462632
 10
40.3506136837
 20
81.3633587813
 10
39.9526719695
 20
81.4801919682
 10
39.2637648982
 20
81.6851489657
 10
38.8174447763
 20
81.8187428775
 10
38.2067377962
 20
82.0021725575
 10
37.9545663281
 20
82.0781107233
  0
LWPOLYLINE
  5
37A
100
AcDbEntity
  8
0
100
AcDbPolyline
 62
7
  6
CONTINUOUS
 90
36
 70
0
 10
46.5518087594
 20
90.3607234546
 10
46.5518087594
 20
-64.0337754777
 10
46.51437778
 20
-66.1053935026
 10
46.3325269714
 20
-69.0015177601
 10
46.0057186919
 20
-71.7873156545
 10
45.5418237206
 20
-74.4460904276
 10
44.9492924049
 20
-76.9662960112
 10
44.2365986065
 20
-79.3407571497
 10
43.4118016786
 20
-81.5658526053
 10
42.4822134192
 20
-83.6407278256
 10
41.4541532391
 20
-85.5665716361
 10
40.3327757199
 20
-87.3459704362
 10
39.1219577854
 20
-88.9823412061
 10
37.8242361814
 20
-90.4794389411
 10
36.4407888619
 20
-91.8409326086
 10
34.9714556768
 20
-93.0700445261
 10
33.4147943137
 20
-94.1692497227
 10
31.7681669123
 20
-95.1400333508
 10
30.7646598378
 20
-95.5955936778
 10
28.8828905724
 20
-96.2803057852
 10
25.9051085922
 20
-97.2161873126
 10
22.3859064199
 20
-98.2158356561
 10
21.7313665089
 20
-98.3916776383
 10
21.6272843007
 20
-98.7676746983
 10
21.6130424461
 20
-98.7981792886
 10
21.3112588988
 20
-99.243578102
 10
20.8954800057
 20
-99.6010578293
 10
20.4186206869
 20
-99.8286937188
 10
18.9840917129
 20
-100.2163951349
 10
15.2812231411
 20
-101.1663714774
 10
9.8217568228
 20
-102.551059678
 10
9.4001434914
 20
-102.5875331512
 10
8.9401328717
 20
-102.5215934817
 10
8.9143015031
 20
-102.5180150865
 10
8.4343468952
 20
-102.3983517502
 10
7.6015556811
 20
-102.1401205276
  0
LWPOLYLINE
  5
37B
100
AcDbEntity
  8
0
100
AcDbPolyline
 62
7
  6
CONTINUOUS
 90
45
 70
0
 10
-2.1347366426
 20
70.6234996429
 10
-2.0863028971
 20
70.6850980336
 10
-2.0389744349
 20
70.7495038884
 10
-1.9928485068
 20
70.8166721028
 10
-1.9480232587
 20
70.8865486771
 10
-1.9045969715
 20
70.9590708485
 10
-1.8626673011
 20
71.0341673607
 10
-1.8223305337
 20
71.1117588646
 10
-1.7836808713
 20
71.191758441
 10
-1.7468097614
 20
71.2740722301
 10
-1.7118052831
 20
71.3586001538
 10
-1.6787516021
 20
71.4452367107
 10
-1.6477285005
 20
71.5338718247
 10
-1.6299433125
 20
71.5885257818
 10
-1.6023515577
 20
71.6800792728
 10
-1.5794566222
 20
71.7692319371
 10
-1.5591906003
 20
71.8585052864
 10
-1.5415692893
 20
71.9477671657
 10
-1.5266040876
 20
72.0368793179
 10
-1.5143013888
 20
72.1256979346
 10
-1.5046619986
 20
72.2140743555
 10
-1.4976805908
 20
72.3018559195
 10
-1.4933452222
 20
72.3888869623
 10
-1.492904464
 20
72.4024488893
 10
-1.4916057045
 20
72.4884035868
 10
-1.4929002757
 20
72.5732050066
 10
-1.4967473852
 20
72.6566974138
 10
-1.5030986935
 20
72.7387287989
 10
-1.5118985511
 20
72.8191523431
 10
-1.5230843847
 20
72.8978278334
 10
-1.5365872284
 20
72.974622988
 10
-1.5523323907
 20
73.0494146511
 10
-1.5702402422
 20
73.1220898232
 10
-1.5902271058
 20
73.1925464975
 10
-1.6122062273
 20
73.260694279
 10
-1.6360888007
 20
73.3264547728
 10
-1.6617850246
 20
73.3897617352
 10
-1.6892051629
 20
73.4505609883
 10
-1.718260586
 20
73.5088101085
 10
-1.7488647707
 20
73.5644779038
 10
-1.7809342383
 20
73.6175436996
 10
-1.8143894151
 20
73.6679964588
 10
-1.8491554017
 20
73.7158337619
 10
-1.8851626404
 20
73.7610606745
 10
-1.9223474735
 20
73.8036885317
  0
LINE
  5
37C
100
AcDbEntity
  8
0
100
AcDbLine
 62
7
  6
CONTINUOUS
 10
42.1746713349
 20
39.1534688312
 11
41.9566335177
 21
39.2444120658
  0
LWPOLYLINE
  5
37D
100
AcDbEntity
  8
0
100
AcDbPolyline
 62
7
  6
CONTINUOUS
 90
87
 70
0
 10
34.8463977027
 20
79.3393636846
 10
34.8319942407
 20
79.3548007732
 10
34.7927502897
 20
79.3936921596
 10
34.7522346424
 20
79.4294274335
 10
34.710525451
 20
79.4620267321
 10
34.6676880786
 20
79.491513701
 10
34.6237751258
 20
79.5179126121
 10
34.5788267822
 20
79.5412456241
 10
34.532871472
 20
79.5615302546
 10
34.4859267557
 20
79.5787771192
 10
34.438000444
 20
79.592987985
 10
34.3887167487
 20
79.6050104788
 10
34.3388221135
 20
79.6138991311
 10
34.288310983
 20
79.6196552289
 10
34.23718048
 20
79.6222663709
 10
34.1854322551
 20
79.621707358
 10
34.1330743437
 20
79.6179414465
 10
34.0801229804
 20
79.6109219577
 10
34.0266043207
 20
79.6005942227
 10
33.9725560179
 20
79.5868978336
 10
33.9180286067
 20
79.569769158
 10
33.8630866445
 20
79.5491440642
 10
33.8078095651
 20
79.5249607959
 10
33.7522922021
 20
79.4971629214
 10
33.6966449441
 20
79.4657022753
 10
33.6409934908
 20
79.4305418009
 10
33.5854781923
 20
79.3916581965
 10
33.5302529635
 20
79.3490442658
 10
33.4754837863
 20
79.3027108757
 10
33.4213468303
 20
79.2526884367
 10
33.3680262433
 20
79.1990278324
 10
33.3157116824
 20
79.1418007537
 10
33.2645956748
 20
79.0810994152
 10
33.2148709078
 20
79.0170356684
 10
33.1667275525
 20
78.9497395534
 10
33.1203507261
 20
78.8793573622
 10
33.0759181853
 20
78.806049312
 10
33.07163667
 20
78.7986478378
 10
33.0295756174
 20
78.7224007213
 10
32.9898330602
 20
78.643681716
 10
32.9525426459
 20
78.5626776158
 10
32.9178247642
 20
78.4795757618
 10
32.8857865121
 20
78.3945617508
 10
32.856521973
 20
78.307817429
 10
32.830112758
 20
78.2195191958
 10
32.8069985969
 20
78.1299502424
 10
32.7871388102
 20
78.0402617923
 10
32.7705543666
 20
77.9506493738
 10
32.7572581719
 20
77.8613193475
 10
32.7472537434
 20
77.7724876564
 10
32.7405339585
 20
77.6843781769
 10
32.7370799324
 20
77.5972206688
 10
32.7368530826
 20
77.5849659717
 10
32.7370871663
 20
77.4992198063
 10
32.7404945884
 20
77.4150166509
 10
32.7470043527
 20
77.3325835871
 10
32.756532138
 20
77.2521388515
 10
32.7689811425
 20
77.1738887166
 10
32.7842433178
 20
77.0980246164
 10
32.8022009625
 20
77.0247206419
 10
32.8227286178
 20
76.9541315179
 10
32.8456951999
 20
76.8863911418
 10
32.8709662859
 20
76.8216117415
 10
32.8984064718
 20
76.7598836711
 10
32.9278817168
 20
76.7012758345
 10
32.9592615973
 20
76.6458366987
 10
32.992421403
 20
76.593595834
 10
33.0272440169
 20
76.5445659041
 10
33.063621538
 20
76.4987450175
 10
33.1014566132
 20
76.456119348
 10
33.1406634615
 20
76.4166659328
 10
33.1811685787
 20
76.3803555598
 10
33.2229111244
 20
76.3471556623
 10
33.2658429973
 20
76.3170331459
 10
33.3099286139
 20
76.2899570804
 10
33.3551444125
 20
76.2659011985
 10
33.4014781093
 20
76.2448461493
 10
33.4489277408
 20
76.226781467
 10
33.4975005328
 20
76.2117072233
 10
33.5021435124
 20
76.2106010039
 10
33.5593024532
 20
76.198718032
 10
33.6159424415
 20
76.1901252606
 10
33.6719820305
 20
76.1847790677
 10
33.7273626516
 20
76.182635226
 10
33.78204504
 20
76.1836528075
 10
33.8360058178
 20
76.1877974027
 10
33.8892342796
 20
76.1950437113
  0
LINE
  5
37E
100
AcDbEntity
  8
0
100
AcDbLine
 62
7
  6
CONTINUOUS
 10
43.9562549505
 20
81.0740635208
 11
45.0210251202
 21
79.5379136659
  0
LINE
  5
37F
100
AcDbEntity
  8
0
100
AcDbLine
 62
7
  6
CONTINUOUS
 10
42.3014834851
 20
80.6687730185
 11
43.3634293308
 21
79.1351650553
  0
LWPOLYLINE
  5
380
100
AcDbEntity
  8
0
100
AcDbPolyline
 62
7
  6
CONTINUOUS
 90
10
 70
0
 10
6.867796291
 20
-16.6105502267
 10
-0.9349637829
 20
-18.6155378752
 10
-1.0482551453
 20
-18.6575015187
 10
-1.1585289261
 20
-18.72333721
 10
-1.2611193328
 20
-18.811996036
 10
-1.294908122
 20
-18.8487871813
 10
-1.3770112455
 20
-18.9619139091
 10
-1.436631274
 20
-19.0829695652
 10
-1.4721213511
 20
-19.2053688669
 10
-1.4837299473
 20
-19.3244432137
  0
LINE
  5
381
100
AcDbEntity
  8
0
100
AcDbLine
 62
7
  6
CONTINUOUS
 10
-6.4014429964
 20
-16.582871851
 11
-7.4331685746
 21
-16.8311299356
  0
LINE
  5
382
100
AcDbEntity
  8
0
100
AcDbLine
 62
7
  6
CONTINUOUS
 10
41.8326456916
 20
-4.1106568126
 11
40.9887376632
 21
-4.2981919301
  0
LINE
  5
383
100
AcDbEntity
  8
0
100
AcDbLine
 62
7
  6
CONTINUOUS
 10
43.8624873918
 20
6.883307014
 11
44.5191427351
 21
6.9798988967
  0
LINE
  5
384
100
AcDbEntity
  8
0
100
AcDbLine
 62
7
  6
CONTINUOUS
 10
-12.3093640601
 20
-7.7071510676
 11
-11.6529911491
 21
-7.6108416172
  0
LINE
  5
385
100
AcDbEntity
  8
0
100
AcDbLine
 62
7
  6
CONTINUOUS
 10
-11.6529911491
 20
-5.3629620998
 11
-12.3121883841
 21
-5.4567296585
  0
LINE
  5
386
100
AcDbEntity
  8
0
100
AcDbLine
 62
7
  6
CONTINUOUS
 10
39.3613621412
 20
39.7767971507
 11
40.7348309304
 21
39.4649917747
  0
LINE
  5
387
100
AcDbEntity
  8
0
100
AcDbLine
 62
7
  6
CONTINUOUS
 10
40.6438876957
 20
45.2489250123
 11
39.3613621412
 21
45.5632722799
  0
LINE
  5
388
100
AcDbEntity
  8
0
100
AcDbLine
 62
7
  6
CONTINUOUS
 10
-11.6529911491
 20
61.8802396578
 11
-12.3121883841
 21
62.1011017991
  0
LWPOLYLINE
  5
389
100
AcDbEntity
  8
0
100
AcDbPolyline
 62
7
  6
CONTINUOUS
 90
10
 70
0
 10
-8.9664941055
 20
70.0058199715
 10
-8.6908809813
 20
69.9124346568
 10
-7.0208706201
 20
69.3445576168
 10
-6.4042673205
 20
69.1314092433
 10
-6.2904413445
 20
69.0789621288
 10
-6.2208276141
 20
69.0233321536
 10
-6.1798633129
 20
68.9555822806
 10
-6.1593489574
 20
68.8639146117
 10
-6.153223403
 20
68.7037598837
 10
-6.1531849117
 20
68.6597471257
  0
LINE
  5
38A
100
AcDbEntity
  8
0
100
AcDbLine
 62
7
  6
CONTINUOUS
 10
-5.4335471419
 20
72.8191291653
 11
-2.1816204219
 21
71.6303711694
  0
LWPOLYLINE
  5
38B
100
AcDbEntity
  8
0
100
AcDbPolyline
 62
7
  6
CONTINUOUS
 90
36
 70
0
 10
22.4676677907
 20
-69.7790154757
 10
22.4555209378
 20
-69.8286642683
 10
22.4207071897
 20
-69.9774411867
 10
22.385557912
 20
-70.1256080511
 10
22.3465042886
 20
-70.272707321
 10
22.168244055
 20
-70.903387138
 10
21.9673131456
 20
-71.5225085275
 10
21.7443991582
 20
-72.1284952132
 10
21.5003116569
 20
-72.7197171848
 10
21.235987704
 20
-73.2945097104
 10
20.9524941337
 20
-73.8511960519
 10
20.6510259159
 20
-74.3881134726
 10
20.6132974569
 20
-74.4518186955
 10
20.2936353074
 20
-74.9640501093
 10
19.9594361709
 20
-75.4525523167
 10
19.6122905246
 20
-75.9159947865
 10
19.2538397509
 20
-76.3532046674
 10
18.8857490875
 20
-76.7631876005
 10
18.5096790994
 20
-77.1451426046
 10
18.1272570177
 20
-77.4984701547
 10
17.7400492884
 20
-77.8227730139
 10
17.3495365608
 20
-78.1178498376
 10
16.9570921379
 20
-78.3836820034
 10
16.5639646449
 20
-78.6204144788
 10
16.1712653813
 20
-78.8283318014
 10
15.7799605433
 20
-79.0078303995
 10
15.3908682601
 20
-79.1593885297
 10
15.0046601926
 20
-79.2835350795
 10
14.6218673036
 20
-79.3808183908
 10
14.2428893138
 20
-79.4517761355
 10
13.8680072992
 20
-79.4969071332
 10
13.49739885
 20
-79.5166458549
 10
13.1311551882
 20
-79.5113402098
 10
12.7692996221
 20
-79.4812330674
 10
12.4118067064
 20
-79.4264478139
 10
12.0586214764
 20
-79.3469780856
  0
LWPOLYLINE
  5
38C
100
AcDbEntity
  8
0
100
AcDbPolyline
 62
7
  6
CONTINUOUS
 90
13
 70
0
 10
8.0537299628
 20
-64.8556537785
 10
7.980890934
 20
-65.0582026512
 10
7.9096054855
 20
-65.265925117
 10
7.8399151532
 20
-65.4788943869
 10
7.7718629824
 20
-65.6971820129
 10
7.7054934902
 20
-65.9208575686
 10
7.6408526269
 20
-66.1499882982
 10
7.5779877348
 20
-66.3846387296
 10
7.5710529813
 20
-66.4112914694
 10
7.5404667288
 20
-66.5175423349
 10
7.5284486178
 20
-66.562390547
 10
7.5003683407
 20
-66.6746353986
 10
7.474743531
 20
-66.7863617043
  0
LINE
  5
38D
100
AcDbEntity
  8
0
100
AcDbLine
 62
7
  6
CONTINUOUS
 10
5.1164329429
 20
-12.7768127509
 11
-2.2725636566
 21
-14.748755808
  0
LWPOLYLINE
  5
38E
100
AcDbEntity
  8
0
100
AcDbPolyline
 62
7
  6
CONTINUOUS
 90
18
 70
0
 10
-6.2746308462
 20
-16.8009096682
 10
-6.2845986954
 20
-16.8035217019
 10
-6.4775018632
 20
-16.8524922439
 10
-6.7093391654
 20
-16.9079901066
 10
-6.8965651528
 20
-16.9490599225
 10
-7.031517263
 20
-16.9749026918
 10
-7.1213631987
 20
-16.9884447856
 10
-7.1764452212
 20
-16.996021649
 10
-7.2660571475
 20
-17.0056378222
 10
-7.3338697249
 20
-17.008777151
 10
-7.3889242528
 20
-17.0068055997
 10
-7.4358600656
 20
-17.0003051567
 10
-7.477534557
 20
-16.9893894149
 10
-7.5159484149
 20
-16.9737644745
 10
-7.5344211276
 20
-16.9639813293
 10
-7.5524910658
 20
-16.9528100219
 10
-7.5878308152
 20
-16.9259534037
 10
-7.6232455837
 20
-16.8918529029
  0
LINE
  5
38F
100
AcDbEntity
  8
0
100
AcDbLine
 62
7
  6
CONTINUOUS
 10
8.8066947565
 20
-14.2550639627
 11
0.4853887856
 21
-16.3733070059
  0
LINE
  5
390
100
AcDbEntity
  8
0
100
AcDbLine
 62
7
  6
CONTINUOUS
 10
43.8958144156
 20
5.4434666094
 11
42.1746713349
 21
5.0407179988
  0
LINE
  5
391
100
AcDbEntity
  8
0
100
AcDbLine
 62
7
  6
CONTINUOUS
 10
-5.7038349542
 20
0.9064724433
 11
-6.1641997756
 21
0.8208954243
  0
LINE
  5
392
100
AcDbEntity
  8
0
100
AcDbLine
 62
7
  6
CONTINUOUS
 10
-14.2180422582
 20
-3.8595744039
 11
-15.3407110711
 21
-4.0499338454
  0
LINE
  5
393
100
AcDbEntity
  8
0
100
AcDbLine
 62
7
  6
CONTINUOUS
 10
-14.2510868497
 20
61.1606018879
 11
-15.3130326953
 21
61.4114018643
  0
LINE
  5
394
100
AcDbEntity
  8
0
100
AcDbLine
 62
7
  6
CONTINUOUS
 10
-18.0627945978
 20
73.0066642827
 11
-46.008343973
 21
80.2908784596
  0
LINE
  5
395
100
AcDbEntity
  8
0
100
AcDbLine
 62
7
  6
CONTINUOUS
 10
-14.3118098169
 20
65.2259339364
 11
-15.1226732538
 21
65.4439717537
  0
LINE
  5
396
100
AcDbEntity
  8
0
100
AcDbLine
 62
7
  6
CONTINUOUS
 10
-48.322312615
 20
83.0157863104
 11
-47.5086248745
 21
82.7952066015
  0
LINE
  5
397
100
AcDbEntity
  8
0
100
AcDbLine
 62
7
  6
CONTINUOUS
 10
-16.4687460997
 20
75.042154631
 11
-17.5306919453
 21
75.3511356829
  0
LWPOLYLINE
  5
398
100
AcDbEntity
  8
0
100
AcDbPolyline
 62
7
  6
CONTINUOUS
 90
21
 70
0
 10
-13.5616693472
 20
70.5684253238
 10
-13.3736095449
 20
70.5098625457
 10
-12.2558539032
 20
70.1614440764
 10
-10.5938316791
 20
69.6423584398
 10
-8.9250546706
 20
69.1191232635
 10
-8.0027050939
 20
68.827437199
 10
-7.6682444025
 20
68.7195001097
 10
-7.5902009922
 20
68.6927917171
 10
-7.5661768132
 20
68.6834766415
 10
-7.4827769181
 20
68.6473892536
 10
-7.4034571183
 20
68.6073617188
 10
-7.3311908536
 20
68.5652256183
 10
-7.267631803
 20
68.5224438619
 10
-7.2134060961
 20
68.4800735277
 10
-7.1684438183
 20
68.4388126067
 10
-7.1322554812
 20
68.3990687837
 10
-7.1041375173
 20
68.3610224639
 10
-7.0833201513
 20
68.3246763384
 10
-7.0690760833
 20
68.2898930935
 10
-7.0608045249
 20
68.2564267225
 10
-7.0580983398
 20
68.2239539236
  0
LINE
  5
399
100
AcDbEntity
  8
0
100
AcDbLine
 62
7
  6
CONTINUOUS
 10
-1.1417043039
 20
76.5647477305
 11
-2.6092230843
 21
77.033585524
  0
LWPOLYLINE
  5
39A
100
AcDbEntity
  8
0
100
AcDbPolyline
 62
7
  6
CONTINUOUS
 90
132
 70
0
 10
8.7377812495
 20
-64.957611877
 10
8.579048241
 20
-65.3801031079
 10
8.3977076836
 20
-65.9139689603
 10
8.3133122444
 20
-66.1857477723
 10
8.2330745404
 20
-66.4609995728
 10
8.0940906141
 20
-66.995663012
 10
7.9753269344
 20
-67.5309905686
 10
7.8768999731
 20
-68.0657923004
 10
7.7988762792
 20
-68.5988119508
 10
7.7412640936
 20
-69.128734637
 10
7.7040054485
 20
-69.6541970555
 10
7.6869691234
 20
-70.1738002064
 10
7.6857679717
 20
-70.3772352085
 10
7.6965608593
 20
-70.885898283
 10
7.7268581953
 20
-71.3847633888
 10
7.7761838673
 20
-71.8724641229
 10
7.8439809317
 20
-72.3476947467
 10
7.9296179778
 20
-72.8092290244
 10
8.0323979398
 20
-73.2559372112
 10
8.1515690801
 20
-73.6868004187
 10
8.2863377454
 20
-74.100921716
 10
8.4358824062
 20
-74.4975335052
 10
8.5993684378
 20
-74.8760009127
 10
8.7759630825
 20
-75.2358211527
 10
8.9648500589
 20
-75.5766190135
 10
9.1652433296
 20
-75.898138793
 10
9.3763996178
 20
-76.2002331338
 10
9.5976293402
 20
-76.4828493036
 10
9.8283057165
 20
-76.7460135091
 10
10.0678718924
 20
-76.9898138477
 10
10.3158459947
 20
-77.2143824875
 10
10.5718240988
 20
-77.4198776303
 10
10.8354811518
 20
-77.6064657712
 10
11.1065699425
 20
-77.7743047128
 10
11.3849182627
 20
-77.9235277394
 10
11.6704244437
 20
-78.0542292899
 10
11.963051495
 20
-78.1664524102
 10
12.2628201058
 20
-78.2601781882
 10
12.5666092696
 20
-78.3346066894
 10
12.8741369166
 20
-78.3895792425
 10
13.1854150294
 20
-78.4251043346
 10
13.5004364962
 20
-78.4411069497
 10
13.8191632965
 20
-78.4374344861
 10
14.1415146528
 20
-78.4138650119
 10
14.4673554858
 20
-78.3701178091
 10
14.7964855187
 20
-78.3058660754
 10
15.1286293737
 20
-78.220751579
 10
15.4634280025
 20
-78.1144009792
 10
15.8004317824
 20
-77.9864434575
 10
16.1390955957
 20
-77.8365292202
 10
16.4787761814
 20
-77.6643483669
 10
16.8187320128
 20
-77.4696495467
 10
17.15812589
 20
-77.2522577711
 10
17.496030356
 20
-77.0120907174
 10
17.8314359362
 20
-76.7491728521
 10
18.163262073
 20
-76.4636467422
 10
18.4903704848
 20
-76.1557810045
 10
18.811580534
 20
-75.8259744754
 10
19.1256860567
 20
-75.4747563579
 10
19.4314730027
 20
-75.1027823125
 10
19.7277371719
 20
-74.710826676
 10
20.0133013224
 20
-74.2997712089
 10
20.2870309699
 20
-73.8705909565
 10
20.3920874103
 20
-73.6955663354
 10
20.6472150295
 20
-73.2433735784
 10
20.8878364332
 20
-72.7761921663
 10
21.1131180684
 20
-72.2951883382
 10
21.3223121628
 20
-71.8015302708
 10
21.5147567256
 20
-71.2963732592
 10
21.6898734384
 20
-70.7808468093
 10
21.8471637952
 20
-70.256043809
 10
21.9836359014
 20
-69.7197636093
 10
22.0999369209
 20
-69.182708954
 10
22.1959420324
 20
-68.6460980669
 10
22.2715782434
 20
-68.1112176008
 10
22.3268330026
 20
-67.5794144511
 10
22.3617622778
 20
-67.0520849359
 10
22.3764977095
 20
-66.5306613543
 10
22.3768988766
 20
-66.3449718661
 10
22.3645593352
 20
-65.8343371296
 10
22.3327468447
 20
-65.3335864278
 10
22.2819440416
 20
-64.8441134427
 10
22.2127159879
 20
-64.367248015
 10
22.1257034342
 20
-63.9042367475
 10
22.0216135897
 20
-63.4562256101
 10
21.9012086998
 20
-63.0242453417
 10
21.7652928552
 20
-62.6092002944
 10
21.6146975457
 20
-62.2118611754
 10
21.4502665209
 20
-61.8328619259
 10
21.2728405304
 20
-61.4727007539
 10
21.0832424872
 20
-61.1317451352
 10
20.8822635419
 20
-60.8102404269
 10
20.6706504754
 20
-60.5083216058
 10
20.4490947345
 20
-60.2260275627
 10
20.2182233407
 20
-59.9633173414
 10
19.9785918236
 20
-59.7200877014
 10
19.7306792532
 20
-59.4961914059
 10
19.4748853805
 20
-59.2914556742
 10
19.2115298381
 20
-59.1057002835
 10
18.9408533028
 20
-58.9387548614
 10
18.6630204764
 20
-58.7904749676
 10
18.3781246938
 20
-58.6607566248
 10
18.0861939332
 20
-58.5495490232
 10
17.7871979624
 20
-58.4568651936
 10
17.4835021249
 20
-58.3820305909
 10
17.1761748714
 20
-58.3266778821
 10
16.8652028711
 20
-58.2907895631
 10
16.5505910959
 20
-58.2744320693
 10
16.2323745899
 20
-58.2777500409
 10
15.9106302922
 20
-58.3009582453
 10
15.5854885799
 20
-58.3443312019
 10
15.2571441843
 20
-58.4081906333
 10
14.9258661394
 20
-58.4928909434
 10
14.5920064192
 20
-58.5988030016
 10
14.2560069348
 20
-58.7262965854
 10
13.9184045735
 20
-58.8757219138
 10
13.5798339891
 20
-59.0473907716
 10
13.2410278902
 20
-59.2415577986
 10
12.9028146331
 20
-59.4584025713
 10
12.5661130052
 20
-59.6980131416
 10
12.2319241909
 20
-59.9603717036
 10
11.9013210395
 20
-60.2453430269
 10
11.5754348937
 20
-60.5526662141
 10
11.2554403829
 20
-60.8819502139
 10
10.9425387168
 20
-61.2326733469
 10
10.6379401242
 20
-61.6041868991
 10
10.3428461431
 20
-61.9957226135
 10
10.0584324874
 20
-62.4064036978
 10
9.7858331735
 20
-62.8352587764
 10
9.770699544
 20
-62.8601866302
 10
9.5119262982
 20
-63.3068028755
 10
9.2673420103
 20
-63.7688538811
  0
LINE
  5
39B
100
AcDbEntity
  8
0
100
AcDbLine
 62
7
  6
CONTINUOUS
 10
-12.8087045534
 20
60.8459721879
 11
-13.933915258
 21
59.9385168682
  0
LINE
  5
39C
100
AcDbEntity
  8
0
100
AcDbLine
 62
7
  6
CONTINUOUS
 10
-11.1536506557
 20
61.2515451226
 11
-12.2791437927
 21
60.3440898029
  0
LWPOLYLINE
  5
39D
100
AcDbEntity
  8
0
100
AcDbPolyline
 62
7
  6
CONTINUOUS
 90
18
 70
0
 10
-12.2791437927
 20
-9.1469914721
 10
-13.7822490561
 20
-9.5525644068
 10
-13.834876045
 20
-9.5545968507
 10
-13.8916799049
 20
-9.5570629413
 10
-13.9431935299
 20
-9.5560265505
 10
-13.9873317205
 20
-9.550685353
 10
-14.0263262309
 20
-9.5410489709
 10
-14.0613437858
 20
-9.5270710856
 10
-14.0931289369
 20
-9.5085529742
 10
-14.122169102
 20
-9.4851005551
 10
-14.1487402948
 20
-9.4561116553
 10
-14.1729218435
 20
-9.4207838242
 10
-14.1945361334
 20
-9.3782978019
 10
-14.2132680711
 20
-9.3278318264
 10
-14.2288096463
 20
-9.2681833395
 10
-14.2407031092
 20
-9.1980159541
 10
-14.2483617872
 20
-9.1158717606
 10
-14.2510868497
 20
-9.0201793219
  0
LINE
  5
39E
100
AcDbEntity
  8
0
100
AcDbLine
 62
7
  6
CONTINUOUS
 10
-11.3414682055
 20
-8.3002591197
 11
-12.6542140275
 21
-8.6451090871
  0
LINE
  5
39F
100
AcDbEntity
  8
0
100
AcDbLine
 62
7
  6
CONTINUOUS
 10
44.8334900028
 20
6.2901989619
 11
43.5207441808
 21
5.9456314268
  0
LINE
  5
3A0
100
AcDbEntity
  8
0
100
AcDbLine
 62
7
  6
CONTINUOUS
 10
-11.3414682055
 20
-4.4555067801
 11
-12.6542140275
 21
-4.7975324234
  0
LINE
  5
3A1
100
AcDbEntity
  8
0
100
AcDbLine
 62
7
  6
CONTINUOUS
 10
44.8334900028
 20
10.1349513015
 11
43.5207441808
 21
9.7932080905
  0
LINE
  5
3A2
100
AcDbEntity
  8
0
100
AcDbLine
 62
7
  6
CONTINUOUS
 10
42.2712632177
 20
11.2299417386
 11
43.9562549505
 21
11.6685592647
  0
LINE
  5
3A3
100
AcDbEntity
  8
0
100
AcDbLine
 62
7
  6
CONTINUOUS
 10
-13.9036949906
 20
-3.3605163429
 11
-12.2155965014
 21
-2.9218988168
  0
LINE
  5
3A4
100
AcDbEntity
  8
0
100
AcDbLine
 62
7
  6
CONTINUOUS
 10
44.5191427351
 20
9.2938675971
 11
43.8624873918
 21
9.1340108554
  0
LINE
  5
3A5
100
AcDbEntity
  8
0
100
AcDbLine
 62
7
  6
CONTINUOUS
 10
12.5331079181
 20
80.0646501026
 11
11.0602229221
 21
80.5334878962
  0
LINE
  5
3A6
100
AcDbEntity
  8
0
100
AcDbLine
 62
7
  6
CONTINUOUS
 10
8.7103853062
 20
14.6004900689
 11
-6.0153578977
 21
10.7500890812
  0
LINE
  5
3A7
100
AcDbEntity
  8
0
100
AcDbLine
 62
7
  6
CONTINUOUS
 10
-6.4014429964
 20
26.7750213516
 11
-7.6207036921
 21
26.5626321824
  0
LINE
  5
3A8
100
AcDbEntity
  8
0
100
AcDbLine
 62
7
  6
CONTINUOUS
 10
24.4178635525
 20
76.5342450306
 11
12.9494132842
 21
79.0719001964
  0
LINE
  5
3A9
100
AcDbEntity
  8
0
100
AcDbLine
 62
7
  6
CONTINUOUS
 10
26.1610363608
 20
83.6501294937
 11
24.6935175805
 21
84.1107767475
  0
LINE
  5
3AA
100
AcDbEntity
  8
0
100
AcDbLine
 62
7
  6
CONTINUOUS
 10
31.1089696773
 20
80.3544257509
 11
28.2956604835
 21
81.2590567466
  0
LINE
  5
3AB
100
AcDbEntity
  8
0
100
AcDbLine
 62
7
  6
CONTINUOUS
 10
44.5191427351
 20
76.3854031528
 11
43.8624873918
 21
76.6031585376
  0
LINE
  5
3AC
100
AcDbEntity
  8
0
100
AcDbLine
 62
7
  6
CONTINUOUS
 10
36.1424800127
 20
83.6088943625
 11
42.1746713349
 21
81.4491337556
  0
LINE
  5
3AD
100
AcDbEntity
  8
0
100
AcDbLine
 62
7
  6
CONTINUOUS
 10
45.0210251202
 20
75.7564261852
 11
43.8958144156
 21
74.8489708655
  0
LINE
  5
3AE
100
AcDbEntity
  8
0
100
AcDbLine
 62
7
  6
CONTINUOUS
 10
43.3634293308
 20
75.3511356829
 11
42.2379361938
 21
74.4465046873
  0
LINE
  5
3AF
100
AcDbEntity
  8
0
100
AcDbLine
 62
7
  6
CONTINUOUS
 10
39.9570120849
 20
87.172344026
 11
38.4841270889
 21
87.6386399279
  0
LWPOLYLINE
  5
3B0
100
AcDbEntity
  8
0
100
AcDbPolyline
 62
7
  6
CONTINUOUS
 90
47
 70
0
 10
-6.1037592407
 20
-47.2341311184
 10
-6.0950350379
 20
-47.2221827574
 10
-5.9900946985
 20
-47.0732409334
 10
-5.8885502279
 20
-46.9192320053
 10
-5.7906615405
 20
-46.7604372004
 10
-5.6966705997
 20
-46.5971431668
 10
-5.6068006348
 20
-46.4296388349
 10
-5.5212557716
 20
-46.2582125216
 10
-5.4402210382
 20
-46.0831493217
 10
-5.3638627013
 20
-45.904728817
 10
-5.2923288828
 20
-45.7232231158
 10
-5.2257504066
 20
-45.5388952248
 10
-5.164241825
 20
-45.3519977422
 10
-5.107902578
 20
-45.1627718545
 10
-5.0577138765
 20
-44.9697579888
 10
-5.0132770468
 20
-44.7765176367
 10
-4.9746235532
 20
-44.5833305652
 10
-4.941775647
 20
-44.3904893799
 10
-4.914745085
 20
-44.1982984109
 10
-4.8935318916
 20
-44.0070722915
 10
-4.878123201
 20
-43.8171342222
 10
-4.8684922165
 20
-43.6288139262
 10
-4.864837871
 20
-43.47218217
 10
-4.8657139834
 20
-43.2878065643
 10
-4.8721962168
 20
-43.1061286576
 10
-4.884185801
 20
-42.9274749793
 10
-4.9015682044
 20
-42.7521625531
 10
-4.924213813
 20
-42.5804958775
 10
-4.9519789216
 20
-42.4127640543
 10
-4.9847070246
 20
-42.2492381473
 10
-5.0222303775
 20
-42.0901688518
 10
-5.0643717974
 20
-41.9357845395
 10
-5.1109466561
 20
-41.7862897368
 10
-5.1617650171
 20
-41.6418640735
 10
-5.2166338634
 20
-41.5026617248
 10
-5.2753593616
 20
-41.3688113533
 10
-5.3377491087
 20
-41.2404165376
 10
-5.4036143125
 20
-41.1175566654
 10
-5.4727718596
 20
-41.0002882506
 10
-5.5450462332
 20
-40.8886466301
 10
-5.620271247
 20
-40.782647984
 10
-5.6982915699
 20
-40.6822916244
 10
-5.778964023
 20
-40.587562491
 10
-5.8621586345
 20
-40.498433796
 10
-5.9477594451
 20
-40.4148697598
 10
-6.0356650632
 20
-40.3368283839
 10
-6.1257889684
 20
-40.264264209
  0
LWPOLYLINE
  5
3B1
100
AcDbEntity
  8
0
100
AcDbPolyline
 62
7
  6
CONTINUOUS
 90
9
 70
0
 10
9.6480608933
 20
15.193598121
 10
9.5447035338
 20
15.0871861438
 10
9.4298568088
 20
14.9865441199
 10
9.3040438652
 20
14.8923780951
 10
9.1685834841
 20
14.8057904367
 10
9.0264168745
 20
14.7284944987
 10
8.8841544147
 20
14.6633191685
 10
8.7588559879
 20
14.6157839962
 10
8.7103853062
 20
14.6004900689
  0
LINE
  5
3B2
100
AcDbEntity
  8
0
100
AcDbLine
 62
7
  6
CONTINUOUS
 10
-48.4437585464
 20
83.0132444187
 11
-47.4784046079
 21
83.2970889865
  0
LINE
  5
3B3
100
AcDbEntity
  8
0
100
AcDbLine
 62
7
  6
CONTINUOUS
 10
41.8024254241
 20
39.2774566573
 11
40.8285984891
 21
39.0291985726
  0
LWPOLYLINE
  5
3B4
100
AcDbEntity
  8
0
100
AcDbPolyline
 62
7
  6
CONTINUOUS
 90
7
 70
0
 10
44.0833495331
 20
91.8307841265
 10
44.8476479131
 20
91.6376398824
 10
45.8649331486
 20
91.3591220089
 10
46.0090518519
 20
91.3040254935
 10
46.2977335155
 20
91.1073751535
 10
46.4826543268
 20
90.8074093784
 10
46.5518087594
 20
90.3607234546
  0
LINE
  5
3B5
100
AcDbEntity
  8
0
100
AcDbLine
 62
7
  6
CONTINUOUS
 10
11.5428999035
 20
40.6317200429
 11
-6.1616578839
 21
35.99530967
  0
LINE
  5
3B6
100
AcDbEntity
  8
0
100
AcDbLine
 62
7
  6
CONTINUOUS
 10
11.2200796637
 20
43.2713333072
 11
-5.9436200667
 21
38.7947796759
  0
LINE
  5
3B7
100
AcDbEntity
  8
0
100
AcDbLine
 62
7
  6
CONTINUOUS
 10
11.5979742226
 20
41.6521483249
 11
-5.9961524941
 21
37.0654460554
  0
LINE
  5
3B8
100
AcDbEntity
  8
0
100
AcDbLine
 62
7
  6
CONTINUOUS
 10
9.0687920291
 20
45.7479830733
 11
10.4148648749
 21
46.0928330407
  0
LINE
  5
3B9
100
AcDbEntity
  8
0
100
AcDbLine
 62
7
  6
CONTINUOUS
 10
-12.3093640601
 20
61.7839302075
 11
-11.6529911491
 21
61.8802396578
  0
LWPOLYLINE
  5
3BA
100
AcDbEntity
  8
0
100
AcDbPolyline
 62
7
  6
CONTINUOUS
 90
51
 70
0
 10
-6.216732203
 20
-48.2573837244
 10
-6.0799981732
 20
-48.1061490878
 10
-5.9458609054
 20
-47.9469104227
 10
-5.8147260482
 20
-47.7799109665
 10
-5.6869958178
 20
-47.6054301003
 10
-5.5630645271
 20
-47.4237801113
 10
-5.4433144015
 20
-47.2353022897
 10
-5.3282626703
 20
-47.0406273522
 10
-5.2180578431
 20
-46.8398269273
 10
-5.1131479288
 20
-46.6335375354
 10
-5.0138144869
 20
-46.4221704619
 10
-4.9203133083
 20
-46.2061381124
 10
-4.8328741561
 20
-45.9858498561
 10
-4.7517010213
 20
-45.7617083103
 10
-4.6769728284
 20
-45.5341061113
 10
-4.608844517
 20
-45.3034231926
 10
-4.5480682065
 20
-45.0680252995
 10
-4.4946169668
 20
-44.8321879065
 10
-4.4485386764
 20
-44.5962939029
 10
-4.4098680015
 20
-44.3607457312
 10
-4.378624391
 20
-44.125963723
 10
-4.3548101381
 20
-43.8923839189
 10
-4.3384085707
 20
-43.6604553612
 10
-4.3293824365
 20
-43.430636868
 10
-4.3290192457
 20
-43.4143489802
 10
-4.3278278058
 20
-43.1873226426
 10
-4.3338547354
 20
-42.9635554013
 10
-4.3469747
 20
-42.7435066296
 10
-4.3670389068
 20
-42.5276236918
 10
-4.3938759809
 20
-42.3163371149
 10
-4.4272933607
 20
-42.110055957
 10
-4.4670791928
 20
-41.9091635199
 10
-4.5130046836
 20
-41.7140135504
 10
-4.5648268514
 20
-41.5249270516
 10
-4.6222915999
 20
-41.3421898058
 10
-4.6851370294
 20
-41.1660506796
 10
-4.7530968921
 20
-40.99672075
 10
-4.8259040954
 20
-40.8343732596
 10
-4.9032941648
 20
-40.6791443779
 10
-4.985008578
 20
-40.5311347194
 10
-5.0707978991
 20
-40.3904115483
 10
-5.1604246462
 20
-40.2570115825
 10
-5.2536658443
 20
-40.1309443005
 10
-5.3503152233
 20
-40.0121956477
 10
-5.4501850339
 20
-39.9007320394
 10
-5.5531074667
 20
-39.796504559
 10
-5.6589356651
 20
-39.6994532547
 10
-5.7675443341
 20
-39.6095114445
 10
-5.8788299533
 20
-39.5266099475
 10
-5.9927106073
 20
-39.4506811645
 10
-6.1091254564
 20
-39.381662941
  0
LINE
  5
3BB
100
AcDbEntity
  8
0
100
AcDbLine
 62
7
  6
CONTINUOUS
 10
-11.1536506557
 20
-8.2395361524
 11
-12.2791437927
 21
-9.1469914721
  0
LINE
  5
3BC
100
AcDbEntity
  8
0
100
AcDbLine
 62
7
  6
CONTINUOUS
 10
-12.8087045534
 20
-8.6451090871
 11
-13.933915258
 21
-9.5497400827
  0
LINE
  5
3BD
100
AcDbEntity
  8
0
100
AcDbLine
 62
7
  6
CONTINUOUS
 10
-6.4319456962
 20
68.7563390084
 11
-6.9640483487
 21
68.5990241584
  0
LINE
  5
3BE
100
AcDbEntity
  8
0
100
AcDbLine
 62
7
  6
CONTINUOUS
 10
11.6505066501
 20
50.0728705026
 11
-6.1063011324
 21
45.4833439091
  0
LINE
  5
3BF
100
AcDbEntity
  8
0
100
AcDbLine
 62
7
  6
CONTINUOUS
 10
-14.2180422582
 20
65.6315068711
 11
-15.3407110711
 21
65.4411474296
  0
LINE
  5
3C0
100
AcDbEntity
  8
0
100
AcDbLine
 62
7
  6
CONTINUOUS
 10
43.8624873918
 20
76.28881127
 11
44.5191427351
 21
76.3825788287
  0
LINE
  5
3C1
100
AcDbEntity
  8
0
100
AcDbLine
 62
7
  6
CONTINUOUS
 10
-11.6529911491
 20
64.1281191753
 11
-12.3121883841
 21
64.0371759406
  0
LINE
  5
3C2
100
AcDbEntity
  8
0
100
AcDbLine
 62
7
  6
CONTINUOUS
 10
-3.7895081079
 20
-1.3414070742
 11
-5.2900714797
 21
-2.4722664268
  0
LINE
  5
3C3
100
AcDbEntity
  8
0
100
AcDbLine
 62
7
  6
CONTINUOUS
 10
41.8933686588
 20
81.292101338
 11
41.363807898
 21
81.1376108121
  0
LWPOLYLINE
  5
3C4
100
AcDbEntity
  8
0
100
AcDbPolyline
 62
7
  6
CONTINUOUS
 90
54
 70
0
 10
25.2066972617
 20
77.3422841435
 10
25.2670325533
 20
77.3595458143
 10
25.3278876868
 20
77.3803676692
 10
25.3891962186
 20
77.4048129984
 10
25.4508781334
 20
77.4329417554
 10
25.5128395017
 20
77.4648081074
 10
25.5749724235
 20
77.5004580124
 10
25.6371552782
 20
77.5399268905
 10
25.6992532951
 20
77.5832374571
 10
25.7611194483
 20
77.6303977889
 10
25.8225956695
 20
77.6813996921
 10
25.8835143581
 20
77.7362174329
 10
25.9437001564
 20
77.794806885
 10
26.0029719419
 20
77.8571051309
 10
26.0611449784
 20
77.9230305364
 10
26.1180331569
 20
77.9924832989
 10
26.1734512529
 20
78.0653464481
 10
26.227217124
 20
78.1414872556
 10
26.2791537765
 20
78.2207589944
 10
26.3183813172
 20
78.2848250092
 10
26.3666088598
 20
78.36921478
 10
26.412520335
 20
78.456189465
 10
26.4559820623
 20
78.5455679408
 10
26.4968722159
 20
78.6371677579
 10
26.5350810047
 20
78.7308071593
 10
26.5705105885
 20
78.8263068925
 10
26.6030747672
 20
78.9234917881
 10
26.6326984784
 20
79.022192093
 10
26.6582277333
 20
79.1220310796
 10
26.6804373623
 20
79.2220176199
 10
26.699305301
 20
79.3219623071
 10
26.71481676
 20
79.4216662497
 10
26.7269652999
 20
79.5209221545
 10
26.7357538453
 20
79.6195157102
 10
26.7411955998
 20
79.7172272712
 10
26.743311814
 20
79.8132319118
 10
26.7421676387
 20
79.9084239534
 10
26.7377965453
 20
80.0019793984
 10
26.7302674825
 20
80.0936837192
 10
26.7196609084
 20
80.1833311347
 10
26.7060680243
 20
80.2707270821
 10
26.6895897246
 20
80.355690476
 10
26.6703352908
 20
80.4380556712
 10
26.6484208664
 20
80.5176740595
 10
26.6239677622
 20
80.5944152452
 10
26.5971006432
 20
80.6681677638
 10
26.5679456563
 20
80.7388393312
 10
26.5366285538
 20
80.8063566263
 10
26.5032728654
 20
80.8706646325
 10
26.4679981681
 20
80.931725575
 10
26.4309184932
 20
80.9895175031
 10
26.3921409033
 20
81.044032576
 10
26.3517642656
 20
81.0952751113
 10
26.3098782386
 20
81.1432594602
  0
LWPOLYLINE
  5
3C5
100
AcDbEntity
  8
0
100
AcDbPolyline
 62
7
  6
CONTINUOUS
 90
18
 70
0
 10
-12.2791437927
 20
60.3440898029
 10
-13.7822490561
 20
59.9385168682
 10
-13.834876045
 20
59.9364844243
 10
-13.8916799049
 20
59.9340183337
 10
-13.9431935299
 20
59.9350547245
 10
-13.9873317205
 20
59.940395922
 10
-14.0263262309
 20
59.9500323042
 10
-14.0613437858
 20
59.9640101894
 10
-14.0931289369
 20
59.9825283008
 10
-14.122169102
 20
60.0059807199
 10
-14.1487402948
 20
60.0349696197
 10
-14.1729218435
 20
60.0702974508
 10
-14.1945361334
 20
60.1127834732
 10
-14.2132680711
 20
60.1632494486
 10
-14.2288096463
 20
60.2228979355
 10
-14.2407031092
 20
60.293065321
 10
-14.2483617872
 20
60.3752095144
 10
-14.2510868497
 20
60.4709019531
  0
LINE
  5
3C6
100
AcDbEntity
  8
0
100
AcDbLine
 62
7
  6
CONTINUOUS
 10
44.8334900028
 20
75.6957032179
 11
43.5207441808
 21
75.3483113588
  0
LINE
  5
3C7
100
AcDbEntity
  8
0
100
AcDbLine
 62
7
  6
CONTINUOUS
 10
-11.3414682055
 20
61.1908221554
 11
-12.6542140275
 21
60.8459721879
  0
LINE
  5
3C8
100
AcDbEntity
  8
0
100
AcDbLine
 62
7
  6
CONTINUOUS
 10
44.5191427351
 20
78.6993718532
 11
43.8624873918
 21
78.5395151115
  0
LINE
  5
3C9
100
AcDbEntity
  8
0
100
AcDbLine
 62
7
  6
CONTINUOUS
 10
43.8958144156
 20
74.8489708655
 11
42.1746713349
 21
74.4465046873
  0
LWPOLYLINE
  5
3CA
100
AcDbEntity
  8
0
100
AcDbPolyline
 62
7
  6
CONTINUOUS
 90
12
 70
0
 10
27.7028348638
 20
77.102499031
 10
27.6388259939
 20
77.0878317005
 10
27.1479526852
 20
76.9738560879
 10
26.3599837076
 20
76.7863295787
 10
25.6094458724
 20
76.600616646
 10
25.5259392297
 20
76.5819441261
 10
25.3194355472
 20
76.5437897553
 10
25.1205267911
 20
76.5183507123
 10
24.9304217716
 20
76.5052323933
 10
24.7497965123
 20
76.5039006828
 10
24.57893954
 20
76.5137663539
 10
24.4178635525
 20
76.5342450306
  0
LWPOLYLINE
  5
3CB
100
AcDbEntity
  8
0
100
AcDbPolyline
 62
7
  6
CONTINUOUS
 90
55
 70
0
 10
33.8864099555
 20
76.1950437113
 10
33.9358582212
 20
76.2062525391
 10
33.9857842317
 20
76.2203652895
 10
34.0361422139
 20
76.2374349953
 10
34.0868753006
 20
76.2575137637
 10
34.1379150078
 20
76.2806506984
 10
34.189180937
 20
76.306889793
 10
34.2405807284
 20
76.336267847
 10
34.2920102824
 20
76.368812463
 10
34.343354264
 20
76.4045401873
 10
34.3944868936
 20
76.4434548554
 10
34.4452730187
 20
76.4855462047
 10
34.4955694494
 20
76.5307888093
 10
34.5452265268
 20
76.5791413841
 10
34.5940898831
 20
76.6305464915
 10
34.6420023382
 20
76.684930667
 10
34.6888058714
 20
76.7422049632
 10
34.7343436015
 20
76.8022658903
 10
34.7784617047
 20
76.8649967127
 10
34.8210112087
 20
76.9302690471
 10
34.8547014058
 20
76.9857116068
 10
34.8939904705
 20
77.0551757565
 10
34.9313012853
 20
77.1267025672
 10
34.9665242296
 20
77.2001366971
 10
34.9995601143
 20
77.2753223956
 10
35.0303202577
 20
77.3521052227
 10
35.058726335
 20
77.4303335729
 10
35.0847100327
 20
77.5098599849
 10
35.1082125428
 20
77.5905422282
 10
35.129542046
 20
77.6730042175
 10
35.1481027193
 20
77.7555661682
 10
35.1638782412
 20
77.8380763913
 10
35.1768580367
 20
77.9203756702
 10
35.1870381334
 20
78.0022980811
 10
35.1944219733
 20
78.0836720467
 10
35.1990211496
 20
78.1643216249
 10
35.2007873087
 20
78.2352038307
 10
35.200192872
 20
78.3139410989
 10
35.1969062295
 20
78.3913671974
 10
35.1909824714
 20
78.4673083563
 10
35.1824860147
 20
78.5415971839
 10
35.1714900507
 20
78.6140746451
 10
35.1580757627
 20
78.6845918929
 10
35.1423313322
 20
78.7530118903
 10
35.1243507611
 20
78.819210759
 10
35.1042325451
 20
78.8830788112
 10
35.0820782406
 20
78.9445212295
 10
35.0579909686
 20
79.003458379
 10
35.0320739017
 20
79.0598257488
 10
35.0044287783
 20
79.1135735367
 10
34.9751544828
 20
79.1646659032
 10
34.944345727
 20
79.2130799288
 10
34.912091863
 20
79.2588043206
 10
34.8784758477
 20
79.3018379123
 10
34.8435733786
 20
79.3421880087
  0
LWPOLYLINE
  5
3CC
100
AcDbEntity
  8
0
100
AcDbPolyline
 62
7
  6
CONTINUOUS
 90
55
 70
0
 10
-4.658270188
 20
66.2548351906
 10
-4.609014176
 20
66.2657896709
 10
-4.5592937115
 20
66.2796365334
 10
-4.5091523049
 20
66.2964283913
 10
-4.4586441505
 20
66.3162173962
 10
-4.40783465
 20
66.3390532287
 10
-4.3568007172
 20
66.3649810564
 10
-4.3056308455
 20
66.3940395096
 10
-4.2544249182
 20
66.4262587296
 10
-4.2032937521
 20
66.4616585478
 10
-4.1523583692
 20
66.5002468555
 10
-4.1017490029
 20
66.5420182197
 10
-4.0516038548
 20
66.5869528
 10
-4.00206763
 20
66.6350156096
 10
-3.9532898894
 20
66.6861561527
 10
-3.905423269
 20
66.7403084563
 10
-3.8586216226
 20
66.7973914964
 10
-3.8130381491
 20
66.8573100021
 10
-3.7688235691
 20
66.9199556023
 10
-3.7261244089
 20
66.9852082656
 10
-3.6945316568
 20
67.0368714195
 10
-3.6548729182
 20
67.1063600938
 10
-3.6171310289
 20
67.1780103074
 10
-3.5814170657
 20
67.251673141
 10
-3.5478323413
 20
67.3271984482
 10
-3.5164682499
 20
67.404436532
 10
-3.4874063326
 20
67.4832396512
 10
-3.460718531
 20
67.5634633345
 10
-3.4364676007
 20
67.6449674918
 10
-3.4151436667
 20
67.7266269577
 10
-3.3966022524
 20
67.8083158933
 10
-3.3808515093
 20
67.8899078831
 10
-3.3678953872
 20
67.9712696928
 10
-3.3577328969
 20
68.0522616733
 10
-3.3503573821
 20
68.1327383405
 10
-3.3457558199
 20
68.2125491413
 10
-3.3439081762
 20
68.2915394117
 10
-3.3447868422
 20
68.3695515237
 10
-3.3473148996
 20
68.4291350277
 10
-3.3529316318
 20
68.5049708944
 10
-3.3611439437
 20
68.5793286141
 10
-3.3718864488
 20
68.6520555626
 10
-3.3850857739
 20
68.7230051393
 10
-3.4006611497
 20
68.7920384278
 10
-3.4185252013
 20
68.8590257311
 10
-3.4385849201
 20
68.9238479246
 10
-3.4607427918
 20
68.9863975753
 10
-3.484898049
 20
69.046579787
 10
-3.510948008
 20
69.1043127408
 10
-3.5387894519
 20
69.1595279152
 10
-3.5683200159
 20
69.2121699812
 10
-3.599439536
 20
69.2621963828
 10
-3.6320513235
 20
69.3095766234
 10
-3.666063333
 20
69.3542912881
 10
-3.7013891973
 20
69.3963308399
  0
LINE
  5
3CD
100
AcDbEntity
  8
0
100
AcDbLine
 62
7
  6
CONTINUOUS
 10
43.3634293308
 20
5.9456314268
 11
42.2379361938
 21
5.0381761071
  0
LINE
  5
3CE
100
AcDbEntity
  8
0
100
AcDbLine
 62
7
  6
CONTINUOUS
 10
-4.589356681
 20
64.8480393775
 11
-6.1836876116
 21
64.4094218514
  0
LINE
  5
3CF
100
AcDbEntity
  8
0
100
AcDbLine
 62
7
  6
CONTINUOUS
 10
44.8334900028
 20
79.5407379899
 11
43.5207441808
 21
79.1958880225
  0
LINE
  5
3D0
100
AcDbEntity
  8
0
100
AcDbLine
 62
7
  6
CONTINUOUS
 10
-11.3414682055
 20
65.035574495
 11
-12.6542140275
 21
64.6935488516
  0
LINE
  5
3D1
100
AcDbEntity
  8
0
100
AcDbLine
 62
7
  6
CONTINUOUS
 10
42.2712632177
 20
80.6357284271
 11
43.9562549505
 21
81.0740635208
  0
LINE
  5
3D2
100
AcDbEntity
  8
0
100
AcDbLine
 62
7
  6
CONTINUOUS
 10
40.0177350522
 20
86.1380765561
 11
-13.5836990748
 21
72.2178305734
  0
LINE
  5
3D3
100
AcDbEntity
  8
0
100
AcDbLine
 62
7
  6
CONTINUOUS
 10
-13.9036949906
 20
66.1333892561
 11
-12.2155965014
 21
66.5691824582
  0
LINE
  5
3D4
100
AcDbEntity
  8
0
100
AcDbLine
 62
7
  6
CONTINUOUS
 10
46.0857952899
 20
90.4352856097
 11
-15.3681070144
 21
74.5843317013
  0
LINE
  5
3D5
100
AcDbEntity
  8
0
100
AcDbLine
 62
7
  6
CONTINUOUS
 10
27.5124754224
 20
83.9122267663
 11
40.100487747
 21
87.1392994345
  0
LINE
  5
3D6
100
AcDbEntity
  8
0
100
AcDbLine
 62
7
  6
CONTINUOUS
 10
13.7218659139
 20
80.3846460183
 11
26.3070539146
 21
83.6117186865
  0
LINE
  5
3D7
100
AcDbEntity
  8
0
100
AcDbLine
 62
7
  6
CONTINUOUS
 10
40.100487747
 20
87.9970466508
 11
27.5152997464
 21
84.7699739826
  0
LINE
  5
3D8
100
AcDbEntity
  8
0
100
AcDbLine
 62
7
  6
CONTINUOUS
 10
26.3070539146
 20
84.4748321185
 11
13.7218659139
 21
81.2480418828
  0
LINE
  5
3D9
100
AcDbEntity
  8
0
100
AcDbLine
 62
7
  6
CONTINUOUS
 10
-0.9956867502
 20
77.3866260312
 11
-13.5808747508
 21
74.1649195787
  0
LINE
  5
3DA
100
AcDbEntity
  8
0
100
AcDbLine
 62
7
  6
CONTINUOUS
 10
37.8003582345
 20
81.8905756059
 11
31.5475872034
 21
80.2908784596
  0
LINE
  5
3DB
100
AcDbEntity
  8
0
100
AcDbLine
 62
7
  6
CONTINUOUS
 10
0.0911131472
 20
76.807357167
 11
12.6765835802
 21
80.025956863
  0
LINE
  5
3DC
100
AcDbEntity
  8
0
100
AcDbLine
 62
7
  6
CONTINUOUS
 10
12.6765835802
 20
80.8839865117
 11
0.0882888231
 21
77.6651043833
  0
LINE
  5
3DD
100
AcDbEntity
  8
0
100
AcDbLine
 62
7
  6
CONTINUOUS
 10
-13.5808747508
 20
73.3071723624
 11
-0.9956867502
 21
76.5204058427
  0
LINE
  5
3DE
100
AcDbEntity
  8
0
100
AcDbLine
 62
7
  6
CONTINUOUS
 10
-5.6513025267
 20
72.7886264655
 11
-13.3105869385
 21
70.8827725914
  0
LWPOLYLINE
  5
3DF
100
AcDbEntity
  8
0
100
AcDbPolyline
 62
7
  6
CONTINUOUS
 90
17
 70
0
 10
35.9854475951
 20
83.5453470712
 10
34.3822394147
 20
83.147389338
 10
29.9984112622
 20
82.0608781164
 10
28.3701056189
 20
81.6594426098
 10
28.1386280659
 20
81.6036242816
 10
28.0901162171
 20
81.5890132228
 10
28.0439449026
 20
81.5667467737
 10
27.9997833008
 20
81.53654912
 10
27.9574962372
 20
81.4979289422
 10
27.9171826114
 20
81.450301821
 10
27.8792121962
 20
81.3931765532
 10
27.8442723558
 20
81.3264566827
 10
27.8134385521
 20
81.2509739172
 10
27.7882727352
 20
81.1694933735
 10
27.7708789934
 20
81.0885691178
 10
27.7675613245
 20
81.0663671861
 10
27.7632753987
 20
81.0107986619
  0
LINE
  5
3E0
100
AcDbEntity
  8
0
100
AcDbLine
 62
7
  6
CONTINUOUS
 10
-2.5787203844
 20
71.3959522727
 11
-8.048023922
 21
70.0555280749
  0
LWPOLYLINE
  5
3E1
100
AcDbEntity
  8
0
100
AcDbPolyline
 62
7
  6
CONTINUOUS
 90
20
 70
0
 10
11.2257283118
 20
-59.6978731845
 10
11.1125192412
 20
-59.8139820977
 10
11.0002546864
 20
-59.9323644703
 10
10.8889638007
 20
-60.0529983138
 10
10.7786757375
 20
-60.1758616398
 10
10.6694196499
 20
-60.3009324598
 10
10.5612246911
 20
-60.4281887852
 10
10.4541200146
 20
-60.5576086278
 10
10.3481347734
 20
-60.6891699989
 10
10.2432981209
 20
-60.8228509101
 10
10.1396392103
 20
-60.958629373
 10
10.0371871948
 20
-61.0964833991
 10
9.9359712277
 20
-61.2363909998
 10
9.8360204623
 20
-61.3783301869
 10
9.7373640517
 20
-61.5222789716
 10
9.6400311493
 20
-61.6682153657
 10
9.5440509083
 20
-61.8161173807
 10
9.449452482
 20
-61.965963028
 10
9.3562650236
 20
-62.1177303192
 10
9.2645176863
 20
-62.2713972658
  0
LINE
  5
3E2
100
AcDbEntity
  8
0
100
AcDbLine
 62
7
  6
CONTINUOUS
 10
45.0210251202
 20
6.3509219291
 11
43.8958144156
 21
5.4434666094
  0
LWPOLYLINE
  5
3E3
100
AcDbEntity
  8
0
100
AcDbPolyline
 62
7
  6
CONTINUOUS
 90
9
 70
0
 10
45.6141331723
 20
91.0778193328
 10
44.9936877253
 20
90.9172617922
 10
18.9261149406
 20
84.1708400836
 10
-11.9977950335
 20
76.1641524746
 10
-15.3737556626
 20
75.2875883916
 10
-15.618108817
 20
75.1439819048
 10
-15.827283045
 20
74.8344776958
 10
-15.9512813984
 20
74.3593572335
 10
-15.9612150665
 20
74.1705682268
  0
LINE
  5
3E4
100
AcDbEntity
  8
0
100
AcDbLine
 62
7
  6
CONTINUOUS
 10
45.5229075052
 20
92.2058543614
 11
-17.7814919216
 21
75.8171491524
  0
LWPOLYLINE
  5
3E5
100
AcDbEntity
  8
0
100
AcDbPolyline
 62
7
  6
CONTINUOUS
 90
15
 70
0
 10
44.7699427115
 20
98.580071327
 10
42.9525974393
 20
98.1096398962
 10
22.7775394882
 20
92.8894968395
 10
-4.1120262349
 20
85.9406644968
 10
-16.7865759568
 20
82.6793045089
 10
-17.9388067717
 20
82.3899160992
 10
-18.5583612388
 20
82.2749119125
 10
-19.0755736085
 20
82.2386295688
 10
-19.590863583
 20
82.2764624708
 10
-20.2391682908
 20
82.4014617772
 10
-20.9396510829
 20
82.5774512167
 10
-22.0019578771
 20
82.8523144339
 10
-30.5178693783
 20
85.0491188751
 10
-41.1596970462
 20
87.7925316971
 10
-46.3834216529
 20
89.1389208673
  0
LWPOLYLINE
  5
3E6
100
AcDbEntity
  8
0
100
AcDbPolyline
 62
7
  6
CONTINUOUS
 90
36
 70
0
 10
42.020180809
 20
39.0927458639
 10
41.9930080113
 20
39.0845085558
 10
41.9384346222
 20
39.0686796778
 10
41.877359464
 20
39.0518529797
 10
41.8158468575
 20
39.0358279897
 10
41.7564392033
 20
39.0212881953
 10
41.7003432812
 20
39.0085026715
 10
41.6481332945
 20
38.9975494786
 10
41.6000441829
 20
38.988407934
 10
41.5561147326
 20
38.9810031666
 10
41.5162651395
 20
38.975230016
 10
41.4803423371
 20
38.9709668735
 10
41.4481480254
 20
38.9680841946
 10
41.4194567792
 20
38.9664500152
 10
41.3940281654
 20
38.9659337138
 10
41.3662599952
 20
38.9654268764
 10
41.3369659835
 20
38.9638738452
 10
41.3054350871
 20
38.9611924353
 10
41.2703957383
 20
38.9572183306
 10
41.2290259515
 20
38.9515685347
 10
41.1773971183
 20
38.9438055586
 10
41.1265840716
 20
38.9363031648
 10
41.0865623383
 20
38.9310882981
 10
41.0513688256
 20
38.9273545859
 10
41.0189561413
 20
38.9248336728
 10
40.9883243079
 20
38.9234052545
 10
40.9588884037
 20
38.9230100439
 10
40.9302650524
 20
38.9236204146
 10
40.9021819328
 20
38.9252280613
 10
40.8744334398
 20
38.9278380364
 10
40.8468566346
 20
38.9314655756
 10
40.8193171791
 20
38.9361342804
 10
40.7917006136
 20
38.9418750145
 10
40.7639066882
 20
38.9487251994
 10
40.7358455339
 20
38.9567283434
 10
40.707434987
 20
38.9659337138
  0
LWPOLYLINE
  5
3E7
100
AcDbEntity
  8
0
100
AcDbPolyline
 62
7
  6
CONTINUOUS
 90
19
 70
0
 10
-6.3076754377
 20
26.5872038017
 10
-6.3732311281
 20
26.5678115537
 10
-6.5249228671
 20
26.52591978
 10
-6.6726641033
 20
26.4891465745
 10
-6.7979258722
 20
26.4621391608
 10
-6.8978331488
 20
26.4447804703
 10
-6.9742030944
 20
26.4356497653
 10
-7.030419964
 20
26.4329957082
 10
-7.1103677228
 20
26.4308142659
 10
-7.2085565446
 20
26.4256722135
 10
-7.2756536347
 20
26.4246264586
 10
-7.3309881571
 20
26.4279055348
 10
-7.3809319611
 20
26.4356405104
 10
-7.4284139111
 20
26.4482082627
 10
-7.4752316259
 20
26.4662296917
 10
-7.5227074741
 20
26.4905853583
 10
-7.5470662538
 20
26.50550523
 10
-7.5719034054
 20
26.52240488
 10
-7.6232455837
 20
26.5626321824
  0
LINE
  5
3E8
100
AcDbEntity
  8
0
100
AcDbLine
 62
7
  6
CONTINUOUS
 10
-12.8087045534
 20
-78.0065538879
 11
-13.933915258
 21
-78.9137267752
  0
LINE
  5
3E9
100
AcDbEntity
  8
0
100
AcDbLine
 62
7
  6
CONTINUOUS
 10
-11.1536506557
 20
-77.6038052773
 11
-12.2791437927
 21
-78.5084362729
  0
LWPOLYLINE
  5
3EA
100
AcDbEntity
  8
0
100
AcDbPolyline
 62
7
  6
CONTINUOUS
 90
54
 70
0
 10
0.2786482646
 20
-4.2594986905
 10
0.4105380826
 20
-4.2078557579
 10
0.5430255142
 20
-4.1485135911
 10
0.6759164984
 20
-4.0813703045
 10
0.8089901678
 20
-4.0063393133
 10
0.9419993879
 20
-3.9233537081
 10
1.0746718921
 20
-3.8323703299
 10
1.206712015
 20
-3.7333734167
 10
1.3378030078
 20
-3.6263777032
 10
1.4676098952
 20
-3.5114308591
 10
1.5957828097
 20
-3.3886151765
 10
1.7219607188
 20
-3.2580484386
 10
1.845775437
 20
-3.1198839309
 10
1.966855802
 20
-2.9743095957
 10
2.084831883
 20
-2.8215463625
 10
2.1993390881
 20
-2.6618457236
 10
2.3100220434
 20
-2.495486657
 10
2.4165381289
 20
-2.3227720204
 10
2.433511697
 20
-2.2939894746
 10
2.5347047082
 20
-2.1144104621
 10
2.63097865
 20
-1.9293515935
 10
2.7220665903
 20
-1.7391664567
 10
2.8077241679
 20
-1.5442115362
 10
2.8877298885
 20
-1.3448424949
 10
2.9618849482
 20
-1.1414108198
 10
3.0300126472
 20
-0.9342608773
 10
3.0919574584
 20
-0.7237274028
 10
3.1472079139
 20
-0.5123103296
 10
3.1954681104
 20
-0.3004029647
 10
3.2366887921
 20
-0.0883870491
 10
3.2708344855
 20
0.1233343956
 10
3.2978857865
 20
0.3343388462
 10
3.3178415745
 20
0.5441866764
 10
3.3307210767
 20
0.7524241905
 10
3.336565697
 20
0.9585872851
 10
3.3369559967
 20
1.0196718939
 10
3.3337688854
 20
1.2223528403
 10
3.3237520828
 20
1.4216929039
 10
3.3070475888
 20
1.6172335028
 10
3.2838220656
 20
1.8085318542
 10
3.2542654577
 20
1.9951663514
 10
3.2185889967
 20
2.1767415889
 10
3.1770226374
 20
2.3528928503
 10
3.129811996
 20
2.5232898918
 10
3.0772148831
 20
2.6876398885
 10
3.0194975431
 20
2.8456894439
 10
2.9569307165
 20
2.9972256122
 10
2.8897856491
 20
3.1420759191
 10
2.8183301634
 20
3.2801074152
 10
2.7428249007
 20
3.4112248239
 10
2.6635198256
 20
3.5353678814
 10
2.5806510728
 20
3.6525079811
 10
2.4944381936
 20
3.7626442502
 10
2.4050818476
 20
3.8657991908
  0
LINE
  5
3EB
100
AcDbEntity
  8
0
100
AcDbLine
 62
7
  6
CONTINUOUS
 10
43.3634293308
 20
-63.4406674256
 11
42.2379361938
 21
-64.3509470694
  0
LINE
  5
3EC
100
AcDbEntity
  8
0
100
AcDbLine
 62
7
  6
CONTINUOUS
 10
45.0210251202
 20
-63.0353769234
 11
43.8958144156
 21
-63.9428322431
  0
LWPOLYLINE
  5
3ED
100
AcDbEntity
  8
0
100
AcDbPolyline
 62
7
  6
CONTINUOUS
 90
15
 70
0
 10
4.3275992336
 20
-60.8315568612
 10
4.2914799565
 20
-60.8540468351
 10
4.2522290284
 20
-60.8759625271
 10
4.2099222508
 20
-60.8971356612
 10
4.1647372016
 20
-60.9173641934
 10
4.1169870968
 20
-60.9364103178
 10
4.0671602479
 20
-60.9540007925
 10
4.0159613151
 20
-60.9698320335
 10
4.0076033179
 20
-60.9722081993
 10
3.860548353
 20
-61.0088089412
 10
3.3676622458
 20
-61.1292112078
 10
3.0858388428
 20
-61.1976977131
 10
2.4366532716
 20
-61.3550780875
 10
1.9104545862
 20
-61.4824031349
 10
1.6936346175
 20
-61.5348135516
  0
LWPOLYLINE
  5
3EE
100
AcDbEntity
  8
0
100
AcDbPolyline
 62
7
  6
CONTINUOUS
 90
13
 70
0
 10
-0.8330056844
 20
-62.1829959228
 10
-0.8757896533
 20
-62.2071268336
 10
-0.9246351195
 20
-62.2298260475
 10
-0.9329777182
 20
-62.2333005235
 10
-0.9846244377
 20
-62.2528267703
 10
-1.0361491463
 20
-62.2698314605
 10
-1.0866299848
 20
-62.2852364537
 10
-1.1873743541
 20
-62.3083776139
 10
-1.7586395814
 20
-62.4446205479
 10
-2.8180626429
 20
-62.6996755064
 10
-4.2401821086
 20
-63.0433098848
 10
-5.5212977606
 20
-63.3535810879
 10
-6.2774551703
 20
-63.5372593084
  0
LWPOLYLINE
  5
3EF
100
AcDbEntity
  8
0
100
AcDbPolyline
 62
7
  6
CONTINUOUS
 90
19
 70
0
 10
42.1746713349
 20
-4.2346446388
 10
42.0626717352
 20
-4.2683949619
 10
41.7894577351
 20
-4.3483395965
 10
41.5751384843
 20
-4.4077357541
 10
41.4389310046
 20
-4.4421709602
 10
41.363807898
 20
-4.4580486717
 10
41.3138835719
 20
-4.4677617587
 10
41.2493183699
 20
-4.484436043
 10
41.2284536475
 20
-4.4896962956
 10
41.1823133002
 20
-4.4989282252
 10
41.1415539086
 20
-4.502665199
 10
41.1018918085
 20
-4.5012658909
 10
41.0610204581
 20
-4.494358879
 10
41.0172064418
 20
-4.4810784528
 10
40.9692144844
 20
-4.4602848438
 10
40.9159648942
 20
-4.4306727543
 10
40.8558071417
 20
-4.3903722148
 10
40.7869605269
 20
-4.3370689053
 10
40.707434987
 20
-4.2679716626
  0
LWPOLYLINE
  5
3F0
100
AcDbEntity
  8
0
100
AcDbPolyline
 62
7
  6
CONTINUOUS
 90
59
 70
0
 10
30.4525967663
 20
-87.9521286243
 10
30.4289512946
 20
-87.9715883302
 10
30.4031463597
 20
-87.9917033809
 10
30.3752560989
 20
-88.0124455406
 10
30.3453546492
 20
-88.0337865737
 10
30.313516148
 20
-88.0556982443
 10
30.2798147324
 20
-88.0781523168
 10
30.2443245396
 20
-88.1011205555
 10
30.2071197069
 20
-88.1245747247
 10
30.1682743714
 20
-88.1484865886
 10
30.1278626703
 20
-88.1728279115
 10
30.0859587409
 20
-88.1975704578
 10
30.0426367203
 20
-88.2226859917
 10
29.9979707458
 20
-88.2481462774
 10
29.9520349546
 20
-88.2739230794
 10
29.9049034838
 20
-88.2999881618
 10
29.8566504706
 20
-88.3263132889
 10
29.8073500523
 20
-88.3528702251
 10
29.7570763661
 20
-88.3796307347
 10
29.7059035492
 20
-88.4065665818
 10
29.6539057387
 20
-88.4336495309
 10
29.601157072
 20
-88.4608513461
 10
29.5477316861
 20
-88.4881437918
 10
29.4937037183
 20
-88.5154986323
 10
29.4391473058
 20
-88.5428876318
 10
29.3841365858
 20
-88.5702825546
 10
29.3287456955
 20
-88.5976551651
 10
29.2730487721
 20
-88.6249772274
 10
29.2171199528
 20
-88.652220506
 10
29.1610333748
 20
-88.679356765
 10
29.1048631753
 20
-88.7063577689
 10
29.0486834915
 20
-88.7331952817
 10
28.9925684607
 20
-88.7598410679
 10
28.93659222
 20
-88.7862668917
 10
28.8808289066
 20
-88.8124445175
 10
28.8253526578
 20
-88.8383457094
 10
28.7702376107
 20
-88.8639422319
 10
28.7155579025
 20
-88.8892058491
 10
28.6613876705
 20
-88.9141083253
 10
28.6078010518
 20
-88.9386214249
 10
28.5548721837
 20
-88.9627169122
 10
28.5026752033
 20
-88.9863665513
 10
28.4512842479
 20
-89.0095421067
 10
28.4007734547
 20
-89.0322153425
 10
28.3512169608
 20
-89.0543580232
 10
28.3026889035
 20
-89.0759419129
 10
28.25526342
 20
-89.0969387759
 10
28.2090146474
 20
-89.1173203766
 10
28.1640167231
 20
-89.1370584792
 10
28.1203437841
 20
-89.1561248481
 10
28.0780699677
 20
-89.1744912474
 10
28.0372694111
 20
-89.1921294415
 10
27.9980162515
 20
-89.2090111947
 10
27.9603846261
 20
-89.2251082713
 10
27.9244486721
 20
-89.2403924354
 10
27.8902825267
 20
-89.2548354516
 10
27.8579603271
 20
-89.2684090839
 10
27.8275562105
 20
-89.2810850968
 10
27.7991443142
 20
-89.2928352544
  0
LWPOLYLINE
  5
3F1
100
AcDbEntity
  8
0
100
AcDbPolyline
 62
7
  6
CONTINUOUS
 90
32
 70
0
 10
9.0080690618
 20
-101.6105597668
 10
8.7717792402
 20
-101.7947847425
 10
8.391889284
 20
-101.948475505
 10
8.3516961508
 20
-101.9579516259
 10
7.1710910812
 20
-102.2262446856
 10
5.9846626117
 20
-102.4901986967
 10
2.3500075285
 20
-103.2351109647
 10
2.0172126212
 20
-103.2974742209
 10
0.1820535039
 20
-103.5823258065
 10
-1.2967989145
 20
-103.6903690753
 10
-2.7124729788
 20
-103.6485005136
 10
-4.2154058739
 20
-103.445113174
 10
-5.9631079027
 20
-103.0475758473
 10
-21.436425328
 20
-99.0177301088
 10
-34.2890940245
 20
-95.6695941116
 10
-34.4340296155
 20
-95.6308252664
 10
-35.8015188259
 20
-95.1836716585
 10
-37.093735962
 20
-94.6102556397
 10
-38.3098769102
 20
-93.9113806818
 10
-39.4504229595
 20
-93.0855711968
 10
-40.5159537942
 20
-92.1289946206
 10
-41.5063711029
 20
-91.0355366885
 10
-42.4204009228
 20
-89.7969754327
 10
-43.2552994836
 20
-88.4032113479
 10
-44.006711125
 20
-86.8425187462
 10
-44.6686371024
 20
-85.1017915713
 10
-44.9638245851
 20
-84.1591702919
 10
-45.2334803013
 20
-83.166766133
 10
-45.691136719
 20
-81.0278162086
 10
-46.0321795395
 20
-78.6692456781
 10
-46.2457857061
 20
-76.0745695112
 10
-46.3198669087
 20
-73.2266678528
  0
LWPOLYLINE
  5
3F2
100
AcDbEntity
  8
0
100
AcDbPolyline
 62
7
  6
CONTINUOUS
 90
16
 70
0
 10
3.4229682379
 20
-77.4521390754
 10
3.3526276631
 20
-77.4942554505
 10
3.2674573306
 20
-77.539638559
 10
3.165968529
 20
-77.5882974539
 10
3.0469040707
 20
-77.640122168
 10
2.9094698239
 20
-77.694821248
 10
2.7537350359
 20
-77.7518148727
 10
2.5813566388
 20
-77.8100468638
 10
2.396946146
 20
-77.8676442935
 10
2.210693816
 20
-77.9213032842
 10
2.0879102559
 20
-77.9540214604
 10
1.4917090041
 20
-78.1082227756
 10
0.3594194138
 20
-78.401679083
 10
-0.9248820758
 20
-78.7347075596
 10
-1.977119025
 20
-79.0076253825
 10
-2.4132149947
 20
-79.1207497286
  0
LINE
  5
3F3
100
AcDbEntity
  8
0
100
AcDbLine
 62
7
  6
CONTINUOUS
 10
-5.6623173905
 20
-35.9035078641
 11
-6.1641997756
 21
-36.1020578454
  0
LWPOLYLINE
  5
3F4
100
AcDbEntity
  8
0
100
AcDbPolyline
 62
7
  6
CONTINUOUS
 90
13
 70
0
 10
23.8193892847
 20
-55.7980465258
 10
23.7766403157
 20
-55.816910751
 10
23.7342980494
 20
-55.8339312575
 10
23.6920913507
 20
-55.8492300561
 10
23.6497490845
 20
-55.8629291575
 10
23.6070001155
 20
-55.8751505726
 10
23.5412314349
 20
-55.8899847238
 10
23.3839070508
 20
-55.9273932759
 10
23.0696070382
 20
-56.0039364916
 10
23.0244075868
 20
-56.0150246567
 10
22.5673460948
 20
-56.1276315866
 10
22.0950874799
 20
-56.2443190999
 10
21.6791165138
 20
-56.3468126902
  0
LWPOLYLINE
  5
3F5
100
AcDbEntity
  8
0
100
AcDbPolyline
 62
7
  6
CONTINUOUS
 90
12
 70
0
 10
28.935652315
 20
-54.4768277317
 10
28.8913985462
 20
-54.4963020109
 10
28.8451654911
 20
-54.5148815443
 10
28.7976174307
 20
-54.5322816399
 10
28.7494186461
 20
-54.548217606
 10
28.7012334182
 20
-54.5624047506
 10
28.5329998881
 20
-54.6042813518
 10
28.3655139256
 20
-54.6455031428
 10
27.7803636889
 20
-54.7887664157
 10
27.1319305178
 20
-54.9470234602
 10
26.6063622214
 20
-55.075103167
 10
26.3898066095
 20
-55.1278344269
  0
LWPOLYLINE
  5
3F6
100
AcDbEntity
  8
0
100
AcDbPolyline
 62
7
  6
CONTINUOUS
 90
8
 70
0
 10
37.9243460607
 20
-52.1572103832
 10
38.0175281859
 20
-52.1249840172
 10
38.0834582222
 20
-52.0817643454
 10
38.1278720477
 20
-52.0280390448
 10
38.156179692
 20
-51.9606381422
 10
38.1714478695
 20
-51.8700575565
 10
38.1754268016
 20
-51.7306733944
 10
38.1754284694
 20
-51.4980131481
  0
LWPOLYLINE
  5
3F7
100
AcDbEntity
  8
0
100
AcDbPolyline
 62
7
  6
CONTINUOUS
 90
13
 70
0
 10
42.0504010764
 20
-54.4079142247
 10
42.0102821138
 20
-54.4219017889
 10
41.9121237996
 20
-54.4555176091
 10
41.807613001
 20
-54.4904839263
 10
41.7099119773
 20
-54.5223091892
 10
41.6231325609
 20
-54.5497006747
 10
41.5483267829
 20
-54.572432796
 10
41.4852598332
 20
-54.5907195564
 10
41.4331063704
 20
-54.6049695038
 10
41.3907724768
 20
-54.6156731345
 10
41.3570610822
 20
-54.6233453797
 10
41.3307633065
 20
-54.6284939336
 10
41.2892719019
 20
-54.6350010378
  0
LINE
  5
3F8
100
AcDbEntity
  8
0
100
AcDbLine
 62
7
  6
CONTINUOUS
 10
5.6957018071
 20
-94.9855428249
 11
5.1302721308
 21
-95.2032982097
  0
LWPOLYLINE
  5
3F9
100
AcDbEntity
  8
0
100
AcDbPolyline
 62
7
  6
CONTINUOUS
 90
57
 70
0
 10
9.6011771139
 20
-74.5394136748
 10
9.8331951331
 20
-74.4697642176
 10
10.0666773049
 20
-74.3866698285
 10
10.3013407813
 20
-74.2899266441
 10
10.5368534194
 20
-74.1793465875
 10
10.772833116
 20
-74.0547660005
 10
11.0088482157
 20
-73.9160540828
 10
11.2444190522
 20
-73.7631208939
 10
11.4790206538
 20
-73.5959246711
 10
11.7120866048
 20
-73.4144782138
 10
11.9430140117
 20
-73.2188541023
 10
12.1711694754
 20
-73.0091885432
 10
12.3958959222
 20
-72.7856836809
 10
12.6165201024
 20
-72.5486082679
 10
12.8323605244
 20
-72.2982966553
 10
13.0427355702
 20
-72.0351461367
 10
13.2469715211
 20
-71.7596127547
 10
13.4444102316
 20
-71.4722057455
 10
13.6344162052
 20
-71.1734808546
 10
13.6832926524
 20
-71.0927495782
 10
13.8629179001
 20
-70.7807900822
 10
14.03365738
 20
-70.4591935545
 10
14.1950210397
 20
-70.1286173349
 10
14.3465619296
 20
-69.789724001
 10
14.4878768257
 20
-69.4431741165
 10
14.6186059012
 20
-69.0896196971
 10
14.7384315674
 20
-68.7296984907
 10
14.8470766185
 20
-68.3640291228
 10
14.9427291138
 20
-67.9921949784
 10
15.025796136
 20
-67.6196950338
 10
15.0962003004
 20
-67.2472097084
 10
15.1538895919
 20
-66.8754554981
 10
15.1988413864
 20
-66.5051815575
 10
15.2310662995
 20
-66.1371651924
 10
15.2506117224
 20
-65.772206247
 10
15.2575648906
 20
-65.411120417
 10
15.2571972331
 20
-65.3017699525
 10
15.2479261975
 20
-64.947234877
 10
15.2264710664
 20
-64.5987842907
 10
15.1930970464
 20
-64.2572123817
 10
15.1481119722
 20
-63.923282956
 10
15.0918635041
 20
-63.5977202968
 10
15.0247352601
 20
-63.2812007482
 10
14.9471419804
 20
-62.974345336
 10
14.859523863
 20
-62.6777136964
 10
14.762340248
 20
-62.3917995275
 10
14.656062852
 20
-62.1170277053
 10
14.5411687665
 20
-61.8537531342
 10
14.4181334352
 20
-61.6022613236
 10
14.2874238124
 20
-61.3627706187
 10
14.1494918888
 20
-61.1354359492
 10
14.0047687384
 20
-60.9203539221
 10
13.8536592179
 20
-60.7175690449
 10
13.696537413
 20
-60.5270808559
 10
13.5337429029
 20
-60.3488517257
 10
13.3655778813
 20
-60.1828151001
 10
13.1923051531
 20
-60.0288839641
  0
LINE
  5
3FA
100
AcDbEntity
  8
0
100
AcDbLine
 62
7
  6
CONTINUOUS
 10
27.7966024226
 20
-93.1734565095
 11
26.4807498441
 21
-93.6699726789
  0
LINE
  5
3FB
100
AcDbEntity
  8
0
100
AcDbLine
 62
7
  6
CONTINUOUS
 10
25.2617715809
 20
-93.9484510309
 11
24.0758379091
 21
-94.3235212658
  0
LINE
  5
3FC
100
AcDbEntity
  8
0
100
AcDbLine
 62
7
  6
CONTINUOUS
 10
1.2273387156
 20
-96.1384319052
 11
0.1958955697
 21
-96.4556034969
  0
LINE
  5
3FD
100
AcDbEntity
  8
0
100
AcDbLine
 62
7
  6
CONTINUOUS
 10
16.9486561497
 20
-93.2643997442
 11
16.3227859386
 21
-93.4519348616
  0
ENDSEC
  0
SECTION
  2
OBJECTS
  0
DICTIONARY
  5
C
100
AcDbDictionary
280
0
281
1
  3
ACAD_GROUP
350
D
  3
ACAD_MLINESTYLE
350
17
  3
ACAD_LAYOUT
350
1A
  3
ACAD_PLOTSETTINGS
350
19
  3
ACAD_PLOTSTYLENAME
350
E
  0
DICTIONARY
  5
D
102
{ACAD_REACTORS
330
C
102
}
100
AcDbDictionary
280
0
281
1
  0
ACDBDICTIONARYWDFLT
  5
E
102
{ACAD_REACTORS
330
C
102
}
100
AcDbDictionary
281
1
  3
Normal
350
F
100
AcDbDictionaryWithDefault
340
F
  0
DICTIONARY
  5
17
102
{ACAD_REACTORS
330
C
102
}
100
AcDbDictionary
280
0
281
1
  3
Standard
350
18
  0
DICTIONARY
  5
19
102
{ACAD_REACTORS
330
C
102
}
100
AcDbDictionary
281
1
  0
DICTIONARY
  5
1A
102
{ACAD_REACTORS
330
C
102
}
100
AcDbDictionary
281
1
  3
Model
350
3FE
  3
Layout1
350
3FF
  0
ACDBPLACEHOLDER
  5
F
102
{ACAD_REACTORS
330
E
102
}
  0
MLINESTYLE
  5
18
102
{ACAD_REACTORS
330
17
102
}
100
AcDbMlineStyle
  2
STANDARD
 70
0
  3

 62
256
 51
90.0
 52
90.0
 71
2
 49
0.5
 62
256
  6
BYLAYER
 49
-0.5
 62
256
  6
BYLAYER
  0
LAYOUT
  5
3FE
102
{ACAD_REACTORS
330
1A
102
}
100
AcDbPlotSettings
  1

  2
none_device
  4
ISO_A4_(297.00_x_210.00_MM)
  6

 40
0.0
 41
0.0
 42
0.0
 43
0.0
 44
297.0
 45
210.0
 46
0.0
 47
0.0
 48
0.0
 49
0.0
140
0.0
141
0.0
142
1.0
143
1.0
 70
1024
 72
1
 73
0
 74
0
  7

 75
0
147
1.0
148
0.0
149
0.0
100
AcDbLayout
  1
Model
 70
0
 71
0
 10
0.0
 20
0.0
 11
297.0
 21
210.0
 12
0.0
 22
0.0
 32
0.0
 14
0.0
 24
0.0
 34
0.0
 15
0.0
 25
0.0
 35
0.0
146
0.0
 13
0.0
 23
0.0
 33
0.0
 16
1.0
 26
0.0
 36
0.0
 17
0.0
 27
1.0
 37
0.0
 76
0
330
201
345
0
346
0
  0
LAYOUT
  5
3FF
102
{ACAD_REACTORS
330
1A
102
}
100
AcDbPlotSettings
  1

  2
none_device
  4
ISO_A4_(297.00_x_210.00_MM)
  6

 40
0.0
 41
0.0
 42
0.0
 43
0.0
 44
297.0
 45
210.0
 46
0.0
 47
0.0
 48
0.0
 49
0.0
140
0.0
141
0.0
142
1.0
143
1.0
 70
0
 72
1
 73
0
 74
0
  7

 75
0
147
1.0
148
0.0
149
0.0
100
AcDbLayout
  1
Layout1
 70
0
 71
1
 10
0.0
 20
0.0
 11
297.0
 21
210.0
 12
0.0
 22
0.0
 32
0.0
 14
0.0
 24
0.0
 34
0.0
 15
0.0
 25
0.0
 35
0.0
146
0.0
 13
0.0
 23
0.0
 33
0.0
 16
1.0
 26
0.0
 36
0.0
 17
0.0
 27
1.0
 37
0.0
 76
0
330
202
345
0
346
0
  0
ENDSEC
  0
EOF
