  0
SECTION
  2
HEADER
  9
$ACADVER
  1
AC1024
  9
$DWGCODEPAGE
  3
ANSI_1252
  9
$EXTMAX
 10
297.0
 20
210.0
 30
0.0
  9
$EXTMIN
 10
0.0
 20
0.0
 30
0.0
  9
$LIMMIN
 10
0.0
 20
0.0
  9
$LIMMAX
 10
297.0
 20
210.0
  9
$VIEWCTR
 10
148.5
 20
105.0
  9
$VIEWSIZE
 40
210.0
  9
$CLAYER
  8
0
  9
$LTSCALE
 40
16.335
  9
$CELTYPE
  6
BYLAYER
  9
$DIMSCALE
 40
1.0
  9
$DIMASZ
 40
3.0
  9
$DIMEXO
 40
0.5
  9
$DIMDLI
 40
11.286
  9
$DIMEXE
 40
1.5
  9
$DIMCEN
 40
2.673
  9
$DIMLFAC
 40
1.0
  9
$DIMBLK
  1
_FILLED
  9
$DIMALT
 70
0
  9
$DIMALTF
 40
0.0393700787
  9
$DIMTXT
 40
3.0
  9
$DIMTOL
 70
1
  9
$DIMLIM
 70
0
  9
$DIMTFAC
 40
1.0
  9
$DIMTP
 40
0.01
  9
$DIMTM
 40
0.01
  9
$DIMGAP
 40
0.625
  9
$DIMDSEP
 70
44
  9
$AUNITS
 70
0
  9
$PDMODE
 70
3
  9
$PDSIZE
 40
3.0
  9
$HANDSEED
  5
27A
  9
$TILEMODE
 70
1
  9
$MEASUREMENT
 70
1
  9
$INSUNITS
 70
4
  0
ENDSEC
  0
SECTION
  2
CLASSES
  0
CLASS
  1
ACDBDICTIONARYWDFLT
  2
AcDbDictionaryWithDefault
  3
AutoCAD 2000
 90
0
 91
1
280
0
281
0
  0
CLASS
  1
ACDBPLACEHOLDER
  2
AcDbPlaceHolder
  3
AutoCAD 2000
 90
0
 91
1
280
0
281
0
  0
CLASS
  1
LAYOUT
  2
AcDbLayout
  3
AutoCAD 2000
 90
0
 91
0
280
0
281
0
  0
ENDSEC
  0
SECTION
  2
TABLES
  0
TABLE
  2
VPORT
  5
8
100
AcDbSymbolTable
 70
2
  0
VPORT
  5
1F4
100
AcDbSymbolTableRecord
100
AcDbViewportTableRecord
  2
*ACTIVE
 70
0
 10
0.0
 20
0.0
 11
1.0
 21
1.0
 12
148.5
 22
105.0
 13
0.0
 23
0.0
 14
1.0
 24
1.0
 15
0.0
 25
0.0
 16
0.0
 26
0.0
 36
1.0
 17
0.0
 27
0.0
 37
0.0
 40
210.0
 41
1.4142857143
 42
50.0
 43
0.0
 44
0.0
 50
0.0
 51
0.0
 71
0
 72
100
 73
1
 74
1
 75
0
 76
0
 77
0
 78
0
  0
ENDTAB
  0
TABLE
  2
LTYPE
  5
5
100
AcDbSymbolTable
 70
6
  0
LTYPE
  5
14
100
AcDbSymbolTableRecord
100
AcDbLinetypeTableRecord
  2
BYBLOCK
 70
0
  3

 72
65
 73
0
 40
0.0
  0
LTYPE
  5
15
100
AcDbSymbolTableRecord
100
AcDbLinetypeTableRecord
  2
BYLAYER
 70
0
  3

 72
65
 73
0
 40
0.0
  0
LTYPE
  5
16
100
AcDbSymbolTableRecord
100
AcDbLinetypeTableRecord
  2
CONTINUOUS
 70
64
  3
Solid line
 72
65
 73
0
 40
0.0
  0
LTYPE
  5
1F5
100
AcDbSymbolTableRecord
100
AcDbLinetypeTableRecord
  2
CENTER
 70
64
  3
____ _ ____ _ ____ _ ____ _ ____ _ ____ _ ____
 72
65
 73
4
 40
0.6
 49
0.375
 74
0
 49
-0.075
 74
0
 49
0.075
 74
0
 49
-0.075
 74
0
  0
LTYPE
  5
1F6
100
AcDbSymbolTableRecord
100
AcDbLinetypeTableRecord
  2
HIDDEN
 70
64
  3
- - - - - - - - - - - - - - - - - - - -
 72
65
 73
2
 40
0.2
 49
0.1
 74
0
 49
-0.1
 74
0
  0
LTYPE
  5
1F7
100
AcDbSymbolTableRecord
100
AcDbLinetypeTableRecord
  2
PHANTOM
 70
64
  3
_____ _ _ _____ _ _ _____ _ _ _____
 72
65
 73
6
 40
0.8
 49
0.45
 74
0
 49
-0.05
 74
0
 49
0.1
 74
0
 49
-0.05
 74
0
 49
0.1
 74
0
 49
-0.05
 74
0
  0
LTYPE
  5
1F8
100
AcDbSymbolTableRecord
100
AcDbLinetypeTableRecord
  2
DOT
 70
64
  3
. . . . . . . . . . . . . . . . . . . .
 72
65
 73
2
 40
0.2
 49
0.1
 74
0
 49
-0.1
 74
0
  0
LTYPE
  5
1F9
100
AcDbSymbolTableRecord
100
AcDbLinetypeTableRecord
  2
DASHED
 70
64
  3
- - - - - - - - - - - - - - - - - - - -
 72
65
 73
2
 40
0.2
 49
0.1
 74
0
 49
-0.1
 74
0
  0
ENDTAB
  0
TABLE
  2
LAYER
  5
2
100
AcDbSymbolTable
 70
36
  0
LAYER
  5
10
100
AcDbSymbolTableRecord
100
AcDbLayerTableRecord
  2
0
 70
0
 62
7
  6
CONTINUOUS
370
-3
390
F
  0
LAYER
  5
1FA
100
AcDbSymbolTableRecord
100
AcDbLayerTableRecord
  2
DEFAULT_1
 70
0
 62
7
  6
CENTER
370
-3
390
F
  0
LAYER
  5
1FB
100
AcDbSymbolTableRecord
100
AcDbLayerTableRecord
  2
DEFAULT_2
 70
0
 62
7
  6
HIDDEN
370
-3
390
F
  0
LAYER
  5
1FC
100
AcDbSymbolTableRecord
100
AcDbLayerTableRecord
  2
DEFAULT_3
 70
0
 62
7
  6
PHANTOM
370
-3
390
F
  0
LAYER
  5
1FD
100
AcDbSymbolTableRecord
100
AcDbLayerTableRecord
  2
Livello_1
 70
0
 62
7
  6
CONTINUOUS
370
-3
390
F
  0
LAYER
  5
1FE
100
AcDbSymbolTableRecord
100
AcDbLayerTableRecord
  2
SNAPLINE
 70
0
 62
7
  6
CONTINUOUS
370
-3
390
F
  0
ENDTAB
  0
TABLE
  2
STYLE
  5
3
100
AcDbSymbolTable
 70
1
  0
STYLE
  5
11
100
AcDbSymbolTableRecord
100
AcDbTextStyleTableRecord
  2
STANDARD
 70
0
 40
0.0
 41
0.8
 50
0.0
 71
0
 42
0.2
  3
txt
  4

  0
STYLE
  5
1FF
100
AcDbSymbolTableRecord
100
AcDbTextStyleTableRecord
  2
TEXTSTYLE_1
 70
0
 40
0.0
 41
0.8
 50
0.0
 71
0
 42
0.2
  3
gdt
  4

  0
ENDTAB
  0
TABLE
  2
VIEW
  5
6
100
AcDbSymbolTable
 70
0
  0
ENDTAB
  0
TABLE
  2
UCS
  5
7
100
AcDbSymbolTable
 70
0
  0
ENDTAB
  0
TABLE
  2
APPID
  5
9
100
AcDbSymbolTable
 70
1
  0
APPID
  5
200
100
AcDbSymbolTableRecord
100
AcDbRegAppTableRecord
  2
ACAD
 70
0
  0
ENDTAB
  0
TABLE
  2
BLOCK_RECORD
  5
1
100
AcDbSymbolTable
 70
0
  0
BLOCK_RECORD
  5
201
100
AcDbSymbolTableRecord
100
AcDbBlockTableRecord
  2
*Model_Space
  0
BLOCK_RECORD
  5
202
100
AcDbSymbolTableRecord
100
AcDbBlockTableRecord
  2
*Paper_Space
  0
BLOCK_RECORD
  5
203
100
AcDbSymbolTableRecord
100
AcDbBlockTableRecord
  2
_FILLED
  0
ENDTAB
  0
TABLE
  2
DIMSTYLE
  5
A
100
AcDbSymbolTable
 70
1
100
AcDbDimStyleTable
 71
0
  0
DIMSTYLE
105
204
100
AcDbSymbolTableRecord
100
AcDbDimStyleTableRecord
  2
STANDARD
 70
0
  3

  4

 40
1.0
 41
3.0
 42
0.5
 43
0.38
 44
1.5
 45
0.0
 46
0.0
 47
0.01
 48
0.01
140
3.0
141
0.09
142
0.0
143
25.4
144
1.0
145
0.0
146
1.0
147
0.625
 71
1
 72
0
 73
0
 74
0
 75
0
 76
0
 77
1
 78
8
 79
2
170
0
171
1
172
0
173
0
174
0
175
0
176
0
177
0
178
0
270
2
179
2
271
2
272
2
273
2
274
2
275
0
280
0
281
0
282
0
283
1
284
8
285
0
286
0
287
3
288
0
340
11
278
44
341
203
342
203
343
203
344
203
  0
ENDTAB
  0
ENDSEC
  0
SECTION
  2
BLOCKS
  0
BLOCK
  5
20
100
AcDbEntity
  8
0
100
AcDbBlockBegin
  2
*Model_Space
 70
0
 10
0.0
 20
0.0
 30
0.0
  3
*Model_Space
  1

  0
ENDBLK
  5
21
100
AcDbEntity
  8
0
100
AcDbBlockEnd
  0
BLOCK
  5
1C
100
AcDbEntity
  8
0
100
AcDbBlockBegin
  2
*Paper_Space
 70
0
 10
0.0
 20
0.0
 30
0.0
  3
*Paper_Space
  1

  0
ENDBLK
  5
1D
100
AcDbEntity
  8
0
100
AcDbBlockEnd
  0
BLOCK
  5
205
100
AcDbEntity
  8
0
100
AcDbBlockBegin
  2
_FILLED
 70
64
 10
0.0
 20
0.0
  3
_FILLED
  1

  0
SOLID
  5
206
100
AcDbEntity
  8
0
  6
BYBLOCK
 62
0
100
AcDbTrace
 10
0.0
 20
0.0
 11
-1.0
 21
0.3166666667
 12
-1.0
 22
-0.3166666667
 13
-1.0
 23
-0.3166666667
  0
ENDBLK
  5
207
100
AcDbEntity
  8
0
  6
BYBLOCK
 62
0
100
AcDbBlockEnd
  0
ENDSEC
  0
SECTION
  2
ENTITIES
  0
LINE
  5
208
100
AcDbEntity
  8
Livello_1
100
AcDbLine
 62
7
  6
CONTINUOUS
 10
-5.6173405689
 20
35.0423438315
 11
-5.5604215775
 21
-0.2947376502
  0
LWPOLYLINE
  5
209
100
AcDbEntity
  8
Livello_1
100
AcDbPolyline
 62
7
  6
CONTINUOUS
 90
15
 70
0
 10
-48.3772292237
 20
89.3830179587
 10
-48.3772292237
 20
62.387403686
 10
-39.7248663968
 20
58.5582475
 10
-23.0015690631
 20
51.1581533868
 10
-22.5403476018
 20
50.8940960019
 10
-22.406712087
 20
50.7962716804
 10
-21.9324903091
 20
50.3660141609
 10
-21.5147757352
 20
49.850451148
 10
-21.1779435615
 20
49.2782995899
 10
-20.9329138409
 20
48.6687399571
 10
-20.7840563064
 20
48.0328289264
 10
-20.7338230237
 20
47.375859974
 10
-20.6892324543
 20
40.1225437327
 10
-20.6198579801
 20
30.0412786111
 10
-20.4100586953
 20
0.5151328989
  0
LINE
  5
20A
100
AcDbEntity
  8
Livello_1
100
AcDbLine
 62
7
  6
CONTINUOUS
 10
-48.3772292237
 20
2.4588599115
 11
-48.3772292237
 21
-50.9910885431
  0
LINE
  5
20B
100
AcDbEntity
  8
Livello_1
100
AcDbLine
 62
7
  6
CONTINUOUS
 10
-17.3952368885
 20
39.4081435522
 11
-17.3952368885
 21
23.393363373
  0
LINE
  5
20C
100
AcDbEntity
  8
Livello_1
100
AcDbLine
 62
7
  6
CONTINUOUS
 10
-17.3952368885
 20
18.5950170127
 11
-17.3952368885
 21
2.5802368335
  0
LINE
  5
20D
100
AcDbEntity
  8
Livello_1
100
AcDbLine
 62
7
  6
CONTINUOUS
 10
-11.0157864936
 20
50.2913562561
 11
-11.0157864936
 21
41.3315154288
  0
LINE
  5
20E
100
AcDbEntity
  8
Livello_1
100
AcDbLine
 62
7
  6
CONTINUOUS
 10
38.222910495
 20
-81.0657977036
 11
36.8757020507
 21
-81.3897836262
  0
LWPOLYLINE
  5
20F
100
AcDbEntity
  8
Livello_1
100
AcDbPolyline
 62
7
  6
CONTINUOUS
 90
16
 70
0
 10
-0.1766765843
 20
-97.1358010188
 10
5.4074639688
 20
-95.9403738198
 10
26.9921044423
 20
-91.3723300644
 10
49.0623573949
 20
-86.737480751
 10
62.9233025862
 20
-83.8433314677
 10
63.3701152674
 20
-83.7308521214
 10
63.7401718386
 20
-83.515066009
 10
64.0429011636
 20
-83.2002538603
 10
64.2761019269
 20
-82.7867415827
 10
64.4239866882
 20
-82.2894283272
 10
64.4638848223
 20
-81.8756682732
 10
64.6169700028
 20
-75.2225063458
 10
65.6570225197
 20
-29.8231677832
 10
66.8209815603
 20
21.4160915501
 10
67.408341724
 20
48.0414724263
 10
67.4327190997
 20
49.4575495749
  0
LINE
  5
210
100
AcDbEntity
  8
Livello_1
100
AcDbLine
 62
7
  6
CONTINUOUS
 10
15.0097626446
 20
-86.1421425771
 11
22.7842937481
 21
-84.6292659045
  0
LINE
  5
211
100
AcDbEntity
  8
Livello_1
100
AcDbLine
 62
7
  6
CONTINUOUS
 10
38.5468964093
 20
-81.0657977036
 11
62.6287185349
 21
-83.5468626741
  0
LWPOLYLINE
  5
212
100
AcDbEntity
  8
Livello_1
100
AcDbPolyline
 62
7
  6
CONTINUOUS
 90
81
 70
0
 10
31.1459197458
 20
-90.5079424081
 10
30.9481047489
 20
-90.4338452763
 10
30.752334739
 20
-90.3484936746
 10
30.5588600843
 20
-90.251855633
 10
30.3679654836
 20
-90.1439089581
 10
30.1799701088
 20
-90.0246476979
 10
29.9952269087
 20
-89.8940885869
 10
29.81412103
 20
-89.752277272
 10
29.6370673331
 20
-89.5992941115
 10
29.4645070188
 20
-89.4352593295
 10
29.2969034131
 20
-89.260337318
 10
29.1347370004
 20
-89.0747398942
 10
28.9784998331
 20
-88.8787283519
 10
28.8286894829
 20
-88.6726141891
 10
28.6858027313
 20
-88.4567584486
 10
28.550329214
 20
-88.2315696714
 10
28.4227452484
 20
-87.9975005279
 10
28.3035080637
 20
-87.7550432572
 10
28.1930506368
 20
-87.5047241021
 10
28.1855076654
 20
-87.4865578438
 10
28.0849372071
 20
-87.2285184295
 10
27.9940107086
 20
-86.9640061679
 10
27.9130355991
 20
-86.693612225
 10
27.8422830786
 20
-86.4179281567
 10
27.7819885548
 20
-86.1375396943
 10
27.732352885
 20
-85.853021181
 10
27.6935443
 20
-85.564930764
 10
27.6657008746
 20
-85.2738064042
 10
27.648933406
 20
-84.9801627178
 10
27.6433285694
 20
-84.6844886359
 10
27.6489332791
 20
-84.388808945
 10
27.6657002335
 20
-84.0951647252
 10
27.6935426518
 20
-83.8040432083
 10
27.7323497533
 20
-83.515957367
 10
27.7819835927
 20
-83.2314436116
 10
27.8422761669
 20
-82.9510586718
 10
27.9130269243
 20
-82.6753756451
 10
27.9940008147
 20
-82.4049792268
 10
28.0849270162
 20
-82.1404601794
 10
28.1854984627
 20
-81.8824091453
 10
28.206201387
 20
-81.8329014449
 10
28.3177744147
 20
-81.5834954471
 10
28.4380778003
 20
-81.3420137566
 10
28.5666752198
 20
-81.1089793923
 10
28.7031065001
 20
-80.8848808681
 10
28.84689285
 20
-80.6701666962
 10
28.9975426823
 20
-80.4652409121
 10
29.154557823
 20
-80.2704598064
 10
29.3174398839
 20
-80.0861299871
 10
29.4856965714
 20
-79.9125078354
 10
29.6588477157
 20
-79.7498003467
 10
29.8364308243
 20
-79.5981672914
 10
30.0180059989
 20
-79.4577245719
 10
30.2031600869
 20
-79.3285486117
 10
30.3915099848
 20
-79.2106815833
 10
30.5827050434
 20
-79.1041372619
 10
30.7764285689
 20
-79.0089072915
 10
30.9723984376
 20
-78.9249676515
 10
31.1703668766
 20
-78.8522851278
 10
31.3701194788
 20
-78.7908236112
 10
31.571473539
 20
-78.740550069
 10
31.7742758095
 20
-78.7014400612
 10
31.9783997793
 20
-78.6734826993
 10
32.1837425861
 20
-78.656684974
 10
32.3902216693
 20
-78.6510754003
 10
32.5973933158
 20
-78.6566859108
 10
32.8033316565
 20
-78.6734830553
 10
33.007942119
 20
-78.7014321008
 10
33.2111104902
 20
-78.7405184291
 10
33.4126997611
 20
-78.7907440464
 10
33.6125472405
 20
-78.8521234532
 10
33.8104620427
 20
-78.9246789267
 10
34.0062230549
 20
-79.0084352921
 10
34.1995774827
 20
-79.1034142861
 10
34.3902400655
 20
-79.2096286412
 10
34.5778930382
 20
-79.3270760402
 10
34.7621868992
 20
-79.4557331153
 10
34.9427420219
 20
-79.595549677
 10
35.1191511169
 20
-79.7464433712
 10
35.2909825247
 20
-79.9082949625
 10
35.3092989476
 20
-79.9264754804
  0
LWPOLYLINE
  5
213
100
AcDbEntity
  8
Livello_1
100
AcDbPolyline
 62
7
  6
CONTINUOUS
 90
14
 70
0
 10
-17.0361949066
 20
2.2967727176
 10
-15.1108606533
 20
1.5559565174
 10
-12.3738424672
 20
0.5021081091
 10
-9.487745909
 20
-0.6105202242
 10
-7.3233094155
 20
-1.4476157291
 10
-6.7511970323
 20
-1.6713479576
 10
-6.5976736885
 20
-1.7272455025
 10
-6.4273850479
 20
-1.7786996884
 10
-6.2405965798
 20
-1.8248131957
 10
-6.0383253666
 20
-1.8645963738
 10
-5.8226069909
 20
-1.8970081795
 10
-5.5967818334
 20
-1.9210284013
 10
-5.365731441
 20
-1.9357737961
 10
-5.2143842658
 20
-1.9401111419
  0
LWPOLYLINE
  5
214
100
AcDbEntity
  8
Livello_1
100
AcDbPolyline
 62
7
  6
CONTINUOUS
 90
23
 70
0
 10
9.8691484423
 20
-48.6609908939
 10
9.8844134214
 20
-48.667123291
 10
10.2295772032
 20
-48.7677450651
 10
10.6057760856
 20
-48.8059409678
 10
11.0120516329
 20
-48.7769020849
 10
13.1569720156
 20
-48.4284223164
 10
20.3771365948
 20
-47.2289549762
 10
37.2055366128
 20
-44.4020604168
 10
43.1327047486
 20
-43.385830229
 10
44.0539378085
 20
-43.2165574397
 10
44.4165232108
 20
-43.1043606096
 10
44.7166515941
 20
-42.944708006
 10
44.9635911952
 20
-42.7407958014
 10
45.1637243275
 20
-42.4922751566
 10
45.3200165375
 20
-42.1961185402
 10
45.4320014385
 20
-41.8483840605
 10
45.4965502927
 20
-41.4473495725
 10
45.5115569636
 20
-41.1109264474
 10
45.5439238425
 20
-39.8677639398
 10
46.1382066644
 20
-19.497759387
 10
46.9903915671
 20
9.4548842442
 10
47.4762899291
 20
26.264704711
 10
47.5086568079
 20
27.5640930406
  0
LINE
  5
215
100
AcDbEntity
  8
Livello_1
100
AcDbLine
 62
7
  6
CONTINUOUS
 10
-17.3326636927
 20
6.4546861885
 11
-6.427211118
 21
0.2427887184
  0
LINE
  5
216
100
AcDbEntity
  8
Livello_1
100
AcDbLine
 62
7
  6
CONTINUOUS
 10
-17.2222182327
 20
17.3599502898
 11
-5.832765758
 21
10.3952897354
  0
LINE
  5
217
100
AcDbEntity
  8
Livello_1
100
AcDbLine
 62
7
  6
CONTINUOUS
 10
-17.2791040242
 20
12.1769295541
 11
-5.7223202979
 21
5.0503702793
  0
LINE
  5
218
100
AcDbEntity
  8
Livello_1
100
AcDbLine
 62
7
  6
CONTINUOUS
 10
-1.0822916619
 20
-76.1000867665
 11
15.0097626446
 21
-86.1421425771
  0
LINE
  5
219
100
AcDbEntity
  8
Livello_1
100
AcDbLine
 62
7
  6
CONTINUOUS
 10
-14.849680789
 20
21.4607562958
 11
-5.9946644784
 21
15.7918509254
  0
LWPOLYLINE
  5
21A
100
AcDbEntity
  8
Livello_1
100
AcDbPolyline
 62
7
  6
CONTINUOUS
 90
23
 70
0
 10
31.0980474815
 20
-76.0282783683
 10
31.1261586782
 20
-76.046869393
 10
31.1532204545
 20
-76.0652794831
 10
31.1794951656
 20
-76.0837800405
 10
31.2052451665
 20
-76.102642467
 10
31.2307328124
 20
-76.1221381644
 10
31.3826257419
 20
-76.2519642425
 10
31.8004471799
 20
-76.6125052948
 10
32.2685579706
 20
-77.0212482086
 10
32.7262703864
 20
-77.4259948966
 10
33.1516608363
 20
-77.8073806603
 10
33.5362045921
 20
-78.1574550231
 10
33.8772974385
 20
-78.4733496886
 10
34.1752989307
 20
-78.7547679236
 10
34.4321470081
 20
-79.0028045522
 10
34.650632529
 20
-79.2193259463
 10
34.8339885283
 20
-79.4066177475
 10
34.985643935
 20
-79.5671729441
 10
35.1090693132
 20
-79.7035588582
 10
35.207676842
 20
-79.8183310361
 10
35.2847535078
 20
-79.9139763501
 10
35.3434150902
 20
-79.9928751022
 10
35.3865730749
 20
-80.0572760797
  0
LWPOLYLINE
  5
21B
100
AcDbEntity
  8
Livello_1
100
AcDbPolyline
 62
7
  6
CONTINUOUS
 90
46
 70
0
 10
-17.2222182327
 20
14.2825552871
 10
-17.0862360747
 20
14.1904883621
 10
-16.9416861447
 20
14.096590191
 10
-16.7888584331
 20
14.0010045728
 10
-16.6280429307
 20
13.9038753065
 10
-16.4595296282
 20
13.8053461911
 10
-16.2836085162
 20
13.7055610254
 10
-16.1005695854
 20
13.6046636086
 10
-15.9107028265
 20
13.5027977395
 10
-15.71429823
 20
13.4001072171
 10
-15.5116457867
 20
13.2967358404
 10
-15.3030354873
 20
13.1928274083
 10
-15.0887573224
 20
13.0885257199
 10
-14.8691012826
 20
12.983974574
 10
-14.6443573587
 20
12.8793177697
 10
-14.4148155413
 20
12.7746991059
 10
-14.180765821
 20
12.6702623817
 10
-13.9424981886
 20
12.5661513958
 10
-13.7003026347
 20
12.4625099474
 10
-13.4544691499
 20
12.3594818354
 10
-13.2052877249
 20
12.2572108587
 10
-12.9530483505
 20
12.1558408164
 10
-12.6980410171
 20
12.0555155074
 10
-12.4405557156
 20
11.9563787306
 10
-12.1808824366
 20
11.858574285
 10
-11.8818058184
 20
11.748613667
 10
-11.5806830693
 20
11.640795706
 10
-11.2779470618
 20
11.5353350526
 10
-10.974030668
 20
11.432446357
 10
-10.6693667605
 20
11.3323442696
 10
-10.3643882115
 20
11.2352434408
 10
-10.0595278935
 20
11.1413585209
 10
-9.7552186788
 20
11.0509041602
 10
-9.4518934397
 20
10.9640950092
 10
-9.1499850487
 20
10.8811457181
 10
-8.849926378
 20
10.8022709373
 10
-8.5521503001
 20
10.7276853173
 10
-8.2570896873
 20
10.6576035082
 10
-7.965177412
 20
10.5922401606
 10
-7.6768463465
 20
10.5318099246
 10
-7.3925293632
 20
10.4765274508
 10
-7.1126593344
 20
10.4266073894
 10
-6.8376691326
 20
10.3822643908
 10
-6.5679916301
 20
10.3437131054
 10
-6.3040596992
 20
10.3111681835
 10
-6.0463062123
 20
10.2848442754
  0
LWPOLYLINE
  5
21C
100
AcDbEntity
  8
Livello_1
100
AcDbPolyline
 62
7
  6
CONTINUOUS
 90
73
 70
0
 10
32.5890956516
 20
-87.3772093312
 10
32.6183250097
 20
-87.3979657594
 10
32.6464038035
 20
-87.4199999599
 10
32.6733168718
 20
-87.4432914604
 10
32.6990460805
 20
-87.4678192823
 10
32.7235703272
 20
-87.4935614346
 10
32.7468656068
 20
-87.5204943841
 10
32.7689051424
 20
-87.5485925137
 10
32.7896595867
 20
-87.5778275829
 10
32.8090972946
 20
-87.608168204
 10
32.8271846664
 20
-87.6395793505
 10
32.8438865607
 20
-87.6720219161
 10
32.859166769
 20
-87.7054523389
 10
32.8729885456
 20
-87.7398223107
 10
32.8853151793
 20
-87.7750785846
 10
32.8961105948
 20
-87.8111628959
 10
32.9053399654
 20
-87.8480120041
 10
32.9129703188
 20
-87.8855578639
 10
32.9189711174
 20
-87.9237279245
 10
32.9233147916
 20
-87.9624455524
 10
32.9259772084
 20
-88.0016305682
 10
32.9269380591
 20
-88.041199881
 10
32.926181151
 20
-88.0810681993
 10
32.9251548676
 20
-88.1010839273
 10
32.9218018373
 20
-88.1412256371
 10
32.9167142691
 20
-88.1814237665
 10
32.9098941556
 20
-88.2215926058
 10
32.9013473375
 20
-88.2616482887
 10
32.8910831587
 20
-88.301509392
 10
32.8791140623
 20
-88.341097443
 10
32.8654551431
 20
-88.3803373268
 10
32.8501236754
 20
-88.4191575886
 10
32.8331386297
 20
-88.457490634
 10
32.814520194
 20
-88.4952728313
 10
32.7942893115
 20
-88.5324445227
 10
32.7724672455
 20
-88.568949956
 10
32.7490751777
 20
-88.6047371459
 10
32.7245256412
 20
-88.6391213389
 10
32.6987243252
 20
-88.6723209859
 10
32.671709953
 20
-88.7042988329
 10
32.6435246533
 20
-88.7350159516
 10
32.6142142796
 20
-88.7644320382
 10
32.5838286831
 20
-88.7925057731
 10
32.5524219249
 20
-88.8191952383
 10
32.5200524142
 20
-88.8444583898
 10
32.4867829586
 20
-88.868253575
 10
32.4526807146
 20
-88.890540088
 10
32.4178170297
 20
-88.9112787456
 10
32.3822671711
 20
-88.9304324715
 10
32.3461099378
 20
-88.9479668665
 10
32.3094271618
 20
-88.9638507471
 10
32.2940141197
 20
-88.969972678
 10
32.2567594507
 20
-88.9834631401
 10
32.2192109243
 20
-88.995239158
 10
32.1814555557
 20
-89.0052872507
 10
32.1435795063
 20
-89.0135986765
 10
32.105667294
 20
-89.0201693677
 10
32.0678010529
 20
-89.0249997473
 10
32.0300598674
 20
-89.0280944338
 10
31.9925192004
 20
-89.0294618479
 10
31.9552504301
 20
-89.0291137362
 10
31.9183205065
 20
-89.0270646307
 10
31.8817917301
 20
-89.0233312642
 10
31.8457216538
 20
-89.0179319601
 10
31.8101631017
 20
-89.0108860187
 10
31.7751642947
 20
-89.002213115
 10
31.7407690731
 20
-88.9919327255
 10
31.7070171992
 20
-88.9800635963
 10
31.6739447271
 20
-88.9666232631
 10
31.6415844222
 20
-88.9516276299
 10
31.6099662164
 20
-88.9350906124
 10
31.5791176837
 20
-88.9170238476
 10
31.5490645223
 20
-88.8974364698
  0
LWPOLYLINE
  5
21D
100
AcDbEntity
  8
Livello_1
100
AcDbPolyline
 62
7
  6
CONTINUOUS
 90
73
 70
0
 10
31.5490645223
 20
-88.8974364698
 10
31.5199846869
 20
-88.876691376
 10
31.4920513538
 20
-88.854666282
 10
31.4652789207
 20
-88.8313806451
 10
31.4396848635
 20
-88.8068543479
 10
31.4152897399
 20
-88.7811082225
 10
31.3921171323
 20
-88.7541645995
 10
31.370193522
 20
-88.7260478728
 10
31.3495480934
 20
-88.6967850655
 10
31.3302124628
 20
-88.6664063822
 10
31.312220335
 20
-88.634945732
 10
31.2956070873
 20
-88.602441203
 10
31.280409287
 20
-88.568935472
 10
31.2666641519
 20
-88.5344761295
 10
31.2544089627
 20
-88.4991159057
 10
31.2436804431
 20
-88.4629127803
 10
31.2345141241
 20
-88.4259299671
 10
31.2269437116
 20
-88.3882357642
 10
31.2210004768
 20
-88.3499032701
 10
31.2167126916
 20
-88.3110099664
 10
31.214105127
 20
-88.2716371789
 10
31.2131986342
 20
-88.2318694317
 10
31.2140098223
 20
-88.1917937141
 10
31.2165508434
 20
-88.1514986861
 10
31.2179856075
 20
-88.1360098625
 10
31.2229270591
 20
-88.0955882397
 10
31.2296017447
 20
-88.0551856966
 10
31.2380037007
 20
-88.0148887891
 10
31.2481232109
 20
-87.9747816855
 10
31.2599472146
 20
-87.934945601
 10
31.2734597633
 20
-87.8954583361
 10
31.2886425095
 20
-87.8563939248
 10
31.3054752109
 20
-87.8178223917
 10
31.3239362326
 20
-87.7798096148
 10
31.3440030363
 20
-87.742417286
 10
31.3656526433
 20
-87.7057029603
 10
31.3888620632
 20
-87.6697201816
 10
31.4133452159
 20
-87.635471203
 10
31.4390953674
 20
-87.6023850189
 10
31.4660744481
 20
-87.5704997657
 10
31.4942408111
 20
-87.5398554344
 10
31.5235488774
 20
-87.510493567
 10
31.553948828
 20
-87.4824568877
 10
31.585386359
 20
-87.4557888694
 10
31.6178025143
 20
-87.4305332411
 10
31.6511336117
 20
-87.406733442
 10
31.6853112755
 20
-87.3844320338
 10
31.7202625857
 20
-87.3636700849
 10
31.7559103524
 20
-87.3444865437
 10
31.7921735154
 20
-87.3269176208
 10
31.8289676693
 20
-87.310996202
 10
31.8462635751
 20
-87.3041506334
 10
31.8836519042
 20
-87.2907041658
 10
31.9213261629
 20
-87.2789741121
 10
31.9591959927
 20
-87.2689744763
 10
31.9971719201
 20
-87.2607142145
 10
32.0351662164
 20
-87.254197295
 10
32.0730937031
 20
-87.2494228881
 10
32.1108724773
 20
-87.2463856758
 10
32.1484245328
 20
-87.2450762698
 10
32.1856762631
 20
-87.2454817188
 10
32.2225588332
 20
-87.2475860869
 10
32.2590084159
 20
-87.2513710797
 10
32.2949662958
 20
-87.2568166971
 10
32.3303788441
 20
-87.2639018918
 10
32.3651973777
 20
-87.2726052136
 10
32.3993779139
 20
-87.2829054235
 10
32.4328808376
 20
-87.2947820621
 10
32.4656704972
 20
-87.3082159634
 10
32.4977147473
 20
-87.3231897033
 10
32.5289844537
 20
-87.3396879802
 10
32.5594529772
 20
-87.3576979235
 10
32.5890956516
 20
-87.3772093312
  0
LWPOLYLINE
  5
21E
100
AcDbEntity
  8
Livello_1
100
AcDbPolyline
 62
7
  6
CONTINUOUS
 90
73
 70
0
 10
31.0577141565
 20
-85.5034059328
 10
30.982609125
 20
-85.4495364758
 10
30.9104202881
 20
-85.3923151214
 10
30.8411919298
 20
-85.3317933619
 10
30.7749763456
 20
-85.2680246219
 10
30.7118337799
 20
-85.2010656662
 10
30.651832194
 20
-85.1309780599
 10
30.5950468523
 20
-85.0578296503
 10
30.5415597157
 20
-84.9816960305
 10
30.4914586407
 20
-84.9026619441
 10
30.4448363847
 20
-84.8208225848
 10
30.4017894285
 20
-84.7362847426
 10
30.3624166323
 20
-84.6491677493
 10
30.3268177521
 20
-84.5596041767
 10
30.2950918483
 20
-84.4677402451
 10
30.2673356306
 20
-84.3737359097
 10
30.2436417856
 20
-84.2777645988
 10
30.2240973395
 20
-84.180012594
 10
30.208782113
 20
-84.080678055
 10
30.1977673211
 20
-83.9799697083
 10
30.1911143689
 20
-83.8781052359
 10
30.1888738887
 20
-83.775309412
 10
30.1910850504
 20
-83.6718120521
 10
30.1932902826
 20
-83.6291440984
 10
30.2018182499
 20
-83.5251237698
 10
30.2148275786
 20
-83.4210300801
 10
30.2323092282
 20
-83.3170897383
 10
30.2542439983
 20
-83.2135235827
 10
30.2806035447
 20
-83.1105450167
 10
30.3113515441
 20
-83.0083587175
 10
30.3464449597
 20
-82.9071596327
 10
30.3858353617
 20
-82.8071322711
 10
30.4294702594
 20
-82.7084502771
 10
30.4772944076
 20
-82.611276273
 10
30.5292510542
 20
-82.5157619439
 10
30.5852831039
 20
-82.4220483338
 10
30.6453341795
 20
-82.3302663216
 10
30.709156409
 20
-82.2410521546
 10
30.7762284246
 20
-82.1548931633
 10
30.8464489835
 20
-82.0718881859
 10
30.9197077629
 20
-81.99214038
 10
30.9958845376
 20
-81.9157564195
 10
31.0748484849
 20
-81.8428455325
 10
31.1564576527
 20
-81.7735183865
 10
31.240558629
 20
-81.707885833
 10
31.3269864456
 20
-81.6460575322
 10
31.4155647474
 20
-81.5881404857
 10
31.5061062492
 20
-81.5342375146
 10
31.5984134945
 20
-81.4844457251
 10
31.6922799165
 20
-81.4388550125
 10
31.7319117192
 20
-81.4210696606
 10
31.8275994217
 20
-81.3815803327
 10
31.9242527349
 20
-81.3464915091
 10
32.0216445328
 20
-81.3158498472
 10
32.1195481194
 20
-81.2896896453
 10
32.2177393637
 20
-81.2680327319
 10
32.3159987635
 20
-81.2508886735
 10
32.4141133678
 20
-81.2382552942
 10
32.5118784961
 20
-81.2301194839
 10
32.6090992042
 20
-81.2264582617
 10
32.705591457
 20
-81.227240052
 10
32.8011829869
 20
-81.2324261237
 10
32.8957138265
 20
-81.2419721411
 10
32.9890365207
 20
-81.2558297719
 10
33.0810160343
 20
-81.2739483036
 10
33.1715293799
 20
-81.2962762213
 10
33.2604649997
 20
-81.3227627067
 10
33.3477219384
 20
-81.3533590242
 10
33.4332088482
 20
-81.388019769
 10
33.5168428663
 20
-81.4267039568
 10
33.5985484054
 20
-81.4693759449
 10
33.6782558964
 20
-81.5160061774
 10
33.7559005148
 20
-81.5665717561
  0
LWPOLYLINE
  5
21F
100
AcDbEntity
  8
Livello_1
100
AcDbPolyline
 62
7
  6
CONTINUOUS
 90
73
 70
0
 10
33.7559005148
 20
-81.5665717561
 10
33.8309850612
 20
-81.6204363944
 10
33.903155848
 20
-81.6776527286
 10
33.9723680049
 20
-81.7381689296
 10
34.0385686702
 20
-81.8019311602
 10
34.1016970596
 20
-81.8688821667
 10
34.1616847063
 20
-81.9389598203
 10
34.2184558825
 20
-82.012095639
 10
34.271928214
 20
-82.0882133293
 10
34.3220134894
 20
-82.1672273899
 10
34.3686186616
 20
-82.2490418223
 10
34.4116470333
 20
-82.3335489971
 10
34.450999606
 20
-82.4206287246
 10
34.4865765685
 20
-82.5101475742
 10
34.5182788906
 20
-82.6019584849
 10
34.5460099784
 20
-82.6959007007
 10
34.5696773448
 20
-82.7918000539
 10
34.5891942408
 20
-82.8894696063
 10
34.6044811936
 20
-82.9887106453
 10
34.6154673951
 20
-83.0893140131
 10
34.6220918932
 20
-83.1910617348
 10
34.6243045392
 20
-83.2937288921
 10
34.6220666601
 20
-83.3970856822
 10
34.6197117021
 20
-83.4419627842
 10
34.6110620226
 20
-83.5458241655
 10
34.597933809
 20
-83.6497430791
 10
34.5803366867
 20
-83.7534935702
 10
34.558290348
 20
-83.8568557031
 10
34.5318235219
 20
-83.9596170993
 10
34.5009728001
 20
-84.0615742016
 10
34.4657813658
 20
-84.1625332483
 10
34.4262976708
 20
-84.2623109544
 10
34.3825741051
 20
-84.3607349102
 10
34.3346656946
 20
-84.4576437135
 10
34.2826288607
 20
-84.5528868635
 10
34.2265202647
 20
-84.646324444
 10
34.166395757
 20
-84.7378266325
 10
34.1028221087
 20
-84.8270415709
 10
34.0360039992
 20
-84.9131950897
 10
33.9660414525
 20
-84.996190623
 10
33.8930433364
 20
-85.0759272248
 10
33.8171281962
 20
-85.1523003403
 10
33.7384249698
 20
-85.2252027336
 10
33.6570735476
 20
-85.2945255687
 10
33.5732251386
 20
-85.3601596317
 10
33.4870424102
 20
-85.4219966745
 10
33.3986993696
 20
-85.4799308554
 10
33.308380964
 20
-85.5338602388
 10
33.216282382
 20
-85.5836883152
 10
33.1226080561
 20
-85.6293254901
 10
33.0275703714
 20
-85.6706904929
 10
32.9867507352
 20
-85.6869859133
 10
32.8902198531
 20
-85.7221145212
 10
32.7929296438
 20
-85.7528034027
 10
32.6951062639
 20
-85.7790173978
 10
32.5969736875
 20
-85.8007337002
 10
32.4987516423
 20
-85.8179416987
 10
32.4006536737
 20
-85.830642508
 10
32.3028854011
 20
-85.8388482088
 10
32.2056430169
 20
-85.8425808297
 10
32.109112071
 20
-85.8418711114
 10
32.0134665649
 20
-85.8367571011
 10
31.9188683669
 20
-85.8272826291
 10
31.8254669486
 20
-85.81349572
 10
31.7333994264
 20
-85.7954469889
 10
31.6427908853
 20
-85.7731880689
 10
31.5537549537
 20
-85.7467701123
 10
31.4663945919
 20
-85.7162423979
 10
31.3808030541
 20
-85.6816510732
 10
31.2970649842
 20
-85.6430380508
 10
31.2152576033
 20
-85.600440071
 10
31.1354519527
 20
-85.5538879386
 10
31.0577141565
 20
-85.5034059328
  0
LWPOLYLINE
  5
220
100
AcDbEntity
  8
Livello_1
100
AcDbPolyline
 62
7
  6
CONTINUOUS
 90
51
 70
0
 10
-17.4411912222
 20
24.486698038
 10
-17.2802679587
 20
24.3673970087
 10
-17.1107045494
 20
24.2491659964
 10
-16.9328592555
 20
24.1320414133
 10
-16.7470903378
 20
24.0160596714
 10
-16.5537560575
 20
23.9012571829
 10
-16.3532146755
 20
23.7876703597
 10
-16.145824453
 20
23.6753356141
 10
-15.9319436509
 20
23.5642893581
 10
-15.7119305304
 20
23.4545680038
 10
-15.4861433523
 20
23.3462079633
 10
-15.2549403778
 20
23.2392456487
 10
-15.0186798679
 20
23.1337174721
 10
-14.7777200836
 20
23.0296598455
 10
-14.5324192859
 20
22.9271091811
 10
-14.2831357359
 20
22.826101891
 10
-14.0302276947
 20
22.7266743872
 10
-13.7740534232
 20
22.6288630819
 10
-13.5149711825
 20
22.5327043872
 10
-13.2533392336
 20
22.4382347151
 10
-12.9895158375
 20
22.3454904777
 10
-12.7238592554
 20
22.2545080871
 10
-12.4567277481
 20
22.1653239555
 10
-12.1884795768
 20
22.0779744948
 10
-11.9194730025
 20
21.9924961173
 10
-11.6500662863
 20
21.908925235
 10
-11.380617689
 20
21.82729826
 10
-11.1114854719
 20
21.7476516043
 10
-10.8430278959
 20
21.6700216802
 10
-10.575603222
 20
21.5944448996
 10
-10.3095697113
 20
21.5209576747
 10
-10.0452856248
 20
21.4495964175
 10
-9.7831092236
 20
21.3803975402
 10
-9.5233987687
 20
21.3133974549
 10
-9.2665125211
 20
21.2486325736
 10
-9.0128087418
 20
21.1861393084
 10
-8.762645692
 20
21.1259540715
 10
-8.5163816325
 20
21.0681132749
 10
-8.2743748245
 20
21.0126533307
 10
-8.036983529
 20
20.959610651
 10
-7.804566007
 20
20.909021648
 10
-7.5774805196
 20
20.8609227336
 10
-7.3560853277
 20
20.81535032
 10
-7.1407386925
 20
20.7723408193
 10
-6.9317988749
 20
20.7319306436
 10
-6.729624136
 20
20.6941562049
 10
-6.5345727368
 20
20.6590539154
 10
-6.3470029384
 20
20.6266601872
 10
-6.1672730018
 20
20.5970114324
 10
-5.9957411879
 20
20.5701440629
 10
-5.832765758
 20
20.5460944911
  0
LWPOLYLINE
  5
221
100
AcDbEntity
  8
Livello_1
100
AcDbPolyline
 62
7
  6
CONTINUOUS
 90
56
 70
0
 10
-15.0649507658
 20
18.440468758
 10
-14.9886463034
 20
18.3813477774
 10
-14.9053467712
 20
18.3213236808
 10
-14.8152694038
 20
18.2604614919
 10
-14.7186314355
 20
18.1988262346
 10
-14.6156501009
 20
18.1364829323
 10
-14.5065426343
 20
18.0734966089
 10
-14.3915262702
 20
18.0099322881
 10
-14.270818243
 20
17.9458549935
 10
-14.1446357873
 20
17.8813297489
 10
-14.0131961374
 20
17.8164215779
 10
-13.8767165278
 20
17.7511955043
 10
-13.7354141929
 20
17.6857165517
 10
-13.5895063672
 20
17.6200497438
 10
-13.4392102851
 20
17.5542601044
 10
-13.2847431811
 20
17.4884126572
 10
-13.1263222897
 20
17.4225724257
 10
-12.9641648451
 20
17.3568044339
 10
-12.7984880821
 20
17.2911737052
 10
-12.6295092348
 20
17.2257452635
 10
-12.4574455379
 20
17.1605841324
 10
-12.2825142257
 20
17.0957553357
 10
-12.1049325327
 20
17.0313238969
 10
-11.9249176934
 20
16.96735484
 10
-11.7426869422
 20
16.9039131884
 10
-11.5584575135
 20
16.841063966
 10
-11.3724466418
 20
16.7788721964
 10
-11.1848715615
 20
16.7174029033
 10
-10.9959495071
 20
16.6567211105
 10
-10.805897713
 20
16.5968918415
 10
-10.5928502094
 20
16.5312446077
 10
-10.378968915
 20
16.466829108
 10
-10.1645552709
 20
16.4037355714
 10
-9.9499107184
 20
16.3420542267
 10
-9.7353366987
 20
16.2818753028
 10
-9.521134653
 20
16.2232890286
 10
-9.3076060225
 20
16.166385633
 10
-9.0950522485
 20
16.1112553449
 10
-8.8837747721
 20
16.0579883932
 10
-8.6740750347
 20
16.0066750068
 10
-8.4662544773
 20
15.9574054145
 10
-8.2606145413
 20
15.9102698453
 10
-8.0574566679
 20
15.865358528
 10
-7.8570822983
 20
15.8227616915
 10
-7.6597928737
 20
15.7825695648
 10
-7.4658898353
 20
15.7448723767
 10
-7.2756746243
 20
15.7097603561
 10
-7.0894486821
 20
15.6773237319
 10
-6.9075134497
 20
15.6476527331
 10
-6.7301703684
 20
15.6208375883
 10
-6.5577208795
 20
15.5969685267
 10
-6.3904664241
 20
15.576135777
 10
-6.2287084436
 20
15.5584295682
 10
-6.072748379
 20
15.5439401292
 10
-5.9228876717
 20
15.5327576887
 10
-5.7794277628
 20
15.5249724759
  0
LWPOLYLINE
  5
222
100
AcDbEntity
  8
Livello_1
100
AcDbPolyline
 62
7
  6
CONTINUOUS
 90
46
 70
0
 10
-31.2086468062
 20
-0.5670818307
 10
-30.4736227876
 20
-1.2241882747
 10
-29.7174336659
 20
-1.8786652469
 10
-28.941820511
 20
-2.5289777718
 10
-28.1485243928
 20
-3.1735908738
 10
-27.3392863813
 20
-3.8109695771
 10
-26.5158475466
 20
-4.4395789063
 10
-25.6799489585
 20
-5.0578838856
 10
-24.833331687
 20
-5.6643495396
 10
-23.9777368022
 20
-6.2574408925
 10
-23.1149053739
 20
-6.8356229688
 10
-22.2465784721
 20
-7.3973607928
 10
-21.6073209191
 20
-7.7979617823
 10
-20.9667309577
 20
-8.1882885937
 10
-20.3254952144
 20
-8.5677358781
 10
-19.6843003156
 20
-8.9356982865
 10
-19.0438328876
 20
-9.2915704702
 10
-18.4047795568
 20
-9.6347470802
 10
-17.7678269498
 20
-9.9646227675
 10
-17.1336616928
 20
-10.2805921834
 10
-16.5029704124
 20
-10.5820499789
 10
-15.8764397348
 20
-10.868390805
 10
-15.2547562865
 20
-11.139009313
 10
-14.638606694
 20
-11.3933001539
 10
-14.0286775836
 20
-11.6306579788
 10
-13.4256555817
 20
-11.8504774387
 10
-12.8302273148
 20
-12.0521531849
 10
-12.3659673399
 20
-12.1981570886
 10
-11.9072061125
 20
-12.3321774239
 10
-11.45428149
 20
-12.4539163263
 10
-11.0075313299
 20
-12.5630759313
 10
-10.5672934895
 20
-12.6593583745
 10
-10.1339058263
 20
-12.7424657914
 10
-9.7077061977
 20
-12.8121003174
 10
-9.2890324612
 20
-12.8679640881
 10
-8.8782224742
 20
-12.9097592389
 10
-8.4756140942
 20
-12.9371879055
 10
-8.0815451785
 20
-12.9499522232
 10
-7.6963535845
 20
-12.9477543277
 10
-7.3203771699
 20
-12.9302963543
 10
-6.9539537918
 20
-12.8972804388
 10
-6.5974213079
 20
-12.8484087164
 10
-6.2511175754
 20
-12.7833833228
 10
-5.915380452
 20
-12.7019063935
 10
-5.5905477949
 20
-12.6036800639
 10
-5.2769574616
 20
-12.4884064696
  0
LWPOLYLINE
  5
223
100
AcDbEntity
  8
Livello_1
100
AcDbPolyline
 62
7
  6
CONTINUOUS
 90
23
 70
0
 10
23.0511721976
 20
-84.791164629
 10
23.2160204687
 20
-84.9487884439
 10
23.9917537947
 20
-85.6910203227
 10
25.1097269834
 20
-86.762071755
 10
26.2407748693
 20
-87.8483107977
 10
26.9646445233
 20
-88.54741092
 10
27.2090856685
 20
-88.7869910069
 10
27.2824036232
 20
-88.855278696
 10
27.376475999
 20
-88.9328732481
 10
27.4939014911
 20
-89.0202543886
 10
27.6368965787
 20
-89.1175815813
 10
27.8069745098
 20
-89.224557406
 10
28.004540338
 20
-89.3402677587
 10
28.22842963
 20
-89.4630231387
 10
28.4754745667
 20
-89.5902501343
 10
28.7402536698
 20
-89.7185073195
 10
29.0152274095
 20
-89.8437020506
 10
29.0643404761
 20
-89.8652359725
 10
29.3350792581
 20
-89.9794320306
 10
29.592696663
 20
-90.0807119439
 10
29.8309061757
 20
-90.1672524936
 10
30.0456240744
 20
-90.2383854227
 10
30.2348389372
 20
-90.2944019484
  0
LWPOLYLINE
  5
224
100
AcDbEntity
  8
Livello_1
100
AcDbPolyline
 62
7
  6
CONTINUOUS
 90
54
 70
0
 10
-17.3326636927
 20
30.4260699205
 10
-17.2023860693
 20
30.2983015159
 10
-17.0626649213
 20
30.1717241487
 10
-16.9138538566
 20
30.046377066
 10
-16.7563064825
 20
29.922299515
 10
-16.5903764068
 20
29.799530743
 10
-16.4164172369
 20
29.6781099973
 10
-16.2347825805
 20
29.5580765252
 10
-16.0458260452
 20
29.4394695737
 10
-15.8499012385
 20
29.3223283903
 10
-15.647361768
 20
29.2066922221
 10
-15.4385612412
 20
29.0926003165
 10
-15.2238532659
 20
28.9800919205
 10
-15.0035914495
 20
28.8692062816
 10
-14.7781293996
 20
28.7599826469
 10
-14.5478207239
 20
28.6524602637
 10
-14.3130190298
 20
28.5466783793
 10
-14.0740779251
 20
28.4426762408
 10
-13.8313510172
 20
28.3404930955
 10
-13.5851919137
 20
28.2401681908
 10
-13.3359542222
 20
28.1417407737
 10
-13.0839915504
 20
28.0452500917
 10
-12.8296575057
 20
27.9507353918
 10
-12.5733056958
 20
27.8582359215
 10
-12.3152897282
 20
27.7677909278
 10
-12.0559632106
 20
27.6794396581
 10
-11.7956797505
 20
27.5932213597
 10
-11.5347929554
 20
27.5091752796
 10
-11.2736564331
 20
27.4273406653
 10
-11.0126237909
 20
27.347756764
 10
-10.7520486366
 20
27.2704628228
 10
-10.4922845778
 20
27.1954980891
 10
-10.2336852219
 20
27.1229018101
 10
-9.9766041766
 20
27.0527132331
 10
-9.7213950494
 20
26.9849716052
 10
-9.468411448
 20
26.9197161738
 10
-9.2180069799
 20
26.856986186
 10
-8.9705352527
 20
26.7968208892
 10
-8.726349874
 20
26.7392595306
 10
-8.4858044513
 20
26.6843413574
 10
-8.2492525923
 20
26.6321056169
 10
-8.0170479045
 20
26.5825915563
 10
-7.7895439955
 20
26.5358384229
 10
-7.5670944729
 20
26.4918854639
 10
-7.3500529442
 20
26.4507719266
 10
-7.1387730171
 20
26.4125370581
 10
-6.9336082992
 20
26.3772201059
 10
-6.7349123979
 20
26.3448603171
 10
-6.5430389209
 20
26.3154969389
 10
-6.3583414759
 20
26.2891692186
 10
-6.1811736702
 20
26.2659164035
 10
-6.0118891116
 20
26.2457777407
 10
-5.8508414076
 20
26.2287924777
 10
-5.6983841658
 20
26.2149998615
  0
LWPOLYLINE
  5
225
100
AcDbEntity
  8
Livello_1
100
AcDbPolyline
 62
7
  6
CONTINUOUS
 90
49
 70
0
 10
35.3092989476
 20
-79.9264754804
 10
35.4504799697
 20
-80.0720725651
 10
35.5879215646
 20
-80.2252426618
 10
35.7213295826
 20
-80.3858350702
 10
35.8504064889
 20
-80.5536738354
 10
35.9748540295
 20
-80.7285578963
 10
36.0943759379
 20
-80.9102617337
 10
36.2086806141
 20
-81.0985365057
 10
36.3174837088
 20
-81.2931116396
 10
36.4205105444
 20
-81.4936968356
 10
36.5174983161
 20
-81.6999844223
 10
36.5894573921
 20
-81.8662270832
 10
36.675012798
 20
-82.0818231848
 10
36.7538357896
 20
-82.3020651502
 10
36.8257370847
 20
-82.5266034615
 10
36.8905455679
 20
-82.755087492
 10
36.9481082464
 20
-82.9871682136
 10
36.9982899011
 20
-83.2225006927
 10
37.0409724666
 20
-83.4607463364
 10
37.0760541797
 20
-83.7015748619
 10
37.1034485377
 20
-83.9446659736
 10
37.1230831063
 20
-84.1897107441
 10
37.134898219
 20
-84.4364127015
 10
37.1388456051
 20
-84.6844886359
 10
37.134897776
 20
-84.932215847
 10
37.1230805663
 20
-85.1786059981
 10
37.1034413483
 20
-85.4233704183
 10
37.0760392246
 20
-85.6662072534
 10
37.0409463879
 20
-85.9068023547
 10
36.9982493994
 20
-86.144830454
 10
36.9480503464
 20
-86.3799566345
 10
36.8904678396
 20
-86.6118380982
 10
36.8256378084
 20
-86.8401262218
 10
36.7537140535
 20
-87.064468883
 10
36.6748685202
 20
-87.2845130245
 10
36.5892912601
 20
-87.499907415
 10
36.560800169
 20
-87.5671396533
 10
36.4667403076
 20
-87.7757505841
 10
36.3665266599
 20
-87.9788064186
 10
36.2604153098
 20
-88.1759936628
 10
36.1486746672
 20
-88.3670156205
 10
36.0315833417
 20
-88.5515948014
 10
35.9094277854
 20
-88.7294749897
 10
35.782499765
 20
-88.9004229148
 10
35.6510937248
 20
-89.0642294745
 10
35.5155041097
 20
-89.2207104802
 10
35.3760227137
 20
-89.3697069085
 10
35.2329361205
 20
-89.5110846598
 10
35.0865232927
 20
-89.644733842
  0
LWPOLYLINE
  5
226
100
AcDbEntity
  8
Livello_1
100
AcDbPolyline
 62
7
  6
CONTINUOUS
 90
65
 70
0
 10
-17.3326636927
 20
9.3130750058
 10
-17.2521265169
 20
9.226536152
 10
-17.1625577859
 20
9.138843909
 10
-17.064240928
 20
9.0500795361
 10
-16.9574593716
 20
8.9603242927
 10
-16.842496545
 20
8.8696594381
 10
-16.7196358766
 20
8.7781662317
 10
-16.5891607947
 20
8.6859259329
 10
-16.4513547276
 20
8.5930198009
 10
-16.3065011038
 20
8.4995290951
 10
-16.1548833515
 20
8.4055350749
 10
-15.9967848992
 20
8.3111189996
 10
-15.832489175
 20
8.2163621285
 10
-15.6622796075
 20
8.1213457211
 10
-15.4864396249
 20
8.0261510365
 10
-15.3052526556
 20
7.9308593343
 10
-15.119002128
 20
7.8355518737
 10
-14.9279714703
 20
7.7403099141
 10
-14.732444111
 20
7.6452147148
 10
-14.5327034783
 20
7.5503475351
 10
-14.3290330006
 20
7.4557896345
 10
-14.1217161064
 20
7.3616222722
 10
-13.9110362238
 20
7.2679267076
 10
-13.6972767813
 20
7.1747842001
 10
-13.4807212073
 20
7.082276009
 10
-13.2616529299
 20
6.9904833936
 10
-13.0403553777
 20
6.8994876133
 10
-12.817111979
 20
6.8093699274
 10
-12.592206162
 20
6.7202115953
 10
-12.3659213552
 20
6.6320938764
 10
-12.1385409869
 20
6.5450980299
 10
-11.9103484854
 20
6.4593053151
 10
-11.6816272791
 20
6.3747969916
 10
-11.4526607963
 20
6.2916543186
 10
-11.2237324654
 20
6.2099585554
 10
-10.9951257148
 20
6.1297909613
 10
-10.7671239727
 20
6.0512327959
 10
-10.5400106675
 20
5.9743653183
 10
-10.3140692276
 20
5.8992697879
 10
-10.0895830813
 20
5.8260274641
 10
-9.866835657
 20
5.7547196062
 10
-9.646110383
 20
5.6854274736
 10
-9.4276906876
 20
5.6182323256
 10
-9.2118599992
 20
5.5532154216
 10
-8.9989017462
 20
5.4904580208
 10
-8.7890993569
 20
5.4300413827
 10
-8.5827362596
 20
5.3720467666
 10
-8.3800958827
 20
5.3165554318
 10
-8.1814616545
 20
5.2636486377
 10
-7.9871170034
 20
5.2134076436
 10
-7.7973453578
 20
5.1659137089
 10
-7.6124301459
 20
5.1212480929
 10
-7.4326547962
 20
5.079492055
 10
-7.2583027369
 20
5.0407268545
 10
-7.0896573964
 20
5.0050337507
 10
-6.9270022031
 20
4.972494003
 10
-6.7706205853
 20
4.9431888708
 10
-6.6207959713
 20
4.9171996133
 10
-6.4778117896
 20
4.89460749
 10
-6.3419514684
 20
4.8754937602
 10
-6.2134984361
 20
4.8599396832
 10
-6.092736121
 20
4.8480265183
 10
-5.9799479515
 20
4.839835525
 10
-5.875417356
 20
4.8354479625
 10
-5.7794277628
 20
4.8349450902
  0
LINE
  5
227
100
AcDbEntity
  8
Livello_1
100
AcDbLine
 62
7
  6
CONTINUOUS
 10
3.3479659894
 20
47.1900251214
 11
3.3479659894
 21
42.5739326175
  0
LWPOLYLINE
  5
228
100
AcDbEntity
  8
Livello_1
100
AcDbPolyline
 62
7
  6
CONTINUOUS
 90
40
 70
0
 10
-4.426565114
 20
40.4683068845
 10
-4.4175877163
 20
40.6120823939
 10
-4.4075214451
 20
40.7138100608
 10
-4.3866034257
 20
40.8694258322
 10
-4.3586806232
 20
41.0283535321
 10
-4.3240067766
 20
41.1885529708
 10
-4.282934618
 20
41.3482023296
 10
-4.2358781351
 20
41.50573831
 10
-4.1832809974
 20
41.6598652786
 10
-4.1255921925
 20
41.809543355
 10
-4.0632484552
 20
41.9539642573
 10
-3.9966623734
 20
42.0925215341
 10
-3.9262148768
 20
42.2247795877
 10
-3.8522509188
 20
42.3504440874
 10
-3.7750773784
 20
42.4693350954
 10
-3.6949624469
 20
42.5813633991
 10
-3.6121359686
 20
42.6865100662
 10
-3.5267903778
 20
42.7848089845
 10
-3.439081996
 20
42.8763320412
 10
-3.3491325452
 20
42.9611765718
 10
-3.2570307977
 20
43.0394547349
 10
-3.1628343213
 20
43.111284507
 10
-3.0665713059
 20
43.1767820471
 10
-2.9682424696
 20
43.236055229
 10
-2.8678230463
 20
43.2891981841
 10
-2.7652648549
 20
43.336286736
 10
-2.6604984444
 20
43.377374636
 10
-2.5534352988
 20
43.4124905319
 10
-2.4439700789
 20
43.441635611
 10
-2.3319828689
 20
43.4647818694
 10
-2.2173413907
 20
43.4818709569
 10
-2.0999031481
 20
43.492813545
 10
-1.9795174607
 20
43.4974891633
 10
-1.8560273573
 20
43.4957464412
 10
-1.7292712987
 20
43.4874036946
 10
-1.6646094717
 20
43.4806915572
 10
-1.5990847138
 20
43.47224979
 10
-1.4654332904
 20
43.4500703378
 10
-1.3281558314
 20
43.4206191195
 10
-1.1870829175
 20
43.3836220869
  0
LINE
  5
229
100
AcDbEntity
  8
Livello_1
100
AcDbLine
 62
7
  6
CONTINUOUS
 10
-5.5604215775
 20
-0.2947376502
 11
-17.3601476232
 21
4.2680168585
  0
LINE
  5
22A
100
AcDbEntity
  8
Livello_1
100
AcDbLine
 62
7
  6
CONTINUOUS
 10
-17.3326636927
 20
27.7776334949
 11
-5.832765758
 21
20.7613312067
  0
LINE
  5
22B
100
AcDbEntity
  8
Livello_1
100
AcDbLine
 62
7
  6
CONTINUOUS
 10
-17.2165640282
 20
38.51364841
 11
-5.8401162237
 21
31.3722068205
  0
LWPOLYLINE
  5
22C
100
AcDbEntity
  8
Livello_1
100
AcDbPolyline
 62
7
  6
CONTINUOUS
 90
38
 70
0
 10
-17.2791040242
 20
35.1765369501
 10
-17.1290621514
 20
35.0682243584
 10
-16.9706264329
 20
34.9592980411
 10
-16.8040421874
 20
34.8498646604
 10
-16.6295547335
 20
34.7400308783
 10
-16.4474093899
 20
34.6299033567
 10
-16.2578514753
 20
34.5195887578
 10
-16.0611263082
 20
34.4091937435
 10
-15.8574792074
 20
34.2988249759
 10
-15.6471554914
 20
34.1885891169
 10
-15.4304004789
 20
34.0785928288
 10
-15.2074594887
 20
33.9689427734
 10
-14.9785778392
 20
33.8597456127
 10
-14.7440008492
 20
33.7511080089
 10
-14.5039738374
 20
33.643136624
 10
-14.2587421223
 20
33.5359381199
 10
-13.9163907625
 20
33.3911966224
 10
-13.5654394579
 20
33.2483611002
 10
-13.2065102601
 20
33.1077020147
 10
-12.8402252204
 20
32.9694898277
 10
-12.4672063903
 20
32.8339950006
 10
-12.0880758211
 20
32.701487995
 10
-11.7034555643
 20
32.5722392726
 10
-11.3139676714
 20
32.4465192948
 10
-10.9202341937
 20
32.3245985232
 10
-10.5228771826
 20
32.2067474195
 10
-10.1225186896
 20
32.0932364451
 10
-9.7197807662
 20
31.9843360617
 10
-9.3152854636
 20
31.8803167308
 10
-8.9096548333
 20
31.781448914
 10
-8.5035109269
 20
31.6880030728
 10
-8.0974757955
 20
31.6002496689
 10
-7.6921714908
 20
31.5184591637
 10
-7.2882200641
 20
31.442902019
 10
-6.8862435668
 20
31.3738486961
 10
-6.4868640504
 20
31.3115696568
 10
-6.0907035663
 20
31.2563353625
 10
-5.6983841658
 20
31.2084162749
  0
LWPOLYLINE
  5
22D
100
AcDbEntity
  8
Livello_1
100
AcDbPolyline
 62
7
  6
CONTINUOUS
 90
23
 70
0
 10
22.6113092998
 20
22.909363473
 10
22.5470026588
 20
22.9926617491
 10
22.4840888395
 20
23.0769267307
 10
22.4225700529
 20
23.1621416494
 10
22.3624485098
 20
23.2482897371
 10
22.3037264214
 20
23.3353542253
 10
22.2464059984
 20
23.4233183459
 10
22.190489452
 20
23.5121653305
 10
22.1359789931
 20
23.6018784108
 10
22.0828768326
 20
23.6924408185
 10
22.0311851815
 20
23.7838357854
 10
21.9809062508
 20
23.876046543
 10
21.9320422515
 20
23.9690563233
 10
21.8845953945
 20
24.0628483577
 10
21.8385678908
 20
24.1574058781
 10
21.7939619514
 20
24.2527121162
 10
21.7507797873
 20
24.3487503036
 10
21.7090236094
 20
24.4455036721
 10
21.6686956286
 20
24.5429554533
 10
21.629798056
 20
24.641088879
 10
21.5923331025
 20
24.7398871809
 10
21.5563029792
 20
24.8393335907
 10
21.5217098969
 20
24.9394113401
  0
LINE
  5
22E
100
AcDbEntity
  8
Livello_1
100
AcDbLine
 62
7
  6
CONTINUOUS
 10
56.1499426154
 20
-64.920404994
 11
63.2766903636
 21
-82.6855388428
  0
LWPOLYLINE
  5
22F
100
AcDbEntity
  8
Livello_1
100
AcDbPolyline
 62
7
  6
CONTINUOUS
 90
25
 70
0
 10
21.5217098969
 20
24.9394113401
 10
21.4866538294
 20
25.0609767355
 10
19.1282891217
 20
24.640366914
 10
11.8182958192
 20
23.3451630009
 10
10.4875299344
 20
23.1172497229
 10
10.2236844073
 20
23.0478834264
 10
10.002082535
 20
22.9322825834
 10
9.8181503811
 20
22.7736319412
 10
9.6707328893
 20
22.5732613265
 10
9.5629629954
 20
22.3343290999
 10
9.5021380183
 20
22.069370413
 10
9.4918245327
 20
21.9117733365
 10
9.464118486
 20
19.303010002
 10
9.3451663826
 20
8.5702608081
 10
8.8620772485
 20
-33.6681956994
 10
8.7125584261
 20
-45.6183885751
 10
8.6928854455
 20
-46.7283838166
 10
8.7058125648
 20
-47.0847838645
 10
8.777160998
 20
-47.4305994921
 10
8.7854241487
 20
-47.4577755526
 10
8.915948784
 20
-47.777797345
 10
9.0953660851
 20
-48.0639390677
 10
9.3175773887
 20
-48.3094139935
 10
9.5769822829
 20
-48.5095277982
 10
9.8691484423
 20
-48.6609908939
  0
LINE
  5
230
100
AcDbEntity
  8
Livello_1
100
AcDbLine
 62
7
  6
CONTINUOUS
 10
5.6486955546
 20
50.2397145223
 11
5.6486955546
 21
49.6729823166
  0
LINE
  5
231
100
AcDbEntity
  8
Livello_1
100
AcDbLine
 62
7
  6
CONTINUOUS
 10
9.5543977285
 20
40.8970840544
 11
9.5543977285
 21
43.1131552475
  0
LINE
  5
232
100
AcDbEntity
  8
Livello_1
100
AcDbLine
 62
7
  6
CONTINUOUS
 10
13.0091166407
 20
41.6019748745
 11
13.0091166407
 21
44.246830653
  0
LINE
  5
233
100
AcDbEntity
  8
Livello_1
100
AcDbLine
 62
7
  6
CONTINUOUS
 10
-16.4841560799
 20
18.2214625728
 11
-17.3803474835
 21
18.5950170127
  0
LINE
  5
234
100
AcDbEntity
  8
Livello_1
100
AcDbLine
 62
7
  6
CONTINUOUS
 10
31.2857670689
 20
21.8786020038
 11
25.9408476128
 21
25.333320916
  0
LWPOLYLINE
  5
235
100
AcDbEntity
  8
Livello_1
100
AcDbPolyline
 62
7
  6
CONTINUOUS
 90
73
 70
0
 10
25.9408476128
 20
25.333320916
 10
25.7953055116
 20
25.4380482164
 10
25.6554376977
 20
25.5492236806
 10
25.5213294955
 20
25.6667456626
 10
25.393081418
 20
25.7905087317
 10
25.270809036
 20
25.9204010121
 10
25.1546425255
 20
26.0563014256
 10
25.0447258695
 20
26.1980768989
 10
24.9412156974
 20
26.3455796055
 10
24.8442797553
 20
26.498644324
 10
24.7540950113
 20
26.6570859964
 10
24.6708454165
 20
26.8206975779
 10
24.5947193525
 20
26.9892482692
 10
24.5259068158
 20
27.1624822154
 10
24.4645964033
 20
27.3401177522
 10
24.4109721771
 20
27.5218472606
 10
24.3652104996
 20
27.7073376755
 10
24.3274769387
 20
27.8962316696
 10
24.2979233462
 20
28.0881495036
 10
24.2766852137
 20
28.2826915076
 10
24.2638793986
 20
28.4794411269
 10
24.2596023057
 20
28.6779684375
 10
24.2639285866
 20
28.8778340155
 10
24.2681340787
 20
28.9589419395
 10
24.2846122039
 20
29.1598024344
 10
24.3097509213
 20
29.3608041504
 10
24.3435335198
 20
29.5615134785
 10
24.3859239814
 20
29.7615078696
 10
24.4368688989
 20
29.9603787928
 10
24.4962996763
 20
30.1577341829
 10
24.5641349221
 20
30.3532003456
 10
24.6402829487
 20
30.5464233113
 10
24.7246442968
 20
30.7370696516
 10
24.8171142118
 20
30.9248267915
 10
24.9175850132
 20
31.1094028645
 10
25.025948306
 20
31.2905261645
 10
25.1420969991
 20
31.4679442587
 10
25.2652015934
 20
31.6405293255
 10
25.3945789711
 20
31.8071972832
 10
25.5300337838
 20
31.9677586695
 10
25.6713533522
 20
32.1220157245
 10
25.8183060876
 20
32.2697639232
 10
25.9706401535
 20
32.4107938105
 10
26.1280824388
 20
32.5448931304
 10
26.2903379117
 20
32.6718492236
 10
26.4570894215
 20
32.791451656
 10
26.6279980054
 20
32.9034950241
 10
26.8027037443
 20
33.0077818671
 10
26.9808271944
 20
33.1041256046
 10
27.1619713976
 20
33.1923534033
 10
27.2362876413
 20
33.2258225202
 10
27.4209460423
 20
33.302365835
 10
27.6074900318
 20
33.3704101267
 10
27.7954827826
 20
33.4298649129
 10
27.984488087
 20
33.4806633709
 10
28.1740744442
 20
33.522762576
 10
28.3638190185
 20
33.5561431286
 10
28.553311334
 20
33.5808081844
 10
28.7421565878
 20
33.5967819296
 10
28.9299784815
 20
33.6041075631
 10
29.1164214979
 20
33.6028448686
 10
29.301152576
 20
33.5930674685
 10
29.483862165
 20
33.5748598609
 10
29.6642646639
 20
33.5483143397
 10
29.8420982749
 20
33.5135278962
 10
30.0171243202
 20
33.4705991898
 10
30.1891260823
 20
33.419625667
 10
30.3579072414
 20
33.3607008926
 10
30.523289986
 20
33.2939121452
 10
30.685112875
 20
33.2193383125
 10
30.8432285307
 20
33.1370481121
 10
30.9975012324
 20
33.0470986467
 10
31.1478044806
 20
32.9495342951
  0
LWPOLYLINE
  5
236
100
AcDbEntity
  8
Livello_1
100
AcDbPolyline
 62
7
  6
CONTINUOUS
 90
73
 70
0
 10
31.2857670689
 20
21.8786020038
 10
31.1402261004
 20
21.9833284656
 10
31.0003581401
 20
22.0945038946
 10
30.8662487142
 20
22.2120265736
 10
30.7379985488
 20
22.3357909646
 10
30.6157234367
 20
22.4656850443
 10
30.4995537819
 20
22.6015875426
 10
30.3896337979
 20
22.7433651464
 10
30.2861203434
 20
22.8908697387
 10
30.189181387
 20
23.0439357539
 10
30.0989941087
 20
23.2023777352
 10
30.0157426535
 20
23.3659881846
 10
29.9396155739
 20
23.5345357959
 10
29.8708030081
 20
23.7077641573
 10
29.8094936581
 20
23.8853910017
 10
29.7558716496
 20
24.0671080686
 10
29.7101133609
 20
24.2525816217
 10
29.6723843236
 20
24.4414536422
 10
29.6428362981
 20
24.6333436917
 10
29.6216046269
 20
24.8278514065
 10
29.6088059606
 20
25.0245595571
 10
29.6045364415
 20
25.2230375782
 10
29.6088704059
 20
25.4228454511
 10
29.6130886574
 20
25.5040875763
 10
29.6295805934
 20
25.704874971
 10
29.6547320032
 20
25.9057935626
 10
29.6885257063
 20
26.1064094702
 10
29.7309252082
 20
26.3062999641
 10
29.781876628
 20
26.5050564228
 10
29.8413109087
 20
26.7022867785
 10
29.9091462198
 20
26.8976174161
 10
29.9852904649
 20
27.0906945206
 10
30.0696438126
 20
27.2811848842
 10
30.162101179
 20
27.4687762097
 10
30.2625546009
 20
27.6531769542
 10
30.3708954505
 20
27.8341157711
 10
30.4870164552
 20
28.0113406117
 10
30.6100864861
 20
28.1840319018
 10
30.739425386
 20
28.3508000132
 10
30.8748378893
 20
28.511456104
 10
31.0161114718
 20
28.6658030477
 10
31.1630147748
 20
28.8136369566
 10
31.3152962666
 20
28.9547490088
 10
31.4726832138
 20
29.0889275667
 10
31.6348810313
 20
29.2159605647
 10
31.8015730776
 20
29.3356381276
 10
31.9724209519
 20
29.4477553654
 10
32.1470653386
 20
29.5521152771
 10
32.3251274253
 20
29.6485316796
 10
32.5062108977
 20
29.7368320687
 10
32.5819044873
 20
29.7709478093
 10
32.7665223854
 20
29.8475003544
 10
32.9530250349
 20
29.9155533602
 10
33.1409761068
 20
29.9750165493
 10
33.3299398542
 20
30.0258232482
 10
33.5194851899
 20
30.0679306297
 10
33.7091896362
 20
30.1013193459
 10
33.8986430146
 20
30.1259925655
 10
34.0874507558
 20
30.1419744565
 10
34.2752367299
 20
30.1493081769
 10
34.4616455251
 20
30.1480534543
 10
34.6463441258
 20
30.1382838476
 10
34.8290229709
 20
30.1200837911
 10
35.0093963993
 20
30.0935455205
 10
35.1872025103
 20
30.0587659796
 10
35.3622024867
 20
30.0158437955
 10
35.5341794421
 20
29.9648764001
 10
35.7029368653
 20
29.9059573645
 10
35.8682967368
 20
29.8391739945
 10
36.030097397
 20
29.7646052284
 10
36.1881912439
 20
29.6823198564
 10
36.3424423313
 20
29.5923750761
 10
36.4927239367
 20
29.494815383
  0
LWPOLYLINE
  5
237
100
AcDbEntity
  8
Livello_1
100
AcDbPolyline
 62
7
  6
CONTINUOUS
 90
73
 70
0
 10
32.6478649182
 20
23.8700128072
 10
32.5786559538
 20
23.9199046528
 10
32.5121298257
 20
23.9728819986
 10
32.4483289959
 20
24.0288966116
 10
32.3873032116
 20
24.0878982529
 10
32.3291094256
 20
24.1498333902
 10
32.2738115587
 20
24.2146438672
 10
32.2214800968
 20
24.2822655613
 10
32.1721915109
 20
24.3526270626
 10
32.1260275013
 20
24.4256484145
 10
32.0830740658
 20
24.5012399579
 10
32.0434204037
 20
24.5793013208
 10
32.0071576723
 20
24.6597205996
 10
31.9743776193
 20
24.7423737704
 10
31.9451711242
 20
24.8271243699
 10
31.9196266864
 20
24.9138234732
 10
31.897828906
 20
25.0023099893
 10
31.8798570038
 20
25.0924112826
 10
31.8657834324
 20
25.1839441146
 10
31.8556726265
 20
25.2767158849
 10
31.8495799379
 20
25.3705261391
 10
31.847550795
 20
25.4651682947
 10
31.8479245499
 20
25.5054138639
 10
31.8517349424
 20
25.6008593688
 10
31.8596668786
 20
25.6965601332
 10
31.8717213015
 20
25.7923056171
 10
31.8878892547
 20
25.8878892957
 10
31.9081526607
 20
25.9831102629
 10
31.9324852683
 20
26.0777746097
 10
31.9608537299
 20
26.1716965524
 10
31.9932187632
 20
26.2646992972
 10
32.0295363582
 20
26.3566156392
 10
32.0697589877
 20
26.4472883048
 10
32.1138367913
 20
26.5365700551
 10
32.1617187015
 20
26.6243235729
 10
32.2133534911
 20
26.7104211622
 10
32.2686907253
 20
26.7947442899
 10
32.3271078674
 20
26.8767855048
 10
32.3885311389
 20
26.9560332987
 10
32.4528680005
 20
27.0323961617
 10
32.5200174805
 20
27.1057784729
 10
32.5898693926
 20
27.176081239
 10
32.6623036706
 20
27.2432029837
 10
32.737189855
 20
27.3070407811
 10
32.8143867651
 20
27.3674914231
 10
32.8937423918
 20
27.4244527014
 10
32.9750940367
 20
27.4778247781
 10
33.0582687233
 20
27.5275116114
 10
33.1430838904
 20
27.5734223955
 10
33.2293483723
 20
27.6154729679
 10
33.2668492078
 20
27.6323533148
 10
33.3548238346
 20
27.6687469045
 10
33.4436947784
 20
27.7010922164
 10
33.5332512183
 20
27.729345388
 10
33.6232826698
 20
27.7534740951
 10
33.7135809913
 20
27.7734576667
 10
33.8039423244
 20
27.7892868994
 10
33.8941689022
 20
27.8009635792
 10
33.9840706676
 20
27.8084997314
 10
34.0734666527
 20
27.8119166294
 10
34.1621860834
 20
27.8112436033
 10
34.2500691868
 20
27.8065166953
 10
34.3369676937
 20
27.7977772089
 10
34.4227450387
 20
27.7850702045
 10
34.5072762734
 20
27.7684429863
 10
34.5904477183
 20
27.7479436266
 10
34.6721563817
 20
27.7236195624
 10
34.7523091844
 20
27.6955162986
 10
34.8308220258
 20
27.6636762409
 10
34.9076187314
 20
27.6281376765
 10
34.9826299193
 20
27.5889339131
 10
35.0557918213
 20
27.546092583
 10
35.1270450912
 20
27.49963511
  0
LWPOLYLINE
  5
238
100
AcDbEntity
  8
Livello_1
100
AcDbPolyline
 62
7
  6
CONTINUOUS
 90
11
 70
0
 10
23.7984695509
 20
21.7570366084
 10
21.8032892779
 20
23.2001780547
 10
21.616638854
 20
23.3473682255
 10
21.4353337352
 20
23.5020829298
 10
21.2594605338
 20
23.6642830908
 10
21.0891235062
 20
23.8339222635
 10
20.9244446366
 20
24.0109435384
 10
20.7655635055
 20
24.1952762438
 10
20.6126369161
 20
24.3868324695
 10
20.4658382489
 20
24.5855034467
 10
20.4485418944
 20
24.6099596948
  0
LINE
  5
239
100
AcDbEntity
  8
Livello_1
100
AcDbLine
 62
7
  6
CONTINUOUS
 10
13.0091166407
 20
44.246830653
 11
9.5543977285
 21
48.4047367084
  0
LWPOLYLINE
  5
23A
100
AcDbEntity
  8
Livello_1
100
AcDbPolyline
 62
7
  6
CONTINUOUS
 90
36
 70
0
 10
17.9491950589
 20
24.2437557206
 10
18.0382745764
 20
23.4995195026
 10
18.1792183986
 20
22.7775561041
 10
18.3727130961
 20
22.0723881693
 10
18.6204623438
 20
21.3790146852
 10
18.924510725
 20
20.6942102865
 10
19.2872314066
 20
20.0153866229
 10
19.7126744374
 20
19.3382533595
 10
20.2059409676
 20
18.6587636216
 10
20.773216211
 20
17.973032491
 10
21.4218262566
 20
17.2772533141
 10
22.1603245693
 20
16.5676087822
 10
22.9986152502
 20
15.8401741952
 10
23.9481218976
 20
15.0908100401
 10
25.0220136601
 20
14.3150400736
 10
26.2355043483
 20
13.507909483
 10
26.2906543941
 20
13.472684738
 10
27.378925063
 20
12.748013301
 10
28.30869597
 20
12.0677857647
 10
29.1007691496
 20
11.4249079865
 10
29.7734443194
 20
10.8125189135
 10
30.3427529272
 20
10.2237529788
 10
30.593264147
 20
9.9357936288
 10
30.8226562413
 20
9.651434173
 10
31.2221995433
 20
9.0922555533
 10
31.5520703285
 20
8.5391560823
 10
31.8219636377
 20
7.9829386216
 10
32.0401016723
 20
7.4119925888
 10
32.2135977472
 20
6.8101499553
 10
32.3491734972
 20
6.1516007911
 10
32.455098668
 20
5.3855010692
 10
32.5264879963
 20
4.645340768
 10
33.1969528763
 20
-3.449573144
 10
33.9997565516
 20
-13.19851122
 10
35.6200202868
 20
-32.9062368338
 10
36.413753548
 20
-42.5687740844
  0
LWPOLYLINE
  5
23B
100
AcDbEntity
  8
Livello_1
100
AcDbPolyline
 62
7
  6
CONTINUOUS
 90
53
 70
0
 10
22.8892734772
 20
-84.4671787065
 10
22.7861784829
 20
-81.0088787108
 10
22.7972280612
 20
-80.7983889109
 10
22.81922062
 20
-80.5590834731
 10
22.8512607925
 20
-80.3197545709
 10
22.8933202246
 20
-80.0809119023
 10
22.9453483758
 20
-79.8430497969
 10
23.0072749733
 20
-79.606643949
 10
23.079012746
 20
-79.3721487884
 10
23.160460334
 20
-79.139995512
 10
23.2515052746
 20
-78.9105907693
 10
23.3520269763
 20
-78.6843159726
 10
23.4618996019
 20
-78.4615271838
 10
23.5809947975
 20
-78.2425555164
 10
23.7091842185
 20
-78.0277079805
 10
23.8463418152
 20
-77.817268698
 10
23.9927722598
 20
-77.612581377
 10
24.1464763242
 20
-77.4147786975
 10
24.3072289995
 20
-77.2240790362
 10
24.474785707
 20
-77.0407098204
 10
24.6488806091
 20
-76.8649058163
 10
24.8292251856
 20
-76.6969070914
 10
25.0155071494
 20
-76.5369566644
 10
25.2073897753
 20
-76.3852978687
 10
25.4045117103
 20
-76.2421714712
 10
25.6064873249
 20
-76.1078126017
 10
25.8129076526
 20
-75.9824475678
 10
26.0233419435
 20
-75.8662906413
 10
26.2373398377
 20
-75.7595409147
 10
26.4544341365
 20
-75.6623793351
 10
26.4725660289
 20
-75.6547556926
 10
26.6923466324
 20
-75.5682034523
 10
26.9140674964
 20
-75.491581228
 10
27.13723177
 20
-75.4249793228
 10
27.3613456512
 20
-75.368461384
 10
27.5859228004
 20
-75.3220644669
 10
27.8104885429
 20
-75.2857997507
 10
28.0345837306
 20
-75.259653878
 10
28.2577681428
 20
-75.2435908635
 10
28.4796233361
 20
-75.2375544977
 10
28.6997548762
 20
-75.2414711544
 10
28.9177939129
 20
-75.2552528991
 10
29.133398091
 20
-75.2788007939
 10
29.3462518086
 20
-75.3120082917
 10
29.5560658645
 20
-75.354764621
 10
29.7625765462
 20
-75.4069580701
 10
29.96554423
 20
-75.468479093
 10
30.164751569
 20
-75.5392231711
 10
30.3600013504
 20
-75.6190933816
 10
30.5511141072
 20
-75.7080026358
 10
30.7379255609
 20
-75.8058755653
 10
30.9202839742
 20
-75.9126500471
 10
31.0980474815
 20
-76.0282783683
  0
LINE
  5
23C
100
AcDbEntity
  8
Livello_1
100
AcDbLine
 62
7
  6
CONTINUOUS
 10
0.4841114411
 20
43.0598172523
 11
0.8614690088
 21
44.6793698771
  0
LWPOLYLINE
  5
23D
100
AcDbEntity
  8
Livello_1
100
AcDbPolyline
 62
7
  6
CONTINUOUS
 90
19
 70
0
 10
9.0685130937
 20
-47.3761671719
 10
11.4298438738
 20
-46.9904268186
 10
21.2070593525
 20
-45.3610520213
 10
34.9079329306
 20
-43.0562324554
 10
41.1538542635
 20
-41.9869256069
 10
42.1101760467
 20
-41.8122415305
 10
42.4694159952
 20
-41.7022930805
 10
42.7675220839
 20
-41.5451148666
 10
43.0135008381
 20
-41.3438570822
 10
43.2135502347
 20
-41.0982038829
 10
43.3705353381
 20
-40.8052341794
 10
43.4839578529
 20
-40.4611735511
 10
43.5506746458
 20
-40.0645215736
 10
43.567829951
 20
-39.7066157975
 10
43.5998163827
 20
-38.478733952
 10
43.7681387566
 20
-32.6348048789
 10
44.5166181003
 20
-7.1906610249
 10
45.2977837545
 20
19.4245963945
 10
45.5539634969
 20
28.4787548453
  0
LWPOLYLINE
  5
23E
100
AcDbEntity
  8
Livello_1
100
AcDbPolyline
 62
7
  6
CONTINUOUS
 90
29
 70
0
 10
-48.053464197
 20
3.4306291811
 10
-47.974289843
 20
3.4184235763
 10
-47.4260632408
 20
3.3046828858
 10
-45.4204415584
 20
2.8609107826
 10
-40.3475061052
 20
1.7133854104
 10
-30.3959165111
 20
-0.5570209863
 10
-27.8139366864
 20
-1.1465088515
 10
-23.8897524974
 20
-2.0380777744
 10
-23.214921044
 20
-2.1868229289
 10
-23.0258776101
 20
-2.2119605325
 10
-22.813332127
 20
-2.215352284
 10
-22.5753908522
 20
-2.1945175562
 10
-22.3107833997
 20
-2.1466791454
 10
-22.0193076243
 20
-2.0690883488
 10
-21.7024288112
 20
-1.959481792
 10
-21.3640618878
 20
-1.816730513
 10
-21.0114881964
 20
-1.6417257877
 10
-20.65616255
 20
-1.4384478281
 10
-20.3138136924
 20
-1.2149063717
 10
-20.1511115291
 20
-1.0975976058
 10
-19.8726825629
 20
-0.8756193938
 10
-19.6516414066
 20
-0.672055279
 10
-19.4534039199
 20
-0.4571542192
 10
-19.1900272502
 20
-0.1354743778
 10
-18.8517801424
 20
0.3151220014
 10
-18.4362810138
 20
0.9062153693
 10
-17.9641794771
 20
1.6133103506
 10
-17.5462000313
 20
2.2657199521
 10
-17.4945624132
 20
2.3484144515
  0
LWPOLYLINE
  5
23F
100
AcDbEntity
  8
Livello_1
100
AcDbPolyline
 62
7
  6
CONTINUOUS
 90
69
 70
0
 10
-17.4007026195
 20
23.393363373
 10
-16.3201841512
 20
23.025274664
 10
-16.2508809092
 20
23.0012764718
 10
-16.1809762735
 20
22.9720958509
 10
-16.110535352
 20
22.9375941854
 10
-16.0396492644
 20
22.8976332236
 10
-15.968436446
 20
22.8520813387
 10
-15.8970433217
 20
22.8008199083
 10
-15.8256442886
 20
22.7437496318
 10
-15.7544409522
 20
22.680796585
 10
-15.6836605803
 20
22.6119177921
 10
-15.6135537619
 20
22.5371060844
 10
-15.5443912916
 20
22.4563940207
 10
-15.4764603435
 20
22.3698566619
 10
-15.4100600427
 20
22.277613035
 10
-15.3454965867
 20
22.1798261816
 10
-15.2830781074
 20
22.0767017608
 10
-15.2231094902
 20
21.9684852625
 10
-15.1658873721
 20
21.8554579717
 10
-15.1116955361
 20
21.7379318991
 10
-15.0811364005
 20
21.6663366026
 10
-15.032353157
 20
21.5424593591
 10
-14.9872978629
 20
21.4151628955
 10
-14.9461610038
 20
21.2848175843
 10
-14.9091082332
 20
21.1517913389
 10
-14.8762807155
 20
21.0164447752
 10
-14.8477960541
 20
20.8791271325
 10
-14.8234743592
 20
20.7400422057
 10
-14.8039320573
 20
20.6012800124
 10
-14.7891856491
 20
20.4632078694
 10
-14.7792339405
 20
20.3262114171
 10
-14.7740557507
 20
20.1906911316
 10
-14.7736078914
 20
20.0570579495
 10
-14.7761875498
 20
19.9620033625
 10
-14.7836975187
 20
19.8328109655
 10
-14.7956623902
 20
19.7068011863
 10
-14.8119292526
 20
19.5843588719
 10
-14.8323226746
 20
19.4658438668
 10
-14.856647214
 20
19.3515848953
 10
-14.8846906378
 20
19.2418742958
 10
-14.9162277342
 20
19.1369638668
 10
-14.9510245586
 20
19.0370620176
 10
-14.9888429378
 20
18.9423323361
 10
-15.0294450502
 20
18.8528936004
 10
-15.0725979087
 20
18.768821184
 10
-15.118077592
 20
18.690149732
 10
-15.1656730961
 20
18.6168769416
 10
-15.2151897102
 20
18.548968246
 10
-15.2664518463
 20
18.4863621886
 10
-15.31930528
 20
18.4289762778
 10
-15.3736187774
 20
18.3767131213
 10
-15.4292851027
 20
18.3294666579
 10
-15.4862214063
 20
18.2871283206
 10
-15.5443690087
 20
18.2495929832
 10
-15.6036926019
 20
18.2167645531
 10
-15.6641789026
 20
18.1885610907
 10
-15.7258348074
 20
18.1649193424
 10
-15.7886851173
 20
18.145798595
 10
-15.8527699176
 20
18.1311837752
 10
-15.9171199807
 20
18.1211273048
 10
-15.9822736838
 20
18.1156674018
 10
-16.0482452635
 20
18.1148258832
 10
-16.1150394155
 20
18.1186496615
 10
-16.182647216
 20
18.1272077348
 10
-16.2510421503
 20
18.1405872794
 10
-16.3201763858
 20
18.1588889016
 10
-16.3899774196
 20
18.1822211346
 10
-16.460345237
 20
18.2106943015
 10
-16.4841560799
 20
18.2214625728
  0
LWPOLYLINE
  5
240
100
AcDbEntity
  8
Livello_1
100
AcDbPolyline
 62
7
  6
CONTINUOUS
 90
55
 70
0
 10
-17.2791040242
 20
33.232998411
 10
-17.1578353056
 20
33.1819242828
 10
-17.0284758634
 20
33.1242996019
 10
-16.8913023947
 20
33.0603382935
 10
-16.7465915966
 20
32.9902542826
 10
-16.594620166
 20
32.9142614944
 10
-16.4356648002
 20
32.8325738539
 10
-16.2700021961
 20
32.7454052863
 10
-16.0979090508
 20
32.6529697166
 10
-15.9196620614
 20
32.55548107
 10
-15.7355379249
 20
32.4531532715
 10
-15.5458133385
 20
32.3462002462
 10
-15.3507649992
 20
32.2348359192
 10
-15.150669604
 20
32.1192742157
 10
-14.94580385
 20
31.9997290607
 10
-14.7364444344
 20
31.8764143794
 10
-14.5228680541
 20
31.7495440967
 10
-14.3053514062
 20
31.6193321379
 10
-14.0841711878
 20
31.485992428
 10
-13.859604096
 20
31.3497388921
 10
-13.6319268278
 20
31.2107854553
 10
-13.4014160802
 20
31.0693460427
 10
-13.1683485505
 20
30.9256345795
 10
-12.9330009356
 20
30.7798649906
 10
-12.6956499325
 20
30.6322512012
 10
-12.4565722385
 20
30.4830071365
 10
-12.2160445504
 20
30.3323467214
 10
-11.9743435655
 20
30.1804838811
 10
-11.7317459807
 20
30.0276325407
 10
-11.4698017136
 20
29.8621632986
 10
-11.207484094
 20
29.6960629201
 10
-10.9451387098
 20
29.5295985926
 10
-10.6831111491
 20
29.3630375031
 10
-10.4217469996
 20
29.1966468392
 10
-10.1613918495
 20
29.030693788
 10
-9.9023912867
 20
28.8654455368
 10
-9.6450908991
 20
28.7011692729
 10
-9.3898362748
 20
28.5381321837
 10
-9.1369730015
 20
28.3766014563
 10
-8.8868466675
 20
28.2168442781
 10
-8.6398028605
 20
28.0591278364
 10
-8.3961871685
 20
27.9037193185
 10
-8.1563451796
 20
27.7508859115
 10
-7.9206224817
 20
27.6008948029
 10
-7.6893646627
 20
27.45401318
 10
-7.4629173106
 20
27.3105082299
 10
-7.2416260133
 20
27.1706471399
 10
-7.0258363589
 20
27.0346970975
 10
-6.8158939353
 20
26.9029252898
 10
-6.6121443304
 20
26.7755989041
 10
-6.4149331322
 20
26.6529851278
 10
-6.2246059287
 20
26.5353511481
 10
-6.0415083078
 20
26.4229641523
 10
-5.8659858575
 20
26.3160913276
 10
-5.6983841658
 20
26.2149998615
  0
LWPOLYLINE
  5
241
100
AcDbEntity
  8
Livello_1
100
AcDbPolyline
 62
7
  6
CONTINUOUS
 90
60
 70
0
 10
31.1478044806
 20
32.9495342951
 10
36.4927239367
 20
29.494815383
 10
36.6721445399
 20
29.3640284034
 10
36.8428198076
 20
29.2233736311
 10
37.0045783306
 20
29.073046875
 10
37.1572129104
 20
28.9132554537
 10
37.3004814369
 20
28.7442261392
 10
37.4341089857
 20
28.5662133069
 10
37.5577912197
 20
28.3795069858
 10
37.6711991217
 20
28.1844404523
 10
37.773985023
 20
27.9813969794
 10
37.8657898136
 20
27.7708153356
 10
37.946251136
 20
27.5531936419
 10
38.0150122782
 20
27.3290912382
 10
38.071731406
 20
27.0991282887
 10
38.1160907078
 20
26.8639829719
 10
38.1478049947
 20
26.6243862432
 10
38.1666292946
 20
26.3811143198
 10
38.1723650199
 20
26.1349792017
 10
38.1698278501
 20
25.9969594702
 10
38.154919837
 20
25.7481438546
 10
38.1266970229
 20
25.4988705864
 10
38.0851841612
 20
25.2499697625
 10
38.0304517968
 20
25.0022456436
 10
37.9626105769
 20
24.7564681212
 10
37.8818046068
 20
24.5133660648
 10
37.7882042489
 20
24.2736226594
 10
37.6819987441
 20
24.0378727082
 10
37.563388983
 20
23.8067017721
 10
37.4325806997
 20
23.5806469339
 10
37.2897782891
 20
23.3601989282
 10
37.1363669937
 20
23.1473168169
 10
36.9733785426
 20
22.9435756613
 10
36.8011926326
 20
22.7493395932
 10
36.6202313681
 20
22.5649913473
 10
36.4309636327
 20
22.3909273736
 10
36.233908444
 20
22.2275518611
 10
36.0296369724
 20
22.075269757
 10
35.8187729227
 20
21.9344789513
 10
35.6019910243
 20
21.8055618751
 10
35.3800134583
 20
21.6888768533
 10
35.1536041616
 20
21.5847496164
 10
35.0248041659
 20
21.5318858622
 10
34.7933165978
 20
21.4480007722
 10
34.5597307015
 20
21.3773463665
 10
34.3248802173
 20
21.3200344127
 10
34.0895833879
 20
21.2761200847
 10
33.8546316746
 20
21.2456040869
 10
33.6207797499
 20
21.2284368573
 10
33.388737229
 20
21.2245245801
 10
33.1591624676
 20
21.2337366363
 10
32.9326585976
 20
21.2559140597
 10
32.709771824
 20
21.2908785405
 10
32.4909918724
 20
21.338441536
 10
32.2767543698
 20
21.3984130863
 10
32.0674448661
 20
21.4706100009
 10
31.8634041579
 20
21.5548631532
 10
31.6649345607
 20
21.6510236994
 10
31.4723067816
 20
21.7589681143
 10
31.2857670689
 20
21.8786020038
  0
LINE
  5
242
100
AcDbEntity
  8
Livello_1
100
AcDbLine
 62
7
  6
CONTINUOUS
 10
3.7767431594
 20
47.1623195197
 11
9.1789585538
 21
43.5457092849
  0
LWPOLYLINE
  5
243
100
AcDbEntity
  8
Livello_1
100
AcDbPolyline
 62
7
  6
CONTINUOUS
 90
21
 70
0
 10
-0.2503697155
 20
54.3312853277
 10
0.2142247633
 20
54.0131751009
 10
2.2506785846
 20
52.6197216883
 10
4.3880342632
 20
51.1600411828
 10
5.0387967644
 20
50.7183283601
 10
5.1333752778
 20
50.6556754955
 10
5.1700156471
 20
50.6353711451
 10
5.2614648855
 20
50.5921856472
 10
5.3689672971
 20
50.5502545914
 10
5.484819479
 20
50.5132754617
 10
5.6042687988
 20
50.483065599
 10
5.7244145107
 20
50.4604393537
 10
5.843477337
 20
50.4456878727
 10
5.9603697831
 20
50.4388334049
 10
6.0744431276
 20
50.4397684548
 10
6.185333481
 20
50.4483355243
 10
6.2928641347
 20
50.464374912
 10
6.6692361763
 20
50.5303415353
 10
7.6489260363
 20
50.6943744933
 10
8.6676405535
 20
50.8619265494
 10
9.1972404815
 20
50.9483748119
  0
LWPOLYLINE
  5
244
100
AcDbEntity
  8
Livello_1
100
AcDbPolyline
 62
7
  6
CONTINUOUS
 90
73
 70
0
 10
35.1270450912
 20
27.49963511
 10
35.1965153997
 20
27.4497672504
 10
35.2632620958
 20
27.396842793
 10
35.3272464118
 20
27.3409104041
 10
35.3884224214
 20
27.2820203316
 10
35.4467370827
 20
27.2202256452
 10
35.502130432
 20
27.155583526
 10
35.5545359377
 20
27.0881565778
 10
35.6038810247
 20
27.018014126
 10
35.650087771
 20
26.9452334686
 10
35.6930737763
 20
26.8699010389
 10
35.7327531941
 20
26.7921134385
 10
35.7690379125
 20
26.7119782972
 10
35.8018388613
 20
26.6296149207
 10
35.8310674173
 20
26.545154688
 10
35.8566368709
 20
26.458741168
 10
35.8784639123
 20
26.3705299336
 10
35.8964700916
 20
26.2806880614
 10
35.9105832047
 20
26.1893933185
 10
35.9207385558
 20
26.0968330518
 10
35.926880053
 20
26.0032028069
 10
35.9289610965
 20
25.9087047205
 10
35.9269452278
 20
25.8135457373
 10
35.9249083307
 20
25.7740604892
 10
35.9170650094
 20
25.6783734877
 10
35.9050932487
 20
25.5825930967
 10
35.8889997619
 20
25.4869250823
 10
35.8688004694
 20
25.3915703314
 10
35.8445196266
 20
25.2967234274
 10
35.816188813
 20
25.2025714583
 10
35.7838458232
 20
25.1092930765
 10
35.7475335027
 20
25.0170578146
 10
35.7072985653
 20
24.9260256533
 10
35.6631904266
 20
24.8363468276
 10
35.615260084
 20
24.7481618515
 10
35.5635590663
 20
24.6616017342
 10
35.5081384704
 20
24.5767883621
 10
35.4494912098
 20
24.4948006402
 10
35.3878358323
 20
24.4156017332
 10
35.3232647638
 20
24.3392834804
 10
35.2558789405
 20
24.2659418706
 10
35.1857885983
 20
24.1956762989
 10
35.1131139453
 20
24.1285886729
 10
35.0379856814
 20
24.0647823728
 10
34.9605453304
 20
24.0043610776
 10
34.8809453503
 20
23.9474274744
 10
34.7993489939
 20
23.8940818782
 10
34.7159298967
 20
23.8444207961
 10
34.6308713785
 20
23.7985354763
 10
34.5443654558
 20
23.7565104886
 10
34.5118536471
 20
23.7418770428
 10
34.4236989907
 20
23.7052757069
 10
34.3346406328
 20
23.672720894
 10
34.2448904473
 20
23.6442572751
 10
34.154660099
 20
23.6199179114
 10
34.0641590156
 20
23.5997241173
 10
33.9735924211
 20
23.5836856261
 10
33.883159499
 20
23.5718010514
 10
33.7930517437
 20
23.5640586247
 10
33.7034515508
 20
23.5604371783
 10
33.6145310829
 20
23.5609073318
 10
33.5264514338
 20
23.5654328387
 10
33.4393621014
 20
23.573972041
 10
33.3534007665
 20
23.5864793828
 10
33.2686933613
 20
23.602906935
 10
33.1853544053
 20
23.6232058866
 10
33.1034875765
 20
23.6473279635
 10
33.0231864831
 20
23.6752267444
 10
32.944535596
 20
23.7068588465
 10
32.8676113048
 20
23.7421849638
 10
32.7924830571
 20
23.7811707462
 10
32.7192145471
 20
23.8237875141
 10
32.6478649182
 20
23.8700128072
  0
LINE
  5
245
100
AcDbEntity
  8
Livello_1
100
AcDbLine
 62
7
  6
CONTINUOUS
 10
-52.2571767238
 20
95.0720899916
 11
-48.7012475522
 21
92.2525267114
  0
LWPOLYLINE
  5
246
100
AcDbEntity
  8
Livello_1
100
AcDbPolyline
 62
7
  6
CONTINUOUS
 90
25
 70
0
 10
4.9105996229
 20
41.4934141493
 10
4.209289799
 20
39.3877884162
 10
3.4148878091
 20
39.208586459
 10
1.8816875957
 20
38.825451429
 10
1.080441536
 20
38.5779178671
 10
0.4698999677
 20
38.2981833219
 10
-0.0097294221
 20
37.967525055
 10
-0.2079062759
 20
37.7822454909
 10
-0.3795691943
 20
37.5842488901
 10
-0.6473927355
 20
37.1514090357
 10
-0.8241038309
 20
36.658830666
 10
-0.911505509
 20
36.0903718544
 10
-0.920204468
 20
35.8245087788
 10
-0.9705452251
 20
29.0486167675
 10
-0.976313898
 20
28.3118229101
 10
-1.53854301
 20
-44.0324840341
 10
-1.8122311174
 20
-83.856142813
 10
-1.8625718745
 20
-95.8547467341
 10
-1.8085877319
 20
-96.2203989119
 10
-1.7794173798
 20
-96.3064630471
 10
-1.5962509734
 20
-96.6362948716
 10
-1.3289287483
 20
-96.8985916287
 10
-0.9958039685
 20
-97.0763718791
 10
-0.6094604922
 20
-97.158956824
 10
-0.1766765843
 20
-97.1358010188
  0
LINE
  5
247
100
AcDbEntity
  8
Livello_1
100
AcDbLine
 62
7
  6
CONTINUOUS
 10
-17.0895329019
 20
39.3069405835
 11
-5.6173405689
 21
35.0423438315
  0
LINE
  5
248
100
AcDbEntity
  8
Livello_1
100
AcDbLine
 62
7
  6
CONTINUOUS
 10
3.6148444389
 20
42.3032846984
 11
4.6951744337
 21
41.7640620684
  0
LINE
  5
249
100
AcDbEntity
  8
Livello_1
100
AcDbLine
 62
7
  6
CONTINUOUS
 10
0.8614690088
 20
44.6793698771
 11
2.4809879755
 21
43.8125803366
  0
LWPOLYLINE
  5
24A
100
AcDbEntity
  8
Livello_1
100
AcDbPolyline
 62
7
  6
CONTINUOUS
 90
73
 70
0
 10
-7.7855394977
 20
78.295500001
 10
-7.8652106152
 20
78.3527708174
 10
-7.9417704998
 20
78.4135642875
 10
-8.0151725631
 20
78.4778242695
 10
-8.085361991
 20
78.5454925914
 10
-8.1522758155
 20
78.616507614
 10
-8.2158431596
 20
78.6908027427
 10
-8.2759856703
 20
78.7683049204
 10
-8.3326181468
 20
78.8489331406
 10
-8.3856493696
 20
78.9325970225
 10
-8.4349831248
 20
79.0191954961
 10
-8.480519416
 20
79.1086156447
 10
-8.5221558435
 20
79.2007317535
 10
-8.559789126
 20
79.2954046114
 10
-8.593316728
 20
79.3924811059
 10
-8.6226385521
 20
79.4917941469
 10
-8.6476586461
 20
79.5931629411
 10
-8.6682868717
 20
79.6963936297
 10
-8.6844404786
 20
79.8012802823
 10
-8.6960455295
 20
79.9076062302
 10
-8.7030381251
 20
80.0151457009
 10
-8.7053653833
 20
80.1236657047
 10
-8.7029861411
 20
80.2329281093
 10
-8.7006782854
 20
80.2773054383
 10
-8.6916486918
 20
80.387133353
 10
-8.6778793743
 20
80.4970551448
 10
-8.6593784213
 20
80.6068356029
 10
-8.6361643418
 20
80.7162454024
 10
-8.608265038
 20
80.8250626945
 10
-8.5757166267
 20
80.9330744239
 10
-8.538562156
 20
81.0400773563
 10
-8.4968502643
 20
81.1458788115
 10
-8.4506338255
 20
81.2502971096
 10
-8.3999686181
 20
81.3531617474
 10
-8.3449120523
 20
81.454313329
 10
-8.2855219797
 20
81.5536032817
 10
-8.2218556069
 20
81.6508933885
 10
-8.1543095337
 20
81.7452183725
 10
-8.0833298575
 20
81.8363111066
 10
-8.0090237121
 20
81.9240671237
 10
-7.9315078131
 20
82.0083774268
 10
-7.8509093205
 20
82.0891293383
 10
-7.7673665652
 20
82.1662075174
 10
-7.6810296042
 20
82.2394951368
 10
-7.5920605624
 20
82.3088752076
 10
-7.5006337281
 20
82.3742320284
 10
-7.4069353685
 20
82.4354527315
 10
-7.3111632423
 20
82.4924288844
 10
-7.2135257963
 20
82.5450581037
 10
-7.1142410431
 20
82.5932456271
 10
-7.0770697187
 20
82.609959751
 10
-6.9759155292
 20
82.6519145651
 10
-6.8737289034
 20
82.6892202897
 10
-6.7707493361
 20
82.7218271529
 10
-6.66721595
 20
82.7496983833
 10
-6.5633652505
 20
82.7728103381
 10
-6.459428953
 20
82.7911522954
 10
-6.3556319555
 20
82.8047259193
 10
-6.252190523
 20
82.8135444208
 10
-6.1493107358
 20
82.8176314483
 10
-6.047187244
 20
82.8170197541
 10
-5.9460023517
 20
82.8117496862
 10
-5.8459254427
 20
82.8018675627
 10
-5.7471127433
 20
82.7874239813
 10
-5.6497074053
 20
82.7684721199
 10
-5.5538398843
 20
82.7450660751
 10
-5.4596285782
 20
82.7172592821
 10
-5.3671806861
 20
82.6851030508
 10
-5.2765932461
 20
82.6486452472
 10
-5.187954309
 20
82.6079291388
 10
-5.1013442049
 20
82.5629924184
 10
-5.0168368625
 20
82.513866411
 10
-4.9345011461
 20
82.4605754642
  0
LWPOLYLINE
  5
24B
100
AcDbEntity
  8
Livello_1
100
AcDbPolyline
 62
7
  6
CONTINUOUS
 90
73
 70
0
 10
-7.6843292382
 20
74.8223106877
 10
-7.8534074391
 20
74.9439954818
 10
-8.0158797242
 20
75.0731614238
 10
-8.1716484559
 20
75.2096906022
 10
-8.3205983594
 20
75.3534608752
 10
-8.4625966607
 20
75.5043427894
 10
-8.5974935962
 20
75.6621963843
 10
-8.7251233221
 20
75.8268679501
 10
-8.8453052443
 20
75.9981868238
 10
-8.9578457752
 20
76.1759623127
 10
-9.062540515
 20
76.3599808466
 10
-9.1591768336
 20
76.550003463
 10
-9.2475368176
 20
76.7457637285
 10
-9.3274005249
 20
76.9469661987
 10
-9.3985494741
 20
77.1532855063
 10
-9.4607702776
 20
77.3643661529
 10
-9.5138583141
 20
77.5798230559
 10
-9.5576213251
 20
77.7992428776
 10
-9.591882816
 20
78.0221861288
 10
-9.6164851413
 20
78.248190007
 10
-9.6312921648
 20
78.4767718931
 10
-9.6361913967
 20
78.7074334011
 10
-9.6310955323
 20
78.9396648449
 10
-9.6264209467
 20
79.0299498054
 10
-9.6073762389
 20
79.2633639816
 10
-9.5782673217
 20
79.4969665821
 10
-9.5391126406
 20
79.7302532749
 10
-9.4899531865
 20
79.9627322606
 10
-9.4308502976
 20
80.1939277456
 10
-9.3618831274
 20
80.4233828296
 10
-9.2831458802
 20
80.6506617653
 10
-9.1947449182
 20
80.875351579
 10
-9.0967958328
 20
81.0970630675
 10
-8.9894205657
 20
81.3154312064
 10
-8.8727446505
 20
81.530115023
 10
-8.746894633
 20
81.7407969984
 10
-8.6119957132
 20
81.9471820691
 10
-8.4683785077
 20
82.1478221042
 10
-8.3174905893
 20
82.3415679832
 10
-8.1595605228
 20
82.5281988484
 10
-7.9948370898
 20
82.7074843849
 10
-7.8235910895
 20
82.8791866194
 10
-7.6461168557
 20
83.0430620706
 10
-7.4627334078
 20
83.1988642357
 10
-7.2737851562
 20
83.3463463853
 10
-7.0796420858
 20
83.4852646206
 10
-6.8806993519
 20
83.6153811294
 10
-6.677376241
 20
83.7364675606
 10
-6.4701144641
 20
83.8483084185
 10
-6.2593757844
 20
83.9507043702
 10
-6.178324423
 20
83.987169842
 10
-5.9636228238
 20
84.076214713
 10
-5.7467503506
 20
84.1553780561
 10
-5.5282135752
 20
84.2245559295
 10
-5.3085181321
 20
84.2836718344
 10
-5.0881639951
 20
84.3326769644
 10
-4.8676409097
 20
84.3715497482
 10
-4.6474241345
 20
84.400294703
 10
-4.4279706285
 20
84.4189406483
 10
-4.2097157971
 20
84.4275383517
 10
-3.9930708829
 20
84.4261577027
 10
-3.7784210518
 20
84.4148845223
 10
-3.5661241981
 20
84.3938171238
 10
-3.3565104587
 20
84.3630627422
 10
-3.1498824041
 20
84.3227339436
 10
-2.9465158483
 20
84.2729451181
 10
-2.7466612073
 20
84.213809145
 10
-2.5505453223
 20
84.1454343065
 10
-2.3583736584
 20
84.0679215071
 10
-2.1703327878
 20
83.9813618428
 10
-1.9865930692
 20
83.8858345461
 10
-1.8073114373
 20
83.7814053197
 10
-1.6326342273
 20
83.6681250588
  0
LWPOLYLINE
  5
24C
100
AcDbEntity
  8
Livello_1
100
AcDbPolyline
 62
7
  6
CONTINUOUS
 90
51
 70
0
 10
38.1143497697
 20
56.6080449818
 10
35.441795805
 20
77.2886746639
 10
35.5916886746
 20
86.1157321291
 10
35.8229814076
 20
100.9391575983
 10
35.8357053809
 20
102.646085311
 10
35.7484502211
 20
103.2632127619
 10
35.5201514467
 20
103.8591471134
 10
35.1531366866
 20
104.4163434495
 10
34.6584930202
 20
104.9052409743
 10
34.650395657
 20
104.9117250296
 10
33.488183191
 20
105.7658190042
 10
32.9828851496
 20
106.1237563918
 10
30.9821362905
 20
107.5584581275
 10
30.3667222054
 20
107.926588191
 10
29.6340606596
 20
108.1971387633
 10
28.7726425396
 20
108.3622508858
 10
27.7766551441
 20
108.4082640022
 10
26.6560182258
 20
108.3196407972
 10
26.608986104
 20
108.3131059466
 10
19.707778349
 20
107.282122906
 10
10.2769733236
 20
105.8679953009
 10
-34.3875032082
 20
99.1903790015
 10
-48.9051215529
 20
97.0564987948
 10
-50.8656770114
 20
96.7894690961
 10
-51.8003397182
 20
96.6279483155
 10
-52.5686466044
 20
96.3594465955
 10
-53.1913620182
 20
95.9963809588
 10
-53.4538249944
 20
95.7808028712
 10
-53.6842039144
 20
95.5439530442
 10
-54.0505601471
 20
95.0102477171
 10
-54.296839299
 20
94.3914187691
 10
-54.4201362294
 20
93.6794882955
 10
-54.4327261184
 20
93.345672903
 10
-54.4327261184
 20
-47.2657217118
 10
-54.3876176938
 20
-48.4072267634
 10
-54.2673643105
 20
-49.0679899702
 10
-54.1769984645
 20
-49.3029997572
 10
-54.066482215
 20
-49.4895699226
 10
-53.7816167505
 20
-49.7753304731
 10
-53.2217479611
 20
-50.1724389286
 10
-53.1663405044
 20
-50.2143893267
 10
-52.1940101178
 20
-50.8863208413
 10
-50.8607186068
 20
-51.7270094145
 10
-49.6160978304
 20
-52.498494475
 10
-49.6132501791
 20
-52.5003876659
 10
-49.0912289426
 20
-52.7924549375
 10
-48.484763952
 20
-53.000937728
 10
-47.80847737
 20
-53.0943979679
 10
-47.0613397915
 20
-53.0543077429
 10
-41.6743480643
 20
-52.2125374217
 10
-4.7873033572
 20
-46.3951627017
  0
LWPOLYLINE
  5
24D
100
AcDbEntity
  8
Livello_1
100
AcDbPolyline
 62
7
  6
CONTINUOUS
 90
32
 70
0
 10
47.5086568079
 20
27.5640930406
 10
47.5049394303
 20
27.6959946295
 10
47.4940649508
 20
27.8203428328
 10
47.4764319035
 20
27.9373164994
 10
47.4524103752
 20
28.047108586
 10
47.4223364909
 20
28.1499213157
 10
47.386507298
 20
28.2459603137
 10
47.345176367
 20
28.3354277984
 10
47.2985504463
 20
28.4185149864
 10
47.2467875142
 20
28.4953939665
 10
47.1899965328
 20
28.5662093908
 10
47.1597291122
 20
28.5993867814
 10
47.1282400799
 20
28.6310695104
 10
47.061675085
 20
28.6899286057
 10
46.9903102259
 20
28.7428408755
 10
46.914118484
 20
28.7898106605
 10
46.8330451988
 20
28.8307888918
 10
46.7470173314
 20
28.8656716798
 10
46.6559534326
 20
28.8943011464
 10
46.5597737914
 20
28.9164684349
 10
46.4584102659
 20
28.931918695
 10
46.3518153566
 20
28.9403577275
 10
46.2399701624
 20
28.9414599041
 10
46.1228909457
 20
28.9348769423
 10
46.0006341201
 20
28.9202471014
 10
45.945988338
 20
28.9113014849
 10
45.4835729895
 20
28.826334206
 10
44.1002866128
 20
28.5641849985
 10
42.7729000717
 20
28.310089173
 10
40.5714725142
 20
27.8866510798
 10
38.7926990002
 20
27.5434303159
 10
38.0610117745
 20
27.4020058467
  0
LWPOLYLINE
  5
24E
100
AcDbEntity
  8
Livello_1
100
AcDbPolyline
 62
7
  6
CONTINUOUS
 90
27
 70
0
 10
-2.320939381
 20
49.5108951186
 10
1.9951033407
 20
47.7569533532
 10
2.0582376604
 20
47.7058876752
 10
2.124573532
 20
47.6443157584
 10
2.1936626631
 20
47.5718009787
 10
2.2647999102
 20
47.488236055
 10
2.3369933133
 20
47.3939696096
 10
2.4089569139
 20
47.2899254075
 10
2.4791439069
 20
47.177683158
 10
2.5458355399
 20
47.0594798866
 10
2.5926611783
 20
46.9682612059
 10
2.648378024
 20
46.8481988256
 10
2.6960263124
 20
46.7315977154
 10
2.735083207
 20
46.6208369134
 10
2.7654757347
 20
46.5176768638
 10
2.7875001503
 20
46.4232392583
 10
2.8017170385
 20
46.3380690167
 10
2.8088460356
 20
46.2622389409
 10
2.809673075
 20
46.1954658332
 10
2.8049738898
 20
46.1372197182
 10
2.7931582069
 20
46.0174568341
 10
2.7779906069
 20
45.7994657276
 10
2.7593603664
 20
45.4448547997
 10
2.7376512542
 20
44.9242529601
 10
2.7148277214
 20
44.2596080906
 10
2.7127366643
 20
44.1924625982
 10
2.7001826342
 20
43.7609386027
  0
LWPOLYLINE
  5
24F
100
AcDbEntity
  8
Livello_1
100
AcDbPolyline
 62
7
  6
CONTINUOUS
 90
73
 70
0
 10
-1.6326342273
 20
83.6681250588
 10
-1.4638933671
 20
83.5465284939
 10
-1.301712477
 20
83.4174210823
 10
-1.1461938141
 20
83.2809208451
 10
-0.9974573119
 20
83.1371505063
 10
-0.8556403967
 20
82.986240606
 10
-0.7208974257
 20
82.8283327185
 10
-0.5933987206
 20
82.6635827035
 10
-0.4733291769
 20
82.4921639064
 10
-0.3608864428
 20
82.314270213
 10
-0.2562786757
 20
82.1301188581
 10
-0.1597218987
 20
81.9399528829
 10
-0.071436998
 20
81.7440431357
 10
0.0083535785
 20
81.5426897166
 10
0.0794293468
 20
81.3362227772
 10
0.141575441
 20
81.125002603
 10
0.1945862915
 20
80.9094189316
 10
0.2382692067
 20
80.6898894851
 10
0.272447742
 20
80.4668577295
 10
0.2969647325
 20
80.2407899093
 10
0.3116848837
 20
80.0121714374
 10
0.3164968239
 20
79.7815027545
 10
0.3113145477
 20
79.5492947961
 10
0.3063968795
 20
79.4555708459
 10
0.2871236444
 20
79.2222510256
 10
0.2577932244
 20
78.9887793069
 10
0.2184253143
 20
78.7556576411
 10
0.1690618
 20
78.5233747376
 10
0.1097644962
 20
78.2924027
 10
0.0406125675
 20
78.0631942601
 10
-0.0383002632
 20
77.8361806452
 10
-0.1268686185
 20
77.6117700832
 10
-0.2249783895
 20
77.3903469271
 10
-0.3325095951
 20
77.1722713583
 10
-0.4493391102
 20
76.9578796139
 10
-0.5753432064
 20
76.7474846697
 10
-0.710399865
 20
76.5413773106
 10
-0.8534297733
 20
76.3409311597
 10
-1.0037410427
 20
76.1473626503
 10
-1.1611062698
 20
75.9608920963
 10
-1.3252779167
 20
75.7817493791
 10
-1.4959864904
 20
75.6101721622
 10
-1.6729390033
 20
75.4464037529
 10
-1.8558177968
 20
75.2906906264
 10
-2.0442798081
 20
75.1432796378
 10
-2.237956358
 20
75.0044149699
 10
-2.4364535243
 20
74.8743348779
 10
-2.6393531528
 20
74.7532683117
 10
-2.8462145345
 20
74.6414315143
 10
-3.0565767531
 20
74.5390247032
 10
-3.1420632522
 20
74.5005377696
 10
-3.3564824684
 20
74.4116706383
 10
-3.5730871655
 20
74.3326759664
 10
-3.7913707441
 20
74.2636583681
 10
-4.010827433
 20
74.204695023
 10
-4.23095702
 20
74.1558354159
 10
-4.4512694282
 20
74.1171017848
 10
-4.6712889862
 20
74.0884902596
 10
-4.8905582518
 20
74.0699726421
 10
-5.1086412779
 20
74.0614987551
 10
-5.325126233
 20
74.0629992645
 10
-5.5396273265
 20
74.0743888679
 10
-5.7517860135
 20
74.0955697316
 10
-5.9612714892
 20
74.1264350606
 10
-6.1677805069
 20
74.1668726885
 10
-6.3710365743
 20
74.2167685848
 10
-6.5707886014
 20
74.2760101893
 10
-6.7668090825
 20
74.3444894993
 10
-6.958891902
 20
74.4221058492
 10
-7.1468498549
 20
74.5087683425
 10
-7.3305119715
 20
74.6043979067
 10
-7.5097207307
 20
74.7089289595
 10
-7.6843292382
 20
74.8223106877
  0
LWPOLYLINE
  5
250
100
AcDbEntity
  8
Livello_1
100
AcDbPolyline
 62
7
  6
CONTINUOUS
 90
73
 70
0
 10
-4.9345011461
 20
82.4605754642
 10
-4.8551328498
 20
82.4033101859
 10
-4.7788508815
 20
82.3425077086
 10
-4.705703453
 20
82.2782233994
 10
-4.6357471261
 20
82.2105148537
 10
-4.5690467248
 20
82.1394433672
 10
-4.505675069
 20
82.0650754577
 10
-4.4457125175
 20
81.9874844027
 10
-4.3892463091
 20
81.9067517519
 10
-4.336369702
 20
81.8229687717
 10
-4.2871809121
 20
81.7362377731
 10
-4.2417818634
 20
81.6466732729
 10
-4.2002767687
 20
81.554402939
 10
-4.1627705679
 20
81.459568273
 10
-4.1293672623
 20
81.3623249864
 10
-4.1001681867
 20
81.262843039
 10
-4.0752702718
 20
81.1613063141
 10
-4.054764351
 20
81.0579119226
 10
-4.0387335695
 20
80.9528691414
 10
-4.0272519515
 20
80.8463980085
 10
-4.0203831772
 20
80.7387276135
 10
-4.018179615
 20
80.6300941373
 10
-4.0206816411
 20
80.5207387059
 10
-4.0229742152
 20
80.4773776305
 10
-4.0320767913
 20
80.3675057448
 10
-4.0459140109
 20
80.2575649715
 10
-4.0644763882
 20
80.1477921395
 10
-4.0877439538
 20
80.0384178083
 10
-4.1156873253
 20
79.9296646768
 10
-4.1482689272
 20
79.8217462756
 10
-4.1854443113
 20
79.7148659592
 10
-4.22716353
 20
79.6092161998
 10
-4.2733725182
 20
79.5049781747
 10
-4.3240144453
 20
79.4023216278
 10
-4.3790310044
 20
79.3014049776
 10
-4.4383636131
 20
79.2023756431
 10
-4.5019545065
 20
79.1053705502
 10
-4.5693345472
 20
79.0110411733
 10
-4.6401441223
 20
78.9199471658
 10
-4.714276162
 20
78.8321924952
 10
-4.7916140965
 20
78.7478856272
 10
-4.8720310013
 20
78.6671386813
 10
-4.9553888748
 20
78.5900664214
 10
-5.0415380871
 20
78.5167850869
 10
-5.1303170398
 20
78.4474110781
 10
-5.2215520701
 20
78.3820595168
 10
-5.3150576319
 20
78.3208427125
 10
-5.4106367769
 20
78.2638685718
 10
-5.5080819498
 20
78.2112389974
 10
-5.6071760983
 20
78.163048327
 10
-5.6449996716
 20
78.146013851
 10
-5.7459758113
 20
78.1040846174
 10
-5.8479873739
 20
78.0668012479
 10
-5.9507959274
 20
78.0342133304
 10
-6.0541634028
 20
78.0063575442
 10
-6.1578543194
 20
77.9832575338
 10
-6.2616379391
 20
77.9649241166
 10
-6.3652902765
 20
77.9513558137
 10
-6.4685959
 20
77.9425396846
 10
-6.5713494709
 20
77.9384524279
 10
-6.6733569799
 20
77.9390617063
 10
-6.7744366561
 20
77.9443276432
 10
-6.8744195389
 20
77.9542044377
 10
-6.9731497144
 20
77.9686420418
 10
-7.0704842349
 20
77.9875878487
 10
-7.1662927454
 20
78.0109883417
 10
-7.260456852
 20
78.0387906637
 10
-7.3528692716
 20
78.0709440696
 10
-7.4434328028
 20
78.1074012364
 10
-7.5320591639
 20
78.1481194086
 10
-7.6186677368
 20
78.1930613681
 10
-7.703184259
 20
78.2421962207
 10
-7.7855394977
 20
78.295500001
  0
LINE
  5
251
100
AcDbEntity
  8
Livello_1
100
AcDbLine
 62
7
  6
CONTINUOUS
 10
50.4736867792
 20
57.220960743
 11
50.4736867792
 21
56.6542209847
  0
LWPOLYLINE
  5
252
100
AcDbEntity
  8
Livello_1
100
AcDbPolyline
 62
7
  6
CONTINUOUS
 90
7
 70
0
 10
41.9262259289
 20
56.8749234313
 10
42.0801377884
 20
57.5560524646
 10
42.1479747564
 20
57.8395426245
 10
42.2125114191
 20
58.0977222928
 10
42.3387953214
 20
58.570847855
 10
42.4922842664
 20
59.106062414
 10
42.7586052379
 20
60.0109892889
  0
LINE
  5
253
100
AcDbEntity
  8
Livello_1
100
AcDbLine
 62
7
  6
CONTINUOUS
 10
-10.6918005793
 20
51.2631255257
 11
-4.426565114
 21
49.4298515196
  0
LWPOLYLINE
  5
254
100
AcDbEntity
  8
Livello_1
100
AcDbPolyline
 62
7
  6
CONTINUOUS
 90
22
 70
0
 10
44.5746552881
 20
61.316301018
 10
45.1521818934
 20
60.9208179979
 10
47.2579817533
 20
59.4798701034
 10
49.2618220736
 20
58.1116052782
 10
49.8690769664
 20
57.6997098698
 10
49.9584002813
 20
57.6406911858
 10
49.999797329
 20
57.6178163522
 10
50.0927545384
 20
57.5740810236
 10
50.2007822039
 20
57.5319811487
 10
50.3164981475
 20
57.4950477596
 10
50.4354256154
 20
57.4649869102
 10
50.5548522587
 20
57.4425517556
 10
50.673121386
 20
57.4280032544
 10
50.7892247817
 20
57.4213515068
 10
50.9025650947
 20
57.4224874563
 10
51.0128116318
 20
57.4312584459
 10
51.1198088008
 20
57.4475136165
 10
51.4535276009
 20
57.5066353883
 10
52.2896660442
 20
57.6468802487
 10
52.3648887577
 20
57.6593065006
 10
53.4931010437
 20
57.8439006755
 10
54.0223004861
 20
57.9296210326
  0
LINE
  5
255
100
AcDbEntity
  8
Livello_1
100
AcDbLine
 62
7
  6
CONTINUOUS
 10
58.6440121934
 20
56.0100186256
 11
64.2117073043
 21
51.8189338221
  0
LINE
  5
256
100
AcDbEntity
  8
Livello_1
100
AcDbLine
 62
7
  6
CONTINUOUS
 10
65.0822663144
 20
56.8602224998
 11
67.4510363676
 21
52.1630863989
  0
LWPOLYLINE
  5
257
100
AcDbEntity
  8
Livello_1
100
AcDbPolyline
 62
7
  6
CONTINUOUS
 90
55
 70
0
 10
58.6310075232
 20
50.7255991571
 10
58.6243640276
 20
50.9116308418
 10
58.6163758989
 20
51.0131235692
 10
58.6070667712
 20
51.0316395013
 10
58.5964602784
 20
50.9687408002
 10
58.5845800547
 20
50.8259896281
 10
58.5714497342
 20
50.6049481469
 10
58.5570929509
 20
50.3071785188
 10
58.5415333388
 20
49.9342429059
 10
58.5247945322
 20
49.4877034703
 10
58.5069001649
 20
48.9691223741
 10
58.4878738712
 20
48.3800617794
 10
58.4677392851
 20
47.7220838483
 10
58.4465200405
 20
46.9967507428
 10
58.4242397718
 20
46.2056246252
 10
58.4009221128
 20
45.3502676574
 10
58.3727589307
 20
44.2855445218
 10
58.3432823796
 20
43.1397865134
 10
58.3125287658
 20
41.9153934035
 10
58.2805343957
 20
40.6147649629
 10
58.2473355756
 20
39.2403009629
 10
58.2129686117
 20
37.7944011745
 10
58.1774698105
 20
36.2794653688
 10
58.1408754781
 20
34.6978933169
 10
58.1032219211
 20
33.0520847898
 10
58.0645454456
 20
31.3444395588
 10
58.0248823581
 20
29.5773573948
 10
57.9842689647
 20
27.7532380689
 10
57.942741572
 20
25.8744813522
 10
57.8874492379
 20
23.3543611449
 10
57.8307533675
 20
20.7512316574
 10
57.7727337257
 20
18.0703651868
 10
57.7134700775
 20
15.3170340302
 10
57.6530421879
 20
12.4965104846
 10
57.5915298219
 20
9.6140668471
 10
57.5290127445
 20
6.6749754148
 10
57.4655707206
 20
3.6845084848
 10
57.4012835153
 20
0.6479383542
 10
57.3362308936
 20
-2.42946268
 10
57.2421289483
 20
-6.8861266228
 10
57.1468602653
 20
-11.3999880217
 10
57.0506573957
 20
-15.9556757483
 10
56.9537528904
 20
-20.537818674
 10
56.8563793004
 20
-25.1310456704
 10
56.7587691768
 20
-29.7199856089
 10
56.6611550705
 20
-34.2892673609
 10
56.585379101
 20
-37.8197225519
 10
56.5098508183
 20
-41.3217549377
 10
56.4346796393
 20
-44.7881322864
 10
56.359974981
 20
-48.2116223661
 10
56.2858462604
 20
-51.5849929449
 10
56.2124028946
 20
-54.9010117909
 10
56.1397543005
 20
-58.152446672
 10
56.0680098952
 20
-61.3320653564
 10
55.9972790955
 20
-64.4326356121
  0
LINE
  5
258
100
AcDbEntity
  8
Livello_1
100
AcDbLine
 62
7
  6
CONTINUOUS
 10
64.3330842263
 20
49.6324529655
 11
64.3330842263
 21
51.6975569001
  0
LINE
  5
259
100
AcDbEntity
  8
Livello_1
100
AcDbLine
 62
7
  6
CONTINUOUS
 10
58.4819249995
 20
55.9289750287
 11
58.461758337
 21
51.899977419
  0
LWPOLYLINE
  5
25A
100
AcDbEntity
  8
Livello_1
100
AcDbPolyline
 62
7
  6
CONTINUOUS
 90
79
 70
0
 10
42.7586052379
 20
60.0109892889
 10
42.8638433976
 20
60.3575443803
 10
42.9486051835
 20
60.6095457823
 10
43.0234378903
 20
60.8048988
 10
43.0934182449
 20
60.9620602479
 10
43.161565811
 20
61.0917528247
 10
43.2300147265
 20
61.2008926526
 10
43.300547431
 20
61.2942514508
 10
43.3749019862
 20
61.3752680382
 10
43.4549963596
 20
61.4464855619
 10
43.5421612491
 20
61.5091781019
 10
43.638305799
 20
61.5646287278
 10
43.746385218
 20
61.6141213988
 10
43.8702421349
 20
61.6586317006
 10
44.0150817937
 20
61.6989544389
 10
44.1882846515
 20
61.7358429874
 10
44.4744676373
 20
61.7829249904
 10
45.1035686742
 20
61.8746002087
 10
46.1859123905
 20
62.0209505508
 10
47.1184893721
 20
62.1409040824
 10
48.3644225888
 20
62.293353354
 10
49.2883770553
 20
62.3985157476
 10
49.377365603
 20
62.4068427157
 10
49.5642394063
 20
62.416360456
 10
49.7456384152
 20
62.4149163428
 10
49.9195341507
 20
62.4029600435
 10
50.0843775182
 20
62.3811069291
 10
50.2390840485
 20
62.3500682222
 10
50.3829850922
 20
62.3105877046
 10
50.5157601821
 20
62.2633887885
 10
50.6373623407
 20
62.2091328651
 10
50.7479440352
 20
62.1483881966
 10
50.8477880355
 20
62.0816080043
 10
50.9372450703
 20
62.0091164472
 10
51.0166788788
 20
61.931101514
 10
51.5267865929
 20
61.3682449975
 10
52.2876860134
 20
60.5133146346
 10
53.2556544557
 20
59.4117626001
 10
53.4702638765
 20
59.1658239651
 10
54.0401360203
 20
58.5079952925
 10
54.1180100135
 20
58.4155056674
 10
54.1792211242
 20
58.3398362914
 10
54.2172910199
 20
58.2940432123
 10
54.2664370388
 20
58.2278545757
 10
54.3014061305
 20
58.1669057658
 10
54.3259274578
 20
58.1047540897
 10
54.3409891446
 20
58.0377353032
 10
54.3462513994
 20
57.9627923653
 10
54.3462513994
 20
57.3498766042
 10
54.3408305099
 20
57.3109563756
 10
54.323374364
 20
57.2668313505
 10
54.291627843
 20
57.2172129324
 10
54.2434432753
 20
57.1628652759
 10
54.1777505731
 20
57.1058348453
 10
54.0953494229
 20
57.0493275498
 10
54.015508998
 20
57.0051531988
 10
53.9134342818
 20
56.9602136301
 10
53.8072548621
 20
56.9251166339
 10
53.7001643055
 20
56.9007442982
 10
53.3089881773
 20
56.8327707146
 10
52.2016944602
 20
56.6489961527
 10
51.377417122
 20
56.5124889268
 10
51.2770579439
 20
56.5007308908
 10
51.1329559162
 20
56.4952816331
 10
50.9410759579
 20
56.4992894749
 10
50.7057757011
 20
56.5154032505
 10
50.5278319892
 20
56.5339667462
 10
50.2677572096
 20
56.5701166012
 10
50.0281232451
 20
56.6134903499
 10
49.8206560615
 20
56.6606483424
 10
49.6496487467
 20
56.7088618034
 10
49.5144452052
 20
56.7562008488
 10
49.4116387121
 20
56.8014187736
 10
49.2832154412
 20
56.8608202299
 10
49.0611112672
 20
56.9512094875
 10
48.7137681695
 20
57.0809804634
 10
48.2195618349
 20
57.2548972569
 10
47.6046911142
 20
57.4620282889
 10
47.1533494592
 20
57.6094045879
  0
LINE
  5
25B
100
AcDbEntity
  8
Livello_1
100
AcDbLine
 62
7
  6
CONTINUOUS
 10
-4.568297172
 20
39.8295702564
 11
-11.1463986161
 21
40.6302056049
  0
LINE
  5
25C
100
AcDbEntity
  8
Livello_1
100
AcDbLine
 62
7
  6
CONTINUOUS
 10
-1.1870829175
 20
43.3836220869
 11
0.4841114411
 21
43.0598172523
  0
LINE
  5
25D
100
AcDbEntity
  8
Livello_1
100
AcDbLine
 62
7
  6
CONTINUOUS
 10
5.1812813092
 20
41.4934141493
 11
9.6077357237
 21
40.6302056049
  0
LINE
  5
25E
100
AcDbEntity
  8
Livello_1
100
AcDbLine
 62
7
  6
CONTINUOUS
 10
67.4510363676
 20
52.1630863989
 11
67.4510363676
 21
50.0372940034
  0
LINE
  5
25F
100
AcDbEntity
  8
Livello_1
100
AcDbLine
 62
7
  6
CONTINUOUS
 10
64.3330842263
 20
49.5108951186
 11
58.4415916745
 21
51.7177235626
  0
LINE
  5
260
100
AcDbEntity
  8
Livello_1
100
AcDbLine
 62
7
  6
CONTINUOUS
 10
67.4510363676
 20
50.0372940034
 11
64.3330842263
 21
49.5108951186
  0
LINE
  5
261
100
AcDbEntity
  8
Livello_1
100
AcDbLine
 62
7
  6
CONTINUOUS
 10
-11.1463986161
 20
40.6302056049
 11
-17.3952368885
 21
39.4081435522
  0
LINE
  5
262
100
AcDbEntity
  8
Livello_1
100
AcDbLine
 62
7
  6
CONTINUOUS
 10
13.3900215464
 20
44.0849245171
 11
58.0365621632
 21
51.5871114401
  0
LINE
  5
263
100
AcDbEntity
  8
Livello_1
100
AcDbLine
 62
7
  6
CONTINUOUS
 10
3.5098647099
 20
47.4329674388
 11
9.0685130937
 21
48.3476292435
  0
LINE
  5
264
100
AcDbEntity
  8
Livello_1
100
AcDbLine
 62
7
  6
CONTINUOUS
 10
10.5261669981
 20
48.4047367084
 11
58.093669628
 21
56.0707070866
  0
LINE
  5
265
100
AcDbEntity
  8
Livello_1
100
AcDbLine
 62
7
  6
CONTINUOUS
 10
64.3330842263
 20
51.6975569001
 11
67.268747171
 21
52.1630863989
  0
LINE
  5
266
100
AcDbEntity
  8
Livello_1
100
AcDbLine
 62
7
  6
CONTINUOUS
 10
9.0813292905
 20
51.7784120236
 11
47.2048027196
 21
57.5890494519
  0
LWPOLYLINE
  5
267
100
AcDbEntity
  8
Livello_1
100
AcDbPolyline
 62
7
  6
CONTINUOUS
 90
37
 70
0
 10
-3.1879173949
 20
49.7004918923
 10
-3.1496270779
 20
49.7052761798
 10
-3.1070946532
 20
49.7108642639
 10
-3.060455659
 20
49.7172314432
 10
-3.0098456332
 20
49.7243530164
 10
-2.9554001139
 20
49.732204282
 10
-2.8972546392
 20
49.7407605386
 10
-2.8355447469
 20
49.7499970849
 10
-2.7704059753
 20
49.7598892194
 10
-2.7019738622
 20
49.7704122408
 10
-2.6303839458
 20
49.7815414477
 10
-2.555771764
 20
49.7932521387
 10
-2.4782728549
 20
49.8055196123
 10
-2.3816545214
 20
49.8209407542
 10
-2.2813086851
 20
49.8370854092
 10
-2.1774695557
 20
49.8539108933
 10
-2.0703713428
 20
49.8713745223
 10
-1.9602482562
 20
49.8894336124
 10
-1.8473345055
 20
49.9080454795
 10
-1.7318643006
 20
49.9271674396
 10
-1.6140718511
 20
49.9467568087
 10
-1.4941913667
 20
49.9667709028
 10
-1.3724570571
 20
49.9871670378
 10
-1.1957994039
 20
50.0168824764
 10
-1.0165192402
 20
50.0471660371
 10
-0.8352993931
 20
50.0778932767
 10
-0.6528226899
 20
50.1089397521
 10
-0.4697719576
 20
50.14018102
 10
-0.2868300234
 20
50.1714926372
 10
-0.1046797144
 20
50.2027501608
 10
0.0360083423
 20
50.2269445079
 10
0.1754831711
 20
50.2509722998
 10
0.3134234965
 20
50.2747749849
 10
0.4495080432
 20
50.2982940119
 10
0.5834155359
 20
50.3214708292
 10
0.7148246994
 20
50.3442468854
 10
0.9688629369
 20
50.3883625087
  0
LINE
  5
268
100
AcDbEntity
  8
Livello_1
100
AcDbLine
 62
7
  6
CONTINUOUS
 10
58.7047006543
 20
56.2124391445
 11
65.0012227175
 21
56.9817878952
  0
LINE
  5
269
100
AcDbEntity
  8
Livello_1
100
AcDbLine
 62
7
  6
CONTINUOUS
 10
-19.9756273209
 20
50.4018017162
 11
-10.6918005793
 21
51.2631255257
  0
LINE
  5
26A
100
AcDbEntity
  8
Livello_1
100
AcDbLine
 62
7
  6
CONTINUOUS
 10
9.5543977285
 20
43.1131552475
 11
12.6851307263
 21
43.974479057
  0
LWPOLYLINE
  5
26B
100
AcDbEntity
  8
Livello_1
100
AcDbPolyline
 62
7
  6
CONTINUOUS
 90
86
 70
0
 10
53.9338714223
 20
58.6088794592
 10
54.8905636799
 20
58.8018556093
 10
57.2461452745
 20
59.2430182557
 10
58.093669628
 20
59.3616425435
 10
58.7914526171
 20
59.3489644042
 10
60.1125750753
 20
59.1937141657
 10
60.1157025723
 20
59.1932249038
 10
61.1710998122
 20
58.9862033688
 10
62.3221973481
 20
58.6232115226
 10
66.2783707458
 20
57.2897841231
 10
66.3780214984
 20
57.2560168105
 10
66.7529790219
 20
57.071490399
 10
66.9248610668
 20
56.8625453673
 10
66.9729529508
 20
56.6256371962
 10
66.9724668584
 20
56.4755481244
 10
66.9453259486
 20
54.9256467409
 10
66.9449497301
 20
54.90744876
 10
68.6729625903
 20
54.7608012512
 10
70.4548913723
 20
54.5834628457
 10
70.8185002044
 20
54.4709611815
 10
71.1329507959
 20
54.2305898446
 10
71.4029636365
 20
53.8496595712
 10
71.6145319969
 20
53.3117758822
 10
71.736426658
 20
52.6274182069
 10
71.7506465562
 20
52.3730458571
 10
71.7248118983
 20
50.8701112176
 10
71.0884265792
 20
22.0731954903
 10
68.6942453093
 20
-82.7657095361
 10
68.6455459518
 20
-84.8831396902
 10
68.5785746242
 20
-85.3724598613
 10
68.3810277905
 20
-85.8032172008
 10
68.0546015214
 20
-86.1696154739
 10
67.5934860943
 20
-86.4652300214
 10
66.9828264853
 20
-86.6787168661
 10
66.8639061331
 20
-86.7053013534
 10
56.6961478405
 20
-88.8699906852
 10
26.2304088264
 20
-95.3595868745
 10
-0.6274854975
 20
-101.0605739158
 10
-3.0663184407
 20
-101.5660587821
 10
-3.7006754128
 20
-101.609214019
 10
-4.2392239296
 20
-101.5351340859
 10
-4.821417397
 20
-101.3263150194
 10
-5.319613295
 20
-101.0043772933
 10
-5.7146426898
 20
-100.5890387062
 10
-5.9961642878
 20
-100.0947365938
 10
-6.1562556074
 20
-99.5289104729
 10
-6.1842688006
 20
-98.8935047498
 10
-6.1599609022
 20
-97.437484452
 10
-5.7068283971
 20
-62.1148540569
 10
-4.4686140812
 20
38.9010938349
 10
-4.4025954568
 20
44.6518527488
 10
-3.8638337169
 20
47.4097303157
 10
-3.5623654652
 20
48.960077928
 10
-2.9915648859
 20
51.6981388336
 10
-2.7146095531
 20
52.7713901121
 10
-2.602518762
 20
53.0428882473
 10
-1.9887483966
 20
53.8713469313
 10
-1.5651191974
 20
54.3187771127
 10
-1.1475046908
 20
54.5921478767
 10
-0.6368952054
 20
54.7510157706
 10
0.8900488829
 20
54.9750998727
 10
0.9659106989
 20
54.985292913
 10
4.4614673169
 20
55.4136885308
 10
4.8514344257
 20
55.4328659721
 10
5.4219592383
 20
55.3646766699
 10
5.8667383906
 20
55.1960538438
 10
6.1878844056
 20
54.9479705585
 10
8.1794056394
 20
52.7153561983
 10
8.7995118833
 20
52.0047645874
 10
9.2911002751
 20
51.4306784506
 10
9.2990995928
 20
51.4200775289
 10
9.4571203771
 20
51.2122644955
 10
9.5157606648
 20
50.9796614098
 10
9.5157606648
 20
50.3686303835
 10
9.449514623
 20
50.2180599099
 10
9.2053046632
 20
50.030022627
 10
8.8751393019
 20
49.9176133427
 10
6.7950442733
 20
49.5709765256
 10
6.5505073836
 20
49.5312427061
 10
6.0971150794
 20
49.5185863857
 10
5.820269845
 20
49.5392388343
 10
5.0257419389
 20
49.6703643297
 10
4.5866137085
 20
49.8182878181
 10
3.9405190415
 20
50.0779105229
 10
2.427229497
 20
50.5942188756
 10
2.3283244556
 20
50.6262736324
  0
LINE
  5
26C
100
AcDbEntity
  8
Livello_1
100
AcDbLine
 62
7
  6
CONTINUOUS
 10
2.1448772391
 20
50.5939681538
 11
2.3283244556
 21
50.6262736324
  0
LINE
  5
26D
100
AcDbEntity
  8
Livello_1
100
AcDbLine
 62
7
  6
CONTINUOUS
 10
1.8629634583
 20
50.544470175
 11
2.1448772391
 21
50.5939681538
  0
LINE
  5
26E
100
AcDbEntity
  8
Livello_1
100
AcDbLine
 62
7
  6
CONTINUOUS
 10
1.5883304497
 20
50.4963830099
 11
1.8629634583
 21
50.544470175
  0
LINE
  5
26F
100
AcDbEntity
  8
Livello_1
100
AcDbLine
 62
7
  6
CONTINUOUS
 10
1.3509965272
 20
50.4549247202
 11
1.5883304497
 21
50.4963830099
  0
LINE
  5
270
100
AcDbEntity
  8
Livello_1
100
AcDbLine
 62
7
  6
CONTINUOUS
 10
0.9688629369
 20
50.3883625087
 11
1.3509965272
 21
50.4549247202
  0
LINE
  5
271
100
AcDbEntity
  8
Livello_1
100
AcDbLine
 62
7
  6
CONTINUOUS
 10
-45.9478059884
 20
62.8734689205
 11
33.4172136689
 21
76.8027900292
  0
LWPOLYLINE
  5
272
100
AcDbEntity
  8
Livello_1
100
AcDbPolyline
 62
7
  6
CONTINUOUS
 90
35
 70
0
 10
31.4587857247
 20
21.5197484954
 10
31.2173464672
 20
21.3869521915
 10
30.9725471335
 20
21.262872966
 10
30.7247396026
 20
21.1476503602
 10
30.5243951115
 20
21.0618628768
 10
30.2721911943
 20
20.9629391128
 10
30.0181154707
 20
20.8732210889
 10
29.7625444172
 20
20.7927831806
 10
29.5058537779
 20
20.7216834356
 10
29.2484163227
 20
20.6599634375
 10
28.9905996544
 20
20.6076484361
 10
28.7327641134
 20
20.5647477424
 10
28.4752608237
 20
20.5312553771
 10
28.2184299185
 20
20.5071509549
 10
27.9625989798
 20
20.4924007825
 10
27.7080817162
 20
20.4869591417
 10
27.4551768996
 20
20.4907697252
 10
27.2041675701
 20
20.5037671926
 10
26.9553205131
 20
20.5258788099
 10
26.7088860045
 20
20.5570261377
 10
26.4650978149
 20
20.597126735
 10
26.2241734576
 20
20.6460958451
 10
25.9863146589
 20
20.7038480366
 10
25.751708031
 20
20.7702987717
 10
25.5205259183
 20
20.8453658809
 10
25.2929273934
 20
20.9289709263
 10
25.0690593733
 20
21.0210404382
 10
24.8490578297
 20
21.1215070154
 10
24.633049066
 20
21.2303102818
 10
24.4211510362
 20
21.347397697
 10
24.2134746827
 20
21.4727252191
 10
24.0101252704
 20
21.6062578233
 10
23.9670736753
 20
21.6351289451
 10
23.8816991537
 20
21.6946533939
 10
23.7984695509
 20
21.7570366084
  0
LINE
  5
273
100
AcDbEntity
  8
Livello_1
100
AcDbLine
 62
7
  6
CONTINUOUS
 10
-4.5645277023
 20
35.419667741
 11
-5.3689325205
 21
35.1379070719
  0
LWPOLYLINE
  5
274
100
AcDbEntity
  8
Livello_1
100
AcDbPolyline
 62
7
  6
CONTINUOUS
 90
12
 70
0
 10
34.0116590289
 20
103.6363249817
 10
4.0830014247
 20
99.2458779519
 10
-43.7526932865
 20
92.2383627887
 10
-46.3251623735
 20
91.8659676013
 10
-46.7527020346
 20
91.7575463509
 10
-46.7903250869
 20
91.7431440372
 10
-47.2330220502
 20
91.5134979343
 10
-47.626892996
 20
91.1972202119
 10
-47.9467668867
 20
90.8157620776
 10
-48.1819049431
 20
90.3829651899
 10
-48.3271638388
 20
89.9051241393
 10
-48.3772292237
 20
89.3830179587
  0
LINE
  5
275
100
AcDbEntity
  8
Livello_1
100
AcDbLine
 62
7
  6
CONTINUOUS
 10
9.6077357237
 20
40.6302056049
 11
13.0091166407
 21
41.6019748745
  0
LINE
  5
276
100
AcDbEntity
  8
Livello_1
100
AcDbLine
 62
7
  6
CONTINUOUS
 10
55.7156997145
 20
-64.8118442661
 11
38.222910495
 21
-81.0657977036
  0
LINE
  5
277
100
AcDbEntity
  8
Livello_1
100
AcDbLine
 62
7
  6
CONTINUOUS
 10
15.0097626446
 20
-86.1421425771
 11
-1.0251505867
 21
-96.342516116
  0
ENDSEC
  0
SECTION
  2
OBJECTS
  0
DICTIONARY
  5
C
100
AcDbDictionary
280
0
281
1
  3
ACAD_GROUP
350
D
  3
ACAD_MLINESTYLE
350
17
  3
ACAD_LAYOUT
350
1A
  3
ACAD_PLOTSETTINGS
350
19
  3
ACAD_PLOTSTYLENAME
350
E
  0
DICTIONARY
  5
D
102
{ACAD_REACTORS
330
C
102
}
100
AcDbDictionary
280
0
281
1
  0
ACDBDICTIONARYWDFLT
  5
E
102
{ACAD_REACTORS
330
C
102
}
100
AcDbDictionary
281
1
  3
Normal
350
F
100
AcDbDictionaryWithDefault
340
F
  0
DICTIONARY
  5
17
102
{ACAD_REACTORS
330
C
102
}
100
AcDbDictionary
280
0
281
1
  3
Standard
350
18
  0
DICTIONARY
  5
19
102
{ACAD_REACTORS
330
C
102
}
100
AcDbDictionary
281
1
  0
DICTIONARY
  5
1A
102
{ACAD_REACTORS
330
C
102
}
100
AcDbDictionary
281
1
  3
Model
350
278
  3
Layout1
350
279
  0
ACDBPLACEHOLDER
  5
F
102
{ACAD_REACTORS
330
E
102
}
  0
MLINESTYLE
  5
18
102
{ACAD_REACTORS
330
17
102
}
100
AcDbMlineStyle
  2
STANDARD
 70
0
  3

 62
256
 51
90.0
 52
90.0
 71
2
 49
0.5
 62
256
  6
BYLAYER
 49
-0.5
 62
256
  6
BYLAYER
  0
LAYOUT
  5
278
102
{ACAD_REACTORS
330
1A
102
}
100
AcDbPlotSettings
  1

  2
none_device
  4
ISO_A4_(297.00_x_210.00_MM)
  6

 40
0.0
 41
0.0
 42
0.0
 43
0.0
 44
297.0
 45
210.0
 46
0.0
 47
0.0
 48
0.0
 49
0.0
140
0.0
141
0.0
142
1.0
143
1.0
 70
1024
 72
1
 73
0
 74
0
  7

 75
0
147
1.0
148
0.0
149
0.0
100
AcDbLayout
  1
Model
 70
0
 71
0
 10
0.0
 20
0.0
 11
297.0
 21
210.0
 12
0.0
 22
0.0
 32
0.0
 14
0.0
 24
0.0
 34
0.0
 15
0.0
 25
0.0
 35
0.0
146
0.0
 13
0.0
 23
0.0
 33
0.0
 16
1.0
 26
0.0
 36
0.0
 17
0.0
 27
1.0
 37
0.0
 76
0
330
201
345
0
346
0
  0
LAYOUT
  5
279
102
{ACAD_REACTORS
330
1A
102
}
100
AcDbPlotSettings
  1

  2
none_device
  4
ISO_A4_(297.00_x_210.00_MM)
  6

 40
0.0
 41
0.0
 42
0.0
 43
0.0
 44
297.0
 45
210.0
 46
0.0
 47
0.0
 48
0.0
 49
0.0
140
0.0
141
0.0
142
1.0
143
1.0
 70
0
 72
1
 73
0
 74
0
  7

 75
0
147
1.0
148
0.0
149
0.0
100
AcDbLayout
  1
Layout1
 70
0
 71
1
 10
0.0
 20
0.0
 11
297.0
 21
210.0
 12
0.0
 22
0.0
 32
0.0
 14
0.0
 24
0.0
 34
0.0
 15
0.0
 25
0.0
 35
0.0
146
0.0
 13
0.0
 23
0.0
 33
0.0
 16
1.0
 26
0.0
 36
0.0
 17
0.0
 27
1.0
 37
0.0
 76
0
330
202
345
0
346
0
  0
ENDSEC
  0
EOF
