  0
SECTION
  2
HEADER
  9
$ACADVER
  1
AC1024
  9
$DWGCODEPAGE
  3
ANSI_1252
  9
$EXTMAX
 10
297.0
 20
210.0
 30
0.0
  9
$EXTMIN
 10
0.0
 20
0.0
 30
0.0
  9
$LIMMIN
 10
0.0
 20
0.0
  9
$LIMMAX
 10
297.0
 20
210.0
  9
$VIEWCTR
 10
148.5
 20
105.0
  9
$VIEWSIZE
 40
210.0
  9
$CLAYER
  8
0
  9
$LTSCALE
 40
16.335
  9
$CELTYPE
  6
BYLAYER
  9
$DIMSCALE
 40
1.0
  9
$DIMASZ
 40
3.0
  9
$DIMEXO
 40
0.5
  9
$DIMDLI
 40
11.286
  9
$DIMEXE
 40
1.5
  9
$DIMCEN
 40
2.673
  9
$DIMLFAC
 40
1.0
  9
$DIMBLK
  1
_FILLED
  9
$DIMALT
 70
0
  9
$DIMALTF
 40
0.0393700787
  9
$DIMTXT
 40
3.0
  9
$DIMTOL
 70
1
  9
$DIMLIM
 70
0
  9
$DIMTFAC
 40
1.0
  9
$DIMTP
 40
0.01
  9
$DIMTM
 40
0.01
  9
$DIMGAP
 40
0.625
  9
$DIMDSEP
 70
44
  9
$AUNITS
 70
0
  9
$PDMODE
 70
3
  9
$PDSIZE
 40
3.0
  9
$HANDSEED
  5
259
  9
$TILEMODE
 70
1
  9
$MEASUREMENT
 70
1
  9
$INSUNITS
 70
4
  0
ENDSEC
  0
SECTION
  2
CLASSES
  0
CLASS
  1
ACDBDICTIONARYWDFLT
  2
AcDbDictionaryWithDefault
  3
AutoCAD 2000
 90
0
 91
1
280
0
281
0
  0
CLASS
  1
ACDBPLACEHOLDER
  2
AcDbPlaceHolder
  3
AutoCAD 2000
 90
0
 91
1
280
0
281
0
  0
CLASS
  1
LAYOUT
  2
AcDbLayout
  3
AutoCAD 2000
 90
0
 91
0
280
0
281
0
  0
ENDSEC
  0
SECTION
  2
TABLES
  0
TABLE
  2
VPORT
  5
8
100
AcDbSymbolTable
 70
2
  0
VPORT
  5
1F4
100
AcDbSymbolTableRecord
100
AcDbViewportTableRecord
  2
*ACTIVE
 70
0
 10
0.0
 20
0.0
 11
1.0
 21
1.0
 12
148.5
 22
105.0
 13
0.0
 23
0.0
 14
1.0
 24
1.0
 15
0.0
 25
0.0
 16
0.0
 26
0.0
 36
1.0
 17
0.0
 27
0.0
 37
0.0
 40
210.0
 41
1.4142857143
 42
50.0
 43
0.0
 44
0.0
 50
0.0
 51
0.0
 71
0
 72
100
 73
1
 74
1
 75
0
 76
0
 77
0
 78
0
  0
ENDTAB
  0
TABLE
  2
LTYPE
  5
5
100
AcDbSymbolTable
 70
6
  0
LTYPE
  5
14
100
AcDbSymbolTableRecord
100
AcDbLinetypeTableRecord
  2
BYBLOCK
 70
0
  3

 72
65
 73
0
 40
0.0
  0
LTYPE
  5
15
100
AcDbSymbolTableRecord
100
AcDbLinetypeTableRecord
  2
BYLAYER
 70
0
  3

 72
65
 73
0
 40
0.0
  0
LTYPE
  5
16
100
AcDbSymbolTableRecord
100
AcDbLinetypeTableRecord
  2
CONTINUOUS
 70
64
  3
Solid line
 72
65
 73
0
 40
0.0
  0
LTYPE
  5
1F5
100
AcDbSymbolTableRecord
100
AcDbLinetypeTableRecord
  2
CENTER
 70
64
  3
____ _ ____ _ ____ _ ____ _ ____ _ ____ _ ____
 72
65
 73
4
 40
0.6
 49
0.375
 74
0
 49
-0.075
 74
0
 49
0.075
 74
0
 49
-0.075
 74
0
  0
LTYPE
  5
1F6
100
AcDbSymbolTableRecord
100
AcDbLinetypeTableRecord
  2
HIDDEN
 70
64
  3
- - - - - - - - - - - - - - - - - - - -
 72
65
 73
2
 40
0.2
 49
0.1
 74
0
 49
-0.1
 74
0
  0
LTYPE
  5
1F7
100
AcDbSymbolTableRecord
100
AcDbLinetypeTableRecord
  2
PHANTOM
 70
64
  3
_____ _ _ _____ _ _ _____ _ _ _____
 72
65
 73
6
 40
0.8
 49
0.45
 74
0
 49
-0.05
 74
0
 49
0.1
 74
0
 49
-0.05
 74
0
 49
0.1
 74
0
 49
-0.05
 74
0
  0
LTYPE
  5
1F8
100
AcDbSymbolTableRecord
100
AcDbLinetypeTableRecord
  2
DOT
 70
64
  3
. . . . . . . . . . . . . . . . . . . .
 72
65
 73
2
 40
0.2
 49
0.1
 74
0
 49
-0.1
 74
0
  0
LTYPE
  5
1F9
100
AcDbSymbolTableRecord
100
AcDbLinetypeTableRecord
  2
DASHED
 70
64
  3
- - - - - - - - - - - - - - - - - - - -
 72
65
 73
2
 40
0.2
 49
0.1
 74
0
 49
-0.1
 74
0
  0
ENDTAB
  0
TABLE
  2
LAYER
  5
2
100
AcDbSymbolTable
 70
36
  0
LAYER
  5
10
100
AcDbSymbolTableRecord
100
AcDbLayerTableRecord
  2
0
 70
0
 62
7
  6
CONTINUOUS
370
-3
390
F
  0
LAYER
  5
1FA
100
AcDbSymbolTableRecord
100
AcDbLayerTableRecord
  2
DEFAULT_1
 70
0
 62
7
  6
CENTER
370
-3
390
F
  0
LAYER
  5
1FB
100
AcDbSymbolTableRecord
100
AcDbLayerTableRecord
  2
DEFAULT_2
 70
0
 62
7
  6
HIDDEN
370
-3
390
F
  0
LAYER
  5
1FC
100
AcDbSymbolTableRecord
100
AcDbLayerTableRecord
  2
DEFAULT_3
 70
0
 62
7
  6
PHANTOM
370
-3
390
F
  0
LAYER
  5
1FD
100
AcDbSymbolTableRecord
100
AcDbLayerTableRecord
  2
ASSI
 70
0
 62
7
  6
CONTINUOUS
370
-3
390
F
  0
LAYER
  5
1FE
100
AcDbSymbolTableRecord
100
AcDbLayerTableRecord
  2
COORDINATE
 70
0
 62
7
  6
CONTINUOUS
370
-3
390
F
  0
LAYER
  5
1FF
100
AcDbSymbolTableRecord
100
AcDbLayerTableRecord
  2
COPY_PUBLISH
 70
0
 62
7
  6
CONTINUOUS
370
-3
390
F
  0
LAYER
  5
200
100
AcDbSymbolTableRecord
100
AcDbLayerTableRecord
  2
COSMETICI
 70
0
 62
7
  6
CONTINUOUS
370
-3
390
F
  0
LAYER
  5
201
100
AcDbSymbolTableRecord
100
AcDbLayerTableRecord
  2
CURVE
 70
0
 62
7
  6
CONTINUOUS
370
-3
390
F
  0
LAYER
  5
202
100
AcDbSymbolTableRecord
100
AcDbLayerTableRecord
  2
DRAFT
 70
0
 62
7
  6
CONTINUOUS
370
-3
390
F
  0
LAYER
  5
203
100
AcDbSymbolTableRecord
100
AcDbLayerTableRecord
  2
IMPORT_IGES
 70
0
 62
7
  6
CONTINUOUS
370
-3
390
F
  0
LAYER
  5
204
100
AcDbSymbolTableRecord
100
AcDbLayerTableRecord
  2
NOTE
 70
0
 62
7
  6
CONTINUOUS
370
-3
390
F
  0
LAYER
  5
205
100
AcDbSymbolTableRecord
100
AcDbLayerTableRecord
  2
PIANI
 70
0
 62
7
  6
CONTINUOUS
370
-3
390
F
  0
LAYER
  5
206
100
AcDbSymbolTableRecord
100
AcDbLayerTableRecord
  2
PUNTI
 70
0
 62
7
  6
CONTINUOUS
370
-3
390
F
  0
LAYER
  5
207
100
AcDbSymbolTableRecord
100
AcDbLayerTableRecord
  2
RACCORDO
 70
0
 62
7
  6
CONTINUOUS
370
-3
390
F
  0
LAYER
  5
208
100
AcDbSymbolTableRecord
100
AcDbLayerTableRecord
  2
SIMBOLI
 70
0
 62
7
  6
CONTINUOUS
370
-3
390
F
  0
LAYER
  5
209
100
AcDbSymbolTableRecord
100
AcDbLayerTableRecord
  2
SMUSSO
 70
0
 62
7
  6
CONTINUOUS
370
-3
390
F
  0
LAYER
  5
20A
100
AcDbSymbolTableRecord
100
AcDbLayerTableRecord
  2
SUPERFICI
 70
0
 62
7
  6
CONTINUOUS
370
-3
390
F
  0
LAYER
  5
20B
100
AcDbSymbolTableRecord
100
AcDbLayerTableRecord
  2
TRASH
 70
0
 62
7
  6
CONTINUOUS
370
-3
390
F
  0
ENDTAB
  0
TABLE
  2
STYLE
  5
3
100
AcDbSymbolTable
 70
1
  0
STYLE
  5
11
100
AcDbSymbolTableRecord
100
AcDbTextStyleTableRecord
  2
STANDARD
 70
0
 40
0.0
 41
0.8
 50
0.0
 71
0
 42
0.2
  3
txt
  4

  0
STYLE
  5
20C
100
AcDbSymbolTableRecord
100
AcDbTextStyleTableRecord
  2
TEXTSTYLE_1
 70
0
 40
0.0
 41
0.8
 50
0.0
 71
0
 42
0.2
  3
gdt
  4

  0
ENDTAB
  0
TABLE
  2
VIEW
  5
6
100
AcDbSymbolTable
 70
0
  0
ENDTAB
  0
TABLE
  2
UCS
  5
7
100
AcDbSymbolTable
 70
0
  0
ENDTAB
  0
TABLE
  2
APPID
  5
9
100
AcDbSymbolTable
 70
1
  0
APPID
  5
20D
100
AcDbSymbolTableRecord
100
AcDbRegAppTableRecord
  2
ACAD
 70
0
  0
ENDTAB
  0
TABLE
  2
BLOCK_RECORD
  5
1
100
AcDbSymbolTable
 70
0
  0
BLOCK_RECORD
  5
20E
100
AcDbSymbolTableRecord
100
AcDbBlockTableRecord
  2
*Model_Space
  0
BLOCK_RECORD
  5
20F
100
AcDbSymbolTableRecord
100
AcDbBlockTableRecord
  2
*Paper_Space
  0
BLOCK_RECORD
  5
210
100
AcDbSymbolTableRecord
100
AcDbBlockTableRecord
  2
_FILLED
  0
ENDTAB
  0
TABLE
  2
DIMSTYLE
  5
A
100
AcDbSymbolTable
 70
1
100
AcDbDimStyleTable
 71
0
  0
DIMSTYLE
105
211
100
AcDbSymbolTableRecord
100
AcDbDimStyleTableRecord
  2
STANDARD
 70
0
  3

  4

 40
1.0
 41
3.0
 42
0.5
 43
0.38
 44
1.5
 45
0.0
 46
0.0
 47
0.01
 48
0.01
140
3.0
141
0.09
142
0.0
143
25.4
144
1.0
145
0.0
146
1.0
147
0.625
 71
1
 72
0
 73
0
 74
0
 75
0
 76
0
 77
1
 78
8
 79
2
170
0
171
1
172
0
173
0
174
0
175
0
176
0
177
0
178
0
270
2
179
2
271
2
272
2
273
2
274
2
275
0
280
0
281
0
282
0
283
1
284
8
285
0
286
0
287
3
288
0
340
11
278
44
341
210
342
210
343
210
344
210
  0
ENDTAB
  0
ENDSEC
  0
SECTION
  2
BLOCKS
  0
BLOCK
  5
20
100
AcDbEntity
  8
0
100
AcDbBlockBegin
  2
*Model_Space
 70
0
 10
0.0
 20
0.0
 30
0.0
  3
*Model_Space
  1

  0
ENDBLK
  5
21
100
AcDbEntity
  8
0
100
AcDbBlockEnd
  0
BLOCK
  5
1C
100
AcDbEntity
  8
0
100
AcDbBlockBegin
  2
*Paper_Space
 70
0
 10
0.0
 20
0.0
 30
0.0
  3
*Paper_Space
  1

  0
ENDBLK
  5
1D
100
AcDbEntity
  8
0
100
AcDbBlockEnd
  0
BLOCK
  5
212
100
AcDbEntity
  8
0
100
AcDbBlockBegin
  2
_FILLED
 70
64
 10
0.0
 20
0.0
  3
_FILLED
  1

  0
SOLID
  5
213
100
AcDbEntity
  8
0
  6
BYBLOCK
 62
0
100
AcDbTrace
 10
0.0
 20
0.0
 11
-1.0
 21
0.3166666667
 12
-1.0
 22
-0.3166666667
 13
-1.0
 23
-0.3166666667
  0
ENDBLK
  5
214
100
AcDbEntity
  8
0
  6
BYBLOCK
 62
0
100
AcDbBlockEnd
  0
ENDSEC
  0
SECTION
  2
ENTITIES
  0
LINE
  5
215
100
AcDbEntity
  8
0
100
AcDbLine
 62
7
  6
CONTINUOUS
 10
-27.0862948869
 20
18.7376867292
 11
-27.0486549068
 21
18.7561964872
  0
LINE
  5
216
100
AcDbEntity
  8
0
100
AcDbLine
 62
7
  6
CONTINUOUS
 10
-28.1093046317
 20
18.1437889875
 11
-28.1469550586
 21
18.1252748392
  0
LINE
  5
217
100
AcDbEntity
  8
0
100
AcDbLine
 62
7
  6
CONTINUOUS
 10
-29.5235181941
 20
17.3272398009
 11
-29.561168621
 21
17.3087256526
  0
LINE
  5
218
100
AcDbEntity
  8
0
100
AcDbLine
 62
7
  6
CONTINUOUS
 10
-30.6218287928
 20
16.6963137626
 11
-30.5841888127
 21
16.7148235206
  0
LWPOLYLINE
  5
219
100
AcDbEntity
  8
0
100
AcDbPolyline
 62
7
  6
CONTINUOUS
 90
27
 70
0
 10
-30.1971833019
 20
15.7929075241
 10
-30.0723685082
 20
15.8416070208
 10
-29.9017698001
 20
15.8960019825
 10
-29.7280065857
 20
15.9371228028
 10
-29.5509857479
 20
15.9644695372
 10
-29.370250543
 20
15.97764685
 10
-29.1849903097
 20
15.976247184
 10
-28.9947650509
 20
15.9598230313
 10
-28.7992990546
 20
15.9278396379
 10
-28.5981874866
 20
15.8795802692
 10
-28.390790201
 20
15.8142665393
 10
-28.1775135731
 20
15.7315705222
 10
-27.959653233
 20
15.6319566122
 10
-27.7372354134
 20
15.5156592859
 10
-27.5104145431
 20
15.3828440491
 10
-27.2806076148
 20
15.2345781112
 10
-27.0484501339
 20
15.0717325117
 10
-26.8136323617
 20
14.8946191587
 10
-26.5759988642
 20
14.7036972727
 10
-26.3356122805
 20
14.4997216516
 10
-26.0926312749
 20
14.2835580903
 10
-25.8469808589
 20
14.0558629322
 10
-25.5987820858
 20
13.81746808
 10
-25.3481158419
 20
13.5693249412
 10
-25.0948015823
 20
13.3122692136
 10
-24.8385324126
 20
13.0470107847
 10
-24.57969417
 20
12.7749939612
  0
LWPOLYLINE
  5
21A
100
AcDbEntity
  8
0
100
AcDbPolyline
 62
7
  6
CONTINUOUS
 90
18
 70
0
 10
-23.261929328
 20
11.3721478573
 10
-22.9947566746
 20
11.0936609323
 10
-22.7264810707
 20
10.8194654685
 10
-22.4567464197
 20
10.5507105018
 10
-22.1857170256
 20
10.2890263274
 10
-21.9143068097
 20
10.0366516463
 10
-21.642321838
 20
9.7948870206
 10
-21.3695607613
 20
9.5652505535
 10
-21.0968444164
 20
9.349986077
 10
-20.8234628052
 20
9.1499497008
 10
-20.549603499
 20
8.9666070422
 10
-20.2773831809
 20
8.8023789402
 10
-20.0064870567
 20
8.657923773
 10
-19.7368738078
 20
8.5340981385
 10
-19.471215603
 20
8.4325713317
 10
-19.2098138475
 20
8.3533198575
 10
-18.9526757181
 20
8.2961925512
 10
-18.7025176208
 20
8.2611930411
  0
LWPOLYLINE
  5
21B
100
AcDbEntity
  8
0
100
AcDbPolyline
 62
7
  6
CONTINUOUS
 90
13
 70
0
 10
-22.2140540854
 20
11.9981162318
 10
-21.9468794442
 20
11.7195007226
 10
-21.6785666818
 20
11.4450162761
 10
-21.4087799571
 20
11.1757953158
 10
-21.1377127508
 20
10.913465512
 10
-20.8662190335
 20
10.6603385736
 10
-20.5939846291
 20
10.4178098556
 10
-20.3208369273
 20
10.1873725079
 10
-20.0476740209
 20
9.9712567745
 10
-19.7738492099
 20
9.7702727729
 10
-19.4995772854
 20
9.5858439022
 10
-19.2269579386
 20
9.4205477191
 10
-19.1614567099
 20
9.385448741
  0
LWPOLYLINE
  5
21C
100
AcDbEntity
  8
0
100
AcDbPolyline
 62
7
  6
CONTINUOUS
 90
26
 70
0
 10
-23.8807810551
 20
13.4913074846
 10
-24.1393568943
 20
13.7627985795
 10
-24.4022080972
 20
14.0344944268
 10
-24.6693661263
 20
14.3049308654
 10
-24.9413879289
 20
14.5731177597
 10
-25.2192038448
 20
14.8382997544
 10
-25.5022089536
 20
15.0979663357
 10
-25.7886783992
 20
15.3485753266
 10
-26.079034294
 20
15.5886457258
 10
-26.3733140152
 20
15.8163740507
 10
-26.6692007967
 20
16.0282470743
 10
-26.9673652499
 20
16.2230578931
 10
-27.2676214052
 20
16.398967297
 10
-27.5663669853
 20
16.5525960767
 10
-27.8636267487
 20
16.6832759322
 10
-28.1592632179
 20
16.790644335
 10
-28.449327061
 20
16.873382846
 10
-28.7331895421
 20
16.9318850211
 10
-29.0108858296
 20
16.9667949325
 10
-29.2791776864
 20
16.9788484842
 10
-29.5372756479
 20
16.9698777551
 10
-29.7850080019
 20
16.9418392295
 10
-30.0199383569
 20
16.8971968855
 10
-30.2411216518
 20
16.8386458805
 10
-30.4490937436
 20
16.7685446568
 10
-30.5842464534
 20
16.7149606659
  0
LWPOLYLINE
  5
21D
100
AcDbEntity
  8
0
100
AcDbPolyline
 62
7
  6
CONTINUOUS
 90
3
 70
0
 10
-22.6400602428
 20
12.1697690778
 10
-23.1270540395
 20
12.6876522162
 10
-23.8807810551
 20
13.4913074846
  0
LWPOLYLINE
  5
21E
100
AcDbEntity
  8
0
100
AcDbPolyline
 62
7
  6
CONTINUOUS
 90
3
 70
0
 10
-24.57969417
 20
12.7749939612
 10
-23.7929121507
 20
11.9357363543
 10
-23.261929328
 20
11.3721478573
  0
LWPOLYLINE
  5
21F
100
AcDbEntity
  8
0
100
AcDbPolyline
 62
7
  6
CONTINUOUS
 90
3
 70
0
 10
-23.5309903039
 20
13.4000215797
 10
-22.7448955023
 20
12.5616041928
 10
-22.2140540854
 20
11.9981162318
  0
LINE
  5
220
100
AcDbEntity
  8
0
100
AcDbLine
 62
7
  6
CONTINUOUS
 10
-21.5857782946
 20
12.788828643
 11
-22.830834811
 21
14.1150516617
  0
LWPOLYLINE
  5
221
100
AcDbEntity
  8
0
100
AcDbPolyline
 62
7
  6
CONTINUOUS
 90
9
 70
0
 10
-19.7263954221
 20
13.4135208239
 10
-19.4592227687
 20
13.135033899
 10
-19.1909471648
 20
12.8608384352
 10
-18.9212125138
 20
12.5920834684
 10
-18.6501831196
 20
12.330399294
 10
-18.3787729038
 20
12.078024613
 10
-18.1067879321
 20
11.8362599873
 10
-17.8340268554
 20
11.6066235202
 10
-17.6203713219
 20
11.437977792
  0
LWPOLYLINE
  5
222
100
AcDbEntity
  8
0
100
AcDbPolyline
 62
7
  6
CONTINUOUS
 90
11
 70
0
 10
-20.799840523
 20
12.8146654185
 10
-20.5326658818
 20
12.5360499092
 10
-20.2643531195
 20
12.2615654627
 10
-19.9945663947
 20
11.9923445024
 10
-19.7234991884
 20
11.7300146987
 10
-19.4520054712
 20
11.4768877603
 10
-19.1797710668
 20
11.2343590422
 10
-18.9066233649
 20
11.0039216946
 10
-18.6334604585
 20
10.7878059612
 10
-18.3596356475
 20
10.5868219596
 10
-18.1645181223
 20
10.4556189395
  0
LWPOLYLINE
  5
223
100
AcDbEntity
  8
0
100
AcDbPolyline
 62
7
  6
CONTINUOUS
 90
26
 70
0
 10
-22.830834811
 20
14.1150516617
 10
-23.0901159819
 20
14.3870788554
 10
-23.3535172106
 20
14.6591344535
 10
-23.6210958521
 20
14.9297400024
 10
-23.8933917851
 20
15.1978368817
 10
-24.1713329594
 20
15.4626378713
 10
-24.4542835867
 20
15.7217261748
 10
-24.7405259829
 20
15.9716037085
 10
-25.0304784788
 20
16.2107606619
 10
-25.3242045401
 20
16.4373886584
 10
-25.6194779718
 20
16.6481234101
 10
-25.9169625566
 20
16.8418100113
 10
-26.216465395
 20
17.0166076178
 10
-26.5144560915
 20
17.1691732699
 10
-26.8109458057
 20
17.2988290715
 10
-27.1057824321
 20
17.4052531614
 10
-27.3950888163
 20
17.4872003639
 10
-27.6782228698
 20
17.5450844489
 10
-27.9552300546
 20
17.5795651254
 10
-28.2230038927
 20
17.5913159197
 10
-28.4808092383
 20
17.5820487367
 10
-28.7284300209
 20
17.5536974675
 10
-28.9634181813
 20
17.50870979
 10
-29.1848263926
 20
17.4497603636
 10
-29.3931959661
 20
17.3791810756
 10
-29.5235758296
 20
17.3273769422
  0
LWPOLYLINE
  5
224
100
AcDbEntity
  8
0
100
AcDbPolyline
 62
7
  6
CONTINUOUS
 90
26
 70
0
 10
-21.4166212486
 20
14.9316008483
 10
-21.6759024196
 20
15.2036280421
 10
-21.9393036482
 20
15.4756836401
 10
-22.2068822897
 20
15.746289189
 10
-22.4791782227
 20
16.0143860683
 10
-22.7571193971
 20
16.279187058
 10
-23.0400700243
 20
16.5382753614
 10
-23.3263124206
 20
16.7881528952
 10
-23.6162649164
 20
17.0273098485
 10
-23.9099909777
 20
17.2539378451
 10
-24.2052644095
 20
17.4646725968
 10
-24.5027489942
 20
17.6583591979
 10
-24.8022518326
 20
17.8331568044
 10
-25.1002425292
 20
17.9857224566
 10
-25.3967322434
 20
18.1153782581
 10
-25.6915688698
 20
18.221802348
 10
-25.980875254
 20
18.3037495505
 10
-26.2640093074
 20
18.3616336356
 10
-26.5410164922
 20
18.3961143121
 10
-26.8087903304
 20
18.4078651064
 10
-27.0665956759
 20
18.3985979233
 10
-27.3142164585
 20
18.3702466542
 10
-27.5492046189
 20
18.3252589767
 10
-27.7706128302
 20
18.2663095503
 10
-27.9789824037
 20
18.1957302622
 10
-28.1093622672
 20
18.1439261288
  0
LWPOLYLINE
  5
225
100
AcDbEntity
  8
0
100
AcDbPolyline
 62
7
  6
CONTINUOUS
 90
3
 70
0
 10
-22.1167767415
 20
14.2165707664
 10
-21.3306819399
 20
13.3781533795
 10
-20.799840523
 20
12.8146654185
  0
LWPOLYLINE
  5
226
100
AcDbEntity
  8
0
100
AcDbPolyline
 62
7
  6
CONTINUOUS
 90
3
 70
0
 10
-21.0441602641
 20
14.8163669279
 10
-20.2573782447
 20
13.9771093209
 10
-19.7263954221
 20
13.4135208239
  0
LINE
  5
227
100
AcDbEntity
  8
0
100
AcDbLine
 62
7
  6
CONTINUOUS
 10
-20.1715647323
 20
13.6053778296
 11
-21.4166212486
 21
14.9316008483
  0
LINE
  5
228
100
AcDbEntity
  8
0
100
AcDbLine
 62
7
  6
CONTINUOUS
 10
5.6850356408
 20
-8.3079325423
 11
5.1193502159
 21
-7.9813128677
  0
LINE
  5
229
100
AcDbEntity
  8
0
100
AcDbLine
 62
7
  6
CONTINUOUS
 10
2.0080803786
 20
-6.184904657
 11
1.4423949537
 21
-5.8582849824
  0
LINE
  5
22A
100
AcDbEntity
  8
0
100
AcDbLine
 62
7
  6
CONTINUOUS
 10
-17.8565707594
 20
6.4394150853
 11
0.4442017291
 21
-4.127221587
  0
LINE
  5
22B
100
AcDbEntity
  8
0
100
AcDbLine
 62
7
  6
CONTINUOUS
 10
6.185059801
 20
-7.4419210878
 11
25.9840496742
 21
-18.873609701
  0
LWPOLYLINE
  5
22C
100
AcDbEntity
  8
0
100
AcDbPolyline
 62
7
  6
CONTINUOUS
 90
26
 70
0
 10
-20.3452471492
 20
15.5326804513
 10
-20.6038229884
 20
15.8041715461
 10
-20.8666741913
 20
16.0758673934
 10
-21.1338322204
 20
16.3463038321
 10
-21.405854023
 20
16.6144907263
 10
-21.6836699389
 20
16.8796727211
 10
-21.9666750477
 20
17.1393393023
 10
-22.2531444933
 20
17.3899482932
 10
-22.543500388
 20
17.6300186924
 10
-22.8377801093
 20
17.8577470173
 10
-23.1336668908
 20
18.069620041
 10
-23.431831344
 20
18.2644308597
 10
-23.7320874993
 20
18.4403402637
 10
-24.0308330793
 20
18.5939690434
 10
-24.3280928428
 20
18.7246488989
 10
-24.623729312
 20
18.8320173016
 10
-24.9137931551
 20
18.9147558126
 10
-25.1976556361
 20
18.9732579878
 10
-25.4753519237
 20
19.0081678992
 10
-25.7436437804
 20
19.0202214508
 10
-26.001741742
 20
19.0112507217
 10
-26.2494740959
 20
18.9832121961
 10
-26.484404451
 20
18.9385698522
 10
-26.7055877459
 20
18.8800188471
 10
-26.9135598377
 20
18.8099176234
 10
-27.0487125475
 20
18.7563336326
  0
LWPOLYLINE
  5
22D
100
AcDbEntity
  8
0
100
AcDbPolyline
 62
7
  6
CONTINUOUS
 90
3
 70
0
 10
-19.1045263368
 20
14.2111420444
 10
-19.5915201336
 20
14.7290251828
 10
-20.3452471492
 20
15.5326804513
  0
LWPOLYLINE
  5
22E
100
AcDbEntity
  8
0
100
AcDbPolyline
 62
7
  6
CONTINUOUS
 90
12
 70
0
 10
-17.6846674472
 20
11.3368931619
 10
-17.860112262
 20
11.4589900785
 10
-18.0830156411
 20
11.6265427698
 10
-18.307673462
 20
11.8067780456
 10
-18.5342241873
 20
11.9989011864
 10
-18.7626898103
 20
12.2020989482
 10
-18.9928541062
 20
12.4153928016
 10
-19.2246215138
 20
12.6379351016
 10
-19.458345791
 20
12.8691739402
 10
-19.6938857016
 20
13.1079526628
 10
-19.931351561
 20
13.353387172
 10
-20.1715647323
 20
13.6053778296
  0
LWPOLYLINE
  5
22F
100
AcDbEntity
  8
0
100
AcDbPolyline
 62
7
  6
CONTINUOUS
 90
11
 70
0
 10
-17.0030116697
 20
12.2245000782
 10
-17.0229262131
 20
12.2394656715
 10
-17.2471156836
 20
12.4192034274
 10
-17.4730785785
 20
12.6107095582
 10
-17.7008409449
 20
12.813242669
 10
-17.9301739883
 20
13.0258682804
 10
-18.1610508741
 20
13.2476721152
 10
-18.3939089863
 20
13.4780503938
 10
-18.6285860079
 20
13.7158571443
 10
-18.8651783978
 20
13.9602338151
 10
-19.1045263368
 20
14.2111420444
  0
LWPOLYLINE
  5
230
100
AcDbEntity
  8
0
100
AcDbPolyline
 62
7
  6
CONTINUOUS
 90
16
 70
0
 10
-18.3198402567
 20
10.0835191452
 10
-18.4114060591
 20
10.122762202
 10
-18.6219426623
 20
10.2284163225
 10
-18.8363394374
 20
10.3507820524
 10
-19.053674008
 20
10.4888831679
 10
-19.2743258243
 20
10.6424408918
 10
-19.4972292034
 20
10.8099935831
 10
-19.7218870244
 20
10.990228859
 10
-19.9484377496
 20
11.1823519997
 10
-20.1769033727
 20
11.3855497615
 10
-20.4070676686
 20
11.5988436149
 10
-20.6388350762
 20
11.821385915
 10
-20.8725593533
 20
12.0526247536
 10
-21.108099264
 20
12.2914034761
 10
-21.3455651234
 20
12.5368379854
 10
-21.5857782946
 20
12.788828643
  0
LINE
  5
231
100
AcDbEntity
  8
0
100
AcDbLine
 62
7
  6
CONTINUOUS
 10
-13.8563774783
 20
13.3675067211
 11
4.4439619004
 21
2.8011201209
  0
LINE
  5
232
100
AcDbEntity
  8
0
100
AcDbLine
 62
7
  6
CONTINUOUS
 10
10.1852530821
 20
-0.5138294521
 11
29.9842429553
 21
-11.9455180652
  0
LINE
  5
233
100
AcDbEntity
  8
0
100
AcDbLine
 62
7
  6
CONTINUOUS
 10
-18.7025176208
 20
8.2611930411
 11
-18.6854895685
 21
8.2602066178
  0
LWPOLYLINE
  5
234
100
AcDbEntity
  8
0
100
AcDbPolyline
 62
7
  6
CONTINUOUS
 90
20
 70
0
 10
-18.569666643
 20
9.2541874407
 10
-18.7011098017
 20
9.2680152106
 10
-18.8831980239
 20
9.3026097503
 10
-19.0732252136
 20
9.3543591947
 10
-19.2698855883
 20
9.4236551048
 10
-19.4737222255
 20
9.5110956
 10
-19.6842739204
 20
9.6168089951
 10
-19.8985064756
 20
9.739244853
 10
-20.1155840574
 20
9.8774009473
 10
-20.3359282656
 20
10.0308620954
 10
-20.558460119
 20
10.1980927049
 10
-20.7826495895
 20
10.3778304608
 10
-21.0086124844
 20
10.5693365916
 10
-21.2363748508
 20
10.7718697024
 10
-21.4657078942
 20
10.9844953137
 10
-21.6965847801
 20
11.2062991486
 10
-21.9294428922
 20
11.4366774272
 10
-22.1641199139
 20
11.6744841777
 10
-22.4007123038
 20
11.9188608485
 10
-22.6400602428
 20
12.1697690778
  0
LWPOLYLINE
  5
235
100
AcDbEntity
  8
0
100
AcDbPolyline
 62
7
  6
CONTINUOUS
 90
17
 70
0
 10
-27.2943335063
 20
16.4127038935
 10
-27.1254937319
 20
16.3476648128
 10
-26.9079921672
 20
16.2487671288
 10
-26.6858496033
 20
16.1331969918
 10
-26.459233888
 20
16.0010928604
 10
-26.2296097787
 20
15.8535109791
 10
-25.9976191592
 20
15.6913021405
 10
-25.7629365665
 20
15.5147667546
 10
-25.5254389164
 20
15.3244466871
 10
-25.2852070852
 20
15.1210862625
 10
-25.0424087783
 20
14.9055158757
 10
-24.7969878829
 20
14.6783721279
 10
-24.5490423615
 20
14.4405087977
 10
-24.2986101601
 20
14.1929076139
 10
-24.0455250038
 20
13.9363750266
 10
-23.7895185472
 20
13.6716064046
 10
-23.5309903039
 20
13.4000215797
  0
LINE
  5
236
100
AcDbEntity
  8
0
100
AcDbLine
 62
7
  6
CONTINUOUS
 10
10.6852772422
 20
0.3521820024
 11
10.1195918173
 21
0.6788016771
  0
LINE
  5
237
100
AcDbEntity
  8
0
100
AcDbLine
 62
7
  6
CONTINUOUS
 10
7.00832198
 20
2.4752098877
 11
6.4426365551
 21
2.8018295624
  0
LWPOLYLINE
  5
238
100
AcDbEntity
  8
0
100
AcDbPolyline
 62
7
  6
CONTINUOUS
 90
17
 70
0
 10
-24.8177919769
 20
17.8411130671
 10
-24.6419796672
 20
17.7729434888
 10
-24.4241193271
 20
17.6733295789
 10
-24.2017015075
 20
17.5570322525
 10
-23.9748806372
 20
17.4242170157
 10
-23.7450737089
 20
17.2759510778
 10
-23.512916228
 20
17.1131054783
 10
-23.2780984558
 20
16.9359921254
 10
-23.0404649583
 20
16.7450702393
 10
-22.8000783746
 20
16.5410946183
 10
-22.5570973689
 20
16.324931057
 10
-22.3114469529
 20
16.0972358989
 10
-22.0632481798
 20
15.8588410466
 10
-21.812581936
 20
15.6106979078
 10
-21.5592676764
 20
15.3536421802
 10
-21.3029985067
 20
15.0883837514
 10
-21.0441602641
 20
14.8163669279
  0
LWPOLYLINE
  5
239
100
AcDbEntity
  8
0
100
AcDbPolyline
 62
7
  6
CONTINUOUS
 90
23
 70
0
 10
-27.0728821259
 20
17.3933774823
 10
-26.9013567547
 20
17.4063428809
 10
-26.7164843067
 20
17.4055044744
 10
-26.5267165453
 20
17.3897450457
 10
-26.3317492184
 20
17.3584356472
 10
-26.1311135414
 20
17.3108500107
 10
-25.9241507667
 20
17.2462142746
 10
-25.7112801695
 20
17.1642139994
 10
-25.4937786048
 20
17.0653163154
 10
-25.271636041
 20
16.9497461785
 10
-25.0450203256
 20
16.8176420471
 10
-24.8153962163
 20
16.6700601657
 10
-24.5834055969
 20
16.5078513272
 10
-24.3487230041
 20
16.3313159413
 10
-24.111225354
 20
16.1409958737
 10
-23.8709935228
 20
15.9376354492
 10
-23.6281952159
 20
15.7220650623
 10
-23.3827743206
 20
15.4949213145
 10
-23.1348287991
 20
15.2570579843
 10
-22.8843965977
 20
15.0094568006
 10
-22.6313114414
 20
14.7529242133
 10
-22.3753049848
 20
14.4881555913
 10
-22.1167767415
 20
14.2165707664
  0
ARC
  5
23A
100
AcDbEntity
  8
0
100
AcDbCircle
 62
7
  6
CONTINUOUS
 10
-26.9176724031
 20
18.4460255993
 40
0.3368972495
100
AcDbArc
 50
120.0341480977
 51
127.4627171553
  0
ARC
  5
23B
100
AcDbEntity
  8
0
100
AcDbCircle
 62
7
  6
CONTINUOUS
 10
-29.3925461372
 20
17.0170645227
 40
0.3368972495
100
AcDbArc
 50
120.0341480977
 51
127.4627171553
  0
ARC
  5
23C
100
AcDbEntity
  8
0
100
AcDbCircle
 62
7
  6
CONTINUOUS
 10
-27.9783325749
 20
17.8336137093
 40
0.3368972495
100
AcDbArc
 50
120.0341480977
 51
127.4627171553
  0
ARC
  5
23D
100
AcDbEntity
  8
0
100
AcDbCircle
 62
7
  6
CONTINUOUS
 10
-30.453206309
 20
16.4046526327
 40
0.3368972495
100
AcDbArc
 50
120.0341480977
 51
127.4627171553
  0
SPLINE
  5
23E
100
AcDbEntity
  8
0
100
AcDbSpline
 62
7
  6
CONTINUOUS
 70
0
 71
3
 72
12
 73
8
 74
0
 42
0.0000001
 43
0.0000001
 44
0.0000000001
 40
0.0
 40
0.0
 40
0.0
 40
0.0
 40
0.2895520446
 40
0.5486467753
 40
0.7816283508
 40
0.8918367633
 40
1.0
 40
1.0
 40
1.0
 40
1.0
 10
-18.6849012436
 20
8.2703625299
 30
0.0
 10
-18.6849012436
 20
8.067663251
 30
0.0
 10
-18.6541546069
 20
7.6822212789
 30
0.0
 10
-18.4983812905
 20
7.1529166921
 30
0.0
 10
-18.274333222
 20
6.7877817661
 30
0.0
 10
-18.0482368708
 20
6.5652630634
 30
0.0
 10
-17.9221336526
 20
6.4772958921
 30
0.0
 10
-17.856559808
 20
6.4394349926
 30
0.0
  0
SPLINE
  5
23F
100
AcDbEntity
  8
0
100
AcDbSpline
 62
7
  6
CONTINUOUS
 70
0
 71
3
 72
13
 73
9
 74
0
 42
0.0000001
 43
0.0000001
 44
0.0000000001
 40
0.0
 40
0.0
 40
0.0
 40
0.0
 40
0.1080965419
 40
0.2182369985
 40
0.3322620964
 40
0.4516915272
 40
0.7106264968
 40
1.0
 40
1.0
 40
1.0
 40
1.0
 10
5.1193639051
 20
-7.9812879835
 30
0.0
 10
5.0373965994
 20
-7.9339618592
 30
0.0
 10
4.8797647153
 20
-7.8240299216
 30
0.0
 10
4.6715995366
 20
-7.619020634
 30
0.0
 10
4.4924845386
 20
-7.3758225569
 30
0.0
 10
4.289399318
 20
-6.9940211239
 30
0.0
 10
4.1221277777
 20
-6.4275372287
 30
0.0
 10
4.0839371106
 20
-5.9460026606
 30
0.0
 10
4.0839371106
 20
-5.6926285619
 30
0.0
  0
SPLINE
  5
240
100
AcDbEntity
  8
0
100
AcDbSpline
 62
7
  6
CONTINUOUS
 70
0
 71
3
 72
11
 73
7
 74
0
 42
0.0000001
 43
0.0000001
 44
0.0000000001
 40
0.0
 40
0.0
 40
0.0
 40
0.0
 40
0.2257636387
 40
0.4625306387
 40
0.7188518079
 40
1.0
 40
1.0
 40
1.0
 40
1.0
 10
10.685263553
 20
0.3521571182
 30
0.0
 10
10.8199419712
 20
0.2743967538
 30
0.0
 10
11.0743325762
 20
0.074647975
 30
0.0
 10
11.3712327231
 20
-0.3278925178
 30
0.0
 10
11.5819941163
 20
-0.8221134332
 30
0.0
 10
11.6593035596
 20
-1.1864407427
 30
0.0
 10
11.6849313493
 20
-1.3784038265
 30
0.0
  0
SPLINE
  5
241
100
AcDbEntity
  8
0
100
AcDbSpline
 62
7
  6
CONTINUOUS
 70
0
 71
3
 72
22
 73
18
 74
0
 42
0.0000001
 43
0.0000001
 44
0.0000000001
 40
0.0
 40
0.0
 40
0.0
 40
0.0
 40
0.042820315
 40
0.0874103152
 40
0.1351963192
 40
0.1871157829
 40
0.2435685685
 40
0.3045358616
 40
0.3696446503
 40
0.4382605643
 40
0.5824767415
 40
0.6562364561
 40
0.7296238457
 40
0.8016045277
 40
0.8712512193
 40
0.9376795798
 40
1.0
 40
1.0
 40
1.0
 40
1.0
 10
25.9841213226
 20
-18.8734837326
 30
0.0
 10
26.0827326772
 20
-18.9304269972
 30
0.0
 10
26.300039483
 20
-19.0210034764
 30
0.0
 10
26.6589228608
 20
-19.0733377059
 30
0.0
 10
27.044261783
 20
-19.0451816137
 30
0.0
 10
27.4474933517
 20
-18.937835397
 30
0.0
 10
27.8608513205
 20
-18.7553105179
 30
0.0
 10
28.2758920784
 20
-18.5012582274
 30
0.0
 10
28.6844236011
 20
-18.1815107439
 30
0.0
 10
29.2174254621
 20
-17.6680409724
 30
0.0
 10
29.6895118513
 20
-17.0635930203
 30
0.0
 10
30.0865725367
 20
-16.3975574924
 30
0.0
 10
30.3421021146
 20
-15.872982648
 30
0.0
 10
30.5471341271
 20
-15.33844426
 30
0.0
 10
30.6976752296
 20
-14.8051395548
 30
0.0
 10
30.7898551784
 20
-14.2847803215
 30
0.0
 10
30.8125734395
 20
-13.9421934859
 30
0.0
 10
30.8125734395
 20
-13.7764655098
 30
0.0
  0
SPLINE
  5
242
100
AcDbEntity
  8
0
100
AcDbSpline
 62
7
  6
CONTINUOUS
 70
0
 71
3
 72
10
 73
6
 74
0
 42
0.0000001
 43
0.0000001
 44
0.0000000001
 40
0.0
 40
0.0
 40
0.0
 40
0.0
 40
0.5195670966
 40
0.764217532
 40
1.0
 40
1.0
 40
1.0
 40
1.0
 10
-27.2774920144
 20
18.374607188
 30
0.0
 10
-27.2765222112
 20
18.441037722
 30
0.0
 10
-27.2566643892
 20
18.5405666993
 30
0.0
 10
-27.1905603806
 20
18.6511077303
 30
0.0
 10
-27.146527755
 20
18.695109441
 30
0.0
 10
-27.1225884903
 20
18.7134375548
 30
0.0
  0
SPLINE
  5
243
100
AcDbEntity
  8
0
100
AcDbSpline
 62
7
  6
CONTINUOUS
 70
0
 71
3
 72
21
 73
17
 74
0
 42
0.0000001
 43
0.0000001
 44
0.0000000001
 40
0.0
 40
0.0
 40
0.0
 40
0.0
 40
0.0624034335
 40
0.1287821936
 40
0.198400695
 40
0.2704111081
 40
0.4174532631
 40
0.5616877243
 40
0.6303158644
 40
0.6954323964
 40
0.756406021
 40
0.812866622
 40
0.8647883191
 40
0.9125825543
 40
0.9571750328
 40
1.0
 40
1.0
 40
1.0
 40
1.0
 10
0.4069818485
 20
-3.5696006766
 30
0.0
 10
0.4069818485
 20
-3.3621843943
 30
0.0
 10
0.4351095514
 20
-2.9338534147
 30
0.0
 10
0.5507254797
 20
-2.2835156412
 30
0.0
 10
0.7387858927
 20
-1.6170724352
 30
0.0
 10
1.0829300367
 20
-0.7202663042
 30
0.0
 10
1.6606263633
 20
0.3469372055
 30
0.0
 10
2.4009932716
 20
1.2950223887
 30
0.0
 10
3.0673852965
 20
1.9369266075
 30
0.0
 10
3.5780327198
 20
2.3366557356
 30
0.0
 10
4.0969335777
 20
2.6540761967
 30
0.0
 10
4.6135875368
 20
2.8823676381
 30
0.0
 10
5.1176991636
 20
3.0162628939
 30
0.0
 10
5.5993715521
 20
3.0516735241
 30
0.0
 10
6.0479207724
 20
2.9858840504
 30
0.0
 10
6.3196155424
 20
2.8728631077
 30
0.0
 10
6.4428790159
 20
2.8016787992
 30
0.0
  0
SPLINE
  5
244
100
AcDbEntity
  8
0
100
AcDbSpline
 62
7
  6
CONTINUOUS
 70
0
 71
3
 72
12
 73
8
 74
0
 42
0.0000001
 43
0.0000001
 44
0.0000000001
 40
0.0
 40
0.0
 40
0.0
 40
0.0
 40
0.2827618374
 40
0.5395601232
 40
0.7754279251
 40
0.8884875895
 40
1.0
 40
1.0
 40
1.0
 40
1.0
 10
4.1091202733
 20
-6.141530601
 30
0.0
 10
3.921560087
 20
-6.2252136164
 30
0.0
 10
3.5501065574
 20
-6.3576322663
 30
0.0
 10
2.9887608465
 20
-6.4399935049
 30
0.0
 10
2.5452191078
 20
-6.3977845014
 30
0.0
 10
2.2254411159
 20
-6.2965921636
 30
0.0
 10
2.0779781661
 20
-6.2252596895
 30
0.0
 10
2.0078379179
 20
-6.1847538939
 30
0.0
  0
SPLINE
  5
245
100
AcDbEntity
  8
0
100
AcDbSpline
 62
7
  6
CONTINUOUS
 70
0
 71
3
 72
10
 73
6
 74
0
 42
0.0000001
 43
0.0000001
 44
0.0000000001
 40
0.0
 40
0.0
 40
0.0
 40
0.0
 40
0.2357839907
 40
0.4804348314
 40
1.0
 40
1.0
 40
1.0
 40
1.0
 10
-29.5974622245
 20
17.2844764781
 30
0.0
 10
-29.6213990187
 20
17.2661502558
 30
0.0
 10
-29.6654274896
 20
17.2221539177
 30
0.0
 10
-29.7315282665
 20
17.11162761
 30
0.0
 10
-29.7513902275
 20
17.0121116153
 30
0.0
 10
-29.7523651253
 20
16.9456886883
 30
0.0
  0
SPLINE
  5
246
100
AcDbEntity
  8
0
100
AcDbSpline
 62
7
  6
CONTINUOUS
 70
0
 71
3
 72
11
 73
7
 74
0
 42
0.0000001
 43
0.0000001
 44
0.0000000001
 40
0.0
 40
0.0
 40
0.0
 40
0.0
 40
0.2294931786
 40
0.472542404
 40
0.7307287651
 40
1.0
 40
1.0
 40
1.0
 40
1.0
 10
-28.1832486621
 20
18.1010256648
 30
0.0
 10
-28.2172622887
 20
18.07498453
 30
0.0
 10
-28.2775157601
 20
18.0075683046
 30
0.0
 10
-28.3301869076
 20
17.8794056883
 30
0.0
 10
-28.3444201352
 20
17.7344921713
 30
0.0
 10
-28.3279507862
 20
17.6361433271
 30
0.0
 10
-28.313623299
 20
17.5879658776
 30
0.0
  0
SPLINE
  5
247
100
AcDbEntity
  8
0
100
AcDbSpline
 62
7
  6
CONTINUOUS
 70
0
 71
3
 72
12
 73
8
 74
0
 42
0.0000001
 43
0.0000001
 44
0.0000000001
 40
0.0
 40
0.0
 40
0.0
 40
0.0
 40
0.289320914
 40
0.5486971631
 40
0.7816652431
 40
0.8918364221
 40
1.0
 40
1.0
 40
1.0
 40
1.0
 10
30.8125734395
 20
-13.7764655098
 30
0.0
 10
30.8125734395
 20
-13.5739320364
 30
0.0
 10
30.7815661491
 20
-13.1885021134
 30
0.0
 10
30.6261711772
 20
-12.6590912217
 30
0.0
 10
30.4020497385
 20
-12.2937668974
 30
0.0
 10
30.1758433706
 20
-12.0714165505
 30
0.0
 10
30.0497419797
 20
-11.9835079104
 30
0.0
 10
29.9841713069
 20
-11.9456440337
 30
0.0
  0
SPLINE
  5
248
100
AcDbEntity
  8
0
100
AcDbSpline
 62
7
  6
CONTINUOUS
 70
0
 71
3
 72
11
 73
7
 74
0
 42
0.0000001
 43
0.0000001
 44
0.0000000001
 40
0.0
 40
0.0
 40
0.0
 40
0.0
 40
0.2810320218
 40
0.5374260345
 40
0.7742195855
 40
1.0
 40
1.0
 40
1.0
 40
1.0
 10
7.6836028665
 20
-8.3085072034
 30
0.0
 10
7.5046118282
 20
-8.382248223
 30
0.0
 10
7.1504461645
 20
-8.4973583604
 30
0.0
 10
6.6170829393
 20
-8.5620258432
 30
0.0
 10
6.1199376864
 20
-8.506140529
 30
0.0
 10
5.8197375935
 20
-8.3856737069
 30
0.0
 10
5.6850493301
 20
-8.3079076582
 30
0.0
  0
SPLINE
  5
249
100
AcDbEntity
  8
0
100
AcDbSpline
 62
7
  6
CONTINUOUS
 70
0
 71
3
 72
22
 73
18
 74
0
 42
0.0000001
 43
0.0000001
 44
0.0000000001
 40
0.0
 40
0.0
 40
0.0
 40
0.0
 40
0.0623794117
 40
0.1287664134
 40
0.1983710028
 40
0.2703673333
 40
0.4173881907
 40
0.490434423
 40
0.5617428137
 40
0.6303620611
 40
0.6954686279
 40
0.7564352685
 40
0.8128904706
 40
0.8648052764
 40
0.9125944144
 40
0.957181725
 40
1.0
 40
1.0
 40
1.0
 40
1.0
 10
4.0839371106
 20
-5.6926285619
 30
0.0
 10
4.0839371106
 20
-5.485268999
 30
0.0
 10
4.112115888
 20
-5.0569463112
 30
0.0
 10
4.2276429158
 20
-4.406627523
 30
0.0
 10
4.4157052215
 20
-3.7401424806
 30
0.0
 10
4.7598362114
 20
-2.8435369461
 30
0.0
 10
5.2245858597
 20
-1.9846688434
 30
0.0
 10
5.7900086539
 20
-1.1971755965
 30
0.0
 10
6.2524976508
 20
-0.6598057022
 30
0.0
 10
6.7441685039
 20
-0.1862571987
 30
0.0
 10
7.2547858463
 20
0.213448343
 30
0.0
 10
7.773653651
 20
0.5309156106
 30
0.0
 10
8.2902822071
 20
0.7592666128
 30
0.0
 10
8.7943928889
 20
0.8931591331
 30
0.0
 10
9.2760536966
 20
0.9286504798
 30
0.0
 10
9.7246041979
 20
0.8629157085
 30
0.0
 10
9.9963138132
 20
0.7499469044
 30
0.0
 10
10.119578128
 20
0.6787767929
 30
0.0
  0
SPLINE
  5
24A
100
AcDbEntity
  8
0
100
AcDbSpline
 62
7
  6
CONTINUOUS
 70
0
 71
3
 72
20
 73
16
 74
0
 42
0.0000001
 43
0.0000001
 44
0.0000000001
 40
0.0
 40
0.0
 40
0.0
 40
0.0
 40
0.04283077
 40
0.0874310918
 40
0.1352341753
 40
0.1871641307
 40
0.2436358072
 40
0.3046202387
 40
0.3697458046
 40
0.438385076
 40
0.5826402372
 40
0.7297039974
 40
0.8711960107
 40
0.9376023851
 40
1.0
 40
1.0
 40
1.0
 40
1.0
 10
-13.8563884297
 20
13.3674868137
 30
0.0
 10
-13.9549998815
 20
13.4244229029
 30
0.0
 10
-14.1723675783
 20
13.5147979454
 30
0.0
 10
-14.5312079575
 20
13.5673857664
 30
0.0
 10
-14.9165366927
 20
13.5389926728
 30
0.0
 10
-15.3198248628
 20
13.4318787251
 30
0.0
 10
-15.7331292937
 20
13.2491976337
 30
0.0
 10
-16.1482169072
 20
12.9952250304
 30
0.0
 10
-16.5567380313
 20
12.6754556209
 30
0.0
 10
-17.0897858991
 20
12.1619390369
 30
0.0
 10
-17.6821974515
 20
11.4033069432
 30
0.0
 10
-18.2320805634
 20
10.3871048937
 30
0.0
 10
-18.5363972853
 20
9.4874870325
 30
0.0
 10
-18.6623700789
 20
8.7789267763
 30
0.0
 10
-18.6849012436
 20
8.4362501802
 30
0.0
 10
-18.6849012436
 20
8.2703625299
 30
0.0
  0
SPLINE
  5
24B
100
AcDbEntity
  8
0
100
AcDbSpline
 62
7
  6
CONTINUOUS
 70
0
 71
3
 72
11
 73
7
 74
0
 42
0.0000001
 43
0.0000001
 44
0.0000000001
 40
0.0
 40
0.0
 40
0.0
 40
0.0
 40
0.224108498
 40
0.4601087191
 40
0.717016467
 40
1.0
 40
1.0
 40
1.0
 40
1.0
 10
7.0085644408
 20
2.4750591246
 30
0.0
 10
7.1494171138
 20
2.3937171029
 30
0.0
 10
7.4149473579
 20
2.182217775
 30
0.0
 10
7.7194200184
 20
1.7532462829
 30
0.0
 10
7.9289828866
 20
1.2258615134
 30
0.0
 10
7.9998933401
 20
0.8380499701
 30
0.0
 10
8.0211676267
 20
0.6337715661
 30
0.0
  0
SPLINE
  5
24C
100
AcDbEntity
  8
0
100
AcDbSpline
 62
7
  6
CONTINUOUS
 70
0
 71
3
 72
13
 73
9
 74
0
 42
0.0000001
 43
0.0000001
 44
0.0000000001
 40
0.0
 40
0.0
 40
0.0
 40
0.0
 40
0.1080942162
 40
0.2182286509
 40
0.3322594604
 40
0.4517095816
 40
0.7105952878
 40
1.0
 40
1.0
 40
1.0
 40
1.0
 10
1.4421524929
 20
-5.8581342192
 30
0.0
 10
1.3601996956
 20
-5.8108067097
 30
0.0
 10
1.2026505755
 20
-5.700809006
 30
0.0
 10
0.9944587562
 20
-5.4958777563
 30
0.0
 10
0.8154320805
 20
-5.2526234138
 30
0.0
 10
0.6124158421
 20
-4.8708675318
 30
0.0
 10
0.4451241691
 20
-4.304450827
 30
0.0
 10
0.4069818485
 20
-3.8229757697
 30
0.0
 10
0.4069818485
 20
-3.5696006766
 30
0.0
  0
SPLINE
  5
24D
100
AcDbEntity
  8
0
100
AcDbSpline
 62
7
  6
CONTINUOUS
 70
0
 71
3
 72
16
 73
12
 74
0
 42
0.0000001
 43
0.0000001
 44
0.0000000001
 40
0.0
 40
0.0
 40
0.0
 40
0.0
 40
0.0559073931
 40
0.1127036744
 40
0.2311499464
 40
0.3586778272
 40
0.4931232135
 40
0.6292836966
 40
0.7612586018
 40
0.8848733297
 40
1.0
 40
1.0
 40
1.0
 40
1.0
 10
-30.1971915749
 20
15.7929269825
 30
0.0
 10
-30.2201674967
 20
15.7833071674
 30
0.0
 10
-30.2688500103
 20
15.7690789401
 30
0.0
 10
-30.3723646937
 20
15.7627185629
 30
0.0
 10
-30.506474148
 20
15.7986220614
 30
0.0
 10
-30.6461787797
 20
15.8999916739
 30
0.0
 10
-30.7521435336
 20
16.0456186332
 30
0.0
 10
-30.8119801189
 20
16.2174652733
 30
0.0
 10
-30.8181794713
 20
16.3947821503
 30
0.0
 10
-30.769022816
 20
16.5560475495
 30
0.0
 10
-30.6988492962
 20
16.6408837117
 30
0.0
 10
-30.6581223962
 20
16.6720645881
 30
0.0
  0
SPLINE
  5
24E
100
AcDbEntity
  8
0
100
AcDbSpline
 62
7
  6
CONTINUOUS
 70
0
 71
3
 72
21
 73
17
 74
0
 42
0.0000001
 43
0.0000001
 44
0.0000000001
 40
0.0
 40
0.0
 40
0.0
 40
0.0
 40
0.0624034335
 40
0.1287821936
 40
0.198400695
 40
0.2704111081
 40
0.4174532631
 40
0.5616877243
 40
0.6303158644
 40
0.6954323964
 40
0.756406021
 40
0.812866622
 40
0.8647883191
 40
0.9125825543
 40
0.9571750328
 40
1.0
 40
1.0
 40
1.0
 40
1.0
 10
0.9726672734
 20
-3.8962203513
 30
0.0
 10
0.9726672734
 20
-3.688804069
 30
0.0
 10
1.0007949764
 20
-3.2604730894
 30
0.0
 10
1.1164109046
 20
-2.6101353159
 30
0.0
 10
1.3044713177
 20
-1.9436921098
 30
0.0
 10
1.6486154617
 20
-1.0468859788
 30
0.0
 10
2.2263117882
 20
0.0203175308
 30
0.0
 10
2.9666786965
 20
0.968402714
 30
0.0
 10
3.6330707215
 20
1.6103069329
 30
0.0
 10
4.1437181447
 20
2.010036061
 30
0.0
 10
4.6626190027
 20
2.3274565221
 30
0.0
 10
5.1792729617
 20
2.5557479634
 30
0.0
 10
5.6833845886
 20
2.6896432192
 30
0.0
 10
6.165056977
 20
2.7250538494
 30
0.0
 10
6.6136061974
 20
2.6592643758
 30
0.0
 10
6.8853009674
 20
2.5462434331
 30
0.0
 10
7.0085644408
 20
2.4750591246
 30
0.0
  0
SPLINE
  5
24F
100
AcDbEntity
  8
0
100
AcDbSpline
 62
7
  6
CONTINUOUS
 70
0
 71
3
 72
12
 73
8
 74
0
 42
0.0000001
 43
0.0000001
 44
0.0000000001
 40
0.0
 40
0.0
 40
0.0
 40
0.0
 40
0.1081632367
 40
0.2183716492
 40
0.4513532247
 40
0.7104479554
 40
1.0
 40
1.0
 40
1.0
 40
1.0
 10
6.1850707524
 20
-7.4419011805
 30
0.0
 10
6.1194969078
 20
-7.404040281
 30
0.0
 10
5.9933936895
 20
-7.3160731097
 30
0.0
 10
5.7672973384
 20
-7.093554407
 30
0.0
 10
5.5432492699
 20
-6.728419481
 30
0.0
 10
5.3874759535
 20
-6.1991148942
 30
0.0
 10
5.3567293168
 20
-5.8136729222
 30
0.0
 10
5.3567293168
 20
-5.6109736433
 30
0.0
  0
SPLINE
  5
250
100
AcDbEntity
  8
0
100
AcDbSpline
 62
7
  6
CONTINUOUS
 70
0
 71
3
 72
20
 73
16
 74
0
 42
0.0000001
 43
0.0000001
 44
0.0000000001
 40
0.0
 40
0.0
 40
0.0
 40
0.0
 40
0.0623976149
 40
0.1288039893
 40
0.2702960026
 40
0.4173597628
 40
0.561614924
 40
0.6302541954
 40
0.6953797613
 40
0.7563641928
 40
0.8128358693
 40
0.8647658247
 40
0.9125689082
 40
0.95716923
 40
1.0
 40
1.0
 40
1.0
 40
1.0
 10
5.3567293168
 20
-5.6109736433
 30
0.0
 10
5.3567293168
 20
-5.4450859929
 30
0.0
 10
5.3792604814
 20
-5.1024093968
 30
0.0
 10
5.505233275
 20
-4.3938491406
 30
0.0
 10
5.8095499969
 20
-3.4942312794
 30
0.0
 10
6.3594331089
 20
-2.47802923
 30
0.0
 10
6.9518446612
 20
-1.7193971362
 30
0.0
 10
7.4848925291
 20
-1.2058805523
 30
0.0
 10
7.8934136531
 20
-0.8861111427
 30
0.0
 10
8.3085012666
 20
-0.6321385394
 30
0.0
 10
8.7218056976
 20
-0.449457448
 30
0.0
 10
9.1250938676
 20
-0.3423435004
 30
0.0
 10
9.5104226028
 20
-0.3139504068
 30
0.0
 10
9.869262982
 20
-0.3665382278
 30
0.0
 10
10.0866306788
 20
-0.4569132702
 30
0.0
 10
10.1852421307
 20
-0.5138493594
 30
0.0
  0
SPLINE
  5
251
100
AcDbEntity
  8
0
100
AcDbSpline
 62
7
  6
CONTINUOUS
 70
0
 71
3
 72
12
 73
8
 74
0
 42
0.0000001
 43
0.0000001
 44
0.0000000001
 40
0.0
 40
0.0
 40
0.0
 40
0.0
 40
0.289320914
 40
0.5486971631
 40
0.7816652431
 40
0.8918364221
 40
1.0
 40
1.0
 40
1.0
 40
1.0
 10
25.15571919
 20
-17.0426622564
 30
0.0
 10
25.15571919
 20
-17.2451957299
 30
0.0
 10
25.1867264804
 20
-17.6306256529
 30
0.0
 10
25.3421214523
 20
-18.1600365446
 30
0.0
 10
25.566242891
 20
-18.5253608689
 30
0.0
 10
25.7924492589
 20
-18.7477112157
 30
0.0
 10
25.9185506498
 20
-18.8356198559
 30
0.0
 10
25.9841213226
 20
-18.8734837326
 30
0.0
  0
SPLINE
  5
252
100
AcDbEntity
  8
0
100
AcDbSpline
 62
7
  6
CONTINUOUS
 70
0
 71
3
 72
22
 73
18
 74
0
 42
0.0000001
 43
0.0000001
 44
0.0000000001
 40
0.0
 40
0.0
 40
0.0
 40
0.0
 40
0.0623794117
 40
0.1287664134
 40
0.1983710028
 40
0.2703673333
 40
0.4173881907
 40
0.490434423
 40
0.5617428137
 40
0.6303620611
 40
0.6954686279
 40
0.7564352685
 40
0.8128904706
 40
0.8648052764
 40
0.9125944144
 40
0.957181725
 40
1.0
 40
1.0
 40
1.0
 40
1.0
 10
4.6496225356
 20
-6.0192482366
 30
0.0
 10
4.6496225356
 20
-5.8118886737
 30
0.0
 10
4.6778013129
 20
-5.3835659858
 30
0.0
 10
4.7933283407
 20
-4.7332471977
 30
0.0
 10
4.9813906464
 20
-4.0667621552
 30
0.0
 10
5.3255216363
 20
-3.1701566208
 30
0.0
 10
5.7902712847
 20
-2.3112885181
 30
0.0
 10
6.3556940788
 20
-1.5237952711
 30
0.0
 10
6.8181830757
 20
-0.9864253769
 30
0.0
 10
7.3098539289
 20
-0.5128768733
 30
0.0
 10
7.8204712713
 20
-0.1131713316
 30
0.0
 10
8.339339076
 20
0.204295936
 30
0.0
 10
8.855967632
 20
0.4326469382
 30
0.0
 10
9.3600783138
 20
0.5665394584
 30
0.0
 10
9.8417391216
 20
0.6020308051
 30
0.0
 10
10.2902896229
 20
0.5362960338
 30
0.0
 10
10.5619992381
 20
0.4233272297
 30
0.0
 10
10.685263553
 20
0.3521571182
 30
0.0
  0
SPLINE
  5
253
100
AcDbEntity
  8
0
100
AcDbSpline
 62
7
  6
CONTINUOUS
 70
0
 71
3
 72
9
 73
5
 74
0
 42
0.0000001
 43
0.0000001
 44
0.0000000001
 40
0.0
 40
0.0
 40
0.0
 40
0.0
 40
0.4945573353
 40
1.0
 40
1.0
 40
1.0
 40
1.0
 10
5.6850493301
 20
-8.3079076582
 30
0.0
 10
5.5964142048
 20
-8.2567316811
 30
0.0
 10
5.4264162614
 20
-8.1364007949
 30
0.0
 10
5.2811289625
 20
-7.9873599917
 30
0.0
 10
5.2145570349
 20
-7.9066782637
 30
0.0
  0
SPLINE
  5
254
100
AcDbEntity
  8
0
100
AcDbSpline
 62
7
  6
CONTINUOUS
 70
0
 71
3
 72
11
 73
7
 74
0
 42
0.0000001
 43
0.0000001
 44
0.0000000001
 40
0.0
 40
0.0
 40
0.0
 40
0.0
 40
0.2214981374
 40
0.460165897
 40
0.7194580221
 40
1.0
 40
1.0
 40
1.0
 40
1.0
 10
5.2145570349
 20
-7.9066782637
 30
0.0
 10
5.1202707625
 20
-7.7924081852
 30
0.0
 10
4.9520178568
 20
-7.5313162588
 30
0.0
 10
4.7762687834
 20
-7.0806167169
 30
0.0
 10
4.6711514472
 20
-6.568524984
 30
0.0
 10
4.6496225356
 20
-6.2068862471
 30
0.0
 10
4.6496225356
 20
-6.0192482366
 30
0.0
  0
SPLINE
  5
255
100
AcDbEntity
  8
0
100
AcDbSpline
 62
7
  6
CONTINUOUS
 70
0
 71
3
 72
22
 73
18
 74
0
 42
0.0000001
 43
0.0000001
 44
0.0000000001
 40
0.0
 40
0.0
 40
0.0
 40
0.0
 40
0.042820315
 40
0.0874103152
 40
0.1351963192
 40
0.1871157829
 40
0.2435685685
 40
0.3045358616
 40
0.3696446503
 40
0.4382605643
 40
0.5824767415
 40
0.6562364561
 40
0.7296238457
 40
0.8016045277
 40
0.8712512193
 40
0.9376795798
 40
1.0
 40
1.0
 40
1.0
 40
1.0
 10
29.9841713069
 20
-11.9456440337
 30
0.0
 10
29.8855599523
 20
-11.8887007691
 30
0.0
 10
29.6682531465
 20
-11.7981242899
 30
0.0
 10
29.3093697686
 20
-11.7457900603
 30
0.0
 10
28.9240308465
 20
-11.7739461526
 30
0.0
 10
28.5207992777
 20
-11.8812923692
 30
0.0
 10
28.107441309
 20
-12.0638172484
 30
0.0
 10
27.6924005511
 20
-12.3178695389
 30
0.0
 10
27.2838690284
 20
-12.6376170224
 30
0.0
 10
26.7508671674
 20
-13.1510867938
 30
0.0
 10
26.2787807782
 20
-13.755534746
 30
0.0
 10
25.8817200927
 20
-14.4215702739
 30
0.0
 10
25.6261905149
 20
-14.9461451182
 30
0.0
 10
25.4211585024
 20
-15.4806835063
 30
0.0
 10
25.2706173998
 20
-16.0139882114
 30
0.0
 10
25.1784374511
 20
-16.5343474448
 30
0.0
 10
25.15571919
 20
-16.8769342803
 30
0.0
 10
25.15571919
 20
-17.0426622564
 30
0.0
  0
SPLINE
  5
256
100
AcDbEntity
  8
0
100
AcDbSpline
 62
7
  6
CONTINUOUS
 70
0
 71
3
 72
13
 73
9
 74
0
 42
0.0000001
 43
0.0000001
 44
0.0000000001
 40
0.0
 40
0.0
 40
0.0
 40
0.0
 40
0.1080942162
 40
0.2182286509
 40
0.3322594604
 40
0.4517095816
 40
0.7105952878
 40
1.0
 40
1.0
 40
1.0
 40
1.0
 10
2.0078379179
 20
-6.1847538939
 30
0.0
 10
1.9258851205
 20
-6.1374263844
 30
0.0
 10
1.7683360004
 20
-6.0274286806
 30
0.0
 10
1.5601441812
 20
-5.8224974309
 30
0.0
 10
1.3811175055
 20
-5.5792430885
 30
0.0
 10
1.1781012671
 20
-5.1974872064
 30
0.0
 10
1.0108095941
 20
-4.6310705017
 30
0.0
 10
0.9726672734
 20
-4.1495954444
 30
0.0
 10
0.9726672734
 20
-3.8962203513
 30
0.0
  0
ENDSEC
  0
SECTION
  2
OBJECTS
  0
DICTIONARY
  5
C
100
AcDbDictionary
280
0
281
1
  3
ACAD_GROUP
350
D
  3
ACAD_MLINESTYLE
350
17
  3
ACAD_LAYOUT
350
1A
  3
ACAD_PLOTSETTINGS
350
19
  3
ACAD_PLOTSTYLENAME
350
E
  0
DICTIONARY
  5
D
102
{ACAD_REACTORS
330
C
102
}
100
AcDbDictionary
280
0
281
1
  0
ACDBDICTIONARYWDFLT
  5
E
102
{ACAD_REACTORS
330
C
102
}
100
AcDbDictionary
281
1
  3
Normal
350
F
100
AcDbDictionaryWithDefault
340
F
  0
DICTIONARY
  5
17
102
{ACAD_REACTORS
330
C
102
}
100
AcDbDictionary
280
0
281
1
  3
Standard
350
18
  0
DICTIONARY
  5
19
102
{ACAD_REACTORS
330
C
102
}
100
AcDbDictionary
281
1
  0
DICTIONARY
  5
1A
102
{ACAD_REACTORS
330
C
102
}
100
AcDbDictionary
281
1
  3
Model
350
257
  3
Layout1
350
258
  0
ACDBPLACEHOLDER
  5
F
102
{ACAD_REACTORS
330
E
102
}
  0
MLINESTYLE
  5
18
102
{ACAD_REACTORS
330
17
102
}
100
AcDbMlineStyle
  2
STANDARD
 70
0
  3

 62
256
 51
90.0
 52
90.0
 71
2
 49
0.5
 62
256
  6
BYLAYER
 49
-0.5
 62
256
  6
BYLAYER
  0
LAYOUT
  5
257
102
{ACAD_REACTORS
330
1A
102
}
100
AcDbPlotSettings
  1

  2
none_device
  4
ISO_A4_(297.00_x_210.00_MM)
  6

 40
0.0
 41
0.0
 42
0.0
 43
0.0
 44
297.0
 45
210.0
 46
0.0
 47
0.0
 48
0.0
 49
0.0
140
0.0
141
0.0
142
1.0
143
1.0
 70
1024
 72
1
 73
0
 74
0
  7

 75
0
147
1.0
148
0.0
149
0.0
100
AcDbLayout
  1
Model
 70
0
 71
0
 10
0.0
 20
0.0
 11
297.0
 21
210.0
 12
0.0
 22
0.0
 32
0.0
 14
0.0
 24
0.0
 34
0.0
 15
0.0
 25
0.0
 35
0.0
146
0.0
 13
0.0
 23
0.0
 33
0.0
 16
1.0
 26
0.0
 36
0.0
 17
0.0
 27
1.0
 37
0.0
 76
0
330
20E
345
0
346
0
  0
LAYOUT
  5
258
102
{ACAD_REACTORS
330
1A
102
}
100
AcDbPlotSettings
  1

  2
none_device
  4
ISO_A4_(297.00_x_210.00_MM)
  6

 40
0.0
 41
0.0
 42
0.0
 43
0.0
 44
297.0
 45
210.0
 46
0.0
 47
0.0
 48
0.0
 49
0.0
140
0.0
141
0.0
142
1.0
143
1.0
 70
0
 72
1
 73
0
 74
0
  7

 75
0
147
1.0
148
0.0
149
0.0
100
AcDbLayout
  1
Layout1
 70
0
 71
1
 10
0.0
 20
0.0
 11
297.0
 21
210.0
 12
0.0
 22
0.0
 32
0.0
 14
0.0
 24
0.0
 34
0.0
 15
0.0
 25
0.0
 35
0.0
146
0.0
 13
0.0
 23
0.0
 33
0.0
 16
1.0
 26
0.0
 36
0.0
 17
0.0
 27
1.0
 37
0.0
 76
0
330
20F
345
0
346
0
  0
ENDSEC
  0
EOF
