  0
SECTION
  2
HEADER
  9
$ACADVER
  1
AC1021
  9
$DWGCODEPAGE
  3
ANSI_1252
  9
$EXTMAX
 10
297.0
 20
210.0
 30
0.0
  9
$EXTMIN
 10
0.0
 20
0.0
 30
0.0
  9
$LIMMIN
 10
0.0
 20
0.0
  9
$LIMMAX
 10
297.0
 20
210.0
  9
$VIEWCTR
 10
148.5
 20
105.0
  9
$VIEWSIZE
 40
210.0
  9
$CLAYER
  8
0
  9
$LTSCALE
 40
16.335
  9
$CELTYPE
  6
BYLAYER
  9
$DIMSCALE
 40
1.0
  9
$DIMASZ
 40
3.0
  9
$DIMEXO
 40
0.5
  9
$DIMDLI
 40
11.286
  9
$DIMEXE
 40
1.5
  9
$DIMCEN
 40
2.673
  9
$DIMLFAC
 40
1.0
  9
$DIMBLK
  1
_FILLED
  9
$DIMALT
 70
0
  9
$DIMALTF
 40
0.0393700787
  9
$DIMTXT
 40
3.0
  9
$DIMTOL
 70
1
  9
$DIMLIM
 70
0
  9
$DIMTFAC
 40
1.0
  9
$DIMTP
 40
0.01
  9
$DIMTM
 40
0.01
  9
$DIMGAP
 40
0.625
  9
$DIMDSEP
 70
44
  9
$AUNITS
 70
0
  9
$PDMODE
 70
3
  9
$PDSIZE
 40
3.0
  9
$HANDSEED
  5
25E
  9
$TILEMODE
 70
1
  9
$MEASUREMENT
 70
1
  9
$INSUNITS
 70
4
  0
ENDSEC
  0
SECTION
  2
CLASSES
  0
CLASS
  1
ACDBDICTIONARYWDFLT
  2
AcDbDictionaryWithDefault
  3
AutoCAD 2000
 90
0
 91
1
280
0
281
0
  0
CLASS
  1
ACDBPLACEHOLDER
  2
AcDbPlaceHolder
  3
AutoCAD 2000
 90
0
 91
1
280
0
281
0
  0
CLASS
  1
LAYOUT
  2
AcDbLayout
  3
AutoCAD 2000
 90
0
 91
0
280
0
281
0
  0
ENDSEC
  0
SECTION
  2
TABLES
  0
TABLE
  2
VPORT
  5
8
100
AcDbSymbolTable
 70
2
  0
VPORT
  5
1F4
100
AcDbSymbolTableRecord
100
AcDbViewportTableRecord
  2
*ACTIVE
 70
0
 10
0.0
 20
0.0
 11
1.0
 21
1.0
 12
148.5
 22
105.0
 13
0.0
 23
0.0
 14
1.0
 24
1.0
 15
0.0
 25
0.0
 16
0.0
 26
0.0
 36
1.0
 17
0.0
 27
0.0
 37
0.0
 40
210.0
 41
1.4142857143
 42
50.0
 43
0.0
 44
0.0
 50
0.0
 51
0.0
 71
0
 72
100
 73
1
 74
1
 75
0
 76
0
 77
0
 78
0
  0
ENDTAB
  0
TABLE
  2
LTYPE
  5
5
100
AcDbSymbolTable
 70
6
  0
LTYPE
  5
14
100
AcDbSymbolTableRecord
100
AcDbLinetypeTableRecord
  2
BYBLOCK
 70
0
  3

 72
65
 73
0
 40
0.0
  0
LTYPE
  5
15
100
AcDbSymbolTableRecord
100
AcDbLinetypeTableRecord
  2
BYLAYER
 70
0
  3

 72
65
 73
0
 40
0.0
  0
LTYPE
  5
16
100
AcDbSymbolTableRecord
100
AcDbLinetypeTableRecord
  2
CONTINUOUS
 70
64
  3
Solid line
 72
65
 73
0
 40
0.0
  0
LTYPE
  5
1F5
100
AcDbSymbolTableRecord
100
AcDbLinetypeTableRecord
  2
CENTER
 70
64
  3
____ _ ____ _ ____ _ ____ _ ____ _ ____ _ ____
 72
65
 73
4
 40
0.6
 49
0.375
 74
0
 49
-0.075
 74
0
 49
0.075
 74
0
 49
-0.075
 74
0
  0
LTYPE
  5
1F6
100
AcDbSymbolTableRecord
100
AcDbLinetypeTableRecord
  2
HIDDEN
 70
64
  3
- - - - - - - - - - - - - - - - - - - -
 72
65
 73
2
 40
0.2
 49
0.1
 74
0
 49
-0.1
 74
0
  0
LTYPE
  5
1F7
100
AcDbSymbolTableRecord
100
AcDbLinetypeTableRecord
  2
PHANTOM
 70
64
  3
_____ _ _ _____ _ _ _____ _ _ _____
 72
65
 73
6
 40
0.8
 49
0.45
 74
0
 49
-0.05
 74
0
 49
0.1
 74
0
 49
-0.05
 74
0
 49
0.1
 74
0
 49
-0.05
 74
0
  0
LTYPE
  5
1F8
100
AcDbSymbolTableRecord
100
AcDbLinetypeTableRecord
  2
DOT
 70
64
  3
. . . . . . . . . . . . . . . . . . . .
 72
65
 73
2
 40
0.2
 49
0.1
 74
0
 49
-0.1
 74
0
  0
LTYPE
  5
1F9
100
AcDbSymbolTableRecord
100
AcDbLinetypeTableRecord
  2
DASHED
 70
64
  3
- - - - - - - - - - - - - - - - - - - -
 72
65
 73
2
 40
0.2
 49
0.1
 74
0
 49
-0.1
 74
0
  0
ENDTAB
  0
TABLE
  2
LAYER
  5
2
100
AcDbSymbolTable
 70
36
  0
LAYER
  5
10
100
AcDbSymbolTableRecord
100
AcDbLayerTableRecord
  2
0
 70
0
 62
7
  6
CONTINUOUS
370
-3
390
F
  0
LAYER
  5
1FA
100
AcDbSymbolTableRecord
100
AcDbLayerTableRecord
  2
DEFAULT_1
 70
0
 62
7
  6
CENTER
370
-3
390
F
  0
LAYER
  5
1FB
100
AcDbSymbolTableRecord
100
AcDbLayerTableRecord
  2
DEFAULT_2
 70
0
 62
7
  6
HIDDEN
370
-3
390
F
  0
LAYER
  5
1FC
100
AcDbSymbolTableRecord
100
AcDbLayerTableRecord
  2
DEFAULT_3
 70
0
 62
7
  6
PHANTOM
370
-3
390
F
  0
LAYER
  5
1FD
100
AcDbSymbolTableRecord
100
AcDbLayerTableRecord
  2
ASSI
 70
0
 62
7
  6
CONTINUOUS
370
-3
390
F
  0
LAYER
  5
1FE
100
AcDbSymbolTableRecord
100
AcDbLayerTableRecord
  2
COORDINATE
 70
0
 62
7
  6
CONTINUOUS
370
-3
390
F
  0
LAYER
  5
1FF
100
AcDbSymbolTableRecord
100
AcDbLayerTableRecord
  2
COPY_PUBLISH
 70
0
 62
7
  6
CONTINUOUS
370
-3
390
F
  0
LAYER
  5
200
100
AcDbSymbolTableRecord
100
AcDbLayerTableRecord
  2
COSMETICI
 70
0
 62
7
  6
CONTINUOUS
370
-3
390
F
  0
LAYER
  5
201
100
AcDbSymbolTableRecord
100
AcDbLayerTableRecord
  2
CURVE
 70
0
 62
7
  6
CONTINUOUS
370
-3
390
F
  0
LAYER
  5
202
100
AcDbSymbolTableRecord
100
AcDbLayerTableRecord
  2
DRAFT
 70
0
 62
7
  6
CONTINUOUS
370
-3
390
F
  0
LAYER
  5
203
100
AcDbSymbolTableRecord
100
AcDbLayerTableRecord
  2
IMPORT_IGES
 70
0
 62
7
  6
CONTINUOUS
370
-3
390
F
  0
LAYER
  5
204
100
AcDbSymbolTableRecord
100
AcDbLayerTableRecord
  2
NOTE
 70
0
 62
7
  6
CONTINUOUS
370
-3
390
F
  0
LAYER
  5
205
100
AcDbSymbolTableRecord
100
AcDbLayerTableRecord
  2
PIANI
 70
0
 62
7
  6
CONTINUOUS
370
-3
390
F
  0
LAYER
  5
206
100
AcDbSymbolTableRecord
100
AcDbLayerTableRecord
  2
PUNTI
 70
0
 62
7
  6
CONTINUOUS
370
-3
390
F
  0
LAYER
  5
207
100
AcDbSymbolTableRecord
100
AcDbLayerTableRecord
  2
RACCORDO
 70
0
 62
7
  6
CONTINUOUS
370
-3
390
F
  0
LAYER
  5
208
100
AcDbSymbolTableRecord
100
AcDbLayerTableRecord
  2
SIMBOLI
 70
0
 62
7
  6
CONTINUOUS
370
-3
390
F
  0
LAYER
  5
209
100
AcDbSymbolTableRecord
100
AcDbLayerTableRecord
  2
SMUSSO
 70
0
 62
7
  6
CONTINUOUS
370
-3
390
F
  0
LAYER
  5
20A
100
AcDbSymbolTableRecord
100
AcDbLayerTableRecord
  2
SUPERFICI
 70
0
 62
7
  6
CONTINUOUS
370
-3
390
F
  0
LAYER
  5
20B
100
AcDbSymbolTableRecord
100
AcDbLayerTableRecord
  2
TRASH
 70
0
 62
7
  6
CONTINUOUS
370
-3
390
F
  0
ENDTAB
  0
TABLE
  2
STYLE
  5
3
100
AcDbSymbolTable
 70
1
  0
STYLE
  5
11
100
AcDbSymbolTableRecord
100
AcDbTextStyleTableRecord
  2
STANDARD
 70
0
 40
0.0
 41
0.8
 50
0.0
 71
0
 42
0.2
  3
txt
  4

  0
STYLE
  5
20C
100
AcDbSymbolTableRecord
100
AcDbTextStyleTableRecord
  2
TEXTSTYLE_1
 70
0
 40
0.0
 41
0.8
 50
0.0
 71
0
 42
0.2
  3
gdt
  4

  0
ENDTAB
  0
TABLE
  2
VIEW
  5
6
100
AcDbSymbolTable
 70
0
  0
ENDTAB
  0
TABLE
  2
UCS
  5
7
100
AcDbSymbolTable
 70
0
  0
ENDTAB
  0
TABLE
  2
APPID
  5
9
100
AcDbSymbolTable
 70
1
  0
APPID
  5
20D
100
AcDbSymbolTableRecord
100
AcDbRegAppTableRecord
  2
ACAD
 70
0
  0
ENDTAB
  0
TABLE
  2
BLOCK_RECORD
  5
1
100
AcDbSymbolTable
 70
0
  0
BLOCK_RECORD
  5
20E
100
AcDbSymbolTableRecord
100
AcDbBlockTableRecord
  2
*Model_Space
  0
BLOCK_RECORD
  5
20F
100
AcDbSymbolTableRecord
100
AcDbBlockTableRecord
  2
*Paper_Space
  0
BLOCK_RECORD
  5
210
100
AcDbSymbolTableRecord
100
AcDbBlockTableRecord
  2
_FILLED
  0
ENDTAB
  0
TABLE
  2
DIMSTYLE
  5
A
100
AcDbSymbolTable
 70
1
100
AcDbDimStyleTable
 71
0
  0
DIMSTYLE
105
211
100
AcDbSymbolTableRecord
100
AcDbDimStyleTableRecord
  2
STANDARD
 70
0
  3

  4

 40
1.0
 41
3.0
 42
0.5
 43
0.38
 44
1.5
 45
0.0
 46
0.0
 47
0.01
 48
0.01
140
3.0
141
0.09
142
0.0
143
25.4
144
1.0
145
0.0
146
1.0
147
0.625
 71
1.0
 72
0.0
 73
0
 74
0
 75
0
 76
0
 77
1
 78
8
 79
2
170
0
171
1
172
0
173
0
174
0
175
0
176
0
177
0
178
0
270
2
179
2
271
2
272
2
273
2
274
2
275
0
280
0
281
0
282
0
283
1
284
8
285
0
286
0
287
3
288
0
340
11
278
44
341
210
342
210
343
210
344
210
  0
ENDTAB
  0
ENDSEC
  0
SECTION
  2
BLOCKS
  0
BLOCK
  5
20
100
AcDbEntity
  8
0
100
AcDbBlockBegin
  2
*Model_Space
 70
0
 10
0.0
 20
0.0
 30
0.0
  3
*Model_Space
  1

  0
ENDBLK
  5
21
100
AcDbEntity
  8
0
100
AcDbBlockEnd
  0
BLOCK
  5
1C
100
AcDbEntity
  8
0
100
AcDbBlockBegin
  2
*Paper_Space
 70
0
 10
0.0
 20
0.0
 30
0.0
  3
*Paper_Space
  1

  0
ENDBLK
  5
1D
100
AcDbEntity
  8
0
100
AcDbBlockEnd
  0
BLOCK
  5
212
100
AcDbEntity
  8
0
100
AcDbBlockBegin
  2
_FILLED
 70
64
 10
0.0
 20
0.0
  3
_FILLED
  1

  0
SOLID
  5
213
100
AcDbEntity
  8
0
  6
BYBLOCK
 62
0
100
AcDbTrace
 10
0.0
 20
0.0
 11
-1.0
 21
0.3166666667
 12
-1.0
 22
-0.3166666667
 13
-1.0
 23
-0.3166666667
  0
ENDBLK
  5
214
100
AcDbEntity
  8
0
  6
BYBLOCK
 62
0
100
AcDbBlockEnd
  0
ENDSEC
  0
SECTION
  2
ENTITIES
  0
LWPOLYLINE
  5
215
100
AcDbEntity
  8
0
100
AcDbPolyline
 62
7
  6
CONTINUOUS
 90
29
 70
0
 10
-36.7925016106
 20
17.0290367272
 10
-36.825236119
 20
17.0007574014
 10
-36.8544468712
 20
16.9685661162
 10
-36.8803749217
 20
16.932027653
 10
-36.9027792159
 20
16.8915772303
 10
-36.9209365897
 20
16.8485205039
 10
-36.9347084703
 20
16.8027724326
 10
-36.9442334305
 20
16.7544180576
 10
-36.9492040244
 20
16.7050181577
 10
-36.9494716475
 20
16.6545386184
 10
-36.9451849043
 20
16.6030135541
 10
-36.9364821619
 20
16.5521060871
 10
-36.9232193307
 20
16.5018363687
 10
-36.9055405004
 20
16.4521842475
 10
-36.8840163068
 20
16.4047523909
 10
-36.8585212796
 20
16.3596132438
 10
-36.8291808892
 20
16.3166943612
 10
-36.7969421824
 20
16.2773810756
 10
-36.7617105901
 20
16.241791034
 10
-36.7235806815
 20
16.2098065893
 10
-36.6837832108
 20
16.1824601331
 10
-36.6422637671
 20
16.1599029981
 10
-36.5990767614
 20
16.1419838516
 10
-36.5556161805
 20
16.1292810864
 10
-36.5118730979
 20
16.1219649077
 10
-36.4678564401
 20
16.1198651103
 10
-36.4249869734
 20
16.1230494712
 10
-36.3837382866
 20
16.131540583
 10
-36.3531483641
 20
16.1415309796
  0
LWPOLYLINE
  5
216
100
AcDbEntity
  8
0
100
AcDbPolyline
 62
7
  6
CONTINUOUS
 90
16
 70
0
 10
-34.3176278764
 20
18.4579978039
 10
-34.3503623849
 20
18.4297184781
 10
-34.379573137
 20
18.3975271928
 10
-34.4055011875
 20
18.3609887296
 10
-34.4279054817
 20
18.320538307
 10
-34.4460628555
 20
18.2774815805
 10
-34.4598347361
 20
18.2317335093
 10
-34.4693596964
 20
18.1833791343
 10
-34.4743302902
 20
18.1339792343
 10
-34.4745979134
 20
18.083499695
 10
-34.4703111702
 20
18.0319746308
 10
-34.4616084278
 20
17.9810671637
 10
-34.4483455966
 20
17.9307974454
 10
-34.4306667662
 20
17.8811453242
 10
-34.4091425726
 20
17.8337134675
 10
-34.3851931357
 20
17.7913108001
  0
LINE
  5
217
100
AcDbEntity
  8
0
100
AcDbLine
 62
7
  6
CONTINUOUS
 10
-36.7562433458
 20
17.0534040936
 11
-36.7925016106
 21
17.0290367272
  0
LINE
  5
218
100
AcDbEntity
  8
0
100
AcDbLine
 62
7
  6
CONTINUOUS
 10
-35.7318414388
 20
17.6414486172
 11
-35.6955831741
 21
17.6658159836
  0
LINE
  5
219
100
AcDbEntity
  8
0
100
AcDbLine
 62
7
  6
CONTINUOUS
 10
-34.2813696117
 20
18.4823651703
 11
-34.3176278764
 21
18.4579978039
  0
LINE
  5
21A
100
AcDbEntity
  8
0
100
AcDbLine
 62
7
  6
CONTINUOUS
 10
-33.2569677047
 20
19.0704096939
 11
-33.2207094399
 21
19.0947770603
  0
LWPOLYLINE
  5
21B
100
AcDbEntity
  8
0
100
AcDbPolyline
 62
7
  6
CONTINUOUS
 90
3
 70
0
 10
-33.2207094399
 20
19.0947770603
 10
-33.1817551354
 20
19.1138364887
 10
-33.1723804986
 20
19.1175692062
  0
LWPOLYLINE
  5
21C
100
AcDbEntity
  8
0
100
AcDbPolyline
 62
7
  6
CONTINUOUS
 90
3
 70
0
 10
-35.6955831741
 20
17.6658159836
 10
-35.6566288696
 20
17.6848754121
 10
-35.6473092277
 20
17.6885871641
  0
LWPOLYLINE
  5
21D
100
AcDbEntity
  8
0
100
AcDbPolyline
 62
7
  6
CONTINUOUS
 90
11
 70
0
 10
-35.8851981292
 20
17.2235194228
 10
-35.8888114758
 20
17.2669505084
 10
-35.8885438526
 20
17.3174300477
 10
-35.8835732587
 20
17.3668299476
 10
-35.8740482985
 20
17.4151843226
 10
-35.8602764179
 20
17.4609323939
 10
-35.8421190441
 20
17.5039891203
 10
-35.8197147499
 20
17.5444395429
 10
-35.7937866994
 20
17.5809780062
 10
-35.7645759473
 20
17.6131692914
 10
-35.7318414388
 20
17.6414486172
  0
LWPOLYLINE
  5
21E
100
AcDbEntity
  8
0
100
AcDbPolyline
 62
7
  6
CONTINUOUS
 90
3
 70
0
 10
-34.2330956653
 20
18.5051363508
 10
-34.2424153072
 20
18.5014245987
 10
-34.2813696117
 20
18.4823651703
  0
LWPOLYLINE
  5
21F
100
AcDbEntity
  8
0
100
AcDbPolyline
 62
7
  6
CONTINUOUS
 90
3
 70
0
 10
-36.7079144045
 20
17.0761962396
 10
-36.7172890413
 20
17.0724635221
 10
-36.7562433458
 20
17.0534040936
  0
LWPOLYLINE
  5
220
100
AcDbEntity
  8
0
100
AcDbPolyline
 62
7
  6
CONTINUOUS
 90
11
 70
0
 10
-33.4103081927
 20
18.6522857527
 10
-33.4139377416
 20
18.695911585
 10
-33.4136701185
 20
18.7463911243
 10
-33.4086995246
 20
18.7957910243
 10
-33.3991745644
 20
18.8441453993
 10
-33.3854026837
 20
18.8898934705
 10
-33.3672453099
 20
18.9329501969
 10
-33.3448410158
 20
18.9734006196
 10
-33.3189129652
 20
19.0099390828
 10
-33.2897022131
 20
19.0421303681
 10
-33.2569677047
 20
19.0704096939
  0
LWPOLYLINE
  5
221
100
AcDbEntity
  8
0
100
AcDbPolyline
 62
7
  6
CONTINUOUS
 90
24
 70
0
 10
-36.3531002589
 20
16.1414046174
 10
-36.2871529244
 20
16.1645720541
 10
-36.1812618948
 20
16.1935683155
 10
-36.0702797764
 20
16.2134146333
 10
-35.9538366339
 20
16.2231892792
 10
-35.8311033508
 20
16.2219822099
 10
-35.7009635386
 20
16.2086100562
 10
-35.5621877767
 20
16.181743822
 10
-35.4148963
 20
16.140398859
 10
-35.260611649
 20
16.084195708
 10
-35.0990190386
 20
16.0124458638
 10
-34.930550022
 20
15.9250282274
 10
-34.7583594863
 20
15.8236757883
 10
-34.5835851564
 20
15.7095015604
 10
-34.4058682519
 20
15.5827654375
 10
-34.2261042503
 20
15.4447590768
 10
-34.0446676291
 20
15.2966811052
 10
-33.8615938067
 20
15.1394240457
 10
-33.6770862215
 20
14.9739478106
 10
-33.4915171772
 20
14.8013155502
 10
-33.3049101796
 20
14.6222152193
 10
-33.1168700014
 20
14.4368727169
 10
-32.9277082322
 20
14.2464006578
 10
-32.7371688832
 20
14.0514530264
  0
LWPOLYLINE
  5
222
100
AcDbEntity
  8
0
100
AcDbPolyline
 62
7
  6
CONTINUOUS
 90
15
 70
0
 10
-27.7835520329
 20
10.3337091881
 10
-27.7786325007
 20
10.1455969545
 10
-27.7643091128
 20
9.9648289982
 10
-27.7405818694
 20
9.7914053192
 10
-27.7073071701
 20
9.6247900192
 10
-27.6646286152
 20
9.4655189965
 10
-27.6129770057
 20
9.3151999467
 10
-27.5522614611
 20
9.1739235367
 10
-27.4825728619
 20
9.0415990996
 10
-27.4046146509
 20
8.9195623297
 10
-27.3183030721
 20
8.8079174221
 10
-27.2237218815
 20
8.7065601816
 10
-27.1218257898
 20
8.6165137171
 10
-27.0125407105
 20
8.5378925858
 10
-26.9551784068
 20
8.5028370309
  0
LWPOLYLINE
  5
223
100
AcDbEntity
  8
0
100
AcDbPolyline
 62
7
  6
CONTINUOUS
 90
18
 70
0
 10
-31.7391656755
 20
13.0137453488
 10
-31.5280556296
 20
12.7972417017
 10
-31.3110401393
 20
12.5781904904
 10
-31.0871480346
 20
12.3570451642
 10
-30.8570539137
 20
12.136126224
 10
-30.6214397243
 20
11.9178606599
 10
-30.3793234059
 20
11.7032075188
 10
-30.1312680669
 20
11.4947838803
 10
-29.8802487499
 20
11.2971408925
 10
-29.6257649203
 20
11.1117108465
 10
-29.3677705089
 20
10.9404428105
 10
-29.1098901848
 20
10.7874854041
 10
-28.8514946494
 20
10.6538022185
 10
-28.5928060533
 20
10.5405789304
 10
-28.3390287702
 20
10.4502727443
 10
-28.0908144458
 20
10.3827013527
 10
-27.8480220807
 20
10.337388474
 10
-27.7838267421
 20
10.330964146
  0
LWPOLYLINE
  5
224
100
AcDbEntity
  8
0
100
AcDbPolyline
 62
7
  6
CONTINUOUS
 90
3
 70
0
 10
-32.7371688832
 20
14.0514530264
 10
-32.3478231604
 20
13.6472830199
 10
-31.7391656755
 20
13.0137453488
  0
LWPOLYLINE
  5
225
100
AcDbEntity
  8
0
100
AcDbPolyline
 62
7
  6
CONTINUOUS
 90
12
 70
0
 10
-30.6727254072
 20
13.6200068897
 10
-30.4617803648
 20
13.4034664381
 10
-30.2448569909
 20
13.1844143066
 10
-30.0209166236
 20
12.9633438734
 10
-29.7906405282
 20
12.7425945152
 10
-29.5547861901
 20
12.5245881804
 10
-29.3124394778
 20
12.3102523597
 10
-29.0642439824
 20
12.10210943
 10
-28.8131619023
 20
11.9047387888
 10
-28.5586282785
 20
11.7196415599
 10
-28.3005600021
 20
11.5487417182
 10
-28.0790674399
 20
11.4177680608
  0
LWPOLYLINE
  5
226
100
AcDbEntity
  8
0
100
AcDbPolyline
 62
7
  6
CONTINUOUS
 90
10
 70
0
 10
-29.2585118448
 20
14.4365560763
 10
-29.0475668024
 20
14.2200156248
 10
-28.8306434285
 20
14.0009634933
 10
-28.6067030612
 20
13.77989306
 10
-28.3764269658
 20
13.5591437018
 10
-28.1405726277
 20
13.3411373671
 10
-27.8982259154
 20
13.1268015463
 10
-27.6500304201
 20
12.9186586166
 10
-27.3989483399
 20
12.7212879755
 10
-27.2282833992
 20
12.5971801774
  0
LWPOLYLINE
  5
227
100
AcDbEntity
  8
0
100
AcDbPolyline
 62
7
  6
CONTINUOUS
 90
17
 70
0
 10
-31.8774093805
 20
14.6014956551
 10
-32.0964451419
 20
14.8271654527
 10
-32.316743111
 20
15.0507888279
 10
-32.5384067712
 20
15.2713208934
 10
-32.7612840574
 20
15.487409095
 10
-32.9849467647
 20
15.6970977369
 10
-33.2098494319
 20
15.8992270618
 10
-33.4360048416
 20
16.09229738
 10
-33.6624024732
 20
16.2741228405
 10
-33.8893950355
 20
16.4438479823
 10
-34.1169599471
 20
16.6003215038
 10
-34.3436849627
 20
16.7413335611
 10
-34.5702666714
 20
16.8661725329
 10
-34.7966464557
 20
16.9737493434
 10
-35.0201489479
 20
17.062302282
 10
-35.2405613449
 20
17.1315932581
 10
-35.4579883189
 20
17.1815335199
  0
LWPOLYLINE
  5
228
100
AcDbEntity
  8
0
100
AcDbPolyline
 62
7
  6
CONTINUOUS
 90
14
 70
0
 10
-30.814288108
 20
15.2109682775
 10
-31.0334151159
 20
15.4368788239
 10
-31.2536772424
 20
15.6607407277
 10
-31.4752068621
 20
15.8814895275
 10
-31.698018448
 20
16.0976487693
 10
-31.921674447
 20
16.3072616013
 10
-32.1465410397
 20
16.509227888
 10
-32.3725754325
 20
16.7021455877
 10
-32.5987313942
 20
16.883943108
 10
-32.8253378974
 20
17.0537795611
 10
-33.0524878444
 20
17.2103035134
 10
-33.2788835625
 20
17.3513477453
 10
-33.50517666
 20
17.4762933874
 10
-33.7311389732
 20
17.5840822777
  0
LWPOLYLINE
  5
229
100
AcDbEntity
  8
0
100
AcDbPolyline
 62
7
  6
CONTINUOUS
 90
3
 70
0
 10
-31.6700811385
 20
14.6575748354
 10
-31.2809018263
 20
14.2535423859
 10
-30.6727254072
 20
13.6200068897
  0
LWPOLYLINE
  5
22A
100
AcDbEntity
  8
0
100
AcDbPolyline
 62
7
  6
CONTINUOUS
 90
3
 70
0
 10
-30.2558675761
 20
15.474124022
 10
-29.8666882639
 20
15.0700915725
 10
-29.2585118448
 20
14.4365560763
  0
LINE
  5
22B
100
AcDbEntity
  8
0
100
AcDbLine
 62
7
  6
CONTINUOUS
 10
-29.9516211772
 20
14.3131711582
 11
-30.814288108
 21
15.2109682775
  0
LINE
  5
22C
100
AcDbEntity
  8
0
100
AcDbLine
 62
7
  6
CONTINUOUS
 10
-31.0161351058
 20
13.7045439167
 11
-31.8774093805
 21
14.6014956551
  0
LWPOLYLINE
  5
22D
100
AcDbEntity
  8
0
100
AcDbPolyline
 62
7
  6
CONTINUOUS
 90
8
 70
0
 10
-28.2036317696
 20
15.0551183155
 10
-27.9925217236
 20
14.8386146683
 10
-27.7755062334
 20
14.6195634571
 10
-27.5516141287
 20
14.3984181308
 10
-27.3215200078
 20
14.1774991906
 10
-27.0859058184
 20
13.9592336265
 10
-26.8437895
 20
13.7445804855
 10
-26.6588783895
 20
13.5892125478
  0
LWPOLYLINE
  5
22E
100
AcDbEntity
  8
0
100
AcDbPolyline
 62
7
  6
CONTINUOUS
 90
24
 70
0
 10
-28.3418754746
 20
16.6428686218
 10
-28.560911236
 20
16.8685384193
 10
-28.781209205
 20
17.0921617946
 10
-29.0028728652
 20
17.3126938601
 10
-29.2257501515
 20
17.5287820616
 10
-29.4494128588
 20
17.7384707035
 10
-29.6743155259
 20
17.9406000285
 10
-29.9004709357
 20
18.1336703466
 10
-30.1268685673
 20
18.3154958072
 10
-30.3538611296
 20
18.4852209489
 10
-30.5814260412
 20
18.6416944704
 10
-30.8081510568
 20
18.7827065277
 10
-31.0347327655
 20
18.9075454995
 10
-31.2611125498
 20
19.01512231
 10
-31.484615042
 20
19.1036752487
 10
-31.705027439
 20
19.1729662248
 10
-31.9224544129
 20
19.2229064865
 10
-32.1342685854
 20
19.2533726813
 10
-32.3400007354
 20
19.2651819572
 10
-32.5391562395
 20
19.2592142352
 10
-32.7288016731
 20
19.2369375082
 10
-32.9077421992
 20
19.2004926297
 10
-33.0765754129
 20
19.1517847873
 10
-33.172428729
 20
19.1176957885
  0
LWPOLYLINE
  5
22F
100
AcDbEntity
  8
0
100
AcDbPolyline
 62
7
  6
CONTINUOUS
 90
17
 70
0
 10
-29.4000745457
 20
16.0275174641
 10
-29.6192015536
 20
16.2534280105
 10
-29.83946368
 20
16.4772899143
 10
-30.0609932997
 20
16.6980387142
 10
-30.2838048857
 20
16.914197956
 10
-30.5074608847
 20
17.123810788
 10
-30.7323274773
 20
17.3257770746
 10
-30.9583618701
 20
17.5186947744
 10
-31.1845178318
 20
17.7004922946
 10
-31.411124335
 20
17.8703287478
 10
-31.638274282
 20
18.0268527
 10
-31.8646700002
 20
18.1678969319
 10
-32.0909630976
 20
18.2928425741
 10
-32.3169254108
 20
18.4006314644
 10
-32.5400403805
 20
18.4894313972
 10
-32.7601894968
 20
18.558964344
 10
-32.9773187643
 20
18.6093304489
  0
LWPOLYLINE
  5
230
100
AcDbEntity
  8
0
100
AcDbPolyline
 62
7
  6
CONTINUOUS
 90
3
 70
0
 10
-29.2016349772
 20
16.092825993
 10
-28.8122892545
 20
15.6886559866
 10
-28.2036317696
 20
15.0551183155
  0
LINE
  5
231
100
AcDbEntity
  8
0
100
AcDbLine
 62
7
  6
CONTINUOUS
 10
-28.5374076148
 20
15.1297203449
 11
-29.4000745457
 21
16.0275174641
  0
LINE
  5
232
100
AcDbEntity
  8
0
100
AcDbLine
 62
7
  6
CONTINUOUS
 10
-27.4806011999
 20
15.7459168833
 11
-28.3418754746
 21
16.6428686218
  0
LWPOLYLINE
  5
233
100
AcDbEntity
  8
0
100
AcDbPolyline
 62
7
  6
CONTINUOUS
 90
11
 70
0
 10
0.6876041824
 20
-8.6125785254
 10
0.8565854988
 20
-8.6977662545
 10
1.035428311
 20
-8.7639774843
 10
1.223487588
 20
-8.8109984305
 10
1.4199580311
 20
-8.8386277421
 10
1.6239983237
 20
-8.8467471063
 10
1.8347347339
 20
-8.8353217547
 10
2.0512648562
 20
-8.8044006123
 10
2.2726614752
 20
-8.7541160883
 10
2.4979765364
 20
-8.6846835087
 10
2.6862665723
 20
-8.6118620024
  0
LWPOLYLINE
  5
234
100
AcDbEntity
  8
0
100
AcDbPolyline
 62
7
  6
CONTINUOUS
 90
35
 70
0
 10
25.3710186216
 20
-21.7096367052
 10
25.4781897426
 20
-21.765291095
 10
25.6292313779
 20
-21.8242881093
 10
25.7894635843
 20
-21.8661927656
 10
25.9565633373
 20
-21.890397536
 10
26.130630685
 20
-21.8966445639
 10
26.3115655793
 20
-21.885191706
 10
26.4967448508
 20
-21.8562050041
 10
26.6862303326
 20
-21.8094290206
 10
26.8799601916
 20
-21.7451191932
 10
27.0751257588
 20
-21.6642078769
 10
27.27174795
 20
-21.5664532169
 10
27.4698058493
 20
-21.4520970681
 10
27.6664280405
 20
-21.3227973502
 10
27.8615936077
 20
-21.1783363615
 10
28.0553234667
 20
-21.0189318037
 10
28.2448089485
 20
-20.8468947024
 10
28.42998822
 20
-20.6620410233
 10
28.6109231143
 20
-20.4645548006
 10
28.784990462
 20
-20.2572991627
 10
28.952090215
 20
-20.0401317861
 10
29.1123224214
 20
-19.8131949941
 10
29.2633640567
 20
-19.5797788855
 10
29.4050812301
 20
-19.3397890677
 10
29.5376078324
 20
-19.0933199332
 10
29.6590225109
 20
-18.8439447579
 10
29.7691633843
 20
-18.5916212056
 10
29.868192334
 20
-18.3363916125
 10
29.9546736517
 20
-18.0819562622
 10
30.0284245404
 20
-17.8283267255
 10
30.0896277971
 20
-17.5754914317
 10
30.1373961056
 20
-17.3271159522
 10
30.1714336935
 20
-17.0844221443
 10
30.1920363331
 20
-16.8461881507
 10
30.1992040244
 20
-16.6124139715
  0
LWPOLYLINE
  5
235
100
AcDbEntity
  8
0
100
AcDbPolyline
 62
7
  6
CONTINUOUS
 90
11
 70
0
 10
-2.7068052257
 20
-6.6525434046
 10
-2.6625781195
 20
-6.6771476347
 10
-2.4785959907
 20
-6.7621981707
 10
-2.2845222555
 20
-6.8253837759
 10
-2.0802098967
 20
-6.8663859163
 10
-1.8658059314
 20
-6.8855231259
 10
-1.644418759
 20
-6.8825179561
 10
-1.4159466464
 20
-6.8570478308
 10
-1.1804913267
 20
-6.8094353262
 10
-0.941466399
 20
-6.7403707217
 10
-0.8525944144
 20
-6.7071392921
  0
LINE
  5
236
100
AcDbEntity
  8
0
100
AcDbLine
 62
7
  6
CONTINUOUS
 10
-3.2721937923
 20
-6.3262408027
 11
-2.7065083673
 21
-6.6528604774
  0
LINE
  5
237
100
AcDbEntity
  8
0
100
AcDbLine
 62
7
  6
CONTINUOUS
 10
0.1219187574
 20
-8.2859588507
 11
0.6876041824
 21
-8.6125785254
  0
LINE
  5
238
100
AcDbEntity
  8
0
100
AcDbLine
 62
7
  6
CONTINUOUS
 10
-26.9552215487
 20
8.5027617435
 11
-4.2709360241
 21
-4.5948604175
  0
LINE
  5
239
100
AcDbEntity
  8
0
100
AcDbLine
 62
7
  6
CONTINUOUS
 10
1.595876633
 20
-7.9822845173
 11
25.3706802591
 21
-21.7095581627
  0
LWPOLYLINE
  5
23A
100
AcDbEntity
  8
0
100
AcDbPolyline
 62
7
  6
CONTINUOUS
 90
12
 70
0
 10
1.595876633
 20
-7.9822845173
 10
1.5225894754
 20
-7.9367478127
 10
1.3846199015
 20
-7.831289986
 10
1.2590171127
 20
-7.7073042326
 10
1.1464835308
 20
-7.5654839311
 10
1.047648489
 20
-7.4066221982
 10
0.9630647132
 20
-7.2316074532
 10
0.89320523
 20
-7.0414184494
 10
0.838460722
 20
-6.837118801
 10
0.7991373429
 20
-6.6198510344
 10
0.7754550047
 20
-6.3908301992
 10
0.7675461488
 20
-6.1513370727
  0
LWPOLYLINE
  5
23B
100
AcDbEntity
  8
0
100
AcDbPolyline
 62
7
  6
CONTINUOUS
 90
10
 70
0
 10
-26.7360200665
 20
13.47428028
 10
-26.9155507555
 20
13.6113800396
 10
-27.1096429042
 20
13.7689529443
 10
-27.3062539226
 20
13.9372824525
 10
-27.5051947682
 20
14.1155873177
 10
-27.7064517978
 20
14.3030104907
 10
-27.910341613
 20
14.4990003114
 10
-28.1170180583
 20
14.7028845985
 10
-28.3261702256
 20
14.9135344973
 10
-28.5374076148
 20
15.1297203449
  0
LWPOLYLINE
  5
23C
100
AcDbEntity
  8
0
100
AcDbPolyline
 62
7
  6
CONTINUOUS
 90
5
 70
0
 10
-3.2682497451
 20
-6.1318597447
 10
-3.1375990291
 20
-6.2976036071
 10
-2.9920796387
 20
-6.4448503529
 10
-2.8338012941
 20
-6.571465219
 10
-2.7068052257
 20
-6.6525434046
  0
LWPOLYLINE
  5
23D
100
AcDbEntity
  8
0
100
AcDbPolyline
 62
7
  6
CONTINUOUS
 90
16
 70
0
 10
-4.3076068975
 20
-4.037556497
 10
-4.3027615712
 20
-4.2484126298
 10
-4.2882388728
 20
-4.4530955591
 10
-4.2640786082
 20
-4.6510442634
 10
-4.2303469989
 20
-4.8417161789
 10
-4.187136501
 20
-5.0245886872
 10
-4.1345655513
 20
-5.1991605475
 10
-4.0727782432
 20
-5.3649532704
 10
-4.0019439315
 20
-5.5215124296
 10
-3.922256768
 20
-5.6684089073
 10
-3.8339351698
 20
-5.8052400705
 10
-3.7372212201
 20
-5.9316308745
 10
-3.6323800052
 20
-6.0472348908
 10
-3.5196988877
 20
-6.151735257
 10
-3.3994867185
 20
-6.2448455447
 10
-3.2721937923
 20
-6.3262408027
  0
LWPOLYLINE
  5
23E
100
AcDbEntity
  8
0
100
AcDbPolyline
 62
7
  6
CONTINUOUS
 90
31
 70
0
 10
-0.2063875666
 20
1.7595481789
 10
-0.4549834521
 20
1.6056666924
 10
-0.7000097295
 20
1.4344551999
 10
-0.941466399
 20
1.2459137015
 10
-1.1804913267
 20
1.0389583108
 10
-1.4159466464
 20
0.8146729141
 10
-1.644418759
 20
0.5763091706
 10
-1.8658059314
 20
0.323661983
 10
-2.0802098967
 20
0.0569364485
 10
-2.2845222555
 20
-0.2200004826
 10
-2.4785959907
 20
-0.5072975727
 10
-2.6625781195
 20
-0.8048060593
 10
-2.8338012941
 20
-1.1082127051
 10
-2.9920796387
 20
-1.4176034362
 10
-3.1375990291
 20
-1.7328923265
 10
-3.2682497451
 20
-2.0495083608
 10
-3.3838151759
 20
-2.3674708733
 10
-3.4845119323
 20
-2.6867605298
 10
-3.5688801264
 20
-3.0027483125
 10
-3.6366818796
 20
-3.3153861189
 10
-3.6881550705
 20
-3.6247220515
 10
-3.7225534479
 20
-3.9262714003
 10
-3.7396282614
 20
-4.2199207282
 10
-3.7396282614
 20
-4.5057834723
 10
-3.7225534479
 20
-4.7797152337
 10
-3.6881550705
 20
-5.0415421984
 10
-3.6366818796
 20
-5.2914381804
 10
-3.5688801264
 20
-5.5257802218
 10
-3.4845119323
 20
-5.7443417287
 10
-3.3838151759
 20
-5.947349295
 10
-3.2682497451
 20
-6.1318597447
  0
LWPOLYLINE
  5
23F
100
AcDbEntity
  8
0
100
AcDbPolyline
 62
7
  6
CONTINUOUS
 90
31
 70
0
 10
-0.7720729916
 20
2.0861678536
 10
-0.9571085386
 20
1.9737359271
 10
-1.1416369163
 20
1.8504227273
 10
-1.3251523452
 20
1.716566247
 10
-1.5071518223
 20
1.5725333775
 10
-1.6871364995
 20
1.4187189028
 10
-1.8646130514
 20
1.2555444179
 10
-2.0390950267
 20
1.0834571728
 10
-2.2101041828
 20
0.9029288465
 10
-2.3771717953
 20
0.7144542548
 10
-2.5398399435
 20
0.5185499933
 10
-2.6976627654
 20
0.315753022
 10
-2.8502076796
 20
0.1066191933
 10
-2.997056571
 20
-0.1082782716
 10
-3.1378069372
 20
-0.3283503534
 10
-3.2720729909
 20
-0.5529938502
 10
-3.3994867185
 20
-0.7815930295
 10
-3.5196988877
 20
-1.0135213169
 10
-3.6323800052
 20
-1.2481430132
 10
-3.7372212201
 20
-1.4848150365
 10
-3.8339351698
 20
-1.7228886853
 10
-3.922256768
 20
-1.9617114164
 10
-4.0019439315
 20
-2.200628633
 10
-4.0727782432
 20
-2.4389854799
 10
-4.1345655513
 20
-2.6761286374
 10
-4.187136501
 20
-2.9114081126
 10
-4.2303469989
 20
-3.1441790209
 10
-4.2640786082
 20
-3.3738033533
 10
-4.2882388728
 20
-3.5996517255
 10
-4.3027615712
 20
-3.8211051028
 10
-4.3076068975
 20
-4.037556497
  0
LWPOLYLINE
  5
240
100
AcDbEntity
  8
0
100
AcDbPolyline
 62
7
  6
CONTINUOUS
 90
9
 70
0
 10
-26.0297973503
 20
14.365974518
 10
-26.0549372167
 20
14.3864198285
 10
-26.251374233
 20
14.5547112245
 10
-26.4501612061
 20
14.7328464692
 10
-26.651227971
 20
14.9200366143
 10
-26.8548652058
 20
15.1157802293
 10
-27.061179164
 20
15.3194373659
 10
-27.2698611245
 20
15.5298939927
 10
-27.4806011999
 20
15.7459168833
  0
LWPOLYLINE
  5
241
100
AcDbEntity
  8
0
100
AcDbPolyline
 62
7
  6
CONTINUOUS
 90
5
 70
0
 10
0.1258628049
 20
-8.0915777931
 10
0.2480359774
 20
-8.2478937522
 10
0.3827973495
 20
-8.3872293775
 10
0.5295698524
 20
-8.5089880124
 10
0.6876041824
 20
-8.6125785254
  0
LWPOLYLINE
  5
242
100
AcDbEntity
  8
0
100
AcDbPolyline
 62
7
  6
CONTINUOUS
 90
9
 70
0
 10
-0.3478089229
 20
-6.3238942197
 10
-0.3402390734
 20
-6.5865220386
 10
-0.3175619402
 20
-6.8392837725
 10
-0.2798746302
 20
-7.0810970568
 10
-0.2273385263
 20
-7.3109264098
 10
-0.1601785962
 20
-7.527787667
 10
-0.078682429
 20
-7.7307521952
 10
0.0168009963
 20
-7.9189508691
 10
0.1258628049
 20
-8.0915777931
  0
LWPOLYLINE
  5
243
100
AcDbEntity
  8
0
100
AcDbPolyline
 62
7
  6
CONTINUOUS
 90
28
 70
0
 10
2.6220395581
 20
0.1264498056
 10
2.3100894921
 20
-0.0701754054
 10
2.0050683223
 20
-0.2926583894
 10
1.7069760487
 20
-0.5409991465
 10
1.4136604368
 20
-0.8174697145
 10
1.1272737212
 20
-1.1197980556
 10
0.8542726052
 20
-1.441168056
 10
0.5949611576
 20
-1.7820122682
 10
0.3490353096
 20
-2.1418981397
 10
0.1220395581
 20
-2.5127118992
 10
-0.0855960786
 20
-2.8947017858
 10
-0.2743016188
 20
-3.2876195604
 10
-0.4398226204
 20
-3.6826067341
 10
-0.5816324207
 20
-4.0797103156
 10
-0.7002576824
 20
-4.4788832962
 10
-0.7930239513
 20
-4.8711261609
 10
-0.8593438117
 20
-5.2562814845
 10
-0.8998046794
 20
-5.6345066922
 10
-0.9134943478
 20
-5.997274545
 10
-0.8998046794
 20
-6.3442339118
 10
-0.8593438117
 20
-6.6757359237
 10
-0.7930239513
 20
-6.9843067349
 10
-0.7002576824
 20
-7.2694254375
 10
-0.5816324207
 20
-7.5316129393
 10
-0.4398226204
 20
-7.764958118
 10
-0.2743016188
 20
-7.968805788
 10
-0.0855960786
 20
-8.1438111349
 10
0.121920132
 20
-8.285959644
  0
LWPOLYLINE
  5
244
100
AcDbEntity
  8
0
100
AcDbPolyline
 62
7
  6
CONTINUOUS
 90
25
 70
0
 10
3.1877249831
 20
-0.2001698691
 10
2.9564900028
 20
-0.3424226762
 10
2.7262452061
 20
-0.5015475904
 10
2.4979765364
 20
-0.6768632144
 10
2.2726614752
 20
-0.8676188198
 10
2.0512648562
 20
-1.0729975619
 10
1.8347347339
 20
-1.2921199772
 10
1.6239983237
 20
-1.5240477498
 10
1.4199580311
 20
-1.7677877294
 10
1.223487588
 20
-2.022296184
 10
1.035428311
 20
-2.2864832694
 10
0.8565854988
 20
-2.5592176959
 10
0.6877249837
 20
-2.8393315728
 10
0.5295698524
 20
-3.1256254094
 10
0.3827973495
 20
-3.4168732517
 10
0.2480359774
 20
-3.7118279316
 10
0.1258628049
 20
-4.009226408
 10
0.0168009963
 20
-4.3077951748
 10
-0.078682429
 20
-4.6062557148
 10
-0.1601785962
 20
-4.9033299742
 10
-0.2273385263
 20
-5.1977458352
 10
-0.2798746302
 20
-5.4882425642
 10
-0.3175619402
 20
-5.7735762093
 10
-0.3402390734
 20
-6.0525249282
 10
-0.3478089229
 20
-6.3238942197
  0
LWPOLYLINE
  5
245
100
AcDbEntity
  8
0
100
AcDbPolyline
 62
7
  6
CONTINUOUS
 90
14
 70
0
 10
-27.4029430463
 20
12.1895360017
 10
-27.580763375
 20
12.2838956645
 10
-27.7631391195
 20
12.3923080503
 10
-27.949191185
 20
12.5141093756
 10
-28.1382002698
 20
12.6485417417
 10
-28.3297643179
 20
12.7948308529
 10
-28.5238564666
 20
12.9524037577
 10
-28.720467485
 20
13.1207332658
 10
-28.9194083306
 20
13.2990381311
 10
-29.1206653601
 20
13.486461304
 10
-29.3245551754
 20
13.6824511248
 10
-29.5312316206
 20
13.8863354118
 10
-29.740383788
 20
14.0969853107
 10
-29.9516211772
 20
14.3131711582
  0
LWPOLYLINE
  5
246
100
AcDbEntity
  8
0
100
AcDbPolyline
 62
7
  6
CONTINUOUS
 90
10
 70
0
 10
5.1221589843
 20
0.3741564873
 10
4.8950438067
 20
0.4829101916
 10
4.6491179587
 20
0.5588070582
 10
4.3898065111
 20
0.6002049107
 10
4.1168053951
 20
0.6063200653
 10
3.8304186794
 20
0.5779362056
 10
3.5371030676
 20
0.5156932573
 10
3.239010794
 20
0.4198045288
 10
2.9339896242
 20
0.2900567116
 10
2.6220395581
 20
0.1264498056
  0
LWPOLYLINE
  5
247
100
AcDbEntity
  8
0
100
AcDbPolyline
 62
7
  6
CONTINUOUS
 90
13
 70
0
 10
5.6878457838
 20
0.0475360193
 10
5.5188644674
 20
0.1327237485
 10
5.3400216551
 20
0.1989349783
 10
5.1519623781
 20
0.2459559244
 10
4.955491935
 20
0.2735852361
 10
4.7514516424
 20
0.2817046003
 10
4.5407152322
 20
0.2702792486
 10
4.32418511
 20
0.2393581063
 10
4.102788491
 20
0.1890735823
 10
3.8774734298
 20
0.1196410027
 10
3.6492047601
 20
0.0313576887
 10
3.4189599633
 20
-0.0753983171
 10
3.1877249831
 20
-0.2001698691
  0
LWPOLYLINE
  5
248
100
AcDbEntity
  8
0
100
AcDbPolyline
 62
7
  6
CONTINUOUS
 90
16
 70
0
 10
1.7280478091
 20
2.333873742
 10
1.593660954
 20
2.4035399077
 10
1.4529105879
 20
2.4610769948
 10
1.3060616965
 20
2.5063970407
 10
1.1535167823
 20
2.5393758262
 10
0.9956939604
 20
2.5599229587
 10
0.8330258121
 20
2.5679821201
 10
0.6659581996
 20
2.5635312206
 10
0.4949490436
 20
2.5465824599
 10
0.3204670682
 20
2.5171822934
 10
0.1429905164
 20
2.4754113049
 10
-0.0369941609
 20
2.4213839857
 10
-0.2189936379
 20
2.3552484211
 10
-0.4025090668
 20
2.2771858841
 10
-0.5870374445
 20
2.1874103388
 10
-0.7720729916
 20
2.0861678536
  0
LWPOLYLINE
  5
249
100
AcDbEntity
  8
0
100
AcDbPolyline
 62
7
  6
CONTINUOUS
 90
35
 70
0
 10
29.3705351777
 20
-14.7813879844
 10
29.2633640567
 20
-14.7257335946
 10
29.1123224214
 20
-14.6667365804
 10
28.952090215
 20
-14.6248319241
 10
28.784990462
 20
-14.6006271536
 10
28.6109231143
 20
-14.5943801257
 10
28.42998822
 20
-14.6058329837
 10
28.2448089485
 20
-14.6348196856
 10
28.0553234667
 20
-14.6815956691
 10
27.8615936077
 20
-14.7459054965
 10
27.6664280405
 20
-14.8268168127
 10
27.4698058493
 20
-14.9245714727
 10
27.27174795
 20
-15.0389276216
 10
27.0751257588
 20
-15.1682273394
 10
26.8799601916
 20
-15.3126883282
 10
26.6862303326
 20
-15.4720928859
 10
26.4967448508
 20
-15.6441299872
 10
26.3115655793
 20
-15.8289836664
 10
26.130630685
 20
-16.026469889
 10
25.9565633373
 20
-16.2337255269
 10
25.7894635843
 20
-16.4508929036
 10
25.6292313779
 20
-16.6778296955
 10
25.4781897426
 20
-16.9112458042
 10
25.3364725692
 20
-17.1512356219
 10
25.2039459669
 20
-17.3977047564
 10
25.0825312884
 20
-17.6470799318
 10
24.972390415
 20
-17.899403484
 10
24.8733614653
 20
-18.1546330771
 10
24.7868801476
 20
-18.4090684274
 10
24.7131292589
 20
-18.6626979641
 10
24.6519260022
 20
-18.915533258
 10
24.6041576937
 20
-19.1639087374
 10
24.5701201058
 20
-19.4066025454
 10
24.5495174662
 20
-19.6448365389
 10
24.5423497749
 20
-19.8786107181
  0
LWPOLYLINE
  5
24A
100
AcDbEntity
  8
0
100
AcDbPolyline
 62
7
  6
CONTINUOUS
 90
33
 70
0
 10
5.5960699141
 20
-1.0541928815
 10
5.5197922946
 20
-1.013389449
 10
5.3594687411
 20
-0.9466498506
 10
5.1892830057
 20
-0.8998840258
 10
5.0101868359
 20
-0.8733535082
 10
4.8231818102
 20
-0.867206667
 10
4.6293137366
 20
-0.8814778779
 10
4.429666804
 20
-0.9160873306
 10
4.225357519
 20
-0.9708414749
 10
4.0175284619
 20
-1.0454341034
 10
3.8073418973
 20
-1.1394480639
 10
3.5959732735
 20
-1.2523575922
 10
3.3846046498
 20
-1.3835312524
 10
3.1744180851
 20
-1.5322354683
 10
2.9665890281
 20
-1.6976386254
 10
2.7622797431
 20
-1.8788157223
 10
2.5626328104
 20
-2.0747535431
 10
2.3687647368
 20
-2.2843563241
 10
2.1817597112
 20
-2.5064518815
 10
2.0026635414
 20
-2.7397981668
 10
1.832477806
 20
-2.983090213
 10
1.6721542525
 20
-3.2349674322
 10
1.5225894754
 20
-3.4940212249
 10
1.3846199015
 20
-3.7588028572
 10
1.2590171127
 20
-4.0278315628
 10
1.1464835308
 20
-4.299602824
 10
1.047648489
 20
-4.5725967857
 10
0.9630647132
 20
-4.8452867549
 10
0.89320523
 20
-5.1161477387
 10
0.838460722
 20
-5.3836649727
 10
0.7991373429
 20
-5.6463423919
 10
0.7754550047
 20
-5.9027109976
 10
0.7675461488
 20
-6.1513370727
  0
LWPOLYLINE
  5
24B
100
AcDbEntity
  8
0
100
AcDbPolyline
 62
7
  6
CONTINUOUS
 90
42
 70
0
 10
-22.9550714095
 20
15.430778092
 10
-23.0143090862
 20
15.4630328923
 10
-23.1370469975
 20
15.5183530352
 10
-23.2659850055
 20
15.5615615268
 10
-23.4010609443
 20
15.592779806
 10
-23.5409113458
 20
15.6116927526
 10
-23.6855845664
 20
15.6181757364
 10
-23.8350322496
 20
15.6123533877
 10
-23.9877458576
 20
15.5942844779
 10
-24.1437584681
 20
15.5638449717
 10
-24.3030370035
 20
15.5211589043
 10
-24.4639736923
 20
15.4666571527
 10
-24.6265853286
 20
15.4002200455
 10
-24.7908551184
 20
15.321967254
 10
-24.9551249082
 20
15.2326886686
 10
-25.1193946979
 20
15.1322726183
 10
-25.2836644877
 20
15.0208307741
 10
-25.446276124
 20
14.8994880397
 10
-25.6072128128
 20
14.7681441372
 10
-25.7664913482
 20
14.6268993444
 10
-25.9225039587
 20
14.4771793985
 10
-26.0752175667
 20
14.3188984617
 10
-26.2246652499
 20
14.1521423719
 10
-26.3693384705
 20
13.9785943793
 10
-26.509188872
 20
13.7981856945
 10
-26.6442648108
 20
13.610985107
 10
-26.7732028188
 20
13.4188822357
 10
-26.8959407301
 20
13.2218274295
 10
-27.0125407105
 20
13.0198703394
 10
-27.1218257898
 20
12.8150495379
 10
-27.2237218815
 20
12.6073360208
 10
-27.3183030721
 20
12.3967587922
 10
-27.4046146509
 20
12.1854434368
 10
-27.4825728619
 20
11.973382479
 10
-27.5522614611
 20
11.7605833943
 10
-27.6129770057
 20
11.5491941954
 10
-27.6646286152
 20
11.3392291616
 10
-27.7073071701
 20
11.1306740135
 10
-27.7405818694
 20
10.9256339247
 10
-27.7643091128
 20
10.7248106198
 10
-27.7786325007
 20
10.5275023743
 10
-27.7835520329
 20
10.3337091881
  0
LINE
  5
24C
100
AcDbEntity
  8
0
100
AcDbLine
 62
7
  6
CONTINUOUS
 10
-22.9550282676
 20
15.4308533793
 11
-0.2707472533
 21
2.3332338225
  0
LINE
  5
24D
100
AcDbEntity
  8
0
100
AcDbLine
 62
7
  6
CONTINUOUS
 10
5.5960699141
 20
-1.0541928815
 11
29.3708735402
 21
-14.7814665269
  0
LWPOLYLINE
  5
24E
100
AcDbEntity
  8
0
100
AcDbPolyline
 62
7
  6
CONTINUOUS
 90
11
 70
0
 10
-33.7311389732
 20
17.5840822777
 10
-33.9542539429
 20
17.6728822106
 10
-34.1744030592
 20
17.7424151573
 10
-34.3915323267
 20
17.7927812622
 10
-34.6030909907
 20
17.8238179651
 10
-34.8087227388
 20
17.8361724404
 10
-35.0079161674
 20
17.8306769521
 10
-35.1977011752
 20
17.8088906867
 10
-35.3768597489
 20
17.7729175548
 10
-35.5459852645
 20
17.7246190589
 10
-35.6473575082
 20
17.6887138344
  0
LWPOLYLINE
  5
24F
100
AcDbEntity
  8
0
100
AcDbPolyline
 62
7
  6
CONTINUOUS
 90
13
 70
0
 10
2.2940300925
 20
2.0069369945
 10
2.2498029863
 20
2.0315412246
 10
2.0658208575
 20
2.1165917606
 10
1.8717471223
 20
2.1797773658
 10
1.6674347634
 20
2.2207795062
 10
1.4530307981
 20
2.2399167158
 10
1.2316436258
 20
2.236911546
 10
1.0031715131
 20
2.2114414207
 10
0.7677161934
 20
2.1638289161
 10
0.5286912657
 20
2.0947643116
 10
0.2872345963
 20
2.0044777005
 10
0.0422083188
 20
1.8927389896
 10
-0.2063875666
 20
1.7595481789
  0
LINE
  5
250
100
AcDbEntity
  8
0
100
AcDbLine
 62
7
  6
CONTINUOUS
 10
1.7280478091
 20
2.333873742
 11
2.2937332341
 21
2.0072540673
  0
LINE
  5
251
100
AcDbEntity
  8
0
100
AcDbLine
 62
7
  6
CONTINUOUS
 10
5.1221603588
 20
0.374155694
 11
5.6878457838
 21
0.0475360193
  0
LWPOLYLINE
  5
252
100
AcDbEntity
  8
0
100
AcDbPolyline
 62
7
  6
CONTINUOUS
 90
10
 70
0
 10
3.2685089972
 20
0.4292933531
 10
3.2239067463
 20
0.6458317703
 10
3.1561049932
 20
0.8801738117
 10
3.071736799
 20
1.0987353186
 10
2.9710400426
 20
1.3017428849
 10
2.8554746119
 20
1.4862533346
 10
2.7248238959
 20
1.651997197
 10
2.5793045055
 20
1.7992439428
 10
2.4210261609
 20
1.9258588089
 10
2.2940300925
 20
2.0069369945
  0
LWPOLYLINE
  5
253
100
AcDbEntity
  8
0
100
AcDbPolyline
 62
7
  6
CONTINUOUS
 90
19
 70
0
 10
-27.6680187122
 20
11.322662945
 10
-27.8071131257
 20
11.3443261953
 10
-27.9634582286
 20
11.3812922882
 10
-28.1257455856
 20
11.4324954463
 10
-28.294497166
 20
11.498653757
 10
-28.4692804124
 20
11.5799241209
 10
-28.6481912376
 20
11.6752894649
 10
-28.8305148021
 20
11.7841047442
 10
-29.0164242624
 20
11.9062238873
 10
-29.2052403367
 20
12.0408905195
 10
-29.3965909931
 20
12.1873714237
 10
-29.5904711226
 20
12.3450468619
 10
-29.786908139
 20
12.5133382579
 10
-29.985695112
 20
12.6914735025
 10
-30.186761877
 20
12.8786636476
 10
-30.3903991117
 20
13.0744072627
 10
-30.5967130699
 20
13.2780643993
 10
-30.8053950304
 20
13.4885210261
 10
-31.0161351058
 20
13.7045439167
  0
LWPOLYLINE
  5
254
100
AcDbEntity
  8
0
100
AcDbPolyline
 62
7
  6
CONTINUOUS
 90
17
 70
0
 10
-34.3746373065
 20
16.7583872711
 10
-34.348131714
 20
16.7508378606
 10
-34.193546743
 20
16.6939531214
 10
-34.0316222881
 20
16.6215981016
 10
-33.862967795
 20
16.5335859376
 10
-33.6906781426
 20
16.4316455479
 10
-33.5157677191
 20
16.3169661254
 10
-33.3379249264
 20
16.1898901701
 10
-33.1581332776
 20
16.0516504656
 10
-32.9768405726
 20
15.903324118
 10
-32.7940160511
 20
15.7458254632
 10
-32.6097557073
 20
15.5801156603
 10
-32.4243692356
 20
15.4072895603
 10
-32.2378570266
 20
15.2280989751
 10
-32.0497951989
 20
15.0428002583
 10
-31.8606006683
 20
14.8524273401
 10
-31.6700811385
 20
14.6575748354
  0
LWPOLYLINE
  5
255
100
AcDbEntity
  8
0
100
AcDbPolyline
 62
7
  6
CONTINUOUS
 90
11
 70
0
 10
6.6864686914
 20
-1.6837754696
 10
6.6553245963
 20
-1.4839454492
 10
6.6027884925
 20
-1.2541160962
 10
6.5356285623
 20
-1.037254839
 10
6.4541323951
 20
-0.8342903108
 10
6.3586489698
 20
-0.6460916369
 10
6.2495871613
 20
-0.4734647129
 10
6.1274139888
 20
-0.3171487538
 10
5.9926526166
 20
-0.1778131285
 10
5.8458801137
 20
-0.0560544936
 10
5.6878457838
 20
0.0475360193
  0
LWPOLYLINE
  5
256
100
AcDbEntity
  8
0
100
AcDbPolyline
 62
7
  6
CONTINUOUS
 90
17
 70
0
 10
-31.9005922922
 20
18.1877310934
 10
-31.879362394
 20
18.1817718256
 10
-31.725077743
 20
18.1255686747
 10
-31.5634851326
 20
18.0538188305
 10
-31.395016116
 20
17.9664011941
 10
-31.2228255804
 20
17.8650487549
 10
-31.0480512505
 20
17.7508745271
 10
-30.870334346
 20
17.6241384041
 10
-30.6905703444
 20
17.4861320434
 10
-30.5091337232
 20
17.3380540719
 10
-30.3260599007
 20
17.1807970123
 10
-30.1415523156
 20
17.0153207772
 10
-29.9559832713
 20
16.8426885168
 10
-29.7693762737
 20
16.6635881859
 10
-29.5813360955
 20
16.4782456835
 10
-29.3921743263
 20
16.2877736244
 10
-29.2016349772
 20
16.092825993
  0
LWPOLYLINE
  5
257
100
AcDbEntity
  8
0
100
AcDbPolyline
 62
7
  6
CONTINUOUS
 90
8
 70
0
 10
-35.4579883189
 20
17.1815335199
 10
-35.6698024914
 20
17.2119997147
 10
-35.8755346414
 20
17.2238089905
 10
-36.0746901454
 20
17.2178412685
 10
-36.264335579
 20
17.1955645416
 10
-36.4432761052
 20
17.1591196631
 10
-36.6121093188
 20
17.1104118207
 10
-36.707962635
 20
17.0763228218
  0
LWPOLYLINE
  5
258
100
AcDbEntity
  8
0
100
AcDbPolyline
 62
7
  6
CONTINUOUS
 90
8
 70
0
 10
-32.9773187643
 20
18.6093304489
 10
-33.1888774283
 20
18.6403671517
 10
-33.3945091764
 20
18.6527216271
 10
-33.593702605
 20
18.6472261387
 10
-33.7834876128
 20
18.6254398734
 10
-33.9626461865
 20
18.5894667414
 10
-34.1317717021
 20
18.5411682455
 10
-34.2331439459
 20
18.505263021
  0
LWPOLYLINE
  5
259
100
AcDbEntity
  8
0
100
AcDbPolyline
 62
7
  6
CONTINUOUS
 90
23
 70
0
 10
-33.778383724
 20
17.6028857256
 10
-33.7028159985
 20
17.6233655275
 10
-33.591466523
 20
17.6429271765
 10
-33.4745615462
 20
17.652302487
 10
-33.351296571
 20
17.6506077881
 10
-33.2206506459
 20
17.6367872307
 10
-33.0814750662
 20
17.609414696
 10
-32.9339181516
 20
17.5673870472
 10
-32.7793331806
 20
17.5105023081
 10
-32.6174087257
 20
17.4381472883
 10
-32.4487542326
 20
17.3501351243
 10
-32.2764645802
 20
17.2481947345
 10
-32.1015541567
 20
17.1335153121
 10
-31.923711364
 20
17.0064393568
 10
-31.7439197152
 20
16.8681996523
 10
-31.5626270102
 20
16.7198733047
 10
-31.3798024887
 20
16.5623746498
 10
-31.1955421449
 20
16.3966648469
 10
-31.0101556732
 20
16.2238387469
 10
-30.8236434642
 20
16.0446481617
 10
-30.6355816366
 20
15.859349445
 10
-30.4463871059
 20
15.6689765268
 10
-30.2558675761
 20
15.474124022
  0
LWPOLYLINE
  5
25A
100
AcDbEntity
  8
0
100
AcDbPolyline
 62
7
  6
CONTINUOUS
 90
13
 70
0
 10
24.5423497749
 20
-19.8786107181
 10
24.5495174662
 20
-20.1041078271
 10
24.5701201058
 20
-20.3185504089
 10
24.6041576937
 20
-20.5219384634
 10
24.6519260022
 20
-20.7151522977
 10
24.7131292589
 20
-20.8973116047
 10
24.7868801476
 20
-21.0657754639
 10
24.8733614653
 20
-21.2203443561
 10
24.972390415
 20
-21.3612178004
 10
25.0825312884
 20
-21.4863534329
 10
25.2039459669
 20
-21.5955219808
 10
25.3364725692
 20
-21.6889527169
 10
25.3710186216
 20
-21.7096367052
  0
LWPOLYLINE
  5
25B
100
AcDbEntity
  8
0
100
AcDbPolyline
 62
7
  6
CONTINUOUS
 90
13
 70
0
 10
30.1992040244
 20
-16.6124139715
 10
30.1920363331
 20
-16.3869168625
 10
30.1714336935
 20
-16.1724742808
 10
30.1373961056
 20
-15.9690862262
 10
30.0896277971
 20
-15.7758723919
 10
30.0284245404
 20
-15.5937130849
 10
29.9546736517
 20
-15.4252492258
 10
29.868192334
 20
-15.2706803335
 10
29.7691633843
 20
-15.1298068892
 10
29.6590225109
 20
-15.0046712568
 10
29.5376078324
 20
-14.8955027089
 10
29.4050812301
 20
-14.8020719728
 10
29.3705351777
 20
-14.7813879844
  0
ENDSEC
  0
SECTION
  2
OBJECTS
  0
DICTIONARY
  5
C
100
AcDbDictionary
280
0
281
1
  3
ACAD_GROUP
350
D
  3
ACAD_MLINESTYLE
350
17
  3
ACAD_LAYOUT
350
1A
  3
ACAD_PLOTSETTINGS
350
19
  3
ACAD_PLOTSTYLENAME
350
E
  0
DICTIONARY
  5
D
102
{ACAD_REACTORS
330
C
102
}
100
AcDbDictionary
280
0
281
1
  0
ACDBDICTIONARYWDFLT
  5
E
102
{ACAD_REACTORS
330
C
102
}
100
AcDbDictionary
281
1
  3
Normal
350
F
100
AcDbDictionaryWithDefault
340
F
  0
DICTIONARY
  5
17
102
{ACAD_REACTORS
330
C
102
}
100
AcDbDictionary
280
0
281
1
  3
Standard
350
18
  0
DICTIONARY
  5
19
102
{ACAD_REACTORS
330
C
102
}
100
AcDbDictionary
281
1
  0
DICTIONARY
  5
1A
102
{ACAD_REACTORS
330
C
102
}
100
AcDbDictionary
281
1
  3
Model
350
25C
  3
Layout1
350
25D
  0
ACDBPLACEHOLDER
  5
F
102
{ACAD_REACTORS
330
E
102
}
  0
MLINESTYLE
  5
18
102
{ACAD_REACTORS
330
17
102
}
100
AcDbMlineStyle
  2
STANDARD
 70
0
  3

 62
256
 51
90.0
 52
90.0
 71
2
 49
0.5
 62
256
  6
BYLAYER
 49
-0.5
 62
256
  6
BYLAYER
  0
LAYOUT
  5
25C
102
{ACAD_REACTORS
330
1A
102
}
100
AcDbPlotSettings
  1

  2
none_device
  4
ISO_A4_(297.00_x_210.00_MM)
  6

 40
0.0
 41
0.0
 42
0.0
 43
0.0
 44
297.0
 45
210.0
 46
0.0
 47
0.0
 48
0.0
 49
0.0
140
0.0
141
0.0
142
1.0
143
1.0
 70
1024
 72
1
 73
0
 74
0
  7

 75
0
147
1.0
148
0.0
149
0.0
100
AcDbLayout
  1
Model
 70
0
 71
0
 10
0.0
 20
0.0
 11
297.0
 21
210.0
 12
0.0
 22
0.0
 32
0.0
 14
0.0
 24
0.0
 34
0.0
 15
0.0
 25
0.0
 35
0.0
146
0.0
 13
0.0
 23
0.0
 33
0.0
 16
1.0
 26
0.0
 36
0.0
 17
0.0
 27
1.0
 37
0.0
 76
0
330
20E
345
0
346
0
  0
LAYOUT
  5
25D
102
{ACAD_REACTORS
330
1A
102
}
100
AcDbPlotSettings
  1

  2
none_device
  4
ISO_A4_(297.00_x_210.00_MM)
  6

 40
0.0
 41
0.0
 42
0.0
 43
0.0
 44
297.0
 45
210.0
 46
0.0
 47
0.0
 48
0.0
 49
0.0
140
0.0
141
0.0
142
1.0
143
1.0
 70
0
 72
1
 73
0
 74
0
  7

 75
0
147
1.0
148
0.0
149
0.0
100
AcDbLayout
  1
Layout1
 70
0
 71
1
 10
0.0
 20
0.0
 11
297.0
 21
210.0
 12
0.0
 22
0.0
 32
0.0
 14
0.0
 24
0.0
 34
0.0
 15
0.0
 25
0.0
 35
0.0
146
0.0
 13
0.0
 23
0.0
 33
0.0
 16
1.0
 26
0.0
 36
0.0
 17
0.0
 27
1.0
 37
0.0
 76
0
330
20F
345
0
346
0
  0
ENDSEC
  0
EOF
