  0
SECTION
  2
HEADER
  9
$ACADVER
  1
AC1024
  9
$DWGCODEPAGE
  3
ANSI_1252
  9
$EXTMAX
 10
297.0
 20
210.0
 30
0.0
  9
$EXTMIN
 10
0.0
 20
0.0
 30
0.0
  9
$LIMMIN
 10
0.0
 20
0.0
  9
$LIMMAX
 10
297.0
 20
210.0
  9
$VIEWCTR
 10
148.5
 20
105.0
  9
$VIEWSIZE
 40
210.0
  9
$CLAYER
  8
0
  9
$LTSCALE
 40
16.335
  9
$CELTYPE
  6
BYLAYER
  9
$DIMSCALE
 40
1.0
  9
$DIMASZ
 40
3.0
  9
$DIMEXO
 40
0.5
  9
$DIMDLI
 40
11.286
  9
$DIMEXE
 40
1.5
  9
$DIMCEN
 40
2.673
  9
$DIMLFAC
 40
1.0
  9
$DIMBLK
  1
_FILLED
  9
$DIMALT
 70
0
  9
$DIMALTF
 40
0.0393700787
  9
$DIMTXT
 40
3.0
  9
$DIMTOL
 70
1
  9
$DIMLIM
 70
0
  9
$DIMTFAC
 40
1.0
  9
$DIMTP
 40
0.01
  9
$DIMTM
 40
0.01
  9
$DIMGAP
 40
0.625
  9
$DIMDSEP
 70
44
  9
$AUNITS
 70
0
  9
$PDMODE
 70
3
  9
$PDSIZE
 40
3.0
  9
$HANDSEED
  5
265
  9
$TILEMODE
 70
1
  9
$MEASUREMENT
 70
1
  9
$INSUNITS
 70
4
  0
ENDSEC
  0
SECTION
  2
CLASSES
  0
CLASS
  1
ACDBDICTIONARYWDFLT
  2
AcDbDictionaryWithDefault
  3
AutoCAD 2000
 90
0
 91
1
280
0
281
0
  0
CLASS
  1
ACDBPLACEHOLDER
  2
AcDbPlaceHolder
  3
AutoCAD 2000
 90
0
 91
1
280
0
281
0
  0
CLASS
  1
LAYOUT
  2
AcDbLayout
  3
AutoCAD 2000
 90
0
 91
0
280
0
281
0
  0
ENDSEC
  0
SECTION
  2
TABLES
  0
TABLE
  2
VPORT
  5
8
100
AcDbSymbolTable
 70
2
  0
VPORT
  5
1F4
100
AcDbSymbolTableRecord
100
AcDbViewportTableRecord
  2
*ACTIVE
 70
0
 10
0.0
 20
0.0
 11
1.0
 21
1.0
 12
148.5
 22
105.0
 13
0.0
 23
0.0
 14
1.0
 24
1.0
 15
0.0
 25
0.0
 16
0.0
 26
0.0
 36
1.0
 17
0.0
 27
0.0
 37
0.0
 40
210.0
 41
1.4142857143
 42
50.0
 43
0.0
 44
0.0
 50
0.0
 51
0.0
 71
0
 72
100
 73
1
 74
1
 75
0
 76
0
 77
0
 78
0
  0
ENDTAB
  0
TABLE
  2
LTYPE
  5
5
100
AcDbSymbolTable
 70
6
  0
LTYPE
  5
14
100
AcDbSymbolTableRecord
100
AcDbLinetypeTableRecord
  2
BYBLOCK
 70
0
  3

 72
65
 73
0
 40
0.0
  0
LTYPE
  5
15
100
AcDbSymbolTableRecord
100
AcDbLinetypeTableRecord
  2
BYLAYER
 70
0
  3

 72
65
 73
0
 40
0.0
  0
LTYPE
  5
16
100
AcDbSymbolTableRecord
100
AcDbLinetypeTableRecord
  2
CONTINUOUS
 70
64
  3
Solid line
 72
65
 73
0
 40
0.0
  0
LTYPE
  5
1F5
100
AcDbSymbolTableRecord
100
AcDbLinetypeTableRecord
  2
CENTER
 70
64
  3
____ _ ____ _ ____ _ ____ _ ____ _ ____ _ ____
 72
65
 73
4
 40
0.6
 49
0.375
 74
0
 49
-0.075
 74
0
 49
0.075
 74
0
 49
-0.075
 74
0
  0
LTYPE
  5
1F6
100
AcDbSymbolTableRecord
100
AcDbLinetypeTableRecord
  2
HIDDEN
 70
64
  3
- - - - - - - - - - - - - - - - - - - -
 72
65
 73
2
 40
0.2
 49
0.1
 74
0
 49
-0.1
 74
0
  0
LTYPE
  5
1F7
100
AcDbSymbolTableRecord
100
AcDbLinetypeTableRecord
  2
PHANTOM
 70
64
  3
_____ _ _ _____ _ _ _____ _ _ _____
 72
65
 73
6
 40
0.8
 49
0.45
 74
0
 49
-0.05
 74
0
 49
0.1
 74
0
 49
-0.05
 74
0
 49
0.1
 74
0
 49
-0.05
 74
0
  0
LTYPE
  5
1F8
100
AcDbSymbolTableRecord
100
AcDbLinetypeTableRecord
  2
DOT
 70
64
  3
. . . . . . . . . . . . . . . . . . . .
 72
65
 73
2
 40
0.2
 49
0.1
 74
0
 49
-0.1
 74
0
  0
LTYPE
  5
1F9
100
AcDbSymbolTableRecord
100
AcDbLinetypeTableRecord
  2
DASHED
 70
64
  3
- - - - - - - - - - - - - - - - - - - -
 72
65
 73
2
 40
0.2
 49
0.1
 74
0
 49
-0.1
 74
0
  0
ENDTAB
  0
TABLE
  2
LAYER
  5
2
100
AcDbSymbolTable
 70
36
  0
LAYER
  5
10
100
AcDbSymbolTableRecord
100
AcDbLayerTableRecord
  2
0
 70
0
 62
7
  6
CONTINUOUS
370
-3
390
F
  0
LAYER
  5
1FA
100
AcDbSymbolTableRecord
100
AcDbLayerTableRecord
  2
DEFAULT_1
 70
0
 62
7
  6
CENTER
370
-3
390
F
  0
LAYER
  5
1FB
100
AcDbSymbolTableRecord
100
AcDbLayerTableRecord
  2
DEFAULT_2
 70
0
 62
7
  6
HIDDEN
370
-3
390
F
  0
LAYER
  5
1FC
100
AcDbSymbolTableRecord
100
AcDbLayerTableRecord
  2
DEFAULT_3
 70
0
 62
7
  6
PHANTOM
370
-3
390
F
  0
LAYER
  5
1FD
100
AcDbSymbolTableRecord
100
AcDbLayerTableRecord
  2
ASSI
 70
0
 62
7
  6
CONTINUOUS
370
-3
390
F
  0
LAYER
  5
1FE
100
AcDbSymbolTableRecord
100
AcDbLayerTableRecord
  2
COORDINATE
 70
0
 62
7
  6
CONTINUOUS
370
-3
390
F
  0
LAYER
  5
1FF
100
AcDbSymbolTableRecord
100
AcDbLayerTableRecord
  2
COPY_PUBLISH
 70
0
 62
7
  6
CONTINUOUS
370
-3
390
F
  0
LAYER
  5
200
100
AcDbSymbolTableRecord
100
AcDbLayerTableRecord
  2
COSMETICI
 70
0
 62
7
  6
CONTINUOUS
370
-3
390
F
  0
LAYER
  5
201
100
AcDbSymbolTableRecord
100
AcDbLayerTableRecord
  2
CURVE
 70
0
 62
7
  6
CONTINUOUS
370
-3
390
F
  0
LAYER
  5
202
100
AcDbSymbolTableRecord
100
AcDbLayerTableRecord
  2
DRAFT
 70
0
 62
7
  6
CONTINUOUS
370
-3
390
F
  0
LAYER
  5
203
100
AcDbSymbolTableRecord
100
AcDbLayerTableRecord
  2
IMPORT_IGES
 70
0
 62
7
  6
CONTINUOUS
370
-3
390
F
  0
LAYER
  5
204
100
AcDbSymbolTableRecord
100
AcDbLayerTableRecord
  2
NOTE
 70
0
 62
7
  6
CONTINUOUS
370
-3
390
F
  0
LAYER
  5
205
100
AcDbSymbolTableRecord
100
AcDbLayerTableRecord
  2
PIANI
 70
0
 62
7
  6
CONTINUOUS
370
-3
390
F
  0
LAYER
  5
206
100
AcDbSymbolTableRecord
100
AcDbLayerTableRecord
  2
PUNTI
 70
0
 62
7
  6
CONTINUOUS
370
-3
390
F
  0
LAYER
  5
207
100
AcDbSymbolTableRecord
100
AcDbLayerTableRecord
  2
RACCORDO
 70
0
 62
7
  6
CONTINUOUS
370
-3
390
F
  0
LAYER
  5
208
100
AcDbSymbolTableRecord
100
AcDbLayerTableRecord
  2
SIMBOLI
 70
0
 62
7
  6
CONTINUOUS
370
-3
390
F
  0
LAYER
  5
209
100
AcDbSymbolTableRecord
100
AcDbLayerTableRecord
  2
SMUSSO
 70
0
 62
7
  6
CONTINUOUS
370
-3
390
F
  0
LAYER
  5
20A
100
AcDbSymbolTableRecord
100
AcDbLayerTableRecord
  2
SUPERFICI
 70
0
 62
7
  6
CONTINUOUS
370
-3
390
F
  0
LAYER
  5
20B
100
AcDbSymbolTableRecord
100
AcDbLayerTableRecord
  2
TRASH
 70
0
 62
7
  6
CONTINUOUS
370
-3
390
F
  0
ENDTAB
  0
TABLE
  2
STYLE
  5
3
100
AcDbSymbolTable
 70
1
  0
STYLE
  5
11
100
AcDbSymbolTableRecord
100
AcDbTextStyleTableRecord
  2
STANDARD
 70
0
 40
0.0
 41
0.8
 50
0.0
 71
0
 42
0.2
  3
txt
  4

  0
STYLE
  5
20C
100
AcDbSymbolTableRecord
100
AcDbTextStyleTableRecord
  2
TEXTSTYLE_1
 70
0
 40
0.0
 41
0.8
 50
0.0
 71
0
 42
0.2
  3
gdt
  4

  0
ENDTAB
  0
TABLE
  2
VIEW
  5
6
100
AcDbSymbolTable
 70
0
  0
ENDTAB
  0
TABLE
  2
UCS
  5
7
100
AcDbSymbolTable
 70
0
  0
ENDTAB
  0
TABLE
  2
APPID
  5
9
100
AcDbSymbolTable
 70
1
  0
APPID
  5
20D
100
AcDbSymbolTableRecord
100
AcDbRegAppTableRecord
  2
ACAD
 70
0
  0
ENDTAB
  0
TABLE
  2
BLOCK_RECORD
  5
1
100
AcDbSymbolTable
 70
0
  0
BLOCK_RECORD
  5
20E
100
AcDbSymbolTableRecord
100
AcDbBlockTableRecord
  2
*Model_Space
  0
BLOCK_RECORD
  5
20F
100
AcDbSymbolTableRecord
100
AcDbBlockTableRecord
  2
*Paper_Space
  0
BLOCK_RECORD
  5
210
100
AcDbSymbolTableRecord
100
AcDbBlockTableRecord
  2
_FILLED
  0
ENDTAB
  0
TABLE
  2
DIMSTYLE
  5
A
100
AcDbSymbolTable
 70
1
100
AcDbDimStyleTable
 71
0
  0
DIMSTYLE
105
211
100
AcDbSymbolTableRecord
100
AcDbDimStyleTableRecord
  2
STANDARD
 70
0
  3

  4

 40
1.0
 41
3.0
 42
0.5
 43
0.38
 44
1.5
 45
0.0
 46
0.0
 47
0.01
 48
0.01
140
3.0
141
0.09
142
0.0
143
25.4
144
1.0
145
0.0
146
1.0
147
0.625
 71
1
 72
0
 73
0
 74
0
 75
0
 76
0
 77
1
 78
8
 79
2
170
0
171
1
172
0
173
0
174
0
175
0
176
0
177
0
178
0
270
2
179
2
271
2
272
2
273
2
274
2
275
0
280
0
281
0
282
0
283
1
284
8
285
0
286
0
287
3
288
0
340
11
278
44
341
210
342
210
343
210
344
210
  0
ENDTAB
  0
ENDSEC
  0
SECTION
  2
BLOCKS
  0
BLOCK
  5
20
100
AcDbEntity
  8
0
100
AcDbBlockBegin
  2
*Model_Space
 70
0
 10
0.0
 20
0.0
 30
0.0
  3
*Model_Space
  1

  0
ENDBLK
  5
21
100
AcDbEntity
  8
0
100
AcDbBlockEnd
  0
BLOCK
  5
1C
100
AcDbEntity
  8
0
100
AcDbBlockBegin
  2
*Paper_Space
 70
0
 10
0.0
 20
0.0
 30
0.0
  3
*Paper_Space
  1

  0
ENDBLK
  5
1D
100
AcDbEntity
  8
0
100
AcDbBlockEnd
  0
BLOCK
  5
212
100
AcDbEntity
  8
0
100
AcDbBlockBegin
  2
_FILLED
 70
64
 10
0.0
 20
0.0
  3
_FILLED
  1

  0
SOLID
  5
213
100
AcDbEntity
  8
0
  6
BYBLOCK
 62
0
100
AcDbTrace
 10
0.0
 20
0.0
 11
-1.0
 21
0.3166666667
 12
-1.0
 22
-0.3166666667
 13
-1.0
 23
-0.3166666667
  0
ENDBLK
  5
214
100
AcDbEntity
  8
0
  6
BYBLOCK
 62
0
100
AcDbBlockEnd
  0
ENDSEC
  0
SECTION
  2
ENTITIES
  0
LINE
  5
215
100
AcDbEntity
  8
0
100
AcDbLine
 62
7
  6
CONTINUOUS
 10
-8.2174695868
 20
10.645267378
 11
-8.9245763679
 21
10.2369927847
  0
LINE
  5
216
100
AcDbEntity
  8
0
100
AcDbLine
 62
7
  6
CONTINUOUS
 10
-13.1672170551
 20
7.7873452247
 11
-13.8743238363
 21
7.3790706314
  0
LINE
  5
217
100
AcDbEntity
  8
0
100
AcDbLine
 62
7
  6
CONTINUOUS
 10
-1.560567017
 20
12.1794412157
 11
-3.9043716165
 21
10.8261578147
  0
LINE
  5
218
100
AcDbEntity
  8
0
100
AcDbLine
 62
7
  6
CONTINUOUS
 10
-12.874275516
 20
5.6470477224
 11
-18.5311297655
 21
2.3808509758
  0
LINE
  5
219
100
AcDbEntity
  8
0
100
AcDbLine
 62
7
  6
CONTINUOUS
 10
5.889301252
 20
10.7073060966
 11
5.2678269231
 21
10.348474608
  0
LINE
  5
21A
100
AcDbEntity
  8
0
100
AcDbLine
 62
7
  6
CONTINUOUS
 10
-16.0310089648
 20
-1.9492062965
 11
-20.9807564331
 21
-4.8071284498
  0
LWPOLYLINE
  5
21B
100
AcDbEntity
  8
0
100
AcDbPolyline
 62
7
  6
CONTINUOUS
 90
14
 70
0
 10
11.2793461026
 20
7.0598074189
 10
11.3982099259
 20
7.095412043
 10
11.7940161053
 20
7.2328035165
 10
12.1822523276
 20
7.3867490467
 10
12.562911445
 20
7.5571214903
 10
12.9346919902
 20
7.7428816258
 10
13.2979638419
 20
7.9432961096
 10
13.6535773294
 20
8.1576285546
 10
14.0014798384
 20
8.3844442083
 10
14.3437966484
 20
8.6233603528
 10
14.6810242877
 20
8.8724928812
 10
15.0113317625
 20
9.1276183937
 10
15.3375440957
 20
9.3877856854
 10
15.9785894954
 20
9.910189381
  0
LWPOLYLINE
  5
21C
100
AcDbEntity
  8
0
100
AcDbPolyline
 62
7
  6
CONTINUOUS
 90
19
 70
0
 10
15.0213930797
 20
12.0523257813
 10
14.7397591088
 20
11.8233431728
 10
14.4595119515
 20
11.5993166619
 10
14.1791600425
 20
11.3809912443
 10
13.8984944532
 20
11.1700228393
 10
13.6165448813
 20
10.9673361737
 10
13.3318499866
 20
10.7734166469
 10
13.0436493273
 20
10.5891652031
 10
12.7510209447
 20
10.4152764637
 10
12.4529365872
 20
10.2522116061
 10
12.148722978
 20
10.1003151526
 10
11.837178287
 20
9.9595860373
 10
11.5181636859
 20
9.830472525
 10
11.1930064936
 20
9.7137714535
 10
10.8616088412
 20
9.6093956678
 10
10.5237676899
 20
9.5170722011
 10
10.1812723857
 20
9.4371612357
 10
9.8347500634
 20
9.3696147091
 10
9.7522670599
 20
9.3565387254
  0
LWPOLYLINE
  5
21D
100
AcDbEntity
  8
0
100
AcDbPolyline
 62
7
  6
CONTINUOUS
 90
13
 70
0
 10
11.7749563472
 20
5.5932469767
 10
11.7940161053
 20
5.599862963
 10
12.1822523276
 20
5.7538084931
 10
12.562911445
 20
5.9241809367
 10
12.9346919902
 20
6.1099410722
 10
13.2979638419
 20
6.310355556
 10
13.6535773294
 20
6.524688001
 10
14.0014798384
 20
6.7515036547
 10
14.3437966484
 20
6.9904197992
 10
14.6810242877
 20
7.2395523276
 10
15.0113317625
 20
7.4946778401
 10
15.3375440957
 20
7.7548451318
 10
15.9785894954
 20
8.2772488274
  0
LWPOLYLINE
  5
21E
100
AcDbEntity
  8
0
100
AcDbPolyline
 62
7
  6
CONTINUOUS
 90
16
 70
0
 10
15.5902998925
 20
10.8842638392
 10
14.7377476976
 20
10.1885260162
 10
14.458025163
 20
9.9646641685
 10
14.1782647906
 20
9.7465821381
 10
13.8981408836
 20
9.5359820314
 10
13.6166694088
 20
9.3337875388
 10
13.3324280164
 20
9.1404164472
 10
13.0446365388
 20
8.9566628872
 10
12.7523654069
 20
8.7831322394
 10
12.4546301416
 20
8.6202645346
 10
12.1508026096
 20
8.4684537735
 10
11.8396879027
 20
8.3277376598
 10
11.5210913089
 20
8.198593425
 10
11.1963509834
 20
8.0818579164
 10
10.8654134853
 20
7.9774978134
 10
10.8051009799
 20
7.9610242282
  0
LWPOLYLINE
  5
21F
100
AcDbEntity
  8
0
100
AcDbPolyline
 62
7
  6
CONTINUOUS
 90
19
 70
0
 10
15.9660776844
 20
11.5328622309
 10
16.2793518727
 20
11.7871235191
 10
16.5907274199
 20
12.0352280627
 10
16.8992340362
 20
12.2738367355
 10
17.2050785787
 20
12.5009843324
 10
17.5109659609
 20
12.7168848013
 10
17.8193581021
 20
12.9216262085
 10
18.1313235157
 20
13.1144487236
 10
18.4478694611
 20
13.2949855153
 10
18.7712857038
 20
13.4638225
 10
19.103105615
 20
13.6210418615
 10
19.4432785303
 20
13.7660345563
 10
19.7914495843
 20
13.8982864975
 10
20.1480266825
 20
14.0175683895
 10
20.5133657539
 20
14.1236290752
 10
20.8865264912
 20
14.2161457301
 10
21.2669431156
 20
14.2952527291
 10
21.6546458216
 20
14.3614254486
 10
21.9719984387
 20
14.4056797824
  0
LWPOLYLINE
  5
220
100
AcDbEntity
  8
0
100
AcDbPolyline
 62
7
  6
CONTINUOUS
 90
12
 70
0
 10
11.9118738302
 20
4.0137199258
 10
12.1680869852
 20
4.1149070983
 10
12.5480481906
 20
4.2843006257
 10
12.9193504631
 20
4.4690565975
 10
13.2823177029
 20
4.668409673
 10
13.6377806536
 20
4.8816207631
 10
13.9857852072
 20
5.1074428321
 10
14.328469028
 20
5.3456854383
 10
14.6661870342
 20
5.594556314
 10
14.9969876327
 20
5.8498463706
 10
15.3237370186
 20
6.1104763466
 10
15.9660776844
 20
6.6340405702
  0
LWPOLYLINE
  5
221
100
AcDbEntity
  8
0
100
AcDbPolyline
 62
7
  6
CONTINUOUS
 90
14
 70
0
 10
15.5902998925
 20
9.2513232856
 10
14.7377476976
 20
8.5555854626
 10
14.458025163
 20
8.3317236149
 10
14.1782647906
 20
8.1136415845
 10
13.8981408836
 20
7.9030414778
 10
13.6166694088
 20
7.7008469852
 10
13.3324280164
 20
7.5074758936
 10
13.0446365388
 20
7.3237223336
 10
12.7523654069
 20
7.1501916858
 10
12.4546301416
 20
6.987323981
 10
12.1508026096
 20
6.8355132199
 10
11.8396879027
 20
6.6947971062
 10
11.5210913089
 20
6.5656528714
 10
11.487371218
 20
6.5535313957
  0
LWPOLYLINE
  5
222
100
AcDbEntity
  8
0
100
AcDbPolyline
 62
7
  6
CONTINUOUS
 90
19
 70
0
 10
15.9785894954
 20
9.910189381
 10
16.2912346368
 20
10.1637748153
 10
16.6019959073
 20
10.411123918
 10
16.9100049198
 20
10.6490135574
 10
17.2154933113
 20
10.8755224066
 10
17.5210996977
 20
11.0908291756
 10
17.8292590365
 20
11.2950123698
 10
18.1410434527
 20
11.4873198637
 10
18.4574589663
 20
11.667371569
 10
18.7807614458
 20
11.8357052379
 10
19.1124848629
 20
11.9923874016
 10
19.4526032873
 20
12.1368167722
 10
19.8007409804
 20
12.2684869954
 10
20.1572093587
 20
12.3872633513
 10
20.5223336661
 20
12.4929004073
 10
20.8951625987
 20
12.5850410014
 10
21.2751327557
 20
12.6637990955
 10
21.6622858872
 20
12.7296399927
 10
21.9719985257
 20
12.7727392398
  0
LWPOLYLINE
  5
223
100
AcDbEntity
  8
0
100
AcDbPolyline
 62
7
  6
CONTINUOUS
 90
19
 70
0
 10
15.9785894954
 20
8.2772488274
 10
16.2912346368
 20
8.5308342617
 10
16.6019959073
 20
8.7781833644
 10
16.9100049198
 20
9.0160730038
 10
17.2154933113
 20
9.242581853
 10
17.5210996977
 20
9.457888622
 10
17.8292590365
 20
9.6620718162
 10
18.1410434527
 20
9.8543793101
 10
18.4574589663
 20
10.0344310155
 10
18.7807614458
 20
10.2027646843
 10
19.1124848629
 20
10.359446848
 10
19.4526032873
 20
10.5038762186
 10
19.8007409804
 20
10.6355464418
 10
20.1572093587
 20
10.7543227977
 10
20.5223336661
 20
10.8599598537
 10
20.8951625987
 20
10.9521004478
 10
21.2751327557
 20
11.0308585419
 10
21.6622858872
 20
11.0966994391
 10
21.9719985257
 20
11.1397986862
  0
LINE
  5
224
100
AcDbEntity
  8
0
100
AcDbLine
 62
7
  6
CONTINUOUS
 10
10.8895428534
 20
2.0471915519
 11
10.2679703324
 21
1.6883033684
  0
LINE
  5
225
100
AcDbEntity
  8
0
100
AcDbLine
 62
7
  6
CONTINUOUS
 10
-11.0307673634
 20
-10.6093208413
 11
-15.9805148317
 21
-13.4672429946
  0
LWPOLYLINE
  5
226
100
AcDbEntity
  8
0
100
AcDbPolyline
 62
7
  6
CONTINUOUS
 90
12
 70
0
 10
15.0213930797
 20
7.1535041206
 10
14.7397591088
 20
6.924521512
 10
14.4595119515
 20
6.7004950012
 10
14.1791600425
 20
6.4821695835
 10
13.8984944532
 20
6.2712011786
 10
13.6165448813
 20
6.0685145129
 10
13.3318499866
 20
5.8745949861
 10
13.0436493273
 20
5.6903435424
 10
12.7510209447
 20
5.5164548029
 10
12.4529365872
 20
5.3533899454
 10
12.148722978
 20
5.2014934918
 10
11.8703688614
 20
5.0757570255
  0
LWPOLYLINE
  5
227
100
AcDbEntity
  8
0
100
AcDbPolyline
 62
7
  6
CONTINUOUS
 90
19
 70
0
 10
15.9660776844
 20
6.6340405702
 10
16.2793518727
 20
6.8883018584
 10
16.5907274199
 20
7.1364064019
 10
16.8992340362
 20
7.3750150747
 10
17.2050785787
 20
7.6021626716
 10
17.5109659609
 20
7.8180631406
 10
17.8193581021
 20
8.0228045477
 10
18.1313235157
 20
8.2156270628
 10
18.4478694611
 20
8.3961638545
 10
18.7712857038
 20
8.5650008392
 10
19.103105615
 20
8.7222202008
 10
19.4432785303
 20
8.8672128955
 10
19.7914495843
 20
8.9994648368
 10
20.1480266825
 20
9.1187467287
 10
20.5133657539
 20
9.2248074144
 10
20.8865264912
 20
9.3173240693
 10
21.2669431156
 20
9.3964310683
 10
21.6546458216
 20
9.4626037879
 10
21.9719984387
 20
9.5068581216
  0
LWPOLYLINE
  5
228
100
AcDbEntity
  8
0
100
AcDbPolyline
 62
7
  6
CONTINUOUS
 90
16
 70
0
 10
10.4671066164
 20
8.4786582266
 10
10.5768827201
 20
8.5017428235
 10
10.9837063453
 20
8.6044429076
 10
11.3857053668
 20
8.7242203141
 10
11.7806223333
 20
8.8607059661
 10
12.1680869852
 20
9.0137287591
 10
12.5480481906
 20
9.1831222865
 10
12.9193504631
 20
9.3678782582
 10
13.2823177029
 20
9.5672313337
 10
13.6377806536
 20
9.7804424239
 10
13.9857852072
 20
10.0062644928
 10
14.328469028
 20
10.2445070991
 10
14.6661870342
 20
10.4933779747
 10
14.9969876327
 20
10.7486680313
 10
15.3237370186
 20
11.0092980074
 10
15.9660776844
 20
11.5328622309
  0
LINE
  5
229
100
AcDbEntity
  8
0
100
AcDbLine
 62
7
  6
CONTINUOUS
 10
8.4399161858
 20
-5.1407878738
 11
6.0993549724
 21
-6.4921985842
  0
LINE
  5
22A
100
AcDbEntity
  8
0
100
AcDbLine
 62
7
  6
CONTINUOUS
 10
-2.8737923132
 20
-11.673181367
 11
-8.5306465627
 21
-14.9393781136
  0
LWPOLYLINE
  5
22B
100
AcDbEntity
  8
0
100
AcDbPolyline
 62
7
  6
CONTINUOUS
 90
20
 70
0
 10
21.8467629335
 20
10.4989851631
 10
21.5632896029
 20
10.4599540595
 10
21.1888531945
 20
10.398156406
 10
20.8084711843
 20
10.3228664714
 10
20.4223337766
 20
10.2328039038
 10
20.0334208697
 20
10.1273332142
 10
19.6469265621
 20
10.006823476
 10
19.2632406878
 20
9.8705443113
 10
18.8836419505
 20
9.7181686995
 10
18.513244052
 20
9.5517571533
 10
18.1521238026
 20
9.3720145611
 10
17.7993882954
 20
9.1793865796
 10
17.4575457179
 20
8.9765648238
 10
17.1258632124
 20
8.7648541925
 10
16.8029108116
 20
8.5449875327
 10
16.4894857259
 20
8.3193608764
 10
16.1842584505
 20
8.0891883375
 10
15.8855527631
 20
7.8555322294
 10
15.5932900969
 20
7.6208380781
 10
15.0213930797
 20
7.1535041206
  0
LWPOLYLINE
  5
22C
100
AcDbEntity
  8
0
100
AcDbPolyline
 62
7
  6
CONTINUOUS
 90
19
 70
0
 10
21.8467644778
 20
12.131925911
 10
21.5708292357
 20
12.0940256072
 10
21.1960932241
 20
12.0324481872
 10
20.8151604503
 20
11.9573445704
 10
20.4282246187
 20
11.867394353
 10
20.0383471692
 20
11.761926206
 10
19.6508660054
 20
11.6412872612
 10
19.2661932776
 20
11.5046970639
 10
18.8855561701
 20
11.3518924466
 10
18.5141605624
 20
11.1850318822
 10
18.1521052544
 20
11.0048365438
 10
17.7984948172
 20
10.8117476483
 10
17.455914541
 20
10.6084906637
 10
17.1236270557
 20
10.3963586489
 10
16.8001956252
 20
10.1760887316
 10
16.4864740592
 20
9.9501425247
 10
16.1811309224
 20
9.7197649856
 10
15.8824392136
 20
9.4860081685
 10
15.5902998925
 20
9.2513232856
  0
LINE
  5
22D
100
AcDbEntity
  8
0
100
AcDbLine
 62
7
  6
CONTINUOUS
 10
3.7831102566
 20
-10.1390075293
 11
3.0760034754
 21
-10.5472821226
  0
LINE
  5
22E
100
AcDbEntity
  8
0
100
AcDbLine
 62
7
  6
CONTINUOUS
 10
-1.1666372117
 20
-12.9969296826
 11
-1.8737439929
 21
-13.4052042759
  0
LWPOLYLINE
  5
22F
100
AcDbEntity
  8
0
100
AcDbPolyline
 62
7
  6
CONTINUOUS
 90
19
 70
0
 10
21.8467644778
 20
13.7648664646
 10
21.5708292357
 20
13.7269661607
 10
21.1960932241
 20
13.6653887408
 10
20.8151604503
 20
13.5902851239
 10
20.4282246187
 20
13.5003349066
 10
20.0383471692
 20
13.3948667596
 10
19.6508660054
 20
13.2742278148
 10
19.2661932776
 20
13.1376376175
 10
18.8855561701
 20
12.9848330002
 10
18.5141605624
 20
12.8179724357
 10
18.1521052544
 20
12.6377770974
 10
17.7984948172
 20
12.4446882019
 10
17.455914541
 20
12.2414312173
 10
17.1236270557
 20
12.0292992025
 10
16.8001956252
 20
11.8090292852
 10
16.4864740592
 20
11.5830830783
 10
16.1811309224
 20
11.3527055392
 10
15.8824392136
 20
11.1189487221
 10
15.5902998925
 20
10.8842638392
  0
LWPOLYLINE
  5
230
100
AcDbEntity
  8
0
100
AcDbPolyline
 62
7
  6
CONTINUOUS
 90
20
 70
0
 10
21.8467629335
 20
15.3978068239
 10
21.5632896029
 20
15.3587757202
 10
21.1888531945
 20
15.2969780667
 10
20.8084711843
 20
15.2216881321
 10
20.4223337766
 20
15.1316255646
 10
20.0334208697
 20
15.026154875
 10
19.6469265621
 20
14.9056451367
 10
19.2632406878
 20
14.7693659721
 10
18.8836419505
 20
14.6169903603
 10
18.513244052
 20
14.450578814
 10
18.1521238026
 20
14.2708362218
 10
17.7993882954
 20
14.0782082404
 10
17.4575457179
 20
13.8753864846
 10
17.1258632124
 20
13.6636758533
 10
16.8029108116
 20
13.4438091934
 10
16.4894857259
 20
13.2181825372
 10
16.1842584505
 20
12.9880099982
 10
15.8855527631
 20
12.7543538902
 10
15.5932900969
 20
12.5196597389
 10
15.0213930797
 20
12.0523257813
  0
ARC
  5
231
100
AcDbEntity
  8
0
100
AcDbCircle
 62
7
  6
CONTINUOUS
 10
0.9749517111
 20
-6.9526100217
 40
4.1652664134
100
AcDbArc
 50
311.4291163298
 51
312.1804299809
  0
ARC
  5
232
100
AcDbEntity
  8
0
100
AcDbCircle
 62
7
  6
CONTINUOUS
 10
-11.8171604385
 20
3.7783888667
 40
4.1482221163
100
AcDbArc
 50
108.6536436518
 51
108.9537116584
  0
ARC
  5
233
100
AcDbEntity
  8
0
100
AcDbCircle
 62
7
  6
CONTINUOUS
 10
-6.8975475378
 20
6.7195374494
 40
4.059707911
100
AcDbArc
 50
108.6129119815
 51
119.9469454175
  0
ARC
  5
234
100
AcDbEntity
  8
0
100
AcDbCircle
 62
7
  6
CONTINUOUS
 10
-11.8476135702
 20
3.8624168042
 40
4.0588590415
100
AcDbArc
 50
108.9324049507
 51
119.9607392235
  0
ARC
  5
235
100
AcDbEntity
  8
0
100
AcDbCircle
 62
7
  6
CONTINUOUS
 10
1.0556758402
 20
-7.050444462
 40
4.038500212
100
AcDbArc
 50
300.0105871433
 51
311.488865608
  0
ARC
  5
236
100
AcDbEntity
  8
0
100
AcDbCircle
 62
7
  6
CONTINUOUS
 10
-3.8905113672
 20
-9.9135177482
 40
4.032264475
100
AcDbArc
 50
300.0155109309
 51
311.4597969956
  0
ARC
  5
237
100
AcDbEntity
  8
0
100
AcDbCircle
 62
7
  6
CONTINUOUS
 10
-19.6621832923
 20
-6.5927717989
 40
1.4559248388
100
AcDbArc
 50
126.4776387549
 51
132.8783004876
  0
SPLINE
  5
238
100
AcDbEntity
  8
0
100
AcDbSpline
 62
7
  6
CONTINUOUS
 70
0
 71
3
 72
11
 73
7
 74
0
 42
0.0000001
 43
0.0000001
 44
0.0000000001
 40
0.0
 40
0.0
 40
0.0
 40
0.0
 40
0.2625238475
 40
0.5145903909
 40
0.759227799
 40
1.0
 40
1.0
 40
1.0
 40
1.0
 10
0.5648876443
 20
-11.1007293794
 30
0.0
 10
0.7925367669
 20
-11.1135879608
 30
0.0
 10
1.2409640328
 20
-11.1114747463
 30
0.0
 10
1.8959229922
 20
-11.0179091387
 30
0.0
 10
2.5120323155
 20
-10.8342968113
 30
0.0
 10
2.8944658797
 20
-10.6520694649
 30
0.0
 10
3.0755721711
 20
-10.547515061
 30
0.0
  0
SPLINE
  5
239
100
AcDbEntity
  8
0
100
AcDbSpline
 62
7
  6
CONTINUOUS
 70
0
 71
3
 72
21
 73
17
 74
0
 42
0.0000001
 43
0.0000001
 44
0.0000000001
 40
0.0
 40
0.0
 40
0.0
 40
0.0
 40
0.0624034335
 40
0.1287821936
 40
0.198400695
 40
0.2704111081
 40
0.4174532631
 40
0.5616877243
 40
0.6303158644
 40
0.6954323964
 40
0.756406021
 40
0.812866622
 40
0.8647883191
 40
0.9125825543
 40
0.9571750328
 40
1.0
 40
1.0
 40
1.0
 40
1.0
 10
11.9249559586
 20
4.3358758576
 30
0.0
 10
11.9249559586
 20
4.5432921399
 30
0.0
 10
11.8968282557
 20
4.9716231195
 30
0.0
 10
11.7812123275
 20
5.621960893
 30
0.0
 10
11.5931519144
 20
6.2884040991
 30
0.0
 10
11.2490077704
 20
7.1852102301
 30
0.0
 10
10.6713114438
 20
8.2524137397
 30
0.0
 10
9.9309445355
 20
9.2004989229
 30
0.0
 10
9.2645525106
 20
9.8424031418
 30
0.0
 10
8.7539050873
 20
10.2421322699
 30
0.0
 10
8.2350042294
 20
10.559552731
 30
0.0
 10
7.7183502704
 20
10.7878441723
 30
0.0
 10
7.2142386435
 20
10.9217394281
 30
0.0
 10
6.732566255
 20
10.9571500583
 30
0.0
 10
6.2840170347
 20
10.8913605847
 30
0.0
 10
6.0123222647
 20
10.778339642
 30
0.0
 10
5.8890587912
 20
10.7071553335
 30
0.0
  0
SPLINE
  5
23A
100
AcDbEntity
  8
0
100
AcDbSpline
 62
7
  6
CONTINUOUS
 70
0
 71
3
 72
25
 73
21
 74
0
 42
0.0000001
 43
0.0000001
 44
0.0000000001
 40
0.0
 40
0.0
 40
0.0
 40
0.0
 40
0.0623824286
 40
0.1287209953
 40
0.1983136645
 40
0.270290961
 40
0.3436690809
 40
0.4174018472
 40
0.490427395
 40
0.5617150174
 40
0.6303131427
 40
0.6954012924
 40
0.7563490727
 40
0.8127861245
 40
0.8646860007
 40
0.9124598002
 40
0.9351037888
 40
0.9571085475
 40
0.9786683816
 40
1.0
 40
1.0
 40
1.0
 40
1.0
 10
6.2681017092
 20
-4.6461651956
 30
0.0
 10
6.2681017092
 20
-4.1483228683
 30
0.0
 10
6.2006504862
 20
-3.1203804245
 30
0.0
 10
5.9230987512
 20
-1.5595876646
 30
0.0
 10
5.4718556076
 20
0.03973212
 30
0.0
 10
4.8565725189
 20
1.643371382
 30
0.0
 10
4.0903474683
 20
3.2173367937
 30
0.0
 10
3.1895264919
 20
4.7280395097
 30
0.0
 10
2.1733255972
 20
6.1432574705
 30
0.0
 10
1.0633936897
 20
7.4328265351
 30
0.0
 10
-0.1167155854
 20
8.5693301604
 30
0.0
 10
-1.3421765149
 20
9.5286730098
 30
0.0
 10
-2.5875001576
 20
10.2905323382
 30
0.0
 10
-3.8275279291
 20
10.8384719281
 30
0.0
 10
-5.0371139298
 20
11.1599174991
 30
0.0
 10
-6.0181464347
 20
11.2318789082
 30
0.0
 10
-6.7539176087
 20
11.1627677042
 30
0.0
 10
-7.2719404092
 20
11.0522373135
 30
0.0
 10
-7.7626148855
 20
10.8825676567
 30
0.0
 10
-8.0703566311
 20
10.7302076117
 30
0.0
 10
-8.217779731
 20
10.6450783915
 30
0.0
  0
SPLINE
  5
23B
100
AcDbEntity
  8
0
100
AcDbSpline
 62
7
  6
CONTINUOUS
 70
0
 71
3
 72
25
 73
21
 74
0
 42
0.0000001
 43
0.0000001
 44
0.0000000001
 40
0.0
 40
0.0
 40
0.0
 40
0.0
 40
0.0623790348
 40
0.1287199997
 40
0.1983093026
 40
0.2702856839
 40
0.3436620197
 40
0.4173935686
 40
0.4904182871
 40
0.5617056894
 40
0.6303041955
 40
0.6953932303
 40
0.756342328
 40
0.8127810656
 40
0.8646828396
 40
0.9124584302
 40
0.9351034515
 40
0.9571084506
 40
0.9786686174
 40
1.0
 40
1.0
 40
1.0
 40
1.0
 10
10.5107423963
 20
-0.5634192623
 30
0.0
 10
10.5107423963
 20
-0.1485881806
 30
0.0
 10
10.45452522
 20
0.7079913683
 30
0.0
 10
10.2232814317
 20
2.0085831416
 30
0.0
 10
9.847249856
 20
3.3412861577
 30
0.0
 10
9.3345826038
 20
4.6775790643
 30
0.0
 10
8.6961150105
 20
5.9891557042
 30
0.0
 10
7.9455067515
 20
7.2480280108
 30
0.0
 10
7.0987485752
 20
8.4273476839
 30
0.0
 10
6.1738833094
 20
9.5019818768
 30
0.0
 10
5.1905324653
 20
10.4490833891
 30
0.0
 10
4.1693805284
 20
11.2485705762
 30
0.0
 10
3.1316670904
 20
11.8835105926
 30
0.0
 10
2.0983565988
 20
12.3402047327
 30
0.0
 10
1.0903991939
 20
12.6081923911
 30
0.0
 10
0.2728838516
 20
12.6682504638
 30
0.0
 10
-0.3402723076
 20
12.6108107492
 30
0.0
 10
-0.7719627152
 20
12.5187466839
 30
0.0
 10
-1.1808771962
 20
12.377460297
 30
0.0
 10
-1.4373534218
 20
12.2505602277
 30
0.0
 10
-1.5602075967
 20
12.179635331
 30
0.0
  0
SPLINE
  5
23C
100
AcDbEntity
  8
0
100
AcDbSpline
 62
7
  6
CONTINUOUS
 70
0
 71
3
 72
14
 73
10
 74
0
 42
0.0000001
 43
0.0000001
 44
0.0000000001
 40
0.0
 40
0.0
 40
0.0
 40
0.0
 40
0.2892833276
 40
0.4225446594
 40
0.5484947962
 40
0.6678944527
 40
0.7818679
 40
0.8919515957
 40
1.0
 40
1.0
 40
1.0
 40
1.0
 10
10.5107423963
 20
-0.5634192623
 30
0.0
 10
10.5107423963
 20
-1.0702788027
 30
0.0
 10
10.4515635953
 20
-1.8142670032
 30
0.0
 10
10.2228362676
 20
-2.7493737789
 30
0.0
 10
9.9900893926
 20
-3.3724592096
 30
0.0
 10
9.6935380943
 20
-3.9300780085
 30
0.0
 10
9.3352650171
 20
-4.4165325361
 30
0.0
 10
8.9187636415
 20
-4.8264285552
 30
0.0
 10
8.6035103268
 20
-5.0463300213
 30
0.0
 10
8.4395567656
 20
-5.1409819891
 30
0.0
  0
SPLINE
  5
23D
100
AcDbEntity
  8
0
100
AcDbSpline
 62
7
  6
CONTINUOUS
 70
0
 71
3
 72
12
 73
8
 74
0
 42
0.0000001
 43
0.0000001
 44
0.0000000001
 40
0.0
 40
0.0
 40
0.0
 40
0.0
 40
0.1081608441
 40
0.2183631644
 40
0.4513716222
 40
0.7104169024
 40
1.0
 40
1.0
 40
1.0
 40
1.0
 10
-16.3553268601
 20
-12.817606255
 30
0.0
 10
-16.2856669824
 20
-12.777377872
 30
0.0
 10
-16.1517508502
 20
-12.6838588786
 30
0.0
 10
-15.9114922694
 20
-12.4474984284
 30
0.0
 10
-15.6736111123
 20
-12.0595047024
 30
0.0
 10
-15.5080517707
 20
-11.4972105017
 30
0.0
 10
-15.4754318123
 20
-11.087721573
 30
0.0
 10
-15.4754318123
 20
-10.8723527438
 30
0.0
  0
SPLINE
  5
23E
100
AcDbEntity
  8
0
100
AcDbSpline
 62
7
  6
CONTINUOUS
 70
0
 71
3
 72
15
 73
11
 74
0
 42
0.0000001
 43
0.0000001
 44
0.0000000001
 40
0.0
 40
0.0
 40
0.0
 40
0.0
 40
0.1008134264
 40
0.2049492045
 40
0.3152189126
 40
0.4336223296
 40
0.5612832047
 40
0.6985337591
 40
0.845052706
 40
1.0
 40
1.0
 40
1.0
 40
1.0
 10
-8.5310059829
 20
-14.9395722289
 30
0.0
 10
-8.7498962045
 20
-15.065939659
 30
0.0
 10
-9.2261890606
 20
-15.2721567946
 30
0.0
 10
-10.00829807
 20
-15.4198156375
 30
0.0
 10
-10.8475882768
 20
-15.4079228571
 30
0.0
 10
-11.7287939055
 20
-15.2389839826
 30
0.0
 10
-12.6377760251
 20
-14.9176692581
 30
0.0
 10
-13.5600732789
 20
-14.4502215691
 30
0.0
 10
-14.4807730666
 20
-13.8448890013
 30
0.0
 10
-15.0688794572
 20
-13.3680584527
 30
0.0
 10
-15.3595611403
 20
-13.1103561577
 30
0.0
  0
SPLINE
  5
23F
100
AcDbEntity
  8
0
100
AcDbSpline
 62
7
  6
CONTINUOUS
 70
0
 71
3
 72
9
 73
5
 74
0
 42
0.0000001
 43
0.0000001
 44
0.0000000001
 40
0.0
 40
0.0
 40
0.0
 40
0.0
 40
0.5140326317
 40
1.0
 40
1.0
 40
1.0
 40
1.0
 10
-20.3612454892
 20
-4.4476874482
 30
0.0
 10
-20.4390828556
 20
-4.0671535808
 30
0.0
 10
-20.5579734399
 20
-3.3197138268
 30
0.0
 10
-20.6019559759
 20
-2.5637240056
 30
0.0
 10
-20.6019559759
 20
-2.1965176356
 30
0.0
  0
SPLINE
  5
240
100
AcDbEntity
  8
0
100
AcDbSpline
 62
7
  6
CONTINUOUS
 70
0
 71
3
 72
14
 73
10
 74
0
 42
0.0000001
 43
0.0000001
 44
0.0000000001
 40
0.0
 40
0.0
 40
0.0
 40
0.0
 40
0.1080484043
 40
0.2181321
 40
0.3321055473
 40
0.4515052038
 40
0.5774553406
 40
0.7107166724
 40
1.0
 40
1.0
 40
1.0
 40
1.0
 10
-18.5307703452
 20
2.3810450911
 30
0.0
 10
-18.6947239065
 20
2.2863931234
 30
0.0
 10
-19.0099772212
 20
2.0664916572
 30
0.0
 10
-19.4264785968
 20
1.6565956382
 30
0.0
 10
-19.784751674
 20
1.1701411105
 30
0.0
 10
-20.0813029723
 20
0.6125223117
 30
0.0
 10
-20.3140498472
 20
-0.010563119
 30
0.0
 10
-20.5427771749
 20
-0.9456698948
 30
0.0
 10
-20.6019559759
 20
-1.6896580952
 30
0.0
 10
-20.6019559759
 20
-2.1965176356
 30
0.0
  0
SPLINE
  5
241
100
AcDbEntity
  8
0
100
AcDbSpline
 62
7
  6
CONTINUOUS
 70
0
 71
3
 72
13
 73
9
 74
0
 42
0.0000001
 43
0.0000001
 44
0.0000000001
 40
0.0
 40
0.0
 40
0.0
 40
0.0
 40
0.1080942162
 40
0.2182286509
 40
0.3322594604
 40
0.4517095816
 40
0.7105952878
 40
1.0
 40
1.0
 40
1.0
 40
1.0
 10
-20.9809988938
 20
-4.807279213
 30
0.0
 10
-21.0629516912
 20
-4.8546067224
 30
0.0
 10
-21.2205008113
 20
-4.9646044262
 30
0.0
 10
-21.4286926306
 20
-5.1695356759
 30
0.0
 10
-21.6077193063
 20
-5.4127900184
 30
0.0
 10
-21.8107355447
 20
-5.7945459004
 30
0.0
 10
-21.9780272176
 20
-6.3609626052
 30
0.0
 10
-22.0161695383
 20
-6.8424376625
 30
0.0
 10
-22.0161695383
 20
-7.0958127556
 30
0.0
  0
SPLINE
  5
242
100
AcDbEntity
  8
0
100
AcDbSpline
 62
7
  6
CONTINUOUS
 70
0
 71
3
 72
15
 73
11
 74
0
 42
0.0000001
 43
0.0000001
 44
0.0000000001
 40
0.0
 40
0.0
 40
0.0
 40
0.0
 40
0.1080123936
 40
0.2180617288
 40
0.3320008934
 40
0.4513616858
 40
0.5772688641
 40
0.7104917292
 40
0.8514455607
 40
1.0
 40
1.0
 40
1.0
 40
1.0
 10
-1.1666518482
 20
-12.9969026282
 30
0.0
 10
-0.9699321653
 20
-12.8833187966
 30
0.0
 10
-0.5916797276
 20
-12.6194259912
 30
0.0
 10
-0.091968001
 20
-12.1275286743
 30
0.0
 10
0.337861584
 20
-11.5437833176
 30
0.0
 10
0.6936970537
 20
-10.8746758437
 30
0.0
 10
0.9728954478
 20
-10.1270800926
 30
0.0
 10
1.1732706522
 20
-9.3080984653
 30
0.0
 10
1.2931028846
 20
-8.4257732662
 30
0.0
 10
1.3183542408
 20
-7.8165057175
 30
0.0
 10
1.3183542408
 20
-7.5040873489
 30
0.0
  0
SPLINE
  5
243
100
AcDbEntity
  8
0
100
AcDbSpline
 62
7
  6
CONTINUOUS
 70
0
 71
3
 72
13
 73
9
 74
0
 42
0.0000001
 43
0.0000001
 44
0.0000000001
 40
0.0
 40
0.0
 40
0.0
 40
0.0
 40
0.1140419472
 40
0.2292923552
 40
0.3468945258
 40
0.4678799801
 40
0.7230148367
 40
1.0
 40
1.0
 40
1.0
 40
1.0
 10
-13.8746339805
 20
7.3788816449
 30
0.0
 10
-14.0211904371
 20
7.2942528663
 30
0.0
 10
-14.3053205926
 20
7.1050788271
 30
0.0
 10
-14.6955193853
 20
6.7673788532
 30
0.0
 10
-15.0486505767
 20
6.3770400948
 30
0.0
 10
-15.4748072335
 20
5.7792930075
 30
0.0
 10
-15.9024016109
 20
4.9014949753
 30
0.0
 10
-16.1120213072
 20
4.1358094856
 30
0.0
 10
-16.1907016277
 20
3.7323696222
 30
0.0
  0
SPLINE
  5
244
100
AcDbEntity
  8
0
100
AcDbSpline
 62
7
  6
CONTINUOUS
 70
0
 71
3
 72
13
 73
9
 74
0
 42
0.0000001
 43
0.0000001
 44
0.0000000001
 40
0.0
 40
0.0
 40
0.0
 40
0.0
 40
0.1093845011
 40
0.197090944
 40
0.3101282203
 40
0.448475253
 40
0.6112138464
 40
1.0
 40
1.0
 40
1.0
 40
1.0
 10
21.9719960228
 20
14.4056985316
 30
0.0
 10
21.9801454848
 20
14.4067471108
 30
0.0
 10
21.9911212018
 20
14.420592804
 30
0.0
 10
21.99901234
 20
14.4417516965
 30
0.0
 10
22.0053108882
 20
14.4667398692
 30
0.0
 10
22.0101025812
 20
14.497414377
 30
0.0
 10
22.0150941432
 20
14.5490529761
 30
0.0
 10
22.0161695383
 20
14.5905063847
 30
0.0
 10
22.0161695383
 20
14.6197108664
 30
0.0
  0
SPLINE
  5
245
100
AcDbEntity
  8
0
100
AcDbSpline
 62
7
  6
CONTINUOUS
 70
0
 71
3
 72
16
 73
12
 74
0
 42
0.0000001
 43
0.0000001
 44
0.0000000001
 40
0.0
 40
0.0
 40
0.0
 40
0.0
 40
0.1493074354
 40
0.3141432891
 40
0.6416267671
 40
0.7808093878
 40
0.8396694192
 40
0.89005561
 40
0.9312386506
 40
0.9628566787
 40
1.0
 40
1.0
 40
1.0
 40
1.0
 10
22.0161695383
 20
11.3538297592
 30
0.0
 10
22.0161695383
 20
11.3942676419
 30
0.0
 10
22.0130078679
 20
11.479359725
 30
0.0
 10
21.9975137191
 20
11.6524679048
 30
0.0
 10
21.9709729237
 20
11.8218001447
 30
0.0
 10
21.9371958116
 20
11.9601305105
 30
0.0
 10
21.9169052839
 20
12.0243826799
 30
0.0
 10
21.9026523668
 20
12.0624015741
 30
0.0
 10
21.8881549685
 20
12.0930305415
 30
0.0
 10
21.8734091412
 20
12.1173598554
 30
0.0
 10
21.8567450477
 20
12.1331859309
 30
0.0
 10
21.8467668912
 20
12.1319071796
 30
0.0
  0
SPLINE
  5
246
100
AcDbEntity
  8
0
100
AcDbSpline
 62
7
  6
CONTINUOUS
 70
0
 71
3
 72
13
 73
9
 74
0
 42
0.0000001
 43
0.0000001
 44
0.0000000001
 40
0.0
 40
0.0
 40
0.0
 40
0.0
 40
0.3887859184
 40
0.551524458
 40
0.6898714851
 40
0.8029088027
 40
0.8906153289
 40
1.0
 40
1.0
 40
1.0
 40
1.0
 10
22.0161695383
 20
12.9867703128
 30
0.0
 10
22.0161695383
 20
12.957565859
 30
0.0
 10
22.0150941446
 20
12.9161124867
 30
0.0
 10
22.0101025938
 20
12.8644739271
 30
0.0
 10
22.005310909
 20
12.8337994303
 30
0.0
 10
21.9990123762
 20
12.8088112548
 30
0.0
 10
21.9911212422
 20
12.7876523432
 30
0.0
 10
21.9801455756
 20
12.7738066166
 30
0.0
 10
21.9719961098
 20
12.7727579892
 30
0.0
  0
SPLINE
  5
247
100
AcDbEntity
  8
0
100
AcDbSpline
 62
7
  6
CONTINUOUS
 70
0
 71
3
 72
13
 73
9
 74
0
 42
0.0000001
 43
0.0000001
 44
0.0000000001
 40
0.0
 40
0.0
 40
0.0
 40
0.0
 40
0.3887861536
 40
0.551524747
 40
0.6898717797
 40
0.802909056
 40
0.8906154989
 40
1.0
 40
1.0
 40
1.0
 40
1.0
 10
22.0161695383
 20
9.7208892056
 30
0.0
 10
22.0161695383
 20
9.691684724
 30
0.0
 10
22.0150941432
 20
9.6502313154
 30
0.0
 10
22.0101025812
 20
9.5985927162
 30
0.0
 10
22.0053108882
 20
9.5679182084
 30
0.0
 10
21.99901234
 20
9.5429300358
 30
0.0
 10
21.9911212018
 20
9.5217711432
 30
0.0
 10
21.9801454848
 20
9.5079254501
 30
0.0
 10
21.9719960228
 20
9.5068768708
 30
0.0
  0
SPLINE
  5
248
100
AcDbEntity
  8
0
100
AcDbSpline
 62
7
  6
CONTINUOUS
 70
0
 71
3
 72
16
 73
12
 74
0
 42
0.0000001
 43
0.0000001
 44
0.0000000001
 40
0.0
 40
0.0
 40
0.0
 40
0.0
 40
0.1493084794
 40
0.3141455018
 40
0.6416306025
 40
0.7808131837
 40
0.8396729062
 40
0.8900585939
 40
0.9312409353
 40
0.9628581262
 40
1.0
 40
1.0
 40
1.0
 40
1.0
 10
22.0161695383
 20
14.6197108664
 30
0.0
 10
22.0161695383
 20
14.6601490992
 30
0.0
 10
22.0130078153
 20
14.7452419237
 30
0.0
 10
21.9975134415
 20
14.9183514172
 30
0.0
 10
21.9709723166
 20
15.0876846572
 30
0.0
 10
21.9371947734
 20
15.2260155223
 30
0.0
 10
21.916904005
 20
15.2902674956
 30
0.0
 10
21.9026510238
 20
15.3282859962
 30
0.0
 10
21.8881534493
 20
15.35891436
 30
0.0
 10
21.8734078855
 20
15.3832428711
 30
0.0
 10
21.8567430011
 20
15.3990678108
 30
0.0
 10
21.8467653473
 20
15.3977880889
 30
0.0
  0
SPLINE
  5
249
100
AcDbEntity
  8
0
100
AcDbSpline
 62
7
  6
CONTINUOUS
 70
0
 71
3
 72
25
 73
21
 74
0
 42
0.0000001
 43
0.0000001
 44
0.0000000001
 40
0.0
 40
0.0
 40
0.0
 40
0.0
 40
0.0623778346
 40
0.1287226036
 40
0.1983112949
 40
0.2702888533
 40
0.3436659243
 40
0.4173982935
 40
0.4904235976
 40
0.5617109948
 40
0.6303090072
 40
0.6953973585
 40
0.7563458022
 40
0.8127838927
 40
0.8646848168
 40
0.9124593274
 40
0.9351035584
 40
0.957108456
 40
0.9786684868
 40
1.0
 40
1.0
 40
1.0
 40
1.0
 10
1.3183542408
 20
-7.5040873489
 30
0.0
 10
1.3183542408
 20
-7.0062894785
 30
0.0
 10
1.2508744459
 20
-5.9783538264
 30
0.0
 10
0.9733891819
 20
-4.4175930693
 30
0.0
 10
0.5220981084
 20
-2.8182924993
 30
0.0
 10
-0.0931169749
 20
-1.214698652
 30
0.0
 10
-0.8593187691
 20
0.3592381253
 30
0.0
 10
-1.7600905976
 20
1.869921664
 30
0.0
 10
-2.7762560299
 20
3.2851236219
 30
0.0
 10
-3.8861548547
 20
4.57467966
 30
0.0
 10
-5.0662287091
 20
5.7111810816
 30
0.0
 10
-6.2916534967
 20
6.670539291
 30
0.0
 10
-7.5369445914
 20
7.4324362257
 30
0.0
 10
-8.7769470804
 20
7.9804315135
 30
0.0
 10
-9.9865193437
 20
8.3019458949
 30
0.0
 10
-10.9675467805
 20
8.3739475858
 30
0.0
 10
-11.7033224691
 20
8.3048990684
 30
0.0
 10
-12.2213418579
 20
8.1943806345
 30
0.0
 10
-12.7120431301
 20
8.0248057615
 30
0.0
 10
-13.0197785839
 20
7.8724391086
 30
0.0
 10
-13.1672024186
 20
7.7873181703
 30
0.0
  0
SPLINE
  5
24A
100
AcDbEntity
  8
0
100
AcDbSpline
 62
7
  6
CONTINUOUS
 70
0
 71
3
 72
21
 73
17
 74
0
 42
0.0000001
 43
0.0000001
 44
0.0000000001
 40
0.0
 40
0.0
 40
0.0
 40
0.0
 40
0.0624034335
 40
0.1287821936
 40
0.198400695
 40
0.2704111081
 40
0.4174532631
 40
0.5616877243
 40
0.6303158644
 40
0.6954323964
 40
0.756406021
 40
0.812866622
 40
0.8647883191
 40
0.9125825543
 40
0.9571750328
 40
1.0
 40
1.0
 40
1.0
 40
1.0
 10
-22.0161695383
 20
-7.0958127556
 30
0.0
 10
-22.0161695383
 20
-7.3032290379
 30
0.0
 10
-21.9880418354
 20
-7.7315600175
 30
0.0
 10
-21.8724259071
 20
-8.381897791
 30
0.0
 10
-21.6843654941
 20
-9.048340997
 30
0.0
 10
-21.34022135
 20
-9.945147128
 30
0.0
 10
-20.7625250235
 20
-11.0123506377
 30
0.0
 10
-20.0221581152
 20
-11.9604358209
 30
0.0
 10
-19.3557660902
 20
-12.6023400397
 30
0.0
 10
-18.845118667
 20
-13.0020691678
 30
0.0
 10
-18.326217809
 20
-13.3194896289
 30
0.0
 10
-17.80956385
 20
-13.5477810703
 30
0.0
 10
-17.3054522232
 20
-13.681676326
 30
0.0
 10
-16.8237798347
 20
-13.7170869563
 30
0.0
 10
-16.3752306144
 20
-13.6512974826
 30
0.0
 10
-16.1035358443
 20
-13.5382765399
 30
0.0
 10
-15.9802723709
 20
-13.4670922314
 30
0.0
  0
SPLINE
  5
24B
100
AcDbEntity
  8
0
100
AcDbSpline
 62
7
  6
CONTINUOUS
 70
0
 71
3
 72
21
 73
17
 74
0
 42
0.0000001
 43
0.0000001
 44
0.0000000001
 40
0.0
 40
0.0
 40
0.0
 40
0.0
 40
0.0624034335
 40
0.1287821936
 40
0.198400695
 40
0.2704111081
 40
0.4174532631
 40
0.5616877243
 40
0.6303158644
 40
0.6954323964
 40
0.756406021
 40
0.812866622
 40
0.8647883191
 40
0.9125825543
 40
0.9571750328
 40
1.0
 40
1.0
 40
1.0
 40
1.0
 10
-15.4754318123
 20
-10.8723527438
 30
0.0
 10
-15.4754318123
 20
-10.6960489039
 30
0.0
 10
-15.4993403598
 20
-10.3319675712
 30
0.0
 10
-15.5976138988
 20
-9.7791804637
 30
0.0
 10
-15.7574652499
 20
-9.2127037386
 30
0.0
 10
-16.0499877724
 20
-8.4504185272
 30
0.0
 10
-16.5410296499
 20
-7.543295544
 30
0.0
 10
-17.170341522
 20
-6.7374231383
 30
0.0
 10
-17.7367747432
 20
-6.1918045523
 30
0.0
 10
-18.170825053
 20
-5.8520347934
 30
0.0
 10
-18.6118907822
 20
-5.5822274015
 30
0.0
 10
-19.0510466474
 20
-5.3881796763
 30
0.0
 10
-19.4795415302
 20
-5.2743687089
 30
0.0
 10
-19.8889630604
 20
-5.2442696732
 30
0.0
 10
-20.2702298977
 20
-5.3001907258
 30
0.0
 10
-20.5011704522
 20
-5.3962585271
 30
0.0
 10
-20.6059444046
 20
-5.4567651894
 30
0.0
  0
SPLINE
  5
24C
100
AcDbEntity
  8
0
100
AcDbSpline
 62
7
  6
CONTINUOUS
 70
0
 71
3
 72
13
 73
9
 74
0
 42
0.0000001
 43
0.0000001
 44
0.0000000001
 40
0.0
 40
0.0
 40
0.0
 40
0.0
 40
0.2769704911
 40
0.5320889208
 40
0.6530753846
 40
0.7706847677
 40
0.8859447094
 40
1.0
 40
1.0
 40
1.0
 40
1.0
 10
-6.1863118742
 20
-13.5894169883
 30
0.0
 10
-5.7978178384
 20
-13.7226990158
 30
0.0
 10
-5.0303964566
 20
-13.9234364572
 30
0.0
 10
-4.0571220316
 20
-13.9914663263
 30
0.0
 10
-3.3269561551
 20
-13.9209829308
 30
0.0
 10
-2.812738481
 20
-13.8102098921
 30
0.0
 10
-2.3255513874
 20
-13.6410757586
 30
0.0
 10
-2.0199012594
 20
-13.4895926485
 30
0.0
 10
-1.8734338487
 20
-13.4050152894
 30
0.0
  0
SPLINE
  5
24D
100
AcDbEntity
  8
0
100
AcDbSpline
 62
7
  6
CONTINUOUS
 70
0
 71
3
 72
16
 73
12
 74
0
 42
0.0000001
 43
0.0000001
 44
0.0000000001
 40
0.0
 40
0.0
 40
0.0
 40
0.0
 40
0.0371418738
 40
0.0687590647
 40
0.1099414061
 40
0.1603270938
 40
0.2191868163
 40
0.3583693975
 40
0.6858544982
 40
0.8506915206
 40
1.0
 40
1.0
 40
1.0
 40
1.0
 10
21.8467653473
 20
10.4989664281
 30
0.0
 10
21.8567430011
 20
10.50024615
 30
0.0
 10
21.8734078855
 20
10.4844212103
 30
0.0
 10
21.8881534493
 20
10.4600926992
 30
0.0
 10
21.9026510238
 20
10.4294643354
 30
0.0
 10
21.916904005
 20
10.3914458348
 30
0.0
 10
21.9371947734
 20
10.3271938615
 30
0.0
 10
21.9709723166
 20
10.1888629965
 30
0.0
 10
21.9975134415
 20
10.0195297564
 30
0.0
 10
22.0130078153
 20
9.8464202629
 30
0.0
 10
22.0161695383
 20
9.7613274385
 30
0.0
 10
22.0161695383
 20
9.7208892056
 30
0.0
  0
SPLINE
  5
24E
100
AcDbEntity
  8
0
100
AcDbSpline
 62
7
  6
CONTINUOUS
 70
0
 71
3
 72
11
 73
7
 74
0
 42
0.0000001
 43
0.0000001
 44
0.0000000001
 40
0.0
 40
0.0
 40
0.0
 40
0.0
 40
0.2407776403
 40
0.4854128968
 40
0.7374727641
 40
1.0
 40
1.0
 40
1.0
 40
1.0
 10
-8.9241450637
 20
10.237225723
 30
0.0
 10
-9.1052591077
 20
10.1326668435
 30
0.0
 10
-9.4543745964
 20
9.8926882307
 30
0.0
 10
-9.9214831435
 20
9.4509542826
 30
0.0
 10
-10.3301396857
 20
8.9306308118
 30
0.0
 10
-10.5561814732
 20
8.5433243646
 30
0.0
 10
-10.6588855779
 20
8.339744461
 30
0.0
  0
SPLINE
  5
24F
100
AcDbEntity
  8
0
100
AcDbSpline
 62
7
  6
CONTINUOUS
 70
0
 71
3
 72
15
 73
11
 74
0
 42
0.0000001
 43
0.0000001
 44
0.0000000001
 40
0.0
 40
0.0
 40
0.0
 40
0.0
 40
0.108012416
 40
0.2180613593
 40
0.3319999265
 40
0.4513611139
 40
0.5772783205
 40
0.7104932556
 40
0.8514214988
 40
1.0
 40
1.0
 40
1.0
 40
1.0
 10
3.7834204008
 20
-10.1388185428
 30
0.0
 10
3.9801240395
 20
-10.0252323586
 30
0.0
 10
4.3582834559
 20
-9.7612555123
 30
0.0
 10
4.8579919434
 20
-9.2694214533
 30
0.0
 10
5.2877322103
 20
-8.6856564167
 30
0.0
 10
5.6435400594
 20
-8.0165635473
 30
0.0
 10
5.9226939992
 20
-7.2689907131
 30
0.0
 10
6.1230088029
 20
-6.4500975354
 30
0.0
 10
6.2428979575
 20
-5.5678501983
 30
0.0
 10
6.2681017092
 20
-4.9586166086
 30
0.0
 10
6.2681017092
 20
-4.6461651956
 30
0.0
  0
SPLINE
  5
250
100
AcDbEntity
  8
0
100
AcDbSpline
 62
7
  6
CONTINUOUS
 70
0
 71
3
 72
16
 73
12
 74
0
 42
0.0000001
 43
0.0000001
 44
0.0000000001
 40
0.0
 40
0.0
 40
0.0
 40
0.0
 40
0.0371433213
 40
0.0687613494
 40
0.10994439
 40
0.1603305808
 40
0.2191906122
 40
0.3583732329
 40
0.6858567109
 40
0.8506925646
 40
1.0
 40
1.0
 40
1.0
 40
1.0
 10
21.8467668912
 20
13.7648477332
 30
0.0
 10
21.8567450477
 20
13.7661264845
 30
0.0
 10
21.8734091412
 20
13.750300409
 30
0.0
 10
21.8881549685
 20
13.7259710951
 30
0.0
 10
21.9026523668
 20
13.6953421277
 30
0.0
 10
21.9169052839
 20
13.6573232334
 30
0.0
 10
21.9371958116
 20
13.5930710641
 30
0.0
 10
21.9709729237
 20
13.4547406983
 30
0.0
 10
21.9975137191
 20
13.2854084584
 30
0.0
 10
22.0130078679
 20
13.1123002786
 30
0.0
 10
22.0161695383
 20
13.0272081955
 30
0.0
 10
22.0161695383
 20
12.9867703128
 30
0.0
  0
SPLINE
  5
251
100
AcDbEntity
  8
0
100
AcDbSpline
 62
7
  6
CONTINUOUS
 70
0
 71
3
 72
13
 73
9
 74
0
 42
0.0000001
 43
0.0000001
 44
0.0000000001
 40
0.0
 40
0.0
 40
0.0
 40
0.0
 40
0.1080942162
 40
0.2182286509
 40
0.3322594604
 40
0.4517095816
 40
0.7105952878
 40
1.0
 40
1.0
 40
1.0
 40
1.0
 10
10.8897853142
 20
2.047342315
 30
0.0
 10
10.9717381115
 20
2.0946698245
 30
0.0
 10
11.1292872316
 20
2.2046675283
 30
0.0
 10
11.3374790509
 20
2.409598778
 30
0.0
 10
11.5165057266
 20
2.6528531204
 30
0.0
 10
11.719521965
 20
3.0346090025
 30
0.0
 10
11.886813638
 20
3.6010257073
 30
0.0
 10
11.9249559586
 20
4.0825007645
 30
0.0
 10
11.9249559586
 20
4.3358758576
 30
0.0
  0
SPLINE
  5
252
100
AcDbEntity
  8
0
100
AcDbSpline
 62
7
  6
CONTINUOUS
 70
0
 71
3
 72
13
 73
9
 74
0
 42
0.0000001
 43
0.0000001
 44
0.0000000001
 40
0.0
 40
0.0
 40
0.0
 40
0.0
 40
0.1093846711
 40
0.1970911973
 40
0.3101285149
 40
0.448475542
 40
0.6112140816
 40
1.0
 40
1.0
 40
1.0
 40
1.0
 10
21.9719961098
 20
11.1398174356
 30
0.0
 10
21.9801455756
 20
11.140866063
 30
0.0
 10
21.9911212422
 20
11.1547117897
 30
0.0
 10
21.9990123762
 20
11.1758707012
 30
0.0
 10
22.005310909
 20
11.2008588767
 30
0.0
 10
22.0101025938
 20
11.2315333735
 30
0.0
 10
22.0150941446
 20
11.2831719332
 30
0.0
 10
22.0161695383
 20
11.3246253054
 30
0.0
 10
22.0161695383
 20
11.3538297592
 30
0.0
  0
SPLINE
  5
253
100
AcDbEntity
  8
0
100
AcDbSpline
 62
7
  6
CONTINUOUS
 70
0
 71
3
 72
20
 73
16
 74
0
 42
0.0000001
 43
0.0000001
 44
0.0000000001
 40
0.0
 40
0.0
 40
0.0
 40
0.0
 40
0.0429964493
 40
0.0883267092
 40
0.1371517174
 40
0.1901518048
 40
0.2475606539
 40
0.3092415256
 40
0.374766731
 40
0.443492516
 40
0.5870974421
 40
0.7327343773
 40
0.8725718206
 40
0.9382151428
 40
1.0
 40
1.0
 40
1.0
 40
1.0
 10
-16.2868297232
 20
-12.7675570494
 30
0.0
 10
-16.3960905497
 20
-12.8151203012
 30
0.0
 10
-16.6337035673
 20
-12.8847307406
 30
0.0
 10
-17.0160655813
 20
-12.9052832835
 30
0.0
 10
-17.4218608168
 20
-12.8453622379
 30
0.0
 10
-17.8429222356
 20
-12.7073865385
 30
0.0
 10
-18.2714397821
 20
-12.4948005061
 30
0.0
 10
-18.6992296008
 20
-12.2120631433
 30
0.0
 10
-19.118052701
 20
-11.8649072027
 30
0.0
 10
-19.6611354466
 20
-11.3175790544
 30
0.0
 10
-20.2620244829
 20
-10.5214331008
 30
0.0
 10
-20.8181177036
 20
-9.4649381296
 30
0.0
 10
-21.1245411606
 20
-8.5350831766
 30
0.0
 10
-21.25115779
 20
-7.8041847116
 30
0.0
 10
-21.2737074181
 20
-7.450772904
 30
0.0
 10
-21.2737074181
 20
-7.2795363226
 30
0.0
  0
SPLINE
  5
254
100
AcDbEntity
  8
0
100
AcDbSpline
 62
7
  6
CONTINUOUS
 70
0
 71
3
 72
21
 73
17
 74
0
 42
0.0000001
 43
0.0000001
 44
0.0000000001
 40
0.0
 40
0.0
 40
0.0
 40
0.0
 40
0.0624034335
 40
0.1287821936
 40
0.198400695
 40
0.2704111081
 40
0.4174532631
 40
0.5616877243
 40
0.6303158644
 40
0.6954323964
 40
0.756406021
 40
0.812866622
 40
0.8647883191
 40
0.9125825543
 40
0.9571750328
 40
1.0
 40
1.0
 40
1.0
 40
1.0
 10
-14.9451017264
 20
-11.1785586888
 30
0.0
 10
-14.9451017264
 20
-10.9711424065
 30
0.0
 10
-14.9732294294
 20
-10.5428114269
 30
0.0
 10
-15.0888453576
 20
-9.8924736534
 30
0.0
 10
-15.2769057707
 20
-9.2260304474
 30
0.0
 10
-15.6210499147
 20
-8.3292243164
 30
0.0
 10
-16.1987462412
 20
-7.2620208067
 30
0.0
 10
-16.9391131496
 20
-6.3139356235
 30
0.0
 10
-17.6055051745
 20
-5.6720314047
 30
0.0
 10
-18.1161525978
 20
-5.2723022766
 30
0.0
 10
-18.6350534557
 20
-4.9548818155
 30
0.0
 10
-19.1517074147
 20
-4.7265903741
 30
0.0
 10
-19.6558190416
 20
-4.5926951184
 30
0.0
 10
-20.1374914301
 20
-4.5572844881
 30
0.0
 10
-20.5860406504
 20
-4.6230739618
 30
0.0
 10
-20.8577354204
 20
-4.7360949045
 30
0.0
 10
-20.9809988938
 20
-4.807279213
 30
0.0
  0
SPLINE
  5
255
100
AcDbEntity
  8
0
100
AcDbSpline
 62
7
  6
CONTINUOUS
 70
0
 71
3
 72
21
 73
17
 74
0
 42
0.0000001
 43
0.0000001
 44
0.0000000001
 40
0.0
 40
0.0
 40
0.0
 40
0.0
 40
0.0624034335
 40
0.1287821936
 40
0.198400695
 40
0.2704111081
 40
0.4174532631
 40
0.5616877243
 40
0.6303158644
 40
0.6954323964
 40
0.756406021
 40
0.812866622
 40
0.8647883191
 40
0.9125825543
 40
0.9571750328
 40
1.0
 40
1.0
 40
1.0
 40
1.0
 10
-21.4858394524
 20
-7.4020187006
 30
0.0
 10
-21.4858394524
 20
-7.5783225405
 30
0.0
 10
-21.4619309049
 20
-7.9424038732
 30
0.0
 10
-21.3636573659
 20
-8.4951909807
 30
0.0
 10
-21.2038060148
 20
-9.0616677058
 30
0.0
 10
-20.9112834924
 20
-9.8239529172
 30
0.0
 10
-20.4202416148
 20
-10.7310759004
 30
0.0
 10
-19.7909297428
 20
-11.5369483061
 30
0.0
 10
-19.2244965216
 20
-12.0825668921
 30
0.0
 10
-18.7904462118
 20
-12.422336651
 30
0.0
 10
-18.3493804825
 20
-12.6921440429
 30
0.0
 10
-17.9102246174
 20
-12.8861917681
 30
0.0
 10
-17.4817297345
 20
-13.0000027355
 30
0.0
 10
-17.0723082043
 20
-13.0301017712
 30
0.0
 10
-16.6910413671
 20
-12.9741807186
 30
0.0
 10
-16.4601008125
 20
-12.8781129172
 30
0.0
 10
-16.3553268601
 20
-12.817606255
 30
0.0
  0
SPLINE
  5
256
100
AcDbEntity
  8
0
100
AcDbSpline
 62
7
  6
CONTINUOUS
 70
0
 71
3
 72
23
 73
19
 74
0
 42
0.0000001
 43
0.0000001
 44
0.0000000001
 40
0.0
 40
0.0
 40
0.0
 40
0.0
 40
0.0612891869
 40
0.1263111971
 40
0.1944495527
 40
0.264948642
 40
0.336945034
 40
0.4095163579
 40
0.4817166155
 40
0.5526147629
 40
0.6213324475
 40
0.6870844746
 40
0.7492235001
 40
0.8072917939
 40
0.8610828445
 40
0.9107135328
 40
0.9566988742
 40
1.0
 40
1.0
 40
1.0
 40
1.0
 10
0.6112474597
 20
-7.9123619422
 30
0.0
 10
0.6112474597
 20
-7.4396543762
 30
0.0
 10
0.5504726769
 20
-6.4648417757
 30
0.0
 10
0.29927877
 20
-4.9839495531
 30
0.0
 10
-0.1099227541
 20
-3.4651069974
 30
0.0
 10
-0.6691510316
 20
-1.9377513706
 30
0.0
 10
-1.3676542995
 20
-0.4311962615
 30
0.0
 10
-2.1919174361
 20
1.0254413037
 30
0.0
 10
-3.1260205545
 20
2.4040161117
 30
0.0
 10
-4.1519185677
 20
3.6778973064
 30
0.0
 10
-5.2498504265
 20
4.8225195902
 30
0.0
 10
-6.3987806413
 20
5.8158652998
 30
0.0
 10
-7.5768960966
 20
6.6388651403
 30
0.0
 10
-8.7621857709
 20
7.2756419887
 30
0.0
 10
-9.9328634905
 20
7.7135860285
 30
0.0
 10
-11.0680564383
 20
7.9429048233
 30
0.0
 10
-12.1462275186
 20
7.9566421185
 30
0.0
 10
-12.8275283207
 20
7.8155218079
 30
0.0
 10
-13.1439548692
 20
7.7087022467
 30
0.0
  0
SPLINE
  5
257
100
AcDbEntity
  8
0
100
AcDbSpline
 62
7
  6
CONTINUOUS
 70
0
 71
3
 72
21
 73
17
 74
0
 42
0.0000001
 43
0.0000001
 44
0.0000000001
 40
0.0
 40
0.0
 40
0.0
 40
0.0
 40
0.0623990954
 40
0.128781758
 40
0.1983972331
 40
0.2704064463
 40
0.4174465722
 40
0.5616808628
 40
0.6303088448
 40
0.6954252495
 40
0.7564003854
 40
0.8128634422
 40
0.8647865039
 40
0.9125815158
 40
0.9571748563
 40
1.0
 40
1.0
 40
1.0
 40
1.0
 10
-9.9953542581
 20
-8.3206365355
 30
0.0
 10
-9.9953542581
 20
-8.1132406956
 30
0.0
 10
-10.0234918327
 20
-7.6849247989
 30
0.0
 10
-10.1390801337
 20
-7.0346136764
 30
0.0
 10
-10.3271322995
 20
-6.3681898899
 30
0.0
 10
-10.6712415481
 20
-5.4714221999
 30
0.0
 10
-11.2489193683
 20
-4.4042641099
 30
0.0
 10
-11.9892051229
 20
-3.456170441
 30
0.0
 10
-12.6555711242
 20
-2.8142786217
 30
0.0
 10
-13.1661971541
 20
-2.4145476942
 30
0.0
 10
-13.6850682489
 20
-2.097090909
 30
0.0
 10
-14.2016996043
 20
-1.8687430456
 30
0.0
 10
-14.7058037835
 20
-1.7348176442
 30
0.0
 10
-15.1874697498
 20
-1.6993706337
 30
0.0
 10
-15.6360128742
 20
-1.7651012062
 30
0.0
 10
-15.907741196
 20
-1.8780347329
 30
0.0
 10
-16.0310081913
 20
-1.9492058484
 30
0.0
  0
SPLINE
  5
258
100
AcDbEntity
  8
0
100
AcDbSpline
 62
7
  6
CONTINUOUS
 70
0
 71
3
 72
12
 73
8
 74
0
 42
0.0000001
 43
0.0000001
 44
0.0000000001
 40
0.0
 40
0.0
 40
0.0
 40
0.0
 40
0.2895802234
 40
0.5486333957
 40
0.781636144
 40
0.8918377566
 40
1.0
 40
1.0
 40
1.0
 40
1.0
 10
-9.9953542581
 20
-8.3206365355
 30
0.0
 10
-9.9953542581
 20
-8.5740366381
 30
0.0
 10
-10.0337447964
 20
-9.0558450028
 30
0.0
 10
-10.2285561833
 20
-9.7174341192
 30
0.0
 10
-10.5084847854
 20
-10.1739347896
 30
0.0
 10
-10.7912285428
 20
-10.4519722771
 30
0.0
 10
-10.9488009919
 20
-10.5619956195
 30
0.0
 10
-11.0307681368
 20
-10.6093212894
 30
0.0
  0
SPLINE
  5
259
100
AcDbEntity
  8
0
100
AcDbSpline
 62
7
  6
CONTINUOUS
 70
0
 71
3
 72
25
 73
21
 74
0
 42
0.0000001
 43
0.0000001
 44
0.0000000001
 40
0.0
 40
0.0
 40
0.0
 40
0.0
 40
0.0623790348
 40
0.1287199997
 40
0.1983093026
 40
0.2702856839
 40
0.3436620197
 40
0.4173935686
 40
0.4904182871
 40
0.5617056894
 40
0.6303041955
 40
0.6953932303
 40
0.756342328
 40
0.8127810656
 40
0.8646828396
 40
0.9124584302
 40
0.9351034515
 40
0.9571084506
 40
0.9786686174
 40
1.0
 40
1.0
 40
1.0
 40
1.0
 10
-6.4598203522
 20
-10.3620095022
 30
0.0
 10
-6.4598203522
 20
-9.9471784204
 30
0.0
 10
-6.5160375284
 20
-9.0905988716
 30
0.0
 10
-6.7472813168
 20
-7.7900070983
 30
0.0
 10
-7.1233128925
 20
-6.4573040822
 30
0.0
 10
-7.6359801446
 20
-5.1210111756
 30
0.0
 10
-8.274447738
 20
-3.8094345357
 30
0.0
 10
-9.025055997
 20
-2.550562229
 30
0.0
 10
-9.8718141732
 20
-1.371242556
 30
0.0
 10
-10.796679439
 20
-0.2966083631
 30
0.0
 10
-11.7800302832
 20
0.6504931493
 30
0.0
 10
-12.8011822201
 20
1.4499803364
 30
0.0
 10
-13.8388956581
 20
2.0849203528
 30
0.0
 10
-14.8722061497
 20
2.5416144929
 30
0.0
 10
-15.8801635546
 20
2.8096021513
 30
0.0
 10
-16.6976788969
 20
2.8696602239
 30
0.0
 10
-17.3108350561
 20
2.8122205094
 30
0.0
 10
-17.7425254637
 20
2.720156444
 30
0.0
 10
-18.1514399447
 20
2.5788700571
 30
0.0
 10
-18.4079161703
 20
2.4519699879
 30
0.0
 10
-18.5307703452
 20
2.3810450911
 30
0.0
  0
SPLINE
  5
25A
100
AcDbEntity
  8
0
100
AcDbSpline
 62
7
  6
CONTINUOUS
 70
0
 71
3
 72
25
 73
21
 74
0
 42
0.0000001
 43
0.0000001
 44
0.0000000001
 40
0.0
 40
0.0
 40
0.0
 40
0.0
 40
0.0623790348
 40
0.1287199997
 40
0.1983093026
 40
0.2702856839
 40
0.3436620197
 40
0.4173935686
 40
0.4904182871
 40
0.5617056894
 40
0.6303041955
 40
0.6953932303
 40
0.756342328
 40
0.8127810656
 40
0.8646828396
 40
0.9124584302
 40
0.9351034515
 40
0.9571084506
 40
0.9786686174
 40
1.0
 40
1.0
 40
1.0
 40
1.0
 10
-0.8029661027
 20
-7.0958127556
 30
0.0
 10
-0.8029661027
 20
-6.6809816738
 30
0.0
 10
-0.8591832789
 20
-5.8244021249
 30
0.0
 10
-1.0904270673
 20
-4.5238103516
 30
0.0
 10
-1.466458643
 20
-3.1911073356
 30
0.0
 10
-1.9791258951
 20
-1.8548144289
 30
0.0
 10
-2.6175934885
 20
-0.5432377891
 30
0.0
 10
-3.3682017475
 20
0.7156345176
 30
0.0
 10
-4.2149599237
 20
1.8949541906
 30
0.0
 10
-5.1398251895
 20
2.9695883835
 30
0.0
 10
-6.1231760337
 20
3.9166898959
 30
0.0
 10
-7.1443279706
 20
4.716177083
 30
0.0
 10
-8.1820414086
 20
5.3511170994
 30
0.0
 10
-9.2153519002
 20
5.8078112395
 30
0.0
 10
-10.2233093051
 20
6.0757988979
 30
0.0
 10
-11.0408246474
 20
6.1358569705
 30
0.0
 10
-11.6539808066
 20
6.078417256
 30
0.0
 10
-12.0856712142
 20
5.9863531906
 30
0.0
 10
-12.4945856952
 20
5.8450668038
 30
0.0
 10
-12.7510619208
 20
5.7181667345
 30
0.0
 10
-12.8739160957
 20
5.6472418377
 30
0.0
  0
SPLINE
  5
25B
100
AcDbEntity
  8
0
100
AcDbSpline
 62
7
  6
CONTINUOUS
 70
0
 71
3
 72
14
 73
10
 74
0
 42
0.0000001
 43
0.0000001
 44
0.0000000001
 40
0.0
 40
0.0
 40
0.0
 40
0.0
 40
0.2892833276
 40
0.4225446594
 40
0.5484947962
 40
0.6678944527
 40
0.7818679
 40
0.8919515957
 40
1.0
 40
1.0
 40
1.0
 40
1.0
 10
-0.8029661027
 20
-7.0958127556
 30
0.0
 10
-0.8029661027
 20
-7.602672296
 30
0.0
 10
-0.8621449037
 20
-8.3466604964
 30
0.0
 10
-1.0908722314
 20
-9.2817672722
 30
0.0
 10
-1.3236191064
 20
-9.9048527029
 30
0.0
 10
-1.6201704046
 20
-10.4624715017
 30
0.0
 10
-1.9784434819
 20
-10.9489260294
 30
0.0
 10
-2.3949448574
 20
-11.3588220484
 30
0.0
 10
-2.7101981722
 20
-11.5787235146
 30
0.0
 10
-2.8741517334
 20
-11.6733754823
 30
0.0
  0
SPLINE
  5
25C
100
AcDbEntity
  8
0
100
AcDbSpline
 62
7
  6
CONTINUOUS
 70
0
 71
3
 72
14
 73
10
 74
0
 42
0.0000001
 43
0.0000001
 44
0.0000000001
 40
0.0
 40
0.0
 40
0.0
 40
0.0
 40
0.2892833276
 40
0.4225446594
 40
0.5484947962
 40
0.6678944527
 40
0.7818679
 40
0.8919515957
 40
1.0
 40
1.0
 40
1.0
 40
1.0
 10
-6.4598203522
 20
-10.3620095022
 30
0.0
 10
-6.4598203522
 20
-10.8688690426
 30
0.0
 10
-6.5189991532
 20
-11.612857243
 30
0.0
 10
-6.7477264809
 20
-12.5479640188
 30
0.0
 10
-6.9804733559
 20
-13.1710494495
 30
0.0
 10
-7.2770246541
 20
-13.7286682483
 30
0.0
 10
-7.6352977314
 20
-14.215122776
 30
0.0
 10
-8.0517991069
 20
-14.625018795
 30
0.0
 10
-8.3670524217
 20
-14.8449202612
 30
0.0
 10
-8.5310059829
 20
-14.9395722289
 30
0.0
  0
SPLINE
  5
25D
100
AcDbEntity
  8
0
100
AcDbSpline
 62
7
  6
CONTINUOUS
 70
0
 71
3
 72
12
 73
8
 74
0
 42
0.0000001
 43
0.0000001
 44
0.0000000001
 40
0.0
 40
0.0
 40
0.0
 40
0.0
 40
0.1081608441
 40
0.2183631644
 40
0.4513716222
 40
0.7104169024
 40
1.0
 40
1.0
 40
1.0
 40
1.0
 10
-20.6059444046
 20
-5.4567651894
 30
0.0
 10
-20.6756042824
 20
-5.4969935724
 30
0.0
 10
-20.8095204145
 20
-5.5905125658
 30
0.0
 10
-21.0497789954
 20
-5.826873016
 30
0.0
 10
-21.2876601525
 20
-6.214866742
 30
0.0
 10
-21.453219494
 20
-6.7771609427
 30
0.0
 10
-21.4858394524
 20
-7.1866498714
 30
0.0
 10
-21.4858394524
 20
-7.4020187006
 30
0.0
  0
SPLINE
  5
25E
100
AcDbEntity
  8
0
100
AcDbSpline
 62
7
  6
CONTINUOUS
 70
0
 71
3
 72
11
 73
7
 74
0
 42
0.0000001
 43
0.0000001
 44
0.0000000001
 40
0.0
 40
0.0
 40
0.0
 40
0.0
 40
0.2191456747
 40
0.4557715437
 40
0.7154278139
 40
1.0
 40
1.0
 40
1.0
 40
1.0
 10
-20.6528577189
 20
-5.5258691245
 30
0.0
 10
-20.7551297974
 20
-5.6207317457
 30
0.0
 10
-20.9402622176
 20
-5.8491890718
 30
0.0
 10
-21.1343497009
 20
-6.2650572477
 30
0.0
 10
-21.2503740124
 20
-6.7512118218
 30
0.0
 10
-21.2737074181
 20
-7.0983964034
 30
0.0
 10
-21.2737074181
 20
-7.2795363226
 30
0.0
  0
SPLINE
  5
25F
100
AcDbEntity
  8
0
100
AcDbSpline
 62
7
  6
CONTINUOUS
 70
0
 71
3
 72
12
 73
8
 74
0
 42
0.0000001
 43
0.0000001
 44
0.0000000001
 40
0.0
 40
0.0
 40
0.0
 40
0.0
 40
0.1080050956
 40
0.2193562485
 40
0.4557112888
 40
0.7152163583
 40
1.0
 40
1.0
 40
1.0
 40
1.0
 10
3.7717928198
 20
-10.0392139981
 30
0.0
 10
3.9170108189
 20
-9.9076300774
 30
0.0
 10
4.1933962122
 20
-9.6191836382
 30
0.0
 10
4.6828552946
 20
-8.9503263432
 30
0.0
 10
5.1596724775
 20
-7.9452207059
 30
0.0
 10
5.4937459915
 20
-6.5610957261
 30
0.0
 10
5.560994928
 20
-5.5711548045
 30
0.0
 10
5.560994928
 20
-5.0544397889
 30
0.0
  0
SPLINE
  5
260
100
AcDbEntity
  8
0
100
AcDbSpline
 62
7
  6
CONTINUOUS
 70
0
 71
3
 72
13
 73
9
 74
0
 42
0.0000001
 43
0.0000001
 44
0.0000000001
 40
0.0
 40
0.0
 40
0.0
 40
0.0
 40
0.1080942162
 40
0.2182286509
 40
0.3322594604
 40
0.4517095816
 40
0.7105952878
 40
1.0
 40
1.0
 40
1.0
 40
1.0
 10
-15.9802723709
 20
-13.4670922314
 30
0.0
 10
-15.8983195736
 20
-13.4197647219
 30
0.0
 10
-15.7407704534
 20
-13.3097670182
 30
0.0
 10
-15.5325786342
 20
-13.1048357685
 30
0.0
 10
-15.3535519585
 20
-12.861581426
 30
0.0
 10
-15.1505357201
 20
-12.479825544
 30
0.0
 10
-14.9832440471
 20
-11.9134088392
 30
0.0
 10
-14.9451017264
 20
-11.4319337819
 30
0.0
 10
-14.9451017264
 20
-11.1785586888
 30
0.0
  0
SPLINE
  5
261
100
AcDbEntity
  8
0
100
AcDbSpline
 62
7
  6
CONTINUOUS
 70
0
 71
3
 72
24
 73
20
 74
0
 42
0.0000001
 43
0.0000001
 44
0.0000000001
 40
0.0
 40
0.0
 40
0.0
 40
0.0
 40
0.0612809282
 40
0.1263012516
 40
0.1944309467
 40
0.2649238951
 40
0.3369133303
 40
0.4094782593
 40
0.4816725885
 40
0.5525652496
 40
0.6212780456
 40
0.6870260023
 40
0.7491619574
 40
0.8072281559
 40
0.861017778
 40
0.9106471914
 40
0.956631075
 40
0.9785726446
 40
1.0
 40
1.0
 40
1.0
 40
1.0
 10
5.560994928
 20
-5.0544397889
 30
0.0
 10
5.560994928
 20
-4.5817824799
 30
0.0
 10
5.500208274
 20
-3.6070209967
 30
0.0
 10
5.2490767498
 20
-2.1262204953
 30
0.0
 10
4.839883829
 20
-0.6074609782
 30
0.0
 10
4.2807465836
 20
0.9197970066
 30
0.0
 10
3.5823196174
 20
2.4262740662
 30
0.0
 10
2.7581550741
 20
3.8828504875
 30
0.0
 10
1.8241470009
 20
5.2613810096
 30
0.0
 10
0.7983421902
 20
6.5352349136
 30
0.0
 10
-0.2994966172
 20
7.6798542314
 30
0.0
 10
-1.4483322049
 20
8.6732297733
 30
0.0
 10
-2.626374588
 20
9.4962906198
 30
0.0
 10
-3.8115574678
 20
10.1331825416
 30
0.0
 10
-4.9823041301
 20
10.5712130562
 30
0.0
 10
-6.11706277
 20
10.8008351209
 30
0.0
 10
-7.0305983582
 20
10.812176879
 30
0.0
 10
-7.7130506631
 20
10.7078092371
 30
0.0
 10
-8.0366971583
 20
10.6197322001
 30
0.0
 10
-8.1932962324
 20
10.5669084535
 30
0.0
  0
SPLINE
  5
262
100
AcDbEntity
  8
0
100
AcDbSpline
 62
7
  6
CONTINUOUS
 70
0
 71
3
 72
13
 73
9
 74
0
 42
0.0000001
 43
0.0000001
 44
0.0000000001
 40
0.0
 40
0.0
 40
0.0
 40
0.0
 40
0.1079212427
 40
0.2191336248
 40
0.4552060928
 40
0.581933254
 40
0.7149335193
 40
1.0
 40
1.0
 40
1.0
 40
1.0
 10
-1.2207717931
 20
-12.9353793272
 30
0.0
 10
-1.0722866979
 20
-12.804509674
 30
0.0
 10
-0.7894592436
 20
-12.5167907597
 30
0.0
 10
-0.2884235427
 20
-11.8465332285
 30
0.0
 10
0.093631667
 20
-11.0553100413
 30
0.0
 10
0.3589744642
 20
-10.184721173
 30
0.0
 10
0.5584954549
 20
-9.2043564724
 30
0.0
 10
0.6112474597
 20
-8.4351696705
 30
0.0
 10
0.6112474597
 20
-7.9123619422
 30
0.0
  0
ENDSEC
  0
SECTION
  2
OBJECTS
  0
DICTIONARY
  5
C
100
AcDbDictionary
280
0
281
1
  3
ACAD_GROUP
350
D
  3
ACAD_MLINESTYLE
350
17
  3
ACAD_LAYOUT
350
1A
  3
ACAD_PLOTSETTINGS
350
19
  3
ACAD_PLOTSTYLENAME
350
E
  0
DICTIONARY
  5
D
102
{ACAD_REACTORS
330
C
102
}
100
AcDbDictionary
280
0
281
1
  0
ACDBDICTIONARYWDFLT
  5
E
102
{ACAD_REACTORS
330
C
102
}
100
AcDbDictionary
281
1
  3
Normal
350
F
100
AcDbDictionaryWithDefault
340
F
  0
DICTIONARY
  5
17
102
{ACAD_REACTORS
330
C
102
}
100
AcDbDictionary
280
0
281
1
  3
Standard
350
18
  0
DICTIONARY
  5
19
102
{ACAD_REACTORS
330
C
102
}
100
AcDbDictionary
281
1
  0
DICTIONARY
  5
1A
102
{ACAD_REACTORS
330
C
102
}
100
AcDbDictionary
281
1
  3
Model
350
263
  3
Layout1
350
264
  0
ACDBPLACEHOLDER
  5
F
102
{ACAD_REACTORS
330
E
102
}
  0
MLINESTYLE
  5
18
102
{ACAD_REACTORS
330
17
102
}
100
AcDbMlineStyle
  2
STANDARD
 70
0
  3

 62
256
 51
90.0
 52
90.0
 71
2
 49
0.5
 62
256
  6
BYLAYER
 49
-0.5
 62
256
  6
BYLAYER
  0
LAYOUT
  5
263
102
{ACAD_REACTORS
330
1A
102
}
100
AcDbPlotSettings
  1

  2
none_device
  4
ISO_A4_(297.00_x_210.00_MM)
  6

 40
0.0
 41
0.0
 42
0.0
 43
0.0
 44
297.0
 45
210.0
 46
0.0
 47
0.0
 48
0.0
 49
0.0
140
0.0
141
0.0
142
1.0
143
1.0
 70
1024
 72
1
 73
0
 74
0
  7

 75
0
147
1.0
148
0.0
149
0.0
100
AcDbLayout
  1
Model
 70
0
 71
0
 10
0.0
 20
0.0
 11
297.0
 21
210.0
 12
0.0
 22
0.0
 32
0.0
 14
0.0
 24
0.0
 34
0.0
 15
0.0
 25
0.0
 35
0.0
146
0.0
 13
0.0
 23
0.0
 33
0.0
 16
1.0
 26
0.0
 36
0.0
 17
0.0
 27
1.0
 37
0.0
 76
0
330
20E
345
0
346
0
  0
LAYOUT
  5
264
102
{ACAD_REACTORS
330
1A
102
}
100
AcDbPlotSettings
  1

  2
none_device
  4
ISO_A4_(297.00_x_210.00_MM)
  6

 40
0.0
 41
0.0
 42
0.0
 43
0.0
 44
297.0
 45
210.0
 46
0.0
 47
0.0
 48
0.0
 49
0.0
140
0.0
141
0.0
142
1.0
143
1.0
 70
0
 72
1
 73
0
 74
0
  7

 75
0
147
1.0
148
0.0
149
0.0
100
AcDbLayout
  1
Layout1
 70
0
 71
1
 10
0.0
 20
0.0
 11
297.0
 21
210.0
 12
0.0
 22
0.0
 32
0.0
 14
0.0
 24
0.0
 34
0.0
 15
0.0
 25
0.0
 35
0.0
146
0.0
 13
0.0
 23
0.0
 33
0.0
 16
1.0
 26
0.0
 36
0.0
 17
0.0
 27
1.0
 37
0.0
 76
0
330
20F
345
0
346
0
  0
ENDSEC
  0
EOF
