  0
SECTION
  2
HEADER
  9
$ACADVER
  1
AC1021
  9
$DWGCODEPAGE
  3
ANSI_1252
  9
$EXTMAX
 10
297.0
 20
210.0
 30
0.0
  9
$EXTMIN
 10
0.0
 20
0.0
 30
0.0
  9
$LIMMIN
 10
0.0
 20
0.0
  9
$LIMMAX
 10
297.0
 20
210.0
  9
$VIEWCTR
 10
148.5
 20
105.0
  9
$VIEWSIZE
 40
210.0
  9
$CLAYER
  8
0
  9
$LTSCALE
 40
16.335
  9
$CELTYPE
  6
BYLAYER
  9
$DIMSCALE
 40
1.0
  9
$DIMASZ
 40
3.0
  9
$DIMEXO
 40
0.5
  9
$DIMDLI
 40
11.286
  9
$DIMEXE
 40
1.5
  9
$DIMCEN
 40
2.673
  9
$DIMLFAC
 40
1.0
  9
$DIMBLK
  1
_FILLED
  9
$DIMALT
 70
0
  9
$DIMALTF
 40
0.0393700787
  9
$DIMTXT
 40
3.0
  9
$DIMTOL
 70
1
  9
$DIMLIM
 70
0
  9
$DIMTFAC
 40
1.0
  9
$DIMTP
 40
0.01
  9
$DIMTM
 40
0.01
  9
$DIMGAP
 40
0.625
  9
$DIMDSEP
 70
44
  9
$AUNITS
 70
0
  9
$PDMODE
 70
3
  9
$PDSIZE
 40
3.0
  9
$HANDSEED
  5
265
  9
$TILEMODE
 70
1
  9
$MEASUREMENT
 70
1
  9
$INSUNITS
 70
4
  0
ENDSEC
  0
SECTION
  2
CLASSES
  0
CLASS
  1
ACDBDICTIONARYWDFLT
  2
AcDbDictionaryWithDefault
  3
AutoCAD 2000
 90
0
 91
1
280
0
281
0
  0
CLASS
  1
ACDBPLACEHOLDER
  2
AcDbPlaceHolder
  3
AutoCAD 2000
 90
0
 91
1
280
0
281
0
  0
CLASS
  1
LAYOUT
  2
AcDbLayout
  3
AutoCAD 2000
 90
0
 91
0
280
0
281
0
  0
ENDSEC
  0
SECTION
  2
TABLES
  0
TABLE
  2
VPORT
  5
8
100
AcDbSymbolTable
 70
2
  0
VPORT
  5
1F4
100
AcDbSymbolTableRecord
100
AcDbViewportTableRecord
  2
*ACTIVE
 70
0
 10
0.0
 20
0.0
 11
1.0
 21
1.0
 12
148.5
 22
105.0
 13
0.0
 23
0.0
 14
1.0
 24
1.0
 15
0.0
 25
0.0
 16
0.0
 26
0.0
 36
1.0
 17
0.0
 27
0.0
 37
0.0
 40
210.0
 41
1.4142857143
 42
50.0
 43
0.0
 44
0.0
 50
0.0
 51
0.0
 71
0
 72
100
 73
1
 74
1
 75
0
 76
0
 77
0
 78
0
  0
ENDTAB
  0
TABLE
  2
LTYPE
  5
5
100
AcDbSymbolTable
 70
6
  0
LTYPE
  5
14
100
AcDbSymbolTableRecord
100
AcDbLinetypeTableRecord
  2
BYBLOCK
 70
0
  3

 72
65
 73
0
 40
0.0
  0
LTYPE
  5
15
100
AcDbSymbolTableRecord
100
AcDbLinetypeTableRecord
  2
BYLAYER
 70
0
  3

 72
65
 73
0
 40
0.0
  0
LTYPE
  5
16
100
AcDbSymbolTableRecord
100
AcDbLinetypeTableRecord
  2
CONTINUOUS
 70
64
  3
Solid line
 72
65
 73
0
 40
0.0
  0
LTYPE
  5
1F5
100
AcDbSymbolTableRecord
100
AcDbLinetypeTableRecord
  2
CENTER
 70
64
  3
____ _ ____ _ ____ _ ____ _ ____ _ ____ _ ____
 72
65
 73
4
 40
0.6
 49
0.375
 74
0
 49
-0.075
 74
0
 49
0.075
 74
0
 49
-0.075
 74
0
  0
LTYPE
  5
1F6
100
AcDbSymbolTableRecord
100
AcDbLinetypeTableRecord
  2
HIDDEN
 70
64
  3
- - - - - - - - - - - - - - - - - - - -
 72
65
 73
2
 40
0.2
 49
0.1
 74
0
 49
-0.1
 74
0
  0
LTYPE
  5
1F7
100
AcDbSymbolTableRecord
100
AcDbLinetypeTableRecord
  2
PHANTOM
 70
64
  3
_____ _ _ _____ _ _ _____ _ _ _____
 72
65
 73
6
 40
0.8
 49
0.45
 74
0
 49
-0.05
 74
0
 49
0.1
 74
0
 49
-0.05
 74
0
 49
0.1
 74
0
 49
-0.05
 74
0
  0
LTYPE
  5
1F8
100
AcDbSymbolTableRecord
100
AcDbLinetypeTableRecord
  2
DOT
 70
64
  3
. . . . . . . . . . . . . . . . . . . .
 72
65
 73
2
 40
0.2
 49
0.1
 74
0
 49
-0.1
 74
0
  0
LTYPE
  5
1F9
100
AcDbSymbolTableRecord
100
AcDbLinetypeTableRecord
  2
DASHED
 70
64
  3
- - - - - - - - - - - - - - - - - - - -
 72
65
 73
2
 40
0.2
 49
0.1
 74
0
 49
-0.1
 74
0
  0
ENDTAB
  0
TABLE
  2
LAYER
  5
2
100
AcDbSymbolTable
 70
36
  0
LAYER
  5
10
100
AcDbSymbolTableRecord
100
AcDbLayerTableRecord
  2
0
 70
0
 62
7
  6
CONTINUOUS
370
-3
390
F
  0
LAYER
  5
1FA
100
AcDbSymbolTableRecord
100
AcDbLayerTableRecord
  2
DEFAULT_1
 70
0
 62
7
  6
CENTER
370
-3
390
F
  0
LAYER
  5
1FB
100
AcDbSymbolTableRecord
100
AcDbLayerTableRecord
  2
DEFAULT_2
 70
0
 62
7
  6
HIDDEN
370
-3
390
F
  0
LAYER
  5
1FC
100
AcDbSymbolTableRecord
100
AcDbLayerTableRecord
  2
DEFAULT_3
 70
0
 62
7
  6
PHANTOM
370
-3
390
F
  0
LAYER
  5
1FD
100
AcDbSymbolTableRecord
100
AcDbLayerTableRecord
  2
ASSI
 70
0
 62
7
  6
CONTINUOUS
370
-3
390
F
  0
LAYER
  5
1FE
100
AcDbSymbolTableRecord
100
AcDbLayerTableRecord
  2
COORDINATE
 70
0
 62
7
  6
CONTINUOUS
370
-3
390
F
  0
LAYER
  5
1FF
100
AcDbSymbolTableRecord
100
AcDbLayerTableRecord
  2
COPY_PUBLISH
 70
0
 62
7
  6
CONTINUOUS
370
-3
390
F
  0
LAYER
  5
200
100
AcDbSymbolTableRecord
100
AcDbLayerTableRecord
  2
COSMETICI
 70
0
 62
7
  6
CONTINUOUS
370
-3
390
F
  0
LAYER
  5
201
100
AcDbSymbolTableRecord
100
AcDbLayerTableRecord
  2
CURVE
 70
0
 62
7
  6
CONTINUOUS
370
-3
390
F
  0
LAYER
  5
202
100
AcDbSymbolTableRecord
100
AcDbLayerTableRecord
  2
DRAFT
 70
0
 62
7
  6
CONTINUOUS
370
-3
390
F
  0
LAYER
  5
203
100
AcDbSymbolTableRecord
100
AcDbLayerTableRecord
  2
IMPORT_IGES
 70
0
 62
7
  6
CONTINUOUS
370
-3
390
F
  0
LAYER
  5
204
100
AcDbSymbolTableRecord
100
AcDbLayerTableRecord
  2
NOTE
 70
0
 62
7
  6
CONTINUOUS
370
-3
390
F
  0
LAYER
  5
205
100
AcDbSymbolTableRecord
100
AcDbLayerTableRecord
  2
PIANI
 70
0
 62
7
  6
CONTINUOUS
370
-3
390
F
  0
LAYER
  5
206
100
AcDbSymbolTableRecord
100
AcDbLayerTableRecord
  2
PUNTI
 70
0
 62
7
  6
CONTINUOUS
370
-3
390
F
  0
LAYER
  5
207
100
AcDbSymbolTableRecord
100
AcDbLayerTableRecord
  2
RACCORDO
 70
0
 62
7
  6
CONTINUOUS
370
-3
390
F
  0
LAYER
  5
208
100
AcDbSymbolTableRecord
100
AcDbLayerTableRecord
  2
SIMBOLI
 70
0
 62
7
  6
CONTINUOUS
370
-3
390
F
  0
LAYER
  5
209
100
AcDbSymbolTableRecord
100
AcDbLayerTableRecord
  2
SMUSSO
 70
0
 62
7
  6
CONTINUOUS
370
-3
390
F
  0
LAYER
  5
20A
100
AcDbSymbolTableRecord
100
AcDbLayerTableRecord
  2
SUPERFICI
 70
0
 62
7
  6
CONTINUOUS
370
-3
390
F
  0
LAYER
  5
20B
100
AcDbSymbolTableRecord
100
AcDbLayerTableRecord
  2
TRASH
 70
0
 62
7
  6
CONTINUOUS
370
-3
390
F
  0
ENDTAB
  0
TABLE
  2
STYLE
  5
3
100
AcDbSymbolTable
 70
1
  0
STYLE
  5
11
100
AcDbSymbolTableRecord
100
AcDbTextStyleTableRecord
  2
STANDARD
 70
0
 40
0.0
 41
0.8
 50
0.0
 71
0
 42
0.2
  3
txt
  4

  0
STYLE
  5
20C
100
AcDbSymbolTableRecord
100
AcDbTextStyleTableRecord
  2
TEXTSTYLE_1
 70
0
 40
0.0
 41
0.8
 50
0.0
 71
0
 42
0.2
  3
gdt
  4

  0
ENDTAB
  0
TABLE
  2
VIEW
  5
6
100
AcDbSymbolTable
 70
0
  0
ENDTAB
  0
TABLE
  2
UCS
  5
7
100
AcDbSymbolTable
 70
0
  0
ENDTAB
  0
TABLE
  2
APPID
  5
9
100
AcDbSymbolTable
 70
1
  0
APPID
  5
20D
100
AcDbSymbolTableRecord
100
AcDbRegAppTableRecord
  2
ACAD
 70
0
  0
ENDTAB
  0
TABLE
  2
BLOCK_RECORD
  5
1
100
AcDbSymbolTable
 70
0
  0
BLOCK_RECORD
  5
20E
100
AcDbSymbolTableRecord
100
AcDbBlockTableRecord
  2
*Model_Space
  0
BLOCK_RECORD
  5
20F
100
AcDbSymbolTableRecord
100
AcDbBlockTableRecord
  2
*Paper_Space
  0
BLOCK_RECORD
  5
210
100
AcDbSymbolTableRecord
100
AcDbBlockTableRecord
  2
_FILLED
  0
ENDTAB
  0
TABLE
  2
DIMSTYLE
  5
A
100
AcDbSymbolTable
 70
1
100
AcDbDimStyleTable
 71
0
  0
DIMSTYLE
105
211
100
AcDbSymbolTableRecord
100
AcDbDimStyleTableRecord
  2
STANDARD
 70
0
  3

  4

 40
1.0
 41
3.0
 42
0.5
 43
0.38
 44
1.5
 45
0.0
 46
0.0
 47
0.01
 48
0.01
140
3.0
141
0.09
142
0.0
143
25.4
144
1.0
145
0.0
146
1.0
147
0.625
 71
1.0
 72
0.0
 73
0
 74
0
 75
0
 76
0
 77
1
 78
8
 79
2
170
0
171
1
172
0
173
0
174
0
175
0
176
0
177
0
178
0
270
2
179
2
271
2
272
2
273
2
274
2
275
0
280
0
281
0
282
0
283
1
284
8
285
0
286
0
287
3
288
0
340
11
278
44
341
210
342
210
343
210
344
210
  0
ENDTAB
  0
ENDSEC
  0
SECTION
  2
BLOCKS
  0
BLOCK
  5
20
100
AcDbEntity
  8
0
100
AcDbBlockBegin
  2
*Model_Space
 70
0
 10
0.0
 20
0.0
 30
0.0
  3
*Model_Space
  1

  0
ENDBLK
  5
21
100
AcDbEntity
  8
0
100
AcDbBlockEnd
  0
BLOCK
  5
1C
100
AcDbEntity
  8
0
100
AcDbBlockBegin
  2
*Paper_Space
 70
0
 10
0.0
 20
0.0
 30
0.0
  3
*Paper_Space
  1

  0
ENDBLK
  5
1D
100
AcDbEntity
  8
0
100
AcDbBlockEnd
  0
BLOCK
  5
212
100
AcDbEntity
  8
0
100
AcDbBlockBegin
  2
_FILLED
 70
64
 10
0.0
 20
0.0
  3
_FILLED
  1

  0
SOLID
  5
213
100
AcDbEntity
  8
0
  6
BYBLOCK
 62
0
100
AcDbTrace
 10
0.0
 20
0.0
 11
-1.0
 21
0.3166666667
 12
-1.0
 22
-0.3166666667
 13
-1.0
 23
-0.3166666667
  0
ENDBLK
  5
214
100
AcDbEntity
  8
0
  6
BYBLOCK
 62
0
100
AcDbBlockEnd
  0
ENDSEC
  0
SECTION
  2
ENTITIES
  0
LWPOLYLINE
  5
215
100
AcDbEntity
  8
0
100
AcDbPolyline
 62
7
  6
CONTINUOUS
 90
40
 70
0
 10
-4.9233345861
 20
-21.6241440202
 10
-4.916418009
 20
-21.8810192402
 10
-4.8963516145
 20
-22.142648691
 10
-4.8631354027
 20
-22.4090323725
 10
-4.8165441802
 20
-22.6812141932
 10
-4.7568031404
 20
-22.9581502446
 10
-4.6845878636
 20
-23.2367088014
 10
-4.5997567513
 20
-23.5169082811
 10
-4.5024514019
 20
-23.7987302662
 10
-4.3937721909
 20
-24.0789877788
 10
-4.2735900106
 20
-24.3576630603
 10
-4.1420339687
 20
-24.6347738693
 10
-4.0005917638
 20
-24.9071865043
 10
-3.8491511755
 20
-25.174847635
 10
-3.6878244242
 20
-25.4378105917
 10
-3.51843587
 20
-25.6931016635
 10
-3.3408940012
 20
-25.9406337648
 10
-3.1552903296
 20
-26.1804939811
 10
-2.9637237502
 20
-26.4099698585
 10
-2.7661265764
 20
-26.6289435214
 10
-2.5625664949
 20
-26.8375328453
 10
-2.3553454604
 20
-27.0333790024
 10
-2.1444219164
 20
-27.2163373416
 10
-1.9298374194
 20
-27.3865525139
 10
-1.7140185935
 20
-27.5420996448
 10
-1.4969514276
 20
-27.6828122333
 10
-1.2786499328
 20
-27.8088567805
 10
-1.0615827668
 20
-27.9188079141
 10
-0.845763941
 20
-28.0124829537
 10
-0.631179444
 20
-28.0900645798
 10
-0.4202559
 20
-28.1506754622
 10
-0.2130348654
 20
-28.1941229616
 10
-0.0094747839
 20
-28.2205997174
 10
0.1881223899
 20
-28.2298063178
 10
0.3796889693
 20
-28.2215467246
 10
0.5652926409
 20
-28.1960169759
 10
0.7428345096
 20
-28.1535057745
 10
0.9122230638
 20
-28.0938203592
 10
1.0735498151
 20
-28.017153491
 10
1.1125289796
 20
-27.9953653036
  0
LWPOLYLINE
  5
216
100
AcDbEntity
  8
0
100
AcDbPolyline
 62
7
  6
CONTINUOUS
 90
40
 70
0
 10
-4.3930045002
 20
-21.9303499651
 10
-4.3871254096
 20
-22.1486939022
 10
-4.3700689743
 20
-22.3710789354
 10
-4.3418351943
 20
-22.5975050647
 10
-4.3022326552
 20
-22.8288596123
 10
-4.2514527714
 20
-23.064255256
 10
-4.1900697861
 20
-23.3010300292
 10
-4.1179633406
 20
-23.539199587
 10
-4.0352537937
 20
-23.7787482743
 10
-3.9428764643
 20
-24.01696716
 10
-3.8407216111
 20
-24.2538411493
 10
-3.7288989754
 20
-24.4893853369
 10
-3.6086731012
 20
-24.7209360767
 10
-3.4799486012
 20
-24.9484480378
 10
-3.3428208626
 20
-25.171966551
 10
-3.1988405915
 20
-25.388963962
 10
-3.0479300031
 20
-25.5993662481
 10
-2.8901668822
 20
-25.803247432
 10
-2.7273352897
 20
-25.9983019277
 10
-2.559377692
 20
-26.1844295412
 10
-2.3863516227
 20
-26.3617304666
 10
-2.2102137433
 20
-26.5281997001
 10
-2.0309287309
 20
-26.6837142884
 10
-1.8485319085
 20
-26.8283971848
 10
-1.6650859065
 20
-26.9606122461
 10
-1.4805788155
 20
-27.0802179464
 10
-1.2950225449
 20
-27.1873558114
 10
-1.1105154538
 20
-27.280814275
 10
-0.9270694519
 20
-27.3604380587
 10
-0.7446726294
 20
-27.4263824408
 10
-0.565387617
 20
-27.4779016909
 10
-0.3892497376
 20
-27.5148320654
 10
-0.2162236683
 20
-27.5373373078
 10
-0.0482660707
 20
-27.5451629182
 10
0.1145655218
 20
-27.5381422639
 10
0.2723286427
 20
-27.5164419776
 10
0.4232392312
 20
-27.4803074563
 10
0.5672195022
 20
-27.4295748533
 10
0.7043472408
 20
-27.3644080154
 10
0.7374795307
 20
-27.3458880561
  0
LWPOLYLINE
  5
217
100
AcDbEntity
  8
0
100
AcDbPolyline
 62
7
  6
CONTINUOUS
 90
6
 70
0
 10
-1.1467055637
 20
-17.7527159994
 10
-1.2332735646
 20
-17.2863822808
 10
-1.3007441016
 20
-16.8275314073
 10
-1.3488706873
 20
-16.3774911845
 10
-1.3778895468
 20
-15.9349890888
 10
-1.3878006802
 20
-15.5000251202
  0
LWPOLYLINE
  5
218
100
AcDbEntity
  8
0
100
AcDbPolyline
 62
7
  6
CONTINUOUS
 90
40
 70
0
 10
1.6174031399
 20
-25.4006840084
 10
1.6115240493
 20
-25.1823400714
 10
1.594467614
 20
-24.9599550382
 10
1.566233834
 20
-24.7335289089
 10
1.5266312949
 20
-24.5021743613
 10
1.475851411
 20
-24.2667787176
 10
1.4144684257
 20
-24.0300039443
 10
1.3423619803
 20
-23.7918343866
 10
1.2596524333
 20
-23.5522856993
 10
1.167275104
 20
-23.3140668136
 10
1.0651202507
 20
-23.0771928243
 10
0.9532976151
 20
-22.8416486367
 10
0.8330717409
 20
-22.6100978969
 10
0.7043472408
 20
-22.3825859358
 10
0.5672195022
 20
-22.1590674226
 10
0.4232392312
 20
-21.9420700116
 10
0.2723286427
 20
-21.7316677255
 10
0.1145655218
 20
-21.5277865416
 10
-0.0482660707
 20
-21.3327320459
 10
-0.2162236683
 20
-21.1466044324
 10
-0.3892497376
 20
-20.969303507
 10
-0.565387617
 20
-20.8028342735
 10
-0.7446726294
 20
-20.6473196852
 10
-0.9270694519
 20
-20.5026367888
 10
-1.1105154538
 20
-20.3704217275
 10
-1.2950225449
 20
-20.2508160272
 10
-1.4805788155
 20
-20.1436781622
 10
-1.6650859065
 20
-20.0502196985
 10
-1.8485319085
 20
-19.9705959149
 10
-2.0309287309
 20
-19.9046515328
 10
-2.2102137433
 20
-19.8531322827
 10
-2.3863516227
 20
-19.8162019082
 10
-2.559377692
 20
-19.7936966657
 10
-2.7273352897
 20
-19.7858710554
 10
-2.8901668822
 20
-19.7928917097
 10
-3.0479300031
 20
-19.814591996
 10
-3.1988405915
 20
-19.8507265173
 10
-3.3428208626
 20
-19.9014591203
 10
-3.4799486012
 20
-19.9666259582
 10
-3.513080891
 20
-19.9851459175
  0
LWPOLYLINE
  5
219
100
AcDbEntity
  8
0
100
AcDbPolyline
 62
7
  6
CONTINUOUS
 90
40
 70
0
 10
2.1477332258
 20
-25.7068899534
 10
2.1408166486
 20
-25.4500147334
 10
2.1207502541
 20
-25.1883852826
 10
2.0875340424
 20
-24.9220016011
 10
2.0409428199
 20
-24.6498197804
 10
1.9812017801
 20
-24.3728837289
 10
1.9089865032
 20
-24.0943251721
 10
1.8241553909
 20
-23.8141256925
 10
1.7268500416
 20
-23.5323037074
 10
1.6181708306
 20
-23.2520461948
 10
1.4979886503
 20
-22.9733709133
 10
1.3664326083
 20
-22.6962601043
 10
1.2249904034
 20
-22.4238474693
 10
1.0735498151
 20
-22.1561863386
 10
0.9122230638
 20
-21.8932233818
 10
0.7428345096
 20
-21.63793231
 10
0.5652926409
 20
-21.3904002088
 10
0.3796889693
 20
-21.1505399925
 10
0.1881223899
 20
-20.9210641151
 10
-0.0094747839
 20
-20.7020904522
 10
-0.2130348654
 20
-20.4935011282
 10
-0.4202559
 20
-20.2976549712
 10
-0.631179444
 20
-20.114696632
 10
-0.845763941
 20
-19.9444814597
 10
-1.0615827668
 20
-19.7889343288
 10
-1.2786499328
 20
-19.6482217402
 10
-1.4969514276
 20
-19.5221771931
 10
-1.7140185935
 20
-19.4122260594
 10
-1.9298374194
 20
-19.3185510199
 10
-2.1444219164
 20
-19.2409693938
 10
-2.3553454604
 20
-19.1803585113
 10
-2.5625664949
 20
-19.1369110119
 10
-2.7661265764
 20
-19.1104342561
 10
-2.9637237502
 20
-19.1012276558
 10
-3.1552903296
 20
-19.109487249
 10
-3.3408940012
 20
-19.1350169976
 10
-3.51843587
 20
-19.1775281991
 10
-3.6878244242
 20
-19.2372136144
 10
-3.8491511755
 20
-19.3138804825
 10
-3.88813034
 20
-19.3356686699
  0
LWPOLYLINE
  5
21A
100
AcDbEntity
  8
0
100
AcDbPolyline
 62
7
  6
CONTINUOUS
 90
14
 70
0
 10
12.3188724246
 20
-27.2986470987
 10
12.6337770753
 20
-27.4013708324
 10
13.0235946171
 20
-27.5059097661
 10
13.4079682096
 20
-27.5858975245
 10
13.7869345448
 20
-27.6414995818
 10
14.1579278724
 20
-27.6723394905
 10
14.5208940898
 20
-27.6782492218
 10
14.8758872995
 20
-27.6593968044
 10
15.2205040585
 20
-27.6159098765
 10
15.5546739553
 20
-27.5476212756
 10
15.8784674014
 20
-27.4546981642
 10
16.1896921885
 20
-27.3377696682
 10
16.4882630292
 20
-27.1966728941
 10
16.6332466367
 20
-27.1168849606
  0
LWPOLYLINE
  5
21B
100
AcDbEntity
  8
0
100
AcDbPolyline
 62
7
  6
CONTINUOUS
 90
14
 70
0
 10
4.6327825633
 20
-6.3328128398
 10
4.4917639891
 20
-6.4181270651
 10
4.2202668131
 20
-6.6061168022
 10
3.9633730697
 20
-6.8171494261
 10
3.7209843321
 20
-7.0510696284
 10
3.4947416669
 20
-7.3062936777
 10
3.2847546366
 20
-7.5829661357
 10
3.0909136787
 20
-7.8809424408
 10
2.9145311724
 20
-8.1982051766
 10
2.7557255856
 20
-8.5348852154
 10
2.6143784504
 20
-8.8908516849
 10
2.4914467423
 20
-9.263694553
 10
2.3870554228
 20
-9.6535283378
 10
2.3183739971
 20
-9.9784267998
  0
LWPOLYLINE
  5
21C
100
AcDbEntity
  8
0
100
AcDbPolyline
 62
7
  6
CONTINUOUS
 90
9
 70
0
 10
9.5829555476
 20
-3.4746465873
 10
9.501075701
 20
-3.5232734268
 10
9.1837319412
 20
-3.7380869975
 10
8.8866828023
 20
-3.9828574178
 10
8.6101128122
 20
-4.2578570692
 10
8.3538374429
 20
-4.56281357
 10
8.1201798281
 20
-4.8949624927
 10
7.9093456188
 20
-5.2545510834
 10
7.8507769504
 20
-5.3749085138
  0
LINE
  5
21D
100
AcDbEntity
  8
0
100
AcDbLine
 62
7
  6
CONTINUOUS
 10
10.2895789278
 20
-3.0665146999
 11
9.5824721466
 21
-3.4747892933
  0
LINE
  5
21E
100
AcDbEntity
  8
0
100
AcDbLine
 62
7
  6
CONTINUOUS
 10
5.3398314595
 20
-5.9244368532
 11
4.6327246783
 21
-6.3327114466
  0
LWPOLYLINE
  5
21F
100
AcDbEntity
  8
0
100
AcDbPolyline
 62
7
  6
CONTINUOUS
 90
11
 70
0
 10
-3.5599632521
 20
-20.0542874769
 10
-3.674404301
 20
-20.1724679848
 10
-3.7780392306
 20
-20.3052249625
 10
-3.8710047148
 20
-20.4523740496
 10
-3.9521149462
 20
-20.6120383082
 10
-4.0212180613
 20
-20.7843780555
 10
-4.0784659238
 20
-20.9692329743
 10
-4.1231283171
 20
-21.1642451758
 10
-4.1549618358
 20
-21.3686286969
 10
-4.1742098854
 20
-21.5831695007
 10
-4.1808724659
 20
-21.8078675871
  0
LWPOLYLINE
  5
220
100
AcDbEntity
  8
0
100
AcDbPolyline
 62
7
  6
CONTINUOUS
 90
16
 70
0
 10
0.6830265218
 20
-10.9226559366
 10
0.4287256523
 20
-11.0853826813
 10
0.1878637944
 20
-11.2719421375
 10
-0.0373468965
 20
-11.4806683334
 10
-0.2467779591
 20
-11.7117432088
 10
-0.4405578548
 20
-11.964984824
 10
-0.6171004217
 20
-12.2383203005
 10
-0.7762641797
 20
-12.5319145643
 10
-0.918190609
 20
-12.8456026894
 10
-1.0417179879
 20
-13.17681702
 10
-1.1466953014
 20
-13.525701407
 10
-1.2332735646
 20
-13.8921119994
 10
-1.3007441016
 20
-14.2730495879
 10
-1.3488706873
 20
-14.667514436
 10
-1.3778895468
 20
-15.0765062801
 10
-1.3878006802
 20
-15.5000251202
  0
LINE
  5
221
100
AcDbEntity
  8
0
100
AcDbLine
 62
7
  6
CONTINUOUS
 10
16.2393747164
 20
-1.9406154556
 11
14.6040110249
 21
-2.8848539551
  0
LINE
  5
222
100
AcDbEntity
  8
0
100
AcDbLine
 62
7
  6
CONTINUOUS
 10
5.6327729986
 20
-8.0647343555
 11
0.6830255303
 21
-10.9226565088
  0
LWPOLYLINE
  5
223
100
AcDbEntity
  8
0
100
AcDbPolyline
 62
7
  6
CONTINUOUS
 90
4
 70
0
 10
5.3875617986
 20
-5.9949996363
 10
5.0763370115
 20
-6.1119281323
 10
4.7777661708
 20
-6.2530249064
 10
4.6327825633
 20
-6.3328128398
  0
LWPOLYLINE
  5
224
100
AcDbEntity
  8
0
100
AcDbPolyline
 62
7
  6
CONTINUOUS
 90
4
 70
0
 10
10.5579311401
 20
-3.070837683
 10
10.1881753004
 20
-3.1896487695
 10
9.8358373635
 20
-3.3403639884
 10
9.5829555476
 20
-3.4746465873
  0
LWPOLYLINE
  5
225
100
AcDbEntity
  8
0
100
AcDbPolyline
 62
7
  6
CONTINUOUS
 90
8
 70
0
 10
19.0711166955
 20
-24.8099409
 10
19.4136732685
 20
-24.8209623882
 10
19.8257552127
 20
-24.8013946428
 10
20.2237710871
 20
-24.7488457436
 10
20.6075929965
 20
-24.6630158108
 10
20.9773488362
 20
-24.5442047243
 10
21.3296867731
 20
-24.3934895055
 10
21.582568589
 20
-24.2592069065
  0
LWPOLYLINE
  5
226
100
AcDbEntity
  8
0
100
AcDbPolyline
 62
7
  6
CONTINUOUS
 90
37
 70
0
 10
9.2188010376
 20
-21.6241440202
 10
9.2109627077
 20
-21.3507418233
 10
9.1883179435
 20
-21.0721912715
 10
9.150866745
 20
-20.7884923649
 10
9.0983227529
 20
-20.4983897605
 10
9.0309723264
 20
-20.2031388012
 10
8.9496745439
 20
-19.9065055159
 10
8.8542507422
 20
-19.6084721973
 10
8.7448795844
 20
-19.3090565527
 10
8.6229561377
 20
-19.012077733
 10
8.4883196097
 20
-18.7175669535
 10
8.3411307928
 20
-18.4254929989
 10
8.1832671317
 20
-18.1395813744
 10
8.0145918836
 20
-17.8599110181
 10
7.8352417913
 20
-17.5864029918
 10
7.6475045277
 20
-17.3225459858
 10
7.4512726547
 20
-17.0684636277
 10
7.2466536104
 20
-16.8240322898
 10
7.0362573821
 20
-16.592369779
 10
6.820009965
 20
-16.3736396616
 10
6.5979853639
 20
-16.1676783713
 10
6.3730155799
 20
-15.9771130161
 10
6.1450628858
 20
-15.8021408151
 10
5.9141650087
 20
-15.6425645493
 10
5.6832671317
 20
-15.5004196695
 10
5.4523692547
 20
-15.3759294686
 10
5.2214713776
 20
-15.2688706537
 10
4.9935186835
 20
-15.1806087973
 10
4.7685488995
 20
-15.1113846849
 10
4.5465242984
 20
-15.0609575311
 10
4.3302768813
 20
-15.0299705517
 10
4.119880653
 20
-15.0186727718
 10
3.9152616087
 20
-15.0268151664
 10
3.7190297357
 20
-15.0542938763
 10
3.5312924721
 20
-15.1013565961
 10
3.3519423798
 20
-15.1677556313
 10
3.1831471052
 20
-15.2527133343
  0
LWPOLYLINE
  5
227
100
AcDbEntity
  8
0
100
AcDbPolyline
 62
7
  6
CONTINUOUS
 90
13
 70
0
 10
9.2188010376
 20
-21.6241440202
 10
9.2109627077
 20
-21.8884947101
 10
9.1883179435
 20
-22.1408956557
 10
9.150866745
 20
-22.3813468571
 10
9.0983227529
 20
-22.6107729765
 10
9.0309723264
 20
-22.8282493515
 10
8.9496745439
 20
-23.0310019953
 10
8.8542507422
 20
-23.2188422997
 10
8.7448795844
 20
-23.3919588727
 10
8.6229561377
 20
-23.5481435523
 10
8.4883196097
 20
-23.687179444
 10
8.3411307928
 20
-23.8092834422
 10
8.1833871582
 20
-23.9128287727
  0
LINE
  5
228
100
AcDbEntity
  8
0
100
AcDbLine
 62
7
  6
CONTINUOUS
 10
-3.4348527578
 20
-19.9504990784
 11
-3.5599632521
 21
-20.0542874769
  0
LWPOLYLINE
  5
229
100
AcDbEntity
  8
0
100
AcDbPolyline
 62
7
  6
CONTINUOUS
 90
46
 70
0
 10
12.7543349436
 20
-23.6655169868
 10
12.7444238102
 20
-23.2305530182
 10
12.7154049507
 20
-22.7880509225
 10
12.667278365
 20
-22.3380106997
 10
12.599807828
 20
-21.8791598263
 10
12.5132295648
 20
-21.4127708257
 10
12.4082522513
 20
-20.9426612684
 10
12.2847248724
 20
-20.468800617
 10
12.1427984431
 20
-19.9912194088
 10
11.983634685
 20
-19.5138268268
 10
11.8070921182
 20
-19.0366244192
 10
11.6133122225
 20
-18.5596106378
 10
11.4038811599
 20
-18.0866900209
 10
11.178670469
 20
-17.6178961642
 10
10.9378086111
 20
-17.153195472
 10
10.6832671317
 20
-16.6963916952
 10
10.4149337515
 20
-16.24754965
 10
10.1329207497
 20
-15.8066045202
 10
9.8395365095
 20
-15.3771656087
 10
9.5346876983
 20
-14.9593273557
 10
9.2184676486
 20
-14.5529953209
 10
8.8934647413
 20
-14.1614954858
 10
8.5596068886
 20
-13.7849495896
 10
8.2169661782
 20
-13.423235893
 10
7.8683472539
 20
-13.0793151596
 10
7.5137010481
 20
-12.7533334298
 10
7.1530766283
 20
-12.4451446631
 10
6.7894258421
 20
-12.1572715012
 10
6.4227238496
 20
-11.8898806899
 10
6.0529954907
 20
-11.6428054833
 10
5.6832671317
 20
-11.4180682856
 10
5.3135387727
 20
-11.215852442
 10
4.9438104137
 20
-11.0359746071
 10
4.5771084213
 20
-10.8799071492
 10
4.2134576351
 20
-10.7478454985
 10
3.8528332153
 20
-10.6395942246
 10
3.4981870094
 20
-10.5560394054
 10
3.1495680852
 20
-10.4973837436
 10
2.8069273748
 20
-10.4634245364
 10
2.4730695221
 20
-10.4544397527
 10
2.1480666148
 20
-10.4706343769
 10
1.8318465651
 20
-10.5118034247
 10
1.5269977539
 20
-10.5776099118
 10
1.2336135137
 20
-10.6682560567
 10
0.9516005119
 20
-10.7835396409
 10
0.6830265218
 20
-10.9226559366
  0
LWPOLYLINE
  5
22A
100
AcDbEntity
  8
0
100
AcDbPolyline
 62
7
  6
CONTINUOUS
 90
14
 70
0
 10
-3.88813034
 20
-19.3356686699
 10
-4.0005917638
 20
-19.4066618179
 10
-4.1420339687
 20
-19.51574054
 10
-4.2735900106
 20
-19.6409337294
 10
-4.3937721909
 20
-19.7808256415
 10
-4.5024514019
 20
-19.9355831254
 10
-4.5997567513
 20
-20.1050393321
 10
-4.6845878636
 20
-20.2872779696
 10
-4.7568031404
 20
-20.4824441349
 10
-4.8165441802
 20
-20.690392731
 10
-4.8631354027
 20
-20.9087721758
 10
-4.8963516145
 20
-21.1367986086
 10
-4.916418009
 20
-21.37525589
 10
-4.9233345861
 20
-21.6241440202
  0
LWPOLYLINE
  5
22B
100
AcDbEntity
  8
0
100
AcDbPolyline
 62
7
  6
CONTINUOUS
 90
14
 70
0
 10
-3.513080891
 20
-19.9851459175
 10
-3.6086731012
 20
-20.0454900932
 10
-3.7288989754
 20
-20.138207007
 10
-3.8407216111
 20
-20.244621218
 10
-3.9428764643
 20
-20.3635293433
 10
-4.0352537937
 20
-20.4950732046
 10
-4.1179633406
 20
-20.6391109803
 10
-4.1900697861
 20
-20.7940138222
 10
-4.2514527714
 20
-20.9599050627
 10
-4.3022326552
 20
-21.1366613694
 10
-4.3418351943
 20
-21.3222838975
 10
-4.3700689743
 20
-21.5161063653
 10
-4.3871254096
 20
-21.7187950545
 10
-4.3930045002
 20
-21.9303499651
  0
LINE
  5
22C
100
AcDbEntity
  8
0
100
AcDbLine
 62
7
  6
CONTINUOUS
 10
25.810563329
 20
-2.1879267947
 11
23.0693325817
 21
-3.7706790725
  0
LINE
  5
22D
100
AcDbEntity
  8
0
100
AcDbLine
 62
7
  6
CONTINUOUS
 10
3.183146331
 20
-15.2527137812
 11
-3.8879214809
 21
-19.3354597144
  0
LWPOLYLINE
  5
22E
100
AcDbEntity
  8
0
100
AcDbPolyline
 62
7
  6
CONTINUOUS
 90
16
 70
0
 10
12.7543349436
 20
-23.6655169868
 10
12.7444238102
 20
-24.089035827
 10
12.7154049507
 20
-24.4980276711
 10
12.667278365
 20
-24.8924925191
 10
12.599807828
 20
-25.2734301076
 10
12.5132295648
 20
-25.6398407
 10
12.4082522513
 20
-25.988725087
 10
12.2847248724
 20
-26.3199394176
 10
12.1427984431
 20
-26.6336275427
 10
11.983634685
 20
-26.9272218065
 10
11.8070921182
 20
-27.2005572831
 10
11.6133122225
 20
-27.4537988982
 10
11.4038811599
 20
-27.6848737736
 10
11.178670469
 20
-27.8935999696
 10
10.9378086111
 20
-28.0801594257
 10
10.6835077416
 20
-28.2428861705
  0
LWPOLYLINE
  5
22F
100
AcDbEntity
  8
0
100
AcDbPolyline
 62
7
  6
CONTINUOUS
 90
10
 70
0
 10
40.474401382
 20
0.6933335448
 10
40.4826869089
 20
0.6973041548
 10
40.4900733219
 20
0.7066422994
 10
40.4965878696
 20
0.721080145
 10
40.5022021039
 20
0.7407840897
 10
40.506944473
 20
0.7655877355
 10
40.510661903
 20
0.7946904721
 10
40.5133033692
 20
0.8278254295
 10
40.5149198963
 20
0.8652594778
 10
40.5155114844
 20
0.9069926169
  0
LWPOLYLINE
  5
230
100
AcDbEntity
  8
0
100
AcDbPolyline
 62
7
  6
CONTINUOUS
 90
13
 70
0
 10
31.1898264831
 20
-5.8118367424
 10
31.3351049678
 20
-5.7631793839
 10
31.6875609412
 20
-5.6279221802
 10
32.0334491558
 20
-5.4777809286
 10
32.3711919495
 20
-5.3138978684
 10
32.7011422499
 20
-5.1370107513
 10
33.0241012023
 20
-4.9478436914
 10
33.3397096312
 20
-4.747928602
 10
33.649786014
 20
-4.5377848715
 10
33.9549315638
 20
-4.3190697746
 10
34.2535444635
 20
-4.0955073629
 10
34.5480044687
 20
-3.8680757765
 10
35.1257880645
 20
-3.4125757877
  0
LWPOLYLINE
  5
231
100
AcDbEntity
  8
0
100
AcDbPolyline
 62
7
  6
CONTINUOUS
 90
46
 70
0
 10
17.7040824119
 20
-20.8075948335
 10
17.6941712785
 20
-20.3726308649
 10
17.665152419
 20
-19.9301287692
 10
17.6170258333
 20
-19.4800885464
 10
17.5495552963
 20
-19.021237673
 10
17.4629770331
 20
-18.5548486724
 10
17.3579997196
 20
-18.0847391151
 10
17.2344723407
 20
-17.6108784637
 10
17.0925459114
 20
-17.1332972555
 10
16.9333821534
 20
-16.6559046735
 10
16.7568395865
 20
-16.1787022659
 10
16.5630596908
 20
-15.7016884845
 10
16.3536286282
 20
-15.2287678676
 10
16.1284179373
 20
-14.7599740109
 10
15.8875560794
 20
-14.2952733187
 10
15.6330146
 20
-13.8384695419
 10
15.3646812198
 20
-13.3896274967
 10
15.082668218
 20
-12.948682367
 10
14.7892839778
 20
-12.5192434554
 10
14.4844351666
 20
-12.1014052024
 10
14.1682151169
 20
-11.6950731676
 10
13.8432122096
 20
-11.3035733325
 10
13.5093543569
 20
-10.9270274363
 10
13.1667136465
 20
-10.5653137397
 10
12.8180947222
 20
-10.2213930063
 10
12.4634485164
 20
-9.8954112765
 10
12.1028240966
 20
-9.5872225098
 10
11.7391733104
 20
-9.2993493479
 10
11.3724713179
 20
-9.0319585366
 10
11.002742959
 20
-8.78488333
 10
10.6330146
 20
-8.5601461323
 10
10.263286241
 20
-8.3579302887
 10
9.8935578821
 20
-8.1780524538
 10
9.5268558896
 20
-8.0219849959
 10
9.1632051034
 20
-7.8899233452
 10
8.8025806836
 20
-7.7816720713
 10
8.4479344778
 20
-7.6981172521
 10
8.0993155535
 20
-7.6394615903
 10
7.7566748431
 20
-7.6055023831
 10
7.4228169904
 20
-7.5965175994
 10
7.0978140831
 20
-7.6127122236
 10
6.7815940334
 20
-7.6538812714
 10
6.4767452222
 20
-7.7196877585
 10
6.183360982
 20
-7.8103339034
 10
5.9013479802
 20
-7.9256174876
 10
5.6327739901
 20
-8.0647337833
  0
LWPOLYLINE
  5
232
100
AcDbEntity
  8
0
100
AcDbPolyline
 62
7
  6
CONTINUOUS
 90
16
 70
0
 10
17.7040824119
 20
-20.8075948335
 10
17.6941712785
 20
-21.2311136737
 10
17.665152419
 20
-21.6401055178
 10
17.6170258333
 20
-22.0345703658
 10
17.5495552963
 20
-22.4155079543
 10
17.4629770331
 20
-22.7819185467
 10
17.3579997196
 20
-23.1308029338
 10
17.2344723407
 20
-23.4620172643
 10
17.0925459114
 20
-23.7757053894
 10
16.9333821534
 20
-24.0692996532
 10
16.7568395865
 20
-24.3426351298
 10
16.5630596908
 20
-24.5958767449
 10
16.3536286282
 20
-24.8269516203
 10
16.1284179373
 20
-25.0356778163
 10
15.8875560794
 20
-25.2222372725
 10
15.6332552099
 20
-25.3849640172
  0
LWPOLYLINE
  5
233
100
AcDbEntity
  8
0
100
AcDbPolyline
 62
7
  6
CONTINUOUS
 90
10
 70
0
 10
40.4744015091
 20
-2.5725475477
 10
40.4826869089
 20
-2.5685769524
 10
40.4900733219
 20
-2.5592388078
 10
40.4965878696
 20
-2.5448009622
 10
40.5022021039
 20
-2.5250970175
 10
40.506944473
 20
-2.5002933717
 10
40.510661903
 20
-2.4711906351
 10
40.5133033692
 20
-2.4380556777
 10
40.5149198963
 20
-2.4006216294
 10
40.5155114844
 20
-2.3588884903
  0
LWPOLYLINE
  5
234
100
AcDbEntity
  8
0
100
AcDbPolyline
 62
7
  6
CONTINUOUS
 90
12
 70
0
 10
31.687363609
 20
-7.2609384613
 10
31.6875609412
 20
-7.2608627338
 10
32.0334491558
 20
-7.1107214822
 10
32.3711919495
 20
-6.946838422
 10
32.7011422499
 20
-6.7699513049
 10
33.0241012023
 20
-6.5807842449
 10
33.3397096312
 20
-6.3808691556
 10
33.649786014
 20
-6.1707254251
 10
33.9549315638
 20
-5.9520103282
 10
34.2535444635
 20
-5.7284479165
 10
34.5480044687
 20
-5.50101633
 10
35.1257880645
 20
-5.0455163412
  0
LWPOLYLINE
  5
235
100
AcDbEntity
  8
0
100
AcDbPolyline
 62
7
  6
CONTINUOUS
 90
42
 70
0
 10
19.8254027554
 20
-21.2158694268
 10
19.8106441587
 20
-20.6344898683
 10
19.7676739952
 20
-20.0425651317
 10
19.696492265
 20
-19.4400952171
 10
19.596668167
 20
-18.8249749507
 10
19.4686325023
 20
-18.1993095064
 10
19.3136776739
 20
-17.5694144051
 10
19.13153104
 20
-16.9352468082
 10
18.9224652425
 20
-16.2968495543
 10
18.6885906095
 20
-15.6606666806
 10
18.4296558732
 20
-15.0267206147
 10
18.1459123013
 20
-14.3949889289
 10
17.8402240262
 20
-13.7718483775
 10
17.5123687882
 20
-13.157385973
 10
17.162568847
 20
-12.5515147028
 10
16.7943551133
 20
-11.9603502841
 10
16.4075410892
 20
-11.3840416701
 10
16.0023132726
 20
-10.8224399076
 10
15.5827620683
 20
-10.2812138532
 10
15.1487424065
 20
-9.7605698755
 10
14.7003993569
 20
-9.2603016059
 10
14.242258533
 20
-8.7854587957
 10
13.7742207012
 20
-8.336298958
 10
13.2963850952
 20
-7.9125645796
 10
12.8135750288
 20
-7.518532872
 10
12.3257401199
 20
-7.1545046688
 10
11.8329307505
 20
-6.8201791363
 10
11.3401213812
 20
-6.5189309854
 10
10.8473120118
 20
-6.2510952293
 10
10.3545026425
 20
-6.0163368548
 10
9.8666677336
 20
-5.8170255332
 10
9.3838576671
 20
-5.6535202781
 10
8.9060220611
 20
-5.5254620761
 10
8.4379842294
 20
-5.4341435575
 10
7.9798434055
 20
-5.3799368279
 10
7.5315003559
 20
-5.3624697819
 10
7.0974806941
 20
-5.3819187333
 10
6.6779294897
 20
-5.4386575733
 10
6.2727016732
 20
-5.5323124107
 10
5.8858876491
 20
-5.6619378855
 10
5.5176739154
 20
-5.8278983141
 10
5.3399608851
 20
-5.9246627152
  0
LWPOLYLINE
  5
236
100
AcDbEntity
  8
0
100
AcDbPolyline
 62
7
  6
CONTINUOUS
 90
48
 70
0
 10
19.1182959742
 20
-21.6241440202
 10
19.1085041818
 20
-21.1505531375
 10
19.079714872
 20
-20.6691472092
 10
19.0319280446
 20
-20.1799262353
 10
18.9649496696
 20
-19.6817482921
 10
18.8789737772
 20
-19.1757553033
 10
18.7745824577
 20
-18.6653730395
 10
18.6516507496
 20
-18.1505717162
 10
18.5103036144
 20
-17.6313811179
 10
18.3514980276
 20
-17.1113163682
 10
18.1751155213
 20
-16.5903715353
 10
17.9812745634
 20
-16.0685525508
 10
17.7712875331
 20
-15.5493923338
 10
17.5450448679
 20
-15.0329089256
 10
17.3026561303
 20
-14.5190842848
 10
17.0457623869
 20
-14.0113972053
 10
16.7742652109
 20
-13.5098893347
 10
16.4882630292
 20
-13.0145190254
 10
16.1896921885
 20
-12.5286401284
 10
15.8784674014
 20
-12.0523170494
 10
15.5546739553
 20
-11.5854853826
 10
15.2205040585
 20
-11.1313057612
 10
14.8758872995
 20
-10.6898640381
 10
14.5208940898
 20
-10.2610743603
 10
14.1579278724
 20
-9.8478398018
 10
13.7869345448
 20
-9.4502659151
 10
13.4079682096
 20
-9.0682471477
 10
13.0235946171
 20
-8.7043699161
 10
12.6337770753
 20
-8.3587573235
 10
12.2385522762
 20
-8.0312862669
 10
11.8405960465
 20
-7.7241738533
 10
11.4398898514
 20
-7.4375582307
 10
11.0364522257
 20
-7.1713012511
 10
10.6330146
 20
-6.9272055787
 10
10.2295769743
 20
-6.7054215935
 10
9.8261393486
 20
-6.5057989154
 10
9.4254331535
 20
-6.329689068
 10
9.0274769238
 20
-6.1772516026
 10
8.6322521247
 20
-6.048326968
 10
8.2424345829
 20
-5.9437880344
 10
7.8580609904
 20
-5.863800276
 10
7.4790946552
 20
-5.8081982186
 10
7.1081013276
 20
-5.77735831
 10
6.7451351102
 20
-5.7714485787
 10
6.3901419005
 20
-5.7903009961
 10
6.0455251415
 20
-5.833787924
 10
5.7113552447
 20
-5.9020765249
 10
5.3875617986
 20
-5.9949996363
  0
LWPOLYLINE
  5
237
100
AcDbEntity
  8
0
100
AcDbPolyline
 62
7
  6
CONTINUOUS
 90
14
 70
0
 10
34.6314215671
 20
-2.5282517207
 10
34.0790100742
 20
-2.9652593454
 10
33.8066651525
 20
-3.1780235653
 10
33.5358663663
 20
-3.3847029595
 10
33.2653722578
 20
-3.5841295808
 10
32.9935386775
 20
-3.7756071891
 10
32.7194810596
 20
-3.9581522674
 10
32.4420588362
 20
-4.131068291
 10
32.1600827762
 20
-4.2937375357
 10
31.8728306759
 20
-4.445420216
 10
31.5790484012
 20
-4.585944389
 10
31.2782371842
 20
-4.714845373
 10
30.9712108806
 20
-4.8312796192
 10
30.7152353627
 20
-4.9160704973
  0
LWPOLYLINE
  5
238
100
AcDbEntity
  8
0
100
AcDbPolyline
 62
7
  6
CONTINUOUS
 90
18
 70
0
 10
34.6343426723
 20
-0.8929660585
 10
34.0812825833
 20
-1.3303878212
 10
33.8084285395
 20
-1.5433157323
 10
33.5370540717
 20
-1.7501675762
 10
33.2659458349
 20
-1.9499309296
 10
32.9934987715
 20
-2.1419564628
 10
32.7189171861
 20
-2.3250950544
 10
32.4410829086
 20
-2.4985255813
 10
32.1587279087
 20
-2.661575571
 10
31.8710742404
 20
-2.813472105
 10
31.5768631567
 20
-2.9540745138
 10
31.2756033495
 20
-3.0829645861
 10
30.9681370668
 20
-3.1993545707
 10
30.6537601831
 20
-3.3033088701
 10
30.3323404801
 20
-3.3948960629
 10
30.0062645002
 20
-3.4736831334
 10
29.6762756032
 20
-3.5396335311
 10
29.6746930248
 20
-3.5398868094
  0
LWPOLYLINE
  5
239
100
AcDbEntity
  8
0
100
AcDbPolyline
 62
7
  6
CONTINUOUS
 90
19
 70
0
 10
35.1130060217
 20
-1.7897777404
 10
35.3952879992
 20
-1.5682407209
 10
35.6755800402
 20
-1.3522492974
 10
35.953169136
 20
-1.1445302603
 10
36.2282940398
 20
-0.9467363456
 10
36.5032682934
 20
-0.7587754562
 10
36.7802405111
 20
-0.5806378476
 10
37.0601723629
 20
-0.4130197243
 10
37.3439760938
 20
-0.2562513446
 10
37.633639741
 20
-0.1098584016
 10
37.9305674915
 20
0.0262424817
 10
38.2347023545
 20
0.1515086498
 10
38.5455644219
 20
0.2654258848
 10
38.8635243301
 20
0.3677750416
 10
39.1889365842
 20
0.4583189957
 10
39.5208071445
 20
0.5367412867
 10
39.8585598798
 20
0.6031834304
 10
40.202262579
 20
0.6581209494
 10
40.4744014053
 20
0.6933333446
  0
LWPOLYLINE
  5
23A
100
AcDbEntity
  8
0
100
AcDbPolyline
 62
7
  6
CONTINUOUS
 90
11
 70
0
 10
31.8375872048
 20
-8.8286163508
 10
32.0182033598
 20
-8.7505678227
 10
32.3554495675
 20
-8.5876967816
 10
32.6850825743
 20
-8.4118774217
 10
33.0078825974
 20
-8.2238355148
 10
33.3235937149
 20
-8.0249092959
 10
33.6340548529
 20
-7.8154192564
 10
33.9397204902
 20
-7.596932713
 10
34.2388567073
 20
-7.3731761475
 10
34.5338798106
 20
-7.1452668478
 10
35.1130060217
 20
-6.6885994012
  0
LWPOLYLINE
  5
23B
100
AcDbEntity
  8
0
100
AcDbPolyline
 62
7
  6
CONTINUOUS
 90
12
 70
0
 10
34.6314215671
 20
-4.1611922743
 10
34.0790100742
 20
-4.598199899
 10
33.8066651525
 20
-4.8109641189
 10
33.5358663663
 20
-5.0176435131
 10
33.2653722578
 20
-5.2170701344
 10
32.9935386775
 20
-5.4085477427
 10
32.7194810596
 20
-5.591092821
 10
32.4420588362
 20
-5.7640088446
 10
32.1600827762
 20
-5.9266780893
 10
31.8728306759
 20
-6.0783607696
 10
31.5790484012
 20
-6.2188849426
 10
31.3920761651
 20
-6.2990046451
  0
LWPOLYLINE
  5
23C
100
AcDbEntity
  8
0
100
AcDbPolyline
 62
7
  6
CONTINUOUS
 90
19
 70
0
 10
35.1257880645
 20
-3.4125757877
 10
35.4074178361
 20
-3.191714399
 10
35.6870723424
 20
-2.9764741936
 10
35.9641422709
 20
-2.769469219
 10
36.2388927899
 20
-2.5723093074
 10
36.5135706845
 20
-2.3849372642
 10
36.7902956872
 20
-2.2073542876
 10
37.0700327328
 20
-2.0402492023
 10
37.3536934194
 20
-1.8839641908
 10
37.6432310636
 20
-1.7380730302
 10
37.9400503547
 20
-1.6025083097
 10
38.2441192777
 20
-1.4778052739
 10
38.5549360506
 20
-1.3644693091
 10
38.8727743256
 20
-1.2626234573
 10
39.1979591034
 20
-1.1725008459
 10
39.529484432
 20
-1.0944517538
 10
39.8667764023
 20
-1.0283545981
 10
40.2099143197
 20
-0.9737436533
 10
40.4744015324
 20
-0.9396071942
  0
LWPOLYLINE
  5
23D
100
AcDbEntity
  8
0
100
AcDbPolyline
 62
7
  6
CONTINUOUS
 90
14
 70
0
 10
0.7374795307
 20
-27.3458880561
 10
0.8330717409
 20
-27.2855438804
 10
0.9532976151
 20
-27.1928269666
 10
1.0651202507
 20
-27.0864127556
 10
1.167275104
 20
-26.9675046303
 10
1.2596524333
 20
-26.835960769
 10
1.3423619803
 20
-26.6919229933
 10
1.4144684257
 20
-26.5370201514
 10
1.475851411
 20
-26.3711289109
 10
1.5266312949
 20
-26.1943726042
 10
1.566233834
 20
-26.0087500761
 10
1.594467614
 20
-25.8149276083
 10
1.6115240493
 20
-25.6122389191
 10
1.6174031399
 20
-25.4006840084
  0
LWPOLYLINE
  5
23E
100
AcDbEntity
  8
0
100
AcDbPolyline
 62
7
  6
CONTINUOUS
 90
14
 70
0
 10
1.1125289796
 20
-27.9953653036
 10
1.2249904034
 20
-27.9243721557
 10
1.3664326083
 20
-27.8152934336
 10
1.4979886503
 20
-27.6901002442
 10
1.6181708306
 20
-27.5502083321
 10
1.7268500416
 20
-27.3954508482
 10
1.8241553909
 20
-27.2259946415
 10
1.9089865032
 20
-27.0437560039
 10
1.9812017801
 20
-26.8485898387
 10
2.0409428199
 20
-26.6406412426
 10
2.0875340424
 20
-26.4222617978
 10
2.1207502541
 20
-26.194235365
 10
2.1408166486
 20
-25.9557780836
 10
2.1477332258
 20
-25.7068899534
  0
LWPOLYLINE
  5
23F
100
AcDbEntity
  8
0
100
AcDbPolyline
 62
7
  6
CONTINUOUS
 90
11
 70
0
 10
34.6343426723
 20
-5.7917877192
 10
34.0812825833
 20
-6.2292094819
 10
33.8084285395
 20
-6.4421373931
 10
33.5370540717
 20
-6.6489892369
 10
33.2659458349
 20
-6.8487525904
 10
32.9934987715
 20
-7.0407781235
 10
32.7189171861
 20
-7.2239167151
 10
32.4410829086
 20
-7.3973472421
 10
32.1587279087
 20
-7.5603972317
 10
31.8710742404
 20
-7.7122937657
 10
31.7826125378
 20
-7.7545692923
  0
LWPOLYLINE
  5
240
100
AcDbEntity
  8
0
100
AcDbPolyline
 62
7
  6
CONTINUOUS
 90
19
 70
0
 10
35.1130060217
 20
-6.6885994012
 10
35.3952879992
 20
-6.4670623816
 10
35.6755800402
 20
-6.2510709582
 10
35.953169136
 20
-6.0433519211
 10
36.2282940398
 20
-5.8455580063
 10
36.5032682934
 20
-5.6575971169
 10
36.7802405111
 20
-5.4794595083
 10
37.0601723629
 20
-5.3118413851
 10
37.3439760938
 20
-5.1550730053
 10
37.633639741
 20
-5.0086800623
 10
37.9305674915
 20
-4.872579179
 10
38.2347023545
 20
-4.747313011
 10
38.5455644219
 20
-4.6333957759
 10
38.8635243301
 20
-4.5310466192
 10
39.1889365842
 20
-4.4405026651
 10
39.5208071445
 20
-4.3620803741
 10
39.8585598798
 20
-4.2956382303
 10
40.202262579
 20
-4.2407007114
 10
40.4744014053
 20
-4.2054883162
  0
LWPOLYLINE
  5
241
100
AcDbEntity
  8
0
100
AcDbPolyline
 62
7
  6
CONTINUOUS
 90
19
 70
0
 10
35.1257880645
 20
-5.0455163412
 10
35.4074178361
 20
-4.8246549526
 10
35.6870723424
 20
-4.6094147472
 10
35.9641422709
 20
-4.4024097726
 10
36.2388927899
 20
-4.205249861
 10
36.5135706845
 20
-4.0178778177
 10
36.7902956872
 20
-3.8402948412
 10
37.0700327328
 20
-3.6731897559
 10
37.3536934194
 20
-3.5169047444
 10
37.6432310636
 20
-3.3710135838
 10
37.9400503547
 20
-3.2354488632
 10
38.2441192777
 20
-3.1107458275
 10
38.5549360506
 20
-2.9974098627
 10
38.8727743256
 20
-2.8955640109
 10
39.1979591034
 20
-2.8054413995
 10
39.529484432
 20
-2.7273923074
 10
39.8667764023
 20
-2.6612951517
 10
40.2099143197
 20
-2.6066842069
 10
40.4744015324
 20
-2.5725477478
  0
LWPOLYLINE
  5
242
100
AcDbEntity
  8
0
100
AcDbPolyline
 62
7
  6
CONTINUOUS
 90
14
 70
0
 10
30.8110137895
 20
-10.8478323839
 10
30.9234752133
 20
-10.776839236
 10
31.0649174182
 20
-10.6677605138
 10
31.1964734601
 20
-10.5425673245
 10
31.3166556404
 20
-10.4026754124
 10
31.4253348514
 20
-10.2479179284
 10
31.5226402008
 20
-10.0784617217
 10
31.6074713131
 20
-9.8962230842
 10
31.6796865899
 20
-9.7010569189
 10
31.7394276297
 20
-9.4931083228
 10
31.7860188522
 20
-9.274728878
 10
31.819235064
 20
-9.0467024453
 10
31.8393014584
 20
-8.8082451638
 10
31.8462180356
 20
-8.5593570337
  0
LINE
  5
243
100
AcDbEntity
  8
0
100
AcDbLine
 62
7
  6
CONTINUOUS
 10
30.8108049304
 20
-10.8480413394
 11
28.0695890132
 21
-12.4307850545
  0
LINE
  5
244
100
AcDbEntity
  8
0
100
AcDbLine
 62
7
  6
CONTINUOUS
 10
8.1833879324
 20
-23.9128283259
 11
1.1123201205
 21
-27.9955742592
  0
LWPOLYLINE
  5
245
100
AcDbEntity
  8
0
100
AcDbPolyline
 62
7
  6
CONTINUOUS
 90
41
 70
0
 10
24.0680434425
 20
-18.7662218669
 10
24.0548340046
 20
-18.2161609191
 10
24.0162579452
 20
-17.6563412231
 10
23.9523152643
 20
-17.086762779
 10
23.8626583997
 20
-16.505640142
 10
23.7476349136
 20
-15.914758757
 10
23.6082874927
 20
-15.3194749576
 10
23.4443949726
 20
-14.7197487151
 10
23.2561785178
 20
-14.1156200584
 10
23.0453443085
 20
-13.5125654075
 10
22.8116866937
 20
-12.910594528
 10
22.5554113244
 20
-12.3096976545
 10
22.2788413343
 20
-11.7153219111
 10
21.9817921954
 20
-11.1275265909
 10
21.6644484356
 20
-10.5462524009
 10
21.3296867731
 20
-9.9767685857
 10
20.9773488362
 20
-9.419182349
 10
20.6075929965
 20
-8.8733864871
 10
20.2237710871
 20
-8.3443286341
 10
19.8257552127
 20
-7.8321609798
 10
19.4136732685
 20
-7.3367313344
 10
18.9912607732
 20
-6.8625307627
 10
18.5584237968
 20
-6.4097522893
 10
18.1152562693
 20
-5.9782028896
 10
17.6657755
 20
-5.5717945546
 10
17.2099240859
 20
-5.1907558786
 10
16.74775943
 20
-4.8348582673
 10
16.2834710503
 20
-4.507327929
 10
15.8170396369
 20
-4.2084227921
 10
15.3484844997
 20
-3.9378849282
 10
14.8820530863
 20
-3.6981667604
 10
14.4177647066
 20
-3.4895485156
 10
13.9556000507
 20
-3.3117499669
 10
13.4997486366
 20
-3.1663828563
 10
13.0502678673
 20
-3.0537420655
 10
12.6071003398
 20
-2.9735327129
 10
12.1742633634
 20
-2.9264818953
 10
11.7518508681
 20
-2.9128911056
 10
11.339768924
 20
-2.9324588511
 10
10.9417530495
 20
-2.9850077502
 10
10.5579311401
 20
-3.070837683
  0
LWPOLYLINE
  5
246
100
AcDbEntity
  8
0
100
AcDbPolyline
 62
7
  6
CONTINUOUS
 90
51
 70
0
 10
24.7751502237
 20
-18.3579472735
 10
24.7653584313
 20
-17.8843563909
 10
24.7365691215
 20
-17.4029504626
 10
24.6887822941
 20
-16.9137294886
 10
24.6218039191
 20
-16.4155515455
 10
24.5358280267
 20
-15.9095585567
 10
24.4314367072
 20
-15.3991762928
 10
24.3085049991
 20
-14.8843749696
 10
24.1671578639
 20
-14.3651843713
 10
24.0083522771
 20
-13.8451196216
 10
23.8319697708
 20
-13.3241747886
 10
23.6381288129
 20
-12.8023558042
 10
23.4281417826
 20
-12.2831955871
 10
23.2018991174
 20
-11.766712179
 10
22.9595103798
 20
-11.2528875382
 10
22.7026166363
 20
-10.7452004587
 10
22.4311194604
 20
-10.2436925881
 10
22.1451172787
 20
-9.7483222788
 10
21.846546438
 20
-9.2624433817
 10
21.5353216509
 20
-8.7861203028
 10
21.2115282048
 20
-8.319288636
 10
20.877358308
 20
-7.8651090146
 10
20.532741549
 20
-7.4236672915
 10
20.1777483393
 20
-6.9948776137
 10
19.8147821219
 20
-6.5816430552
 10
19.4437887943
 20
-6.1840691685
 10
19.0648224591
 20
-5.802050401
 10
18.6804488666
 20
-5.4381731695
 10
18.2906313248
 20
-5.0925605769
 10
17.8954065257
 20
-4.7650895203
 10
17.497450296
 20
-4.4579771067
 10
17.0967441009
 20
-4.171361484
 10
16.6933064752
 20
-3.9051045045
 10
16.2898688495
 20
-3.6610088321
 10
15.8864312238
 20
-3.4392248469
 10
15.4829935981
 20
-3.2396021687
 10
15.082287403
 20
-3.0634923214
 10
14.6843311733
 20
-2.911054856
 10
14.2891063742
 20
-2.7821302214
 10
13.8992888324
 20
-2.6775912878
 10
13.5149152399
 20
-2.5976035294
 10
13.1359489047
 20
-2.542001472
 10
12.7649555771
 20
-2.5111615633
 10
12.4019893597
 20
-2.505251832
 10
12.04699615
 20
-2.5241042495
 10
11.702379391
 20
-2.5675911774
 10
11.3682094942
 20
-2.6358797783
 10
11.0444160481
 20
-2.7288028896
 10
10.733191261
 20
-2.8457313856
 10
10.4346204203
 20
-2.9868281597
 10
10.2896368128
 20
-3.0666160932
  0
LWPOLYLINE
  5
247
100
AcDbEntity
  8
0
100
AcDbPolyline
 62
7
  6
CONTINUOUS
 90
36
 70
0
 10
0.8059573933
 20
-27.2957977176
 10
0.6535098148
 20
-27.3522368976
 10
0.4939331408
 20
-27.3922402095
 10
0.3271360487
 20
-27.4155971129
 10
0.1532098611
 20
-27.4225181482
 10
-0.025626933
 20
-27.4129150353
 10
-0.2094372375
 20
-27.3865761028
 10
-0.3981581484
 20
-27.3437130221
 10
-0.5893824648
 20
-27.2848725266
 10
-0.7831422549
 20
-27.2098499487
 10
-0.9794054503
 20
-27.118849956
 10
-1.1756686458
 20
-27.0130332852
 10
-1.3719318413
 20
-26.8922101373
 10
-1.5681950368
 20
-26.7565703114
 10
-1.7619548268
 20
-26.6078439406
 10
-1.9531791432
 20
-26.4458633887
 10
-2.1419000541
 20
-26.270796292
 10
-2.3257103586
 20
-26.0848756922
 10
-2.5045471527
 20
-25.887962558
 10
-2.6784733403
 20
-25.6801959208
 10
-2.8452704324
 20
-25.4642259164
 10
-3.0048471065
 20
-25.2399474612
 10
-3.1572946849
 20
-25.0074656389
 10
-3.3006686458
 20
-24.7697458361
 10
-3.4348527578
 20
-24.5267209552
 10
-3.5599632521
 20
-24.2784580938
 10
-3.674404301
 20
-24.0281239312
 10
-3.7780392306
 20
-23.7756919345
 10
-3.8710047148
 20
-23.5211886366
 10
-3.9521149462
 20
-23.2678603158
 10
-4.0212180613
 20
-23.0157220233
 10
-4.0784659238
 20
-22.7647587079
 10
-4.1231283171
 20
-22.5181714941
 10
-4.1549618358
 20
-22.2770274235
 10
-4.1742098854
 20
-22.0402594545
 10
-4.1808724659
 20
-21.8078675871
  0
LWPOLYLINE
  5
248
100
AcDbEntity
  8
0
100
AcDbPolyline
 62
7
  6
CONTINUOUS
 90
15
 70
0
 10
30.384000152
 20
-4.4104839649
 10
30.5991874139
 20
-4.3586785781
 10
30.9633186586
 20
-4.2545453304
 10
31.3213829967
 20
-4.1352262242
 10
31.6730385041
 20
-4.0009000897
 10
32.0182033598
 20
-3.851746162
 10
32.3554495675
 20
-3.6888751209
 10
32.6850825743
 20
-3.5130557609
 10
33.0078825974
 20
-3.3250138541
 10
33.3235937149
 20
-3.1260876352
 10
33.6340548529
 20
-2.9165975956
 10
33.9397204902
 20
-2.6981110523
 10
34.2388567073
 20
-2.4743544867
 10
34.5338798106
 20
-2.246445187
 10
35.1130060217
 20
-1.7897777404
  0
LWPOLYLINE
  5
249
100
AcDbEntity
  8
0
100
AcDbPolyline
 62
7
  6
CONTINUOUS
 90
18
 70
0
 10
40.3584581234
 20
-3.212232482
 10
40.0904029795
 20
-3.2467638866
 10
39.7295219489
 20
-3.3037712354
 10
39.3617185647
 20
-3.3748780878
 10
38.987048804
 20
-3.4615909931
 10
38.6090615583
 20
-3.5646333372
 10
38.2340481883
 20
-3.6834574416
 10
37.8624435878
 20
-3.8188350206
 10
37.4953898359
 20
-3.9709674827
 10
37.1386084873
 20
-4.1371366176
 10
36.7921095328
 20
-4.3162249627
 10
36.4545716145
 20
-4.5075360829
 10
36.1284437712
 20
-4.7078569301
 10
35.8126562206
 20
-4.9158623416
 10
35.5055175212
 20
-5.1306337115
 10
35.2078403671
 20
-5.349216404
 10
34.9181499003
 20
-5.5700001677
 10
34.6343426723
 20
-5.7917877192
  0
LWPOLYLINE
  5
24A
100
AcDbEntity
  8
0
100
AcDbPolyline
 62
7
  6
CONTINUOUS
 90
15
 70
0
 10
17.3026561303
 20
-26.6325483743
 10
17.5450448679
 20
-26.398628172
 10
17.7712875331
 20
-26.1434041227
 10
17.9812745634
 20
-25.8667316647
 10
18.1751155213
 20
-25.5687553597
 10
18.3514980276
 20
-25.2514926238
 10
18.5103036144
 20
-24.9148125851
 10
18.6516507496
 20
-24.5588461155
 10
18.7745824577
 20
-24.1860032474
 10
18.8789737772
 20
-23.7961694627
 10
18.9649496696
 20
-23.3894592794
 10
19.0319280446
 20
-22.9686262848
 10
19.079714872
 20
-22.5345883412
 10
19.1085041818
 20
-22.0864275864
 10
19.1182959742
 20
-21.6241440202
  0
LINE
  5
24B
100
AcDbEntity
  8
0
100
AcDbLine
 62
7
  6
CONTINUOUS
 10
26.2398579192
 20
-19.260844545
 11
24.6045094524
 21
-20.205074254
  0
LINE
  5
24C
100
AcDbEntity
  8
0
100
AcDbLine
 62
7
  6
CONTINUOUS
 10
15.6332562014
 20
-25.3849634449
 11
10.6835087331
 21
-28.2428855982
  0
LWPOLYLINE
  5
24D
100
AcDbEntity
  8
0
100
AcDbPolyline
 62
7
  6
CONTINUOUS
 90
18
 70
0
 10
40.3584602343
 20
-1.5792916833
 10
40.0979800999
 20
-1.6127485437
 10
39.7367361527
 20
-1.6695211207
 10
39.3682896639
 20
-1.740434037
 10
38.9926952007
 20
-1.8270465259
 10
38.6136071728
 20
-1.9301301968
 10
38.2375096752
 20
-2.0491648545
 10
37.8648370501
 20
-2.1849399757
 10
37.496650081
 20
-2.3375524151
 10
37.1388105238
 20
-2.5042085404
 10
36.7913448236
 20
-2.6837805758
 10
36.4529372678
 20
-2.8755793694
 10
36.1261409871
 20
-3.0763457307
 10
35.8098649444
 20
-3.2847550646
 10
35.5023877761
 20
-3.4998782905
 10
35.2045779605
 20
-3.7186851439
 10
34.9149842868
 20
-3.9395104495
 10
34.6314215671
 20
-4.1611922743
  0
LWPOLYLINE
  5
24E
100
AcDbEntity
  8
0
100
AcDbPolyline
 62
7
  6
CONTINUOUS
 90
46
 70
0
 10
28.3106841297
 20
-14.6834759336
 10
28.3007729963
 20
-14.248511965
 10
28.2717541368
 20
-13.8060098693
 10
28.2236275511
 20
-13.3559696465
 10
28.1561570141
 20
-12.8971187731
 10
28.0695787509
 20
-12.4307297725
 10
27.9646014374
 20
-11.9606202152
 10
27.8410740585
 20
-11.4867595638
 10
27.6991476292
 20
-11.0091783556
 10
27.5399838711
 20
-10.5317857736
 10
27.3634413043
 20
-10.054583366
 10
27.1696614086
 20
-9.5775695846
 10
26.960230346
 20
-9.1046489677
 10
26.7350196551
 20
-8.635855111
 10
26.4941577972
 20
-8.1711544188
 10
26.2396163178
 20
-7.714350642
 10
25.9712829376
 20
-7.2655085968
 10
25.6892699358
 20
-6.824563467
 10
25.3958856956
 20
-6.3951245555
 10
25.0910368844
 20
-5.9772863025
 10
24.7748168347
 20
-5.5709542677
 10
24.4498139274
 20
-5.1794544326
 10
24.1159560747
 20
-4.8029085364
 10
23.7733153643
 20
-4.4411948398
 10
23.42469644
 20
-4.0972741063
 10
23.0700502342
 20
-3.7712923766
 10
22.7094258144
 20
-3.4631036099
 10
22.3457750282
 20
-3.175230448
 10
21.9790730357
 20
-2.9078396367
 10
21.6093446768
 20
-2.6607644301
 10
21.2396163178
 20
-2.4360272324
 10
20.8698879588
 20
-2.2338113887
 10
20.5001595999
 20
-2.0539335539
 10
20.1334576074
 20
-1.897866096
 10
19.7698068212
 20
-1.7658044453
 10
19.4091824014
 20
-1.6575531714
 10
19.0545361956
 20
-1.5739983522
 10
18.7059172713
 20
-1.5153426904
 10
18.3632765609
 20
-1.4813834831
 10
18.0294187082
 20
-1.4723986995
 10
17.7044158009
 20
-1.4885933237
 10
17.3881957512
 20
-1.5297623715
 10
17.08334694
 20
-1.5955688586
 10
16.7899626998
 20
-1.6862150035
 10
16.507949698
 20
-1.8014985877
 10
16.2393757079
 20
-1.9406148834
  0
LWPOLYLINE
  5
24F
100
AcDbEntity
  8
0
100
AcDbPolyline
 62
7
  6
CONTINUOUS
 90
16
 70
0
 10
28.3106841297
 20
-14.6834759336
 10
28.3007729963
 20
-15.1069947737
 10
28.2717541368
 20
-15.5159866179
 10
28.2236275511
 20
-15.9104514659
 10
28.1561570141
 20
-16.2913890544
 10
28.0695787509
 20
-16.6577996468
 10
27.9646014374
 20
-17.0066840338
 10
27.8410740585
 20
-17.3378983644
 10
27.6991476292
 20
-17.6515864895
 10
27.5399838711
 20
-17.9451807533
 10
27.3634413043
 20
-18.2185162298
 10
27.1696614086
 20
-18.471757845
 10
26.960230346
 20
-18.7028327204
 10
26.7350196551
 20
-18.9115589164
 10
26.4941577972
 20
-19.0981183725
 10
26.2398569277
 20
-19.2608451173
  0
LWPOLYLINE
  5
250
100
AcDbEntity
  8
0
100
AcDbPolyline
 62
7
  6
CONTINUOUS
 90
13
 70
0
 10
22.2788413343
 20
-23.750996076
 10
22.5554113244
 20
-23.4759964247
 10
22.8116866937
 20
-23.1710399238
 10
23.0453443085
 20
-22.8388910011
 10
23.2561785178
 20
-22.4793024104
 10
23.4443949726
 20
-22.0925213979
 10
23.6082874927
 20
-21.6820541295
 10
23.7476349136
 20
-21.2476852388
 10
23.8626583997
 20
-20.7896300924
 10
23.9523152643
 20
-20.3120409554
 10
24.0162579452
 20
-19.8163019164
 10
24.0548340046
 20
-19.3010288869
 10
24.0680434425
 20
-18.7662218669
  0
LINE
  5
251
100
AcDbEntity
  8
0
100
AcDbLine
 62
7
  6
CONTINUOUS
 10
21.9817921954
 20
-23.9957664963
 11
22.2788413343
 21
-23.750996076
  0
LINE
  5
252
100
AcDbEntity
  8
0
100
AcDbLine
 62
7
  6
CONTINUOUS
 10
17.0457623869
 20
-26.8435809982
 11
17.3026561303
 21
-26.6325483743
  0
LWPOLYLINE
  5
253
100
AcDbEntity
  8
0
100
AcDbPolyline
 62
7
  6
CONTINUOUS
 90
15
 70
0
 10
17.3402818772
 20
-26.7084858985
 10
17.5123687882
 20
-26.6033192336
 10
17.8402240262
 20
-26.3674558399
 10
18.1459123013
 20
-26.0973164463
 10
18.4296558732
 20
-25.7932447249
 10
18.6885906095
 20
-25.4583100021
 10
18.9224652425
 20
-25.0921996923
 10
19.13153104
 20
-24.695226381
 10
19.3136776739
 20
-24.2713971512
 10
19.4686325023
 20
-23.8204400017
 10
19.596668167
 20
-23.3426269337
 10
19.696492265
 20
-22.8427810335
 10
19.7676739952
 20
-22.3225099967
 10
19.8106441587
 20
-21.7802061278
 10
19.8254027554
 20
-21.2158694268
  0
LWPOLYLINE
  5
254
100
AcDbEntity
  8
0
100
AcDbPolyline
 62
7
  6
CONTINUOUS
 90
3
 70
0
 10
16.6332466367
 20
-27.1168849606
 10
16.7742652109
 20
-27.0315707353
 10
17.0457623869
 20
-26.8435809982
  0
LWPOLYLINE
  5
255
100
AcDbEntity
  8
0
100
AcDbPolyline
 62
7
  6
CONTINUOUS
 90
18
 70
0
 10
22.2901008862
 20
-23.850688214
 10
22.4311194604
 20
-23.7653739887
 10
22.7026166363
 20
-23.5773842516
 10
22.9595103798
 20
-23.3663516277
 10
23.2018991174
 20
-23.1324314254
 10
23.4281417826
 20
-22.8772073761
 10
23.6381288129
 20
-22.6005349181
 10
23.8319697708
 20
-22.302558613
 10
24.0083522771
 20
-21.9852958772
 10
24.1671578639
 20
-21.6486158384
 10
24.3085049991
 20
-21.2926493689
 10
24.4314367072
 20
-20.9198065008
 10
24.5358280267
 20
-20.529972716
 10
24.6218039191
 20
-20.1232625328
 10
24.6887822941
 20
-19.7024295382
 10
24.7365691215
 20
-19.2683915946
 10
24.7653584313
 20
-18.8202308397
 10
24.7751502237
 20
-18.3579472735
  0
LWPOLYLINE
  5
256
100
AcDbEntity
  8
0
100
AcDbPolyline
 62
7
  6
CONTINUOUS
 90
3
 70
0
 10
21.582568589
 20
-24.2592069065
 10
21.6644484356
 20
-24.2105800671
 10
21.9817921954
 20
-23.9957664963
  0
LWPOLYLINE
  5
257
100
AcDbEntity
  8
0
100
AcDbPolyline
 62
7
  6
CONTINUOUS
 90
21
 70
0
 10
10.6835077416
 20
-28.2428861705
 10
10.4149337515
 20
-28.3820024661
 10
10.1329207497
 20
-28.4972860503
 10
9.8395365095
 20
-28.5879321952
 10
9.5346876983
 20
-28.6537386823
 10
9.2184676486
 20
-28.6949077301
 10
8.8934647413
 20
-28.7111023544
 10
8.5596068886
 20
-28.7021175707
 10
8.2169661782
 20
-28.6681583635
 10
7.8683472539
 20
-28.6095027017
 10
7.5137010481
 20
-28.5259478824
 10
7.1530766283
 20
-28.4176966086
 10
6.7894258421
 20
-28.2856349578
 10
6.4227238496
 20
-28.1295674999
 10
6.0529954907
 20
-27.9496896651
 10
5.6832671317
 20
-27.7474738214
 10
5.3135387727
 20
-27.5227366237
 10
4.9438104137
 20
-27.2756614172
 10
4.5771084213
 20
-27.0082706059
 10
4.2134576351
 20
-26.7203974439
 10
3.8535508678
 20
-26.4128219813
  0
LWPOLYLINE
  5
258
100
AcDbEntity
  8
0
100
AcDbPolyline
 62
7
  6
CONTINUOUS
 90
18
 70
0
 10
40.3584602343
 20
0.0536488703
 10
40.0979800999
 20
0.0201920099
 10
39.7367361527
 20
-0.0365805671
 10
39.3682896639
 20
-0.1074934834
 10
38.9926952007
 20
-0.1941059723
 10
38.6136071728
 20
-0.2971896433
 10
38.2375096752
 20
-0.4162243009
 10
37.8648370501
 20
-0.5519994221
 10
37.496650081
 20
-0.7046118615
 10
37.1388105238
 20
-0.8712679868
 10
36.7913448236
 20
-1.0508400222
 10
36.4529372678
 20
-1.2426388159
 10
36.1261409871
 20
-1.4434051771
 10
35.8098649444
 20
-1.651814511
 10
35.5023877761
 20
-1.8669377369
 10
35.2045779605
 20
-2.0857445903
 10
34.9149842868
 20
-2.3065698959
 10
34.6314215671
 20
-2.5282517207
  0
LINE
  5
259
100
AcDbEntity
  8
0
100
AcDbLine
 62
7
  6
CONTINUOUS
 10
22.2901587712
 20
-23.8507896073
 11
21.58305199
 21
-24.2590642006
  0
LINE
  5
25A
100
AcDbEntity
  8
0
100
AcDbLine
 62
7
  6
CONTINUOUS
 10
17.3404113029
 20
-26.7087117606
 11
16.6333045217
 21
-27.1169863539
  0
LWPOLYLINE
  5
25B
100
AcDbEntity
  8
0
100
AcDbPolyline
 62
7
  6
CONTINUOUS
 90
18
 70
0
 10
40.3584581234
 20
1.6865891787
 10
40.0904029795
 20
1.6520577742
 10
39.7295219489
 20
1.5950504254
 10
39.3617185647
 20
1.5239435729
 10
38.987048804
 20
1.4372306677
 10
38.6090615583
 20
1.3341883235
 10
38.2340481883
 20
1.2153642191
 10
37.8624435878
 20
1.0799866401
 10
37.4953898359
 20
0.9278541781
 10
37.1386084873
 20
0.7616850431
 10
36.7921095328
 20
0.582596698
 10
36.4545716145
 20
0.3912855779
 10
36.1284437712
 20
0.1909647306
 10
35.8126562206
 20
-0.0170406809
 10
35.5055175212
 20
-0.2318120507
 10
35.2078403671
 20
-0.4503947433
 10
34.9181499003
 20
-0.6711785069
 10
34.6343426723
 20
-0.8929660585
  0
LWPOLYLINE
  5
25C
100
AcDbEntity
  8
0
100
AcDbPolyline
 62
7
  6
CONTINUOUS
 90
40
 70
0
 10
31.8462180356
 20
-8.5593570337
 10
31.8393014584
 20
-8.3024818136
 10
31.819235064
 20
-8.0408523628
 10
31.7860188522
 20
-7.7744686813
 10
31.7394276297
 20
-7.5022868606
 10
31.6796865899
 20
-7.2253508092
 10
31.6074713131
 20
-6.9467922524
 10
31.5226402008
 20
-6.6665927727
 10
31.4253348514
 20
-6.3847707876
 10
31.3166556404
 20
-6.104513275
 10
31.1964734601
 20
-5.8258379935
 10
31.0649174182
 20
-5.5487271845
 10
30.9234752133
 20
-5.2763145495
 10
30.7720346249
 20
-5.0086534188
 10
30.6107078737
 20
-4.7456904621
 10
30.4413193195
 20
-4.4903993903
 10
30.2637774507
 20
-4.242867289
 10
30.0781737791
 20
-4.0030070727
 10
29.8866071997
 20
-3.7735311954
 10
29.6890100259
 20
-3.5545575324
 10
29.4854499444
 20
-3.3459682085
 10
29.2782289099
 20
-3.1501220514
 10
29.0673053659
 20
-2.9671637122
 10
28.8527208689
 20
-2.7969485399
 10
28.636902043
 20
-2.6414014091
 10
28.4198348771
 20
-2.5006888205
 10
28.2015333823
 20
-2.3746442733
 10
27.9844662163
 20
-2.2646931397
 10
27.7686473905
 20
-2.1710181001
 10
27.5540628935
 20
-2.093436474
 10
27.3431393495
 20
-2.0328255916
 10
27.1359183149
 20
-1.9893780922
 10
26.9323582334
 20
-1.9629013364
 10
26.7347610596
 20
-1.953694736
 10
26.5431944802
 20
-1.9619543292
 10
26.3575908086
 20
-1.9874840779
 10
26.1800489399
 20
-2.0299952793
 10
26.0106603857
 20
-2.0896806946
 10
25.8493336344
 20
-2.1663475628
 10
25.8103544699
 20
-2.1881357502
  0
LWPOLYLINE
  5
25D
100
AcDbEntity
  8
0
100
AcDbPolyline
 62
7
  6
CONTINUOUS
 90
22
 70
0
 10
40.3584581481
 20
-3.2122326932
 10
40.3668592295
 20
-3.213907429
 10
40.3761666529
 20
-3.2209488683
 10
40.3858070991
 20
-3.2331641416
 10
40.3957914345
 20
-3.2507220657
 10
40.4061087927
 20
-3.2734538237
 10
40.416426151
 20
-3.3006256817
 10
40.4267435093
 20
-3.3323825157
 10
40.4370608675
 20
-3.3685794496
 10
40.4470452029
 20
-3.4080481216
 10
40.4566856492
 20
-3.4508952852
 10
40.4659930725
 20
-3.4970141868
 10
40.4746670487
 20
-3.5449162042
 10
40.4826869089
 20
-3.5946595186
 10
40.4900733219
 20
-3.6461859486
 10
40.4965878696
 20
-3.6978323282
 10
40.5022021039
 20
-3.7496025711
 10
40.506944473
 20
-3.8014927635
 10
40.510661903
 20
-3.8518279977
 10
40.5133033692
 20
-3.9000499713
 10
40.5149198963
 20
-3.9467169866
 10
40.5155114844
 20
-3.9918290438
  0
LWPOLYLINE
  5
25E
100
AcDbEntity
  8
0
100
AcDbPolyline
 62
7
  6
CONTINUOUS
 90
22
 70
0
 10
40.3584602593
 20
0.0536486559
 10
40.3668592295
 20
0.0519736781
 10
40.3761666529
 20
0.0449322388
 10
40.3858070991
 20
0.0327169656
 10
40.3957914345
 20
0.0151590415
 10
40.4061087927
 20
-0.0075727165
 10
40.416426151
 20
-0.0347445746
 10
40.4267435093
 20
-0.0665014085
 10
40.4370608675
 20
-0.1026983424
 10
40.4470452029
 20
-0.1421670144
 10
40.4566856492
 20
-0.185014178
 10
40.4659930725
 20
-0.2311330797
 10
40.4746670487
 20
-0.2790350971
 10
40.4826869089
 20
-0.3287784114
 10
40.4900733219
 20
-0.3803048414
 10
40.4965878696
 20
-0.431951221
 10
40.5022021039
 20
-0.4837214639
 10
40.506944473
 20
-0.5356116563
 10
40.510661903
 20
-0.5859468906
 10
40.5133033692
 20
-0.6341688641
 10
40.5149198963
 20
-0.6808358795
 10
40.5155114844
 20
-0.7259479367
  0
LWPOLYLINE
  5
25F
100
AcDbEntity
  8
0
100
AcDbPolyline
 62
7
  6
CONTINUOUS
 90
22
 70
0
 10
40.5155114844
 20
-2.3588884903
 10
40.5149198963
 20
-2.313776433
 10
40.5133033692
 20
-2.2671094177
 10
40.510661903
 20
-2.2188874441
 10
40.506944473
 20
-2.1685522099
 10
40.5022021039
 20
-2.1166620175
 10
40.4965878696
 20
-2.0648917746
 10
40.4900733219
 20
-2.013245395
 10
40.4826869089
 20
-1.961718965
 10
40.4746670487
 20
-1.9119756506
 10
40.4659930725
 20
-1.8640736333
 10
40.4566856492
 20
-1.8179547316
 10
40.4470452029
 20
-1.775107568
 10
40.4370608675
 20
-1.735638896
 10
40.4267435093
 20
-1.6994419621
 10
40.416426151
 20
-1.6676851281
 10
40.4061087927
 20
-1.6405132701
 10
40.3957914345
 20
-1.6177815121
 10
40.3858070991
 20
-1.600223588
 10
40.3761666529
 20
-1.5880083148
 10
40.3668592295
 20
-1.5809668754
 10
40.3584602593
 20
-1.5792918976
  0
LWPOLYLINE
  5
260
100
AcDbEntity
  8
0
100
AcDbPolyline
 62
7
  6
CONTINUOUS
 90
22
 70
0
 10
40.5155114844
 20
0.9069926169
 10
40.5149198963
 20
0.9521046741
 10
40.5133033692
 20
0.9987716895
 10
40.510661903
 20
1.046993663
 10
40.506944473
 20
1.0973288973
 10
40.5022021039
 20
1.1492190897
 10
40.4965878696
 20
1.2009893326
 10
40.4900733219
 20
1.2526357122
 10
40.4826869089
 20
1.3041621422
 10
40.4746670487
 20
1.3539054565
 10
40.4659930725
 20
1.4018074739
 10
40.4566856492
 20
1.4479263756
 10
40.4470452029
 20
1.4907735392
 10
40.4370608675
 20
1.5302422112
 10
40.4267435093
 20
1.5664391451
 10
40.416426151
 20
1.598195979
 10
40.4061087927
 20
1.625367837
 10
40.3957914345
 20
1.6480995951
 10
40.3858070991
 20
1.6656575192
 10
40.3761666529
 20
1.6778727924
 10
40.3668592295
 20
1.6849142317
 10
40.3584581481
 20
1.6865889676
  0
LWPOLYLINE
  5
261
100
AcDbEntity
  8
0
100
AcDbPolyline
 62
7
  6
CONTINUOUS
 90
10
 70
0
 10
40.5155114844
 20
-0.7259479367
 10
40.5149198963
 20
-0.7676810758
 10
40.5133033692
 20
-0.8051151241
 10
40.510661903
 20
-0.8382500815
 10
40.506944473
 20
-0.8673528181
 10
40.5022021039
 20
-0.8921564639
 10
40.4965878696
 20
-0.9118604086
 10
40.4900733219
 20
-0.9262982542
 10
40.4826869089
 20
-0.9356363988
 10
40.4744015091
 20
-0.9396069942
  0
LWPOLYLINE
  5
262
100
AcDbEntity
  8
0
100
AcDbPolyline
 62
7
  6
CONTINUOUS
 90
10
 70
0
 10
40.5155114844
 20
-3.9918290438
 10
40.5149198963
 20
-4.033562183
 10
40.5133033692
 20
-4.0709962312
 10
40.510661903
 20
-4.1041311887
 10
40.506944473
 20
-4.1332339253
 10
40.5022021039
 20
-4.1580375711
 10
40.4965878696
 20
-4.1777415158
 10
40.4900733219
 20
-4.1921793614
 10
40.4826869089
 20
-4.201517506
 10
40.474401382
 20
-4.205488116
  0
ENDSEC
  0
SECTION
  2
OBJECTS
  0
DICTIONARY
  5
C
100
AcDbDictionary
280
0
281
1
  3
ACAD_GROUP
350
D
  3
ACAD_MLINESTYLE
350
17
  3
ACAD_LAYOUT
350
1A
  3
ACAD_PLOTSETTINGS
350
19
  3
ACAD_PLOTSTYLENAME
350
E
  0
DICTIONARY
  5
D
102
{ACAD_REACTORS
330
C
102
}
100
AcDbDictionary
280
0
281
1
  0
ACDBDICTIONARYWDFLT
  5
E
102
{ACAD_REACTORS
330
C
102
}
100
AcDbDictionary
281
1
  3
Normal
350
F
100
AcDbDictionaryWithDefault
340
F
  0
DICTIONARY
  5
17
102
{ACAD_REACTORS
330
C
102
}
100
AcDbDictionary
280
0
281
1
  3
Standard
350
18
  0
DICTIONARY
  5
19
102
{ACAD_REACTORS
330
C
102
}
100
AcDbDictionary
281
1
  0
DICTIONARY
  5
1A
102
{ACAD_REACTORS
330
C
102
}
100
AcDbDictionary
281
1
  3
Model
350
263
  3
Layout1
350
264
  0
ACDBPLACEHOLDER
  5
F
102
{ACAD_REACTORS
330
E
102
}
  0
MLINESTYLE
  5
18
102
{ACAD_REACTORS
330
17
102
}
100
AcDbMlineStyle
  2
STANDARD
 70
0
  3

 62
256
 51
90.0
 52
90.0
 71
2
 49
0.5
 62
256
  6
BYLAYER
 49
-0.5
 62
256
  6
BYLAYER
  0
LAYOUT
  5
263
102
{ACAD_REACTORS
330
1A
102
}
100
AcDbPlotSettings
  1

  2
none_device
  4
ISO_A4_(297.00_x_210.00_MM)
  6

 40
0.0
 41
0.0
 42
0.0
 43
0.0
 44
297.0
 45
210.0
 46
0.0
 47
0.0
 48
0.0
 49
0.0
140
0.0
141
0.0
142
1.0
143
1.0
 70
1024
 72
1
 73
0
 74
0
  7

 75
0
147
1.0
148
0.0
149
0.0
100
AcDbLayout
  1
Model
 70
0
 71
0
 10
0.0
 20
0.0
 11
297.0
 21
210.0
 12
0.0
 22
0.0
 32
0.0
 14
0.0
 24
0.0
 34
0.0
 15
0.0
 25
0.0
 35
0.0
146
0.0
 13
0.0
 23
0.0
 33
0.0
 16
1.0
 26
0.0
 36
0.0
 17
0.0
 27
1.0
 37
0.0
 76
0
330
20E
345
0
346
0
  0
LAYOUT
  5
264
102
{ACAD_REACTORS
330
1A
102
}
100
AcDbPlotSettings
  1

  2
none_device
  4
ISO_A4_(297.00_x_210.00_MM)
  6

 40
0.0
 41
0.0
 42
0.0
 43
0.0
 44
297.0
 45
210.0
 46
0.0
 47
0.0
 48
0.0
 49
0.0
140
0.0
141
0.0
142
1.0
143
1.0
 70
0
 72
1
 73
0
 74
0
  7

 75
0
147
1.0
148
0.0
149
0.0
100
AcDbLayout
  1
Layout1
 70
0
 71
1
 10
0.0
 20
0.0
 11
297.0
 21
210.0
 12
0.0
 22
0.0
 32
0.0
 14
0.0
 24
0.0
 34
0.0
 15
0.0
 25
0.0
 35
0.0
146
0.0
 13
0.0
 23
0.0
 33
0.0
 16
1.0
 26
0.0
 36
0.0
 17
0.0
 27
1.0
 37
0.0
 76
0
330
20F
345
0
346
0
  0
ENDSEC
  0
EOF
