  0
SECTION
  2
HEADER
  9
$ACADVER
  1
AC1024
  9
$DWGCODEPAGE
  3
ANSI_1252
  9
$EXTMAX
 10
558.8
 20
431.8
 30
0.0
  9
$EXTMIN
 10
0.0
 20
0.0
 30
0.0
  9
$LIMMIN
 10
0.0
 20
0.0
  9
$LIMMAX
 10
558.8
 20
431.8
  9
$VIEWCTR
 10
279.4
 20
215.9
  9
$VIEWSIZE
 40
431.8
  9
$CLAYER
  8
0
  9
$LTSCALE
 40
30.734
  9
$CELTYPE
  6
BYLAYER
  9
$DIMSCALE
 40
1.0
  9
$DIMASZ
 40
3.0
  9
$DIMEXO
 40
0.5
  9
$DIMDLI
 40
21.2344
  9
$DIMEXE
 40
1.5
  9
$DIMCEN
 40
5.0292
  9
$DIMLFAC
 40
1.0
  9
$DIMBLK
  1
_FILLED
  9
$DIMALT
 70
0
  9
$DIMALTF
 40
0.0393700787
  9
$DIMTXT
 40
3.0
  9
$DIMTOL
 70
1
  9
$DIMLIM
 70
0
  9
$DIMTFAC
 40
1.0
  9
$DIMTP
 40
0.01
  9
$DIMTM
 40
0.01
  9
$DIMGAP
 40
0.625
  9
$DIMDSEP
 70
44
  9
$AUNITS
 70
0
  9
$PDMODE
 70
3
  9
$PDSIZE
 40
3.0
  9
$HANDSEED
  5
278
  9
$TILEMODE
 70
1
  9
$MEASUREMENT
 70
1
  9
$INSUNITS
 70
4
  0
ENDSEC
  0
SECTION
  2
CLASSES
  0
CLASS
  1
ACDBDICTIONARYWDFLT
  2
AcDbDictionaryWithDefault
  3
AutoCAD 2000
 90
0
 91
1
280
0
281
0
  0
CLASS
  1
ACDBPLACEHOLDER
  2
AcDbPlaceHolder
  3
AutoCAD 2000
 90
0
 91
1
280
0
281
0
  0
CLASS
  1
LAYOUT
  2
AcDbLayout
  3
AutoCAD 2000
 90
0
 91
0
280
0
281
0
  0
ENDSEC
  0
SECTION
  2
TABLES
  0
TABLE
  2
VPORT
  5
8
100
AcDbSymbolTable
 70
2
  0
VPORT
  5
1F4
100
AcDbSymbolTableRecord
100
AcDbViewportTableRecord
  2
*ACTIVE
 70
0
 10
0.0
 20
0.0
 11
1.0
 21
1.0
 12
279.4
 22
215.9
 13
0.0
 23
0.0
 14
1.0
 24
1.0
 15
0.0
 25
0.0
 16
0.0
 26
0.0
 36
1.0
 17
0.0
 27
0.0
 37
0.0
 40
431.8
 41
1.2941176471
 42
50.0
 43
0.0
 44
0.0
 50
0.0
 51
0.0
 71
0
 72
100
 73
1
 74
1
 75
0
 76
0
 77
0
 78
0
  0
ENDTAB
  0
TABLE
  2
LTYPE
  5
5
100
AcDbSymbolTable
 70
6
  0
LTYPE
  5
14
100
AcDbSymbolTableRecord
100
AcDbLinetypeTableRecord
  2
BYBLOCK
 70
0
  3

 72
65
 73
0
 40
0.0
  0
LTYPE
  5
15
100
AcDbSymbolTableRecord
100
AcDbLinetypeTableRecord
  2
BYLAYER
 70
0
  3

 72
65
 73
0
 40
0.0
  0
LTYPE
  5
16
100
AcDbSymbolTableRecord
100
AcDbLinetypeTableRecord
  2
CONTINUOUS
 70
64
  3
Solid line
 72
65
 73
0
 40
0.0
  0
LTYPE
  5
1F5
100
AcDbSymbolTableRecord
100
AcDbLinetypeTableRecord
  2
CENTER
 70
64
  3
____ _ ____ _ ____ _ ____ _ ____ _ ____ _ ____
 72
65
 73
4
 40
0.6
 49
0.375
 74
0
 49
-0.075
 74
0
 49
0.075
 74
0
 49
-0.075
 74
0
  0
LTYPE
  5
1F6
100
AcDbSymbolTableRecord
100
AcDbLinetypeTableRecord
  2
HIDDEN
 70
64
  3
- - - - - - - - - - - - - - - - - - - -
 72
65
 73
2
 40
0.2
 49
0.1
 74
0
 49
-0.1
 74
0
  0
LTYPE
  5
1F7
100
AcDbSymbolTableRecord
100
AcDbLinetypeTableRecord
  2
PHANTOM
 70
64
  3
_____ _ _ _____ _ _ _____ _ _ _____
 72
65
 73
6
 40
0.8
 49
0.45
 74
0
 49
-0.05
 74
0
 49
0.1
 74
0
 49
-0.05
 74
0
 49
0.1
 74
0
 49
-0.05
 74
0
  0
LTYPE
  5
1F8
100
AcDbSymbolTableRecord
100
AcDbLinetypeTableRecord
  2
DOT
 70
64
  3
. . . . . . . . . . . . . . . . . . . .
 72
65
 73
2
 40
0.2
 49
0.1
 74
0
 49
-0.1
 74
0
  0
LTYPE
  5
1F9
100
AcDbSymbolTableRecord
100
AcDbLinetypeTableRecord
  2
DASHED
 70
64
  3
- - - - - - - - - - - - - - - - - - - -
 72
65
 73
2
 40
0.2
 49
0.1
 74
0
 49
-0.1
 74
0
  0
ENDTAB
  0
TABLE
  2
LAYER
  5
2
100
AcDbSymbolTable
 70
36
  0
LAYER
  5
10
100
AcDbSymbolTableRecord
100
AcDbLayerTableRecord
  2
0
 70
0
 62
7
  6
CONTINUOUS
370
-3
390
F
  0
LAYER
  5
1FA
100
AcDbSymbolTableRecord
100
AcDbLayerTableRecord
  2
DEFAULT_1
 70
0
 62
7
  6
CENTER
370
-3
390
F
  0
LAYER
  5
1FB
100
AcDbSymbolTableRecord
100
AcDbLayerTableRecord
  2
DEFAULT_2
 70
0
 62
7
  6
HIDDEN
370
-3
390
F
  0
LAYER
  5
1FC
100
AcDbSymbolTableRecord
100
AcDbLayerTableRecord
  2
DEFAULT_3
 70
0
 62
7
  6
PHANTOM
370
-3
390
F
  0
LAYER
  5
1FD
100
AcDbSymbolTableRecord
100
AcDbLayerTableRecord
  2
ASSI
 70
0
 62
7
  6
CONTINUOUS
370
-3
390
F
  0
LAYER
  5
1FE
100
AcDbSymbolTableRecord
100
AcDbLayerTableRecord
  2
COORDINATE
 70
0
 62
7
  6
CONTINUOUS
370
-3
390
F
  0
LAYER
  5
1FF
100
AcDbSymbolTableRecord
100
AcDbLayerTableRecord
  2
COPY_PUBLISH
 70
0
 62
7
  6
CONTINUOUS
370
-3
390
F
  0
LAYER
  5
200
100
AcDbSymbolTableRecord
100
AcDbLayerTableRecord
  2
COSMETICI
 70
0
 62
7
  6
CONTINUOUS
370
-3
390
F
  0
LAYER
  5
201
100
AcDbSymbolTableRecord
100
AcDbLayerTableRecord
  2
CURVE
 70
0
 62
7
  6
CONTINUOUS
370
-3
390
F
  0
LAYER
  5
202
100
AcDbSymbolTableRecord
100
AcDbLayerTableRecord
  2
DRAFT
 70
0
 62
7
  6
CONTINUOUS
370
-3
390
F
  0
LAYER
  5
203
100
AcDbSymbolTableRecord
100
AcDbLayerTableRecord
  2
IMPORT_IGES
 70
0
 62
7
  6
CONTINUOUS
370
-3
390
F
  0
LAYER
  5
204
100
AcDbSymbolTableRecord
100
AcDbLayerTableRecord
  2
NOTE
 70
0
 62
7
  6
CONTINUOUS
370
-3
390
F
  0
LAYER
  5
205
100
AcDbSymbolTableRecord
100
AcDbLayerTableRecord
  2
PIANI
 70
0
 62
7
  6
CONTINUOUS
370
-3
390
F
  0
LAYER
  5
206
100
AcDbSymbolTableRecord
100
AcDbLayerTableRecord
  2
PUNTI
 70
0
 62
7
  6
CONTINUOUS
370
-3
390
F
  0
LAYER
  5
207
100
AcDbSymbolTableRecord
100
AcDbLayerTableRecord
  2
RACCORDO
 70
0
 62
7
  6
CONTINUOUS
370
-3
390
F
  0
LAYER
  5
208
100
AcDbSymbolTableRecord
100
AcDbLayerTableRecord
  2
SIMBOLI
 70
0
 62
7
  6
CONTINUOUS
370
-3
390
F
  0
LAYER
  5
209
100
AcDbSymbolTableRecord
100
AcDbLayerTableRecord
  2
SMUSSO
 70
0
 62
7
  6
CONTINUOUS
370
-3
390
F
  0
LAYER
  5
20A
100
AcDbSymbolTableRecord
100
AcDbLayerTableRecord
  2
SUPERFICI
 70
0
 62
7
  6
CONTINUOUS
370
-3
390
F
  0
LAYER
  5
20B
100
AcDbSymbolTableRecord
100
AcDbLayerTableRecord
  2
TRASH
 70
0
 62
7
  6
CONTINUOUS
370
-3
390
F
  0
ENDTAB
  0
TABLE
  2
STYLE
  5
3
100
AcDbSymbolTable
 70
1
  0
STYLE
  5
11
100
AcDbSymbolTableRecord
100
AcDbTextStyleTableRecord
  2
STANDARD
 70
0
 40
0.0
 41
0.8
 50
0.0
 71
0
 42
0.2
  3
txt
  4

  0
STYLE
  5
20C
100
AcDbSymbolTableRecord
100
AcDbTextStyleTableRecord
  2
TEXTSTYLE_1
 70
0
 40
0.0
 41
0.8
 50
0.0
 71
0
 42
0.2
  3
gdt
  4

  0
ENDTAB
  0
TABLE
  2
VIEW
  5
6
100
AcDbSymbolTable
 70
0
  0
ENDTAB
  0
TABLE
  2
UCS
  5
7
100
AcDbSymbolTable
 70
0
  0
ENDTAB
  0
TABLE
  2
APPID
  5
9
100
AcDbSymbolTable
 70
1
  0
APPID
  5
20D
100
AcDbSymbolTableRecord
100
AcDbRegAppTableRecord
  2
ACAD
 70
0
  0
ENDTAB
  0
TABLE
  2
BLOCK_RECORD
  5
1
100
AcDbSymbolTable
 70
0
  0
BLOCK_RECORD
  5
20E
100
AcDbSymbolTableRecord
100
AcDbBlockTableRecord
  2
*Model_Space
  0
BLOCK_RECORD
  5
20F
100
AcDbSymbolTableRecord
100
AcDbBlockTableRecord
  2
*Paper_Space
  0
BLOCK_RECORD
  5
210
100
AcDbSymbolTableRecord
100
AcDbBlockTableRecord
  2
_FILLED
  0
ENDTAB
  0
TABLE
  2
DIMSTYLE
  5
A
100
AcDbSymbolTable
 70
1
100
AcDbDimStyleTable
 71
0
  0
DIMSTYLE
105
211
100
AcDbSymbolTableRecord
100
AcDbDimStyleTableRecord
  2
STANDARD
 70
0
  3

  4

 40
1.0
 41
3.0
 42
0.5
 43
0.38
 44
1.5
 45
0.0
 46
0.0
 47
0.01
 48
0.01
140
3.0
141
0.09
142
0.0
143
25.4
144
1.0
145
0.0
146
1.0
147
0.625
 71
1
 72
0
 73
0
 74
0
 75
0
 76
0
 77
1
 78
8
 79
2
170
0
171
1
172
0
173
0
174
0
175
0
176
0
177
0
178
0
270
2
179
2
271
2
272
2
273
2
274
2
275
0
280
0
281
0
282
0
283
1
284
8
285
0
286
0
287
3
288
0
340
11
278
44
341
210
342
210
343
210
344
210
  0
ENDTAB
  0
ENDSEC
  0
SECTION
  2
BLOCKS
  0
BLOCK
  5
20
100
AcDbEntity
  8
0
100
AcDbBlockBegin
  2
*Model_Space
 70
0
 10
0.0
 20
0.0
 30
0.0
  3
*Model_Space
  1

  0
ENDBLK
  5
21
100
AcDbEntity
  8
0
100
AcDbBlockEnd
  0
BLOCK
  5
1C
100
AcDbEntity
  8
0
100
AcDbBlockBegin
  2
*Paper_Space
 70
0
 10
0.0
 20
0.0
 30
0.0
  3
*Paper_Space
  1

  0
ENDBLK
  5
1D
100
AcDbEntity
  8
0
100
AcDbBlockEnd
  0
BLOCK
  5
212
100
AcDbEntity
  8
0
100
AcDbBlockBegin
  2
_FILLED
 70
64
 10
0.0
 20
0.0
  3
_FILLED
  1

  0
SOLID
  5
213
100
AcDbEntity
  8
0
  6
BYBLOCK
 62
0
100
AcDbTrace
 10
0.0
 20
0.0
 11
-1.0
 21
0.1333333333
 12
-1.0
 22
-0.1333333333
 13
-1.0
 23
-0.1333333333
  0
ENDBLK
  5
214
100
AcDbEntity
  8
0
  6
BYBLOCK
 62
0
100
AcDbBlockEnd
  0
ENDSEC
  0
SECTION
  2
ENTITIES
  0
LINE
  5
215
100
AcDbEntity
  8
RACCORDO
100
AcDbLine
 62
7
  6
CONTINUOUS
 10
-20.1556447913
 20
29.4867234171
 11
-11.6703634171
 21
34.386018537
  0
LINE
  5
216
100
AcDbEntity
  8
RACCORDO
100
AcDbLine
 62
250
  6
CONTINUOUS
 10
-19.6556206312
 20
29.4371822394
 11
-11.170339257
 21
34.3364773593
  0
LINE
  5
217
100
AcDbEntity
  8
RACCORDO
100
AcDbLine
 62
7
  6
CONTINUOUS
 10
-20.1556447913
 20
-16.3346944387
 11
-8.1348295112
 21
-23.2753625253
  0
LINE
  5
218
100
AcDbEntity
  8
RACCORDO
100
AcDbLine
 62
7
  6
CONTINUOUS
 10
-1.0637616993
 20
-27.3581084585
 11
10.9570535809
 21
-34.2987765451
  0
LINE
  5
219
100
AcDbEntity
  8
RACCORDO
100
AcDbLine
 62
250
  6
CONTINUOUS
 10
-20.3627274124
 20
-15.8769575775
 11
-8.3419121322
 21
-22.8176256641
  0
LINE
  5
21A
100
AcDbEntity
  8
RACCORDO
100
AcDbLine
 62
250
  6
CONTINUOUS
 10
-1.2708443204
 20
-26.9003715974
 11
10.7499709598
 21
-33.841039684
  0
LINE
  5
21B
100
AcDbEntity
  8
RACCORDO
100
AcDbLine
 62
250
  6
CONTINUOUS
 10
-7.634805351
 20
22.4965141528
 11
0.8504760232
 21
27.3958092728
  0
LINE
  5
21C
100
AcDbEntity
  8
RACCORDO
100
AcDbLine
 62
250
  6
CONTINUOUS
 10
-6.9276985699
 20
21.2717692827
 11
1.5575828044
 21
26.1710644026
  0
LINE
  5
21D
100
AcDbEntity
  8
RACCORDO
100
AcDbLine
 62
7
  6
CONTINUOUS
 10
-20.6556206312
 20
28.6207119626
 11
-20.6556206312
 21
-15.4686829842
  0
LINE
  5
21E
100
AcDbEntity
  8
RACCORDO
100
AcDbLine
 62
250
  6
CONTINUOUS
 10
-20.3627274124
 20
28.2124373693
 11
-20.3627274124
 21
-15.8769575775
  0
LINE
  5
21F
100
AcDbEntity
  8
RACCORDO
100
AcDbLine
 62
7
  6
CONTINUOUS
 10
-1.0637616993
 20
18.4633093972
 11
7.4215196749
 21
23.3626045172
  0
LINE
  5
220
100
AcDbEntity
  8
RACCORDO
100
AcDbLine
 62
250
  6
CONTINUOUS
 10
-0.5637375392
 20
18.4137682195
 11
7.9215438351
 21
23.3130633395
  0
LINE
  5
221
100
AcDbEntity
  8
0
100
AcDbLine
 62
7
  6
CONTINUOUS
 10
-10.0490189134
 20
-22.1701335548
 11
-10.0490189134
 21
-26.386183504
  0
LINE
  5
222
100
AcDbEntity
  8
RACCORDO
100
AcDbLine
 62
250
  6
CONTINUOUS
 10
-8.3419121322
 20
-22.8176256641
 11
-8.3419121322
 21
21.2717692827
  0
LINE
  5
223
100
AcDbEntity
  8
0
100
AcDbLine
 62
7
  6
CONTINUOUS
 10
-8.0490189134
 20
-23.3188755877
 11
-8.0490189134
 21
-26.386183504
  0
LINE
  5
224
100
AcDbEntity
  8
RACCORDO
100
AcDbLine
 62
250
  6
CONTINUOUS
 10
-6.9276985699
 20
-22.8176256641
 11
-6.9276985699
 21
21.2717692827
  0
LINE
  5
225
100
AcDbEntity
  8
RACCORDO
100
AcDbLine
 62
250
  6
CONTINUOUS
 10
11.457077741
 20
11.473100133
 11
19.9423591152
 21
16.3723952529
  0
LINE
  5
226
100
AcDbEntity
  8
RACCORDO
100
AcDbLine
 62
250
  6
CONTINUOUS
 10
12.1641845222
 20
10.2483552629
 11
20.6494658964
 21
15.1476503828
  0
LINE
  5
227
100
AcDbEntity
  8
RACCORDO
100
AcDbLine
 62
7
  6
CONTINUOUS
 10
-1.5637375392
 20
17.5972979428
 11
-1.5637375392
 21
-26.4920970041
  0
LINE
  5
228
100
AcDbEntity
  8
RACCORDO
100
AcDbLine
 62
250
  6
CONTINUOUS
 10
-1.2708443204
 20
17.1890233494
 11
-1.2708443204
 21
-26.9003715974
  0
LINE
  5
229
100
AcDbEntity
  8
RACCORDO
100
AcDbLine
 62
7
  6
CONTINUOUS
 10
1.5575828044
 20
19.9768408605
 11
1.5575828044
 21
26.1710644026
  0
LINE
  5
22A
100
AcDbEntity
  8
RACCORDO
100
AcDbLine
 62
250
  6
CONTINUOUS
 10
10.7499709598
 20
-33.841039684
 11
10.7499709598
 21
10.2483552629
  0
LINE
  5
22B
100
AcDbEntity
  8
RACCORDO
100
AcDbLine
 62
250
  6
CONTINUOUS
 10
12.1641845222
 20
-33.841039684
 11
12.1641845222
 21
10.2483552629
  0
LINE
  5
22C
100
AcDbEntity
  8
RACCORDO
100
AcDbLine
 62
250
  6
CONTINUOUS
 10
-6.9276985699
 20
-22.8176256641
 11
-1.5637375392
 21
-19.7205417912
  0
LINE
  5
22D
100
AcDbEntity
  8
RACCORDO
100
AcDbLine
 62
250
  6
CONTINUOUS
 10
10.7499709598
 20
10.2483552629
 11
-1.2708443204
 21
17.1890233494
  0
LINE
  5
22E
100
AcDbEntity
  8
RACCORDO
100
AcDbLine
 62
250
  6
CONTINUOUS
 10
-8.3419121322
 20
21.2717692827
 11
-20.3627274124
 21
28.2124373693
  0
LINE
  5
22F
100
AcDbEntity
  8
RACCORDO
100
AcDbLine
 62
250
  6
CONTINUOUS
 10
11.457077741
 20
11.473100133
 11
-0.5637375392
 21
18.4137682195
  0
LINE
  5
230
100
AcDbEntity
  8
RACCORDO
100
AcDbLine
 62
250
  6
CONTINUOUS
 10
-7.634805351
 20
22.4965141528
 11
-19.6556206312
 21
29.4371822394
  0
LINE
  5
231
100
AcDbEntity
  8
RACCORDO
100
AcDbLine
 62
7
  6
CONTINUOUS
 10
-7.1347811909
 20
-23.2753625253
 11
-1.5637375392
 21
-20.0587117423
  0
LINE
  5
232
100
AcDbEntity
  8
RACCORDO
100
AcDbLine
 62
7
  6
CONTINUOUS
 10
20.6494658964
 20
-28.941744564
 11
20.6494658964
 21
15.1476503828
  0
LINE
  5
233
100
AcDbEntity
  8
RACCORDO
100
AcDbLine
 62
7
  6
CONTINUOUS
 10
19.9423591152
 20
16.3723952529
 11
7.9215438351
 21
23.3130633395
  0
LINE
  5
234
100
AcDbEntity
  8
RACCORDO
100
AcDbLine
 62
7
  6
CONTINUOUS
 10
0.8504760232
 20
27.3958092728
 11
-11.170339257
 21
34.3364773593
  0
LINE
  5
235
100
AcDbEntity
  8
RACCORDO
100
AcDbLine
 62
250
  6
CONTINUOUS
 10
12.1641845222
 20
-33.841039684
 11
20.6494658964
 21
-28.941744564
  0
LINE
  5
236
100
AcDbEntity
  8
RACCORDO
100
AcDbLine
 62
7
  6
CONTINUOUS
 10
11.9571019011
 20
-34.2987765451
 11
20.4423832754
 21
-29.3994814252
  0
ARC
  5
237
100
AcDbEntity
  8
RACCORDO
100
AcDbCircle
 62
7
  6
CONTINUOUS
 10
11.457077741
 20
-33.4327650906
 40
1.0
100
AcDbArc
 50
239.9973414045
 51
300.0015984348
  0
ARC
  5
238
100
AcDbEntity
  8
RACCORDO
100
AcDbCircle
 62
7
  6
CONTINUOUS
 10
-0.5637375392
 20
-26.4920970041
 40
1.0
100
AcDbArc
 50
180.0007992957
 51
239.999200745
  0
ARC
  5
239
100
AcDbEntity
  8
RACCORDO
100
AcDbCircle
 62
7
  6
CONTINUOUS
 10
-0.5637375392
 20
17.5972979428
 40
1.0
100
AcDbArc
 50
120.0015984348
 51
180.0010658735
  0
ARC
  5
23A
100
AcDbEntity
  8
RACCORDO
100
AcDbCircle
 62
7
  6
CONTINUOUS
 10
-7.634805351
 20
-22.4093510708
 40
1.0
100
AcDbArc
 50
239.9973414045
 51
300.0015984348
  0
ARC
  5
23B
100
AcDbEntity
  8
RACCORDO
100
AcDbCircle
 62
7
  6
CONTINUOUS
 10
-19.6556206312
 20
-15.4686829842
 40
1.0
100
AcDbArc
 50
180.0007992957
 51
239.999200745
  0
ARC
  5
23C
100
AcDbEntity
  8
RACCORDO
100
AcDbCircle
 62
7
  6
CONTINUOUS
 10
-19.6556206312
 20
28.6207119626
 40
1.0
100
AcDbArc
 50
120.0015984348
 51
180.0010658735
  0
SPLINE
  5
23D
100
AcDbEntity
  8
0
100
AcDbSpline
 62
7
  6
CONTINUOUS
 70
0
 71
3
 72
11
 73
7
 74
0
 42
0.0000001
 43
0.0000001
 44
0.0000000001
 40
0.0
 40
0.0
 40
0.0
 40
0.0
 40
0.2177897546
 40
0.4509217732
 40
0.710304722
 40
1.0
 40
1.0
 40
1.0
 40
1.0
 10
-8.0490189134
 20
-26.386183504
 30
0.0
 10
-8.0490214495
 20
-26.424275173
 30
0.0
 10
-8.0630956818
 20
-26.5036692381
 30
0.0
 10
-8.1232804092
 20
-26.6142919152
 30
0.0
 10
-8.2184247059
 20
-26.7142879724
 30
0.0
 10
-8.2980330424
 20
-26.7691228608
 30
0.0
 10
-8.3419121322
 20
-26.7944580973
 30
0.0
  0
SPLINE
  5
23E
100
AcDbEntity
  8
SMUSSO
100
AcDbSpline
 62
7
  6
CONTINUOUS
 70
0
 71
3
 72
15
 73
11
 74
0
 42
0.0000001
 43
0.0000001
 44
0.0000000001
 40
0.0
 40
0.0
 40
0.0
 40
0.0
 40
0.1141524744
 40
0.2373234329
 40
0.3669738336
 40
0.4999996014
 40
0.6330249195
 40
0.7626769483
 40
0.8858450909
 40
1.0
 40
1.0
 40
1.0
 40
1.0
 10
7.2141978756
 20
9.4322115845
 30
0.0
 10
7.3836330717
 20
9.3344007057
 30
0.0
 10
7.718301838
 20
9.0998248891
 30
0.0
 10
8.1787928497
 20
8.6690344214
 30
0.0
 10
8.6031680921
 20
8.159796414
 30
0.0
 10
8.9754363645
 20
7.5912146383
 30
0.0
 10
9.2817474176
 20
6.984546056
 30
0.0
 10
9.5106027196
 20
6.362421566
 30
0.0
 10
9.6534766004
 20
5.748237475
 30
0.0
 10
9.6893107911
 20
5.3411200119
 30
0.0
 10
9.689310788
 20
5.1454752153
 30
0.0
  0
SPLINE
  5
23F
100
AcDbEntity
  8
SMUSSO
100
AcDbSpline
 62
7
  6
CONTINUOUS
 70
0
 71
3
 72
15
 73
11
 74
0
 42
0.0000001
 43
0.0000001
 44
0.0000000001
 40
0.0
 40
0.0
 40
0.0
 40
0.0
 40
0.1141524744
 40
0.2373234329
 40
0.3669738336
 40
0.4999996014
 40
0.6330249195
 40
0.7626769483
 40
0.8858450909
 40
1.0
 40
1.0
 40
1.0
 40
1.0
 10
7.2141978756
 20
-23.2265994872
 30
0.0
 10
7.3836330717
 20
-23.324410366
 30
0.0
 10
7.718301838
 20
-23.5589861827
 30
0.0
 10
8.1787928497
 20
-23.9897766503
 30
0.0
 10
8.6031680921
 20
-24.4990146577
 30
0.0
 10
8.9754363645
 20
-25.0675964334
 30
0.0
 10
9.2817474176
 20
-25.6742650157
 30
0.0
 10
9.5106027196
 20
-26.2963895057
 30
0.0
 10
9.6534766004
 20
-26.9105735967
 30
0.0
 10
9.6893107911
 20
-27.3176910598
 30
0.0
 10
9.689310788
 20
-27.5133358564
 30
0.0
  0
SPLINE
  5
240
100
AcDbEntity
  8
SMUSSO
100
AcDbSpline
 62
7
  6
CONTINUOUS
 70
0
 71
3
 72
11
 73
7
 74
0
 42
0.0000001
 43
0.0000001
 44
0.0000000001
 40
0.0
 40
0.0
 40
0.0
 40
0.0
 40
0.2782174055
 40
0.5337885846
 40
0.7717787091
 40
1.0
 40
1.0
 40
1.0
 40
1.0
 10
-14.3825848244
 20
-13.1740490822
 30
0.0
 10
-14.3981600526
 20
-13.2610577038
 30
0.0
 10
-14.44076704
 20
-13.4262044633
 30
0.0
 10
-14.5460346849
 20
-13.6495191305
 30
0.0
 10
-14.6882892186
 20
-13.832017273
 30
0.0
 10
-14.8072336013
 20
-13.9235377413
 30
0.0
 10
-14.8700263246
 20
-13.95979265
 30
0.0
  0
SPLINE
  5
241
100
AcDbEntity
  8
SMUSSO
100
AcDbSpline
 62
7
  6
CONTINUOUS
 70
0
 71
3
 72
11
 73
7
 74
0
 42
0.0000001
 43
0.0000001
 44
0.0000000001
 40
0.0
 40
0.0
 40
0.0
 40
0.0
 40
0.2782174055
 40
0.5337885846
 40
0.7717787091
 40
1.0
 40
1.0
 40
1.0
 40
1.0
 10
-14.3825848244
 20
19.4847619895
 30
0.0
 10
-14.3981600526
 20
19.3977533679
 30
0.0
 10
-14.44076704
 20
19.2326066084
 30
0.0
 10
-14.5460346849
 20
19.0092919412
 30
0.0
 10
-14.6882892186
 20
18.8267937987
 30
0.0
 10
-14.8072336013
 20
18.7352733304
 30
0.0
 10
-14.8700263246
 20
18.6990184217
 30
0.0
  0
SPLINE
  5
242
100
AcDbEntity
  8
RACCORDO
100
AcDbSpline
 62
7
  6
CONTINUOUS
 70
0
 71
3
 72
11
 73
7
 74
0
 42
0.0000001
 43
0.0000001
 44
0.0000000001
 40
0.0
 40
0.0
 40
0.0
 40
0.0
 40
0.2177715943
 40
0.4509281982
 40
0.7102220815
 40
1.0
 40
1.0
 40
1.0
 40
1.0
 10
7.4215221123
 20
23.36260053
 30
0.0
 10
7.4545078121
 20
23.3816460376
 30
0.0
 10
7.5303033279
 20
23.4091646491
 30
0.0
 10
7.6561860012
 20
23.4123345721
 30
0.0
 10
7.7903670043
 20
23.3799552957
 30
0.0
 10
7.8776514042
 20
23.338406279
 30
0.0
 10
7.9215438351
 20
23.3130633395
 30
0.0
  0
SPLINE
  5
243
100
AcDbEntity
  8
SMUSSO
100
AcDbSpline
 62
7
  6
CONTINUOUS
 70
0
 71
3
 72
11
 73
7
 74
0
 42
0.0000001
 43
0.0000001
 44
0.0000000001
 40
0.0
 40
0.0
 40
0.0
 40
0.0
 40
0.2281256693
 40
0.46606172
 40
0.7216905326
 40
1.0
 40
1.0
 40
1.0
 40
1.0
 10
6.6714834344
 20
9.147739522
 30
0.0
 10
6.734462013
 20
9.1841017388
 30
0.0
 10
6.8736479699
 20
9.2414784536
 30
0.0
 10
7.103610364
 20
9.2733066398
 30
0.0
 10
7.3504769775
 20
9.2523508654
 30
0.0
 10
7.5153241669
 20
9.2062258731
 30
0.0
 10
7.598720549
 20
9.1759562971
 30
0.0
  0
SPLINE
  5
244
100
AcDbEntity
  8
SMUSSO
100
AcDbSpline
 62
7
  6
CONTINUOUS
 70
0
 71
3
 72
11
 73
7
 74
0
 42
0.0000001
 43
0.0000001
 44
0.0000000001
 40
0.0
 40
0.0
 40
0.0
 40
0.0
 40
0.2281256693
 40
0.46606172
 40
0.7216905326
 40
1.0
 40
1.0
 40
1.0
 40
1.0
 10
6.6714834344
 20
-23.5110715497
 30
0.0
 10
6.734462013
 20
-23.4747093329
 30
0.0
 10
6.8736479699
 20
-23.4173326181
 30
0.0
 10
7.103610364
 20
-23.3855044319
 30
0.0
 10
7.3504769775
 20
-23.4064602063
 30
0.0
 10
7.5153241669
 20
-23.4525851986
 30
0.0
 10
7.598720549
 20
-23.4828547746
 30
0.0
  0
SPLINE
  5
245
100
AcDbEntity
  8
RACCORDO
100
AcDbSpline
 62
7
  6
CONTINUOUS
 70
0
 71
3
 72
11
 73
7
 74
0
 42
0.0000001
 43
0.0000001
 44
0.0000000001
 40
0.0
 40
0.0
 40
0.0
 40
0.0
 40
0.2897723666
 40
0.549064237
 40
0.7822230537
 40
1.0
 40
1.0
 40
1.0
 40
1.0
 10
20.6494658964
 20
-28.941744564
 30
0.0
 10
20.6494658964
 20
-28.9924194681
 30
0.0
 10
20.6418049047
 20
-29.0887685547
 30
0.0
 10
20.6027592652
 20
-29.221140862
 30
0.0
 10
20.5370818271
 20
-29.32855788
 30
0.0
 10
20.4753624314
 20
-29.3804343013
 30
0.0
 10
20.442380838
 20
-29.399477438
 30
0.0
  0
SPLINE
  5
246
100
AcDbEntity
  8
RACCORDO
100
AcDbSpline
 62
7
  6
CONTINUOUS
 70
0
 71
3
 72
11
 73
7
 74
0
 42
0.0000001
 43
0.0000001
 44
0.0000000001
 40
0.0
 40
0.0
 40
0.0
 40
0.0
 40
0.2372289818
 40
0.5000061067
 40
0.7627799081
 40
1.0
 40
1.0
 40
1.0
 40
1.0
 10
19.9423591152
 20
16.3723952529
 30
0.0
 10
20.0427418215
 20
16.3144355364
 30
0.0
 10
20.2327183363
 20
16.154548332
 30
0.0
 10
20.4544437185
 20
15.8515418539
 30
0.0
 10
20.6059911125
 20
15.508023033
 30
0.0
 10
20.6494658964
 20
15.2635598711
 30
0.0
 10
20.6494658964
 20
15.1476503828
 30
0.0
  0
SPLINE
  5
247
100
AcDbEntity
  8
SMUSSO
100
AcDbSpline
 62
7
  6
CONTINUOUS
 70
0
 71
3
 72
15
 73
11
 74
0
 42
0.0000001
 43
0.0000001
 44
0.0000000001
 40
0.0
 40
0.0
 40
0.0
 40
0.0
 40
0.1141524744
 40
0.2373234329
 40
0.3669738336
 40
0.4999996014
 40
0.6330249195
 40
0.7626769483
 40
0.8858450909
 40
1.0
 40
1.0
 40
1.0
 40
1.0
 10
-16.8274326848
 20
23.3135477577
 30
0.0
 10
-16.6579974886
 20
23.2157368788
 30
0.0
 10
-16.3233287224
 20
22.9811610622
 30
0.0
 10
-15.8628377107
 20
22.5503705945
 30
0.0
 10
-15.4384624682
 20
22.0411325871
 30
0.0
 10
-15.0661941958
 20
21.4725508115
 30
0.0
 10
-14.7598831428
 20
20.8658822292
 30
0.0
 10
-14.5310278407
 20
20.2437577391
 30
0.0
 10
-14.38815396
 20
19.6295736481
 30
0.0
 10
-14.3523197692
 20
19.2224561851
 30
0.0
 10
-14.3523197723
 20
19.0268113884
 30
0.0
  0
SPLINE
  5
248
100
AcDbEntity
  8
SMUSSO
100
AcDbSpline
 62
7
  6
CONTINUOUS
 70
0
 71
3
 72
15
 73
11
 74
0
 42
0.0000001
 43
0.0000001
 44
0.0000000001
 40
0.0
 40
0.0
 40
0.0
 40
0.0
 40
0.1141524744
 40
0.2373234329
 40
0.3669738336
 40
0.4999996014
 40
0.6330249195
 40
0.7626769483
 40
0.8858450909
 40
1.0
 40
1.0
 40
1.0
 40
1.0
 10
-16.8274326848
 20
-9.345263314
 30
0.0
 10
-16.6579974886
 20
-9.4430741929
 30
0.0
 10
-16.3233287224
 20
-9.6776500095
 30
0.0
 10
-15.8628377107
 20
-10.1084404772
 30
0.0
 10
-15.4384624682
 20
-10.6176784846
 30
0.0
 10
-15.0661941958
 20
-11.1862602602
 30
0.0
 10
-14.7598831428
 20
-11.7929288426
 30
0.0
 10
-14.5310278407
 20
-12.4150533326
 30
0.0
 10
-14.38815396
 20
-13.0292374236
 30
0.0
 10
-14.3523197692
 20
-13.4363548866
 30
0.0
 10
-14.3523197723
 20
-13.6319996833
 30
0.0
  0
SPLINE
  5
249
100
AcDbEntity
  8
RACCORDO
100
AcDbSpline
 62
7
  6
CONTINUOUS
 70
0
 71
3
 72
11
 73
7
 74
0
 42
0.0000001
 43
0.0000001
 44
0.0000000001
 40
0.0
 40
0.0
 40
0.0
 40
0.0
 40
0.2372289818
 40
0.5000061067
 40
0.7627799081
 40
1.0
 40
1.0
 40
1.0
 40
1.0
 10
0.8504760232
 20
27.3958092728
 30
0.0
 10
0.9508587295
 20
27.3378495562
 30
0.0
 10
1.1408352443
 20
27.1779623519
 30
0.0
 10
1.3625606265
 20
26.8749558737
 30
0.0
 10
1.5141080205
 20
26.5314370528
 30
0.0
 10
1.5575828044
 20
26.286973891
 30
0.0
 10
1.5575828044
 20
26.1710644026
 30
0.0
  0
SPLINE
  5
24A
100
AcDbEntity
  8
RACCORDO
100
AcDbSpline
 62
7
  6
CONTINUOUS
 70
0
 71
3
 72
11
 73
7
 74
0
 42
0.0000001
 43
0.0000001
 44
0.0000000001
 40
0.0
 40
0.0
 40
0.0
 40
0.0
 40
0.2177715943
 40
0.4509281982
 40
0.7102220815
 40
1.0
 40
1.0
 40
1.0
 40
1.0
 10
-11.6703609797
 20
34.3860145498
 30
0.0
 10
-11.63737528
 20
34.4050600575
 30
0.0
 10
-11.5615797642
 20
34.4325786689
 30
0.0
 10
-11.4356970909
 20
34.4357485919
 30
0.0
 10
-11.3015160878
 20
34.4033693156
 30
0.0
 10
-11.2142316878
 20
34.3618202988
 30
0.0
 10
-11.170339257
 20
34.3364773593
 30
0.0
  0
SPLINE
  5
24B
100
AcDbEntity
  8
SMUSSO
100
AcDbSpline
 62
7
  6
CONTINUOUS
 70
0
 71
3
 72
11
 73
7
 74
0
 42
0.0000001
 43
0.0000001
 44
0.0000000001
 40
0.0
 40
0.0
 40
0.0
 40
0.0
 40
0.2782174055
 40
0.5337885846
 40
0.7717787091
 40
1.0
 40
1.0
 40
1.0
 40
1.0
 10
9.659045736
 20
-27.0553852553
 30
0.0
 10
9.6434705077
 20
-27.1423938769
 30
0.0
 10
9.6008635204
 20
-27.3075406365
 30
0.0
 10
9.4955958754
 20
-27.5308553036
 30
0.0
 10
9.3533413418
 20
-27.7133534461
 30
0.0
 10
9.234396959
 20
-27.8048739145
 30
0.0
 10
9.1716042357
 20
-27.8411288232
 30
0.0
  0
SPLINE
  5
24C
100
AcDbEntity
  8
SMUSSO
100
AcDbSpline
 62
7
  6
CONTINUOUS
 70
0
 71
3
 72
11
 73
7
 74
0
 42
0.0000001
 43
0.0000001
 44
0.0000000001
 40
0.0
 40
0.0
 40
0.0
 40
0.0
 40
0.2782174055
 40
0.5337885846
 40
0.7717787091
 40
1.0
 40
1.0
 40
1.0
 40
1.0
 10
9.659045736
 20
5.6034258164
 30
0.0
 10
9.6434705077
 20
5.5164171948
 30
0.0
 10
9.6008635204
 20
5.3512704352
 30
0.0
 10
9.4955958754
 20
5.1279557681
 30
0.0
 10
9.3533413418
 20
4.9454576256
 30
0.0
 10
9.234396959
 20
4.8539371572
 30
0.0
 10
9.1716042357
 20
4.8176822485
 30
0.0
  0
SPLINE
  5
24D
100
AcDbEntity
  8
SMUSSO
100
AcDbSpline
 62
7
  6
CONTINUOUS
 70
0
 71
3
 72
11
 73
7
 74
0
 42
0.0000001
 43
0.0000001
 44
0.0000000001
 40
0.0
 40
0.0
 40
0.0
 40
0.0
 40
0.2281256693
 40
0.46606172
 40
0.7216905326
 40
1.0
 40
1.0
 40
1.0
 40
1.0
 10
-17.370147126
 20
23.0290756952
 30
0.0
 10
-17.3071685474
 20
23.065437912
 30
0.0
 10
-17.1679825904
 20
23.1228146268
 30
0.0
 10
-16.9380201964
 20
23.1546428129
 30
0.0
 10
-16.6911535828
 20
23.1336870386
 30
0.0
 10
-16.5263063935
 20
23.0875620462
 30
0.0
 10
-16.4429100113
 20
23.0572924702
 30
0.0
  0
SPLINE
  5
24E
100
AcDbEntity
  8
0
100
AcDbSpline
 62
7
  6
CONTINUOUS
 70
0
 71
3
 72
16
 73
12
 74
0
 42
0.0000001
 43
0.0000001
 44
0.0000000001
 40
0.0
 40
0.0
 40
0.0
 40
0.0
 40
0.1287439446
 40
0.2703864618
 40
0.4176077903
 40
0.5620137842
 40
0.695741799
 40
0.8130590105
 40
0.9124693433
 40
0.9571183604
 40
1.0
 40
1.0
 40
1.0
 40
1.0
 10
-8.3419121322
 20
-26.7944580973
 30
0.0
 10
-8.4159353515
 20
-26.8371981764
 30
0.0
 10
-8.5835321979
 20
-26.9063563611
 30
0.0
 10
-8.8566852381
 20
-26.9610089473
 30
0.0
 10
-9.1456161114
 20
-26.9689927729
 30
0.0
 10
-9.4266505105
 20
-26.9295616549
 30
0.0
 10
-9.6773342333
 20
-26.8456505343
 30
0.0
 10
-9.8781846938
 20
-26.7237460901
 30
0.0
 10
-9.9952044877
 20
-26.5893760132
 30
0.0
 10
-10.0413893233
 20
-26.4730118955
 30
0.0
 10
-10.0490208089
 20
-26.414653598
 30
0.0
 10
-10.0490189134
 20
-26.386183504
 30
0.0
  0
SPLINE
  5
24F
100
AcDbEntity
  8
SMUSSO
100
AcDbSpline
 62
7
  6
CONTINUOUS
 70
0
 71
3
 72
11
 73
7
 74
0
 42
0.0000001
 43
0.0000001
 44
0.0000000001
 40
0.0
 40
0.0
 40
0.0
 40
0.0
 40
0.2281256693
 40
0.46606172
 40
0.7216905326
 40
1.0
 40
1.0
 40
1.0
 40
1.0
 10
-17.370147126
 20
-9.6297353766
 30
0.0
 10
-17.3071685474
 20
-9.5933731597
 30
0.0
 10
-17.1679825904
 20
-9.5359964449
 30
0.0
 10
-16.9380201964
 20
-9.5041682588
 30
0.0
 10
-16.6911535828
 20
-9.5251240331
 30
0.0
 10
-16.5263063935
 20
-9.5712490255
 30
0.0
 10
-16.4429100113
 20
-9.6015186015
 30
0.0
  0
SPLINE
  5
250
100
AcDbEntity
  8
RACCORDO
100
AcDbSpline
 62
250
  6
CONTINUOUS
 70
0
 71
3
 72
11
 73
7
 74
0
 42
0.0000001
 43
0.0000001
 44
0.0000000001
 40
0.0
 40
0.0
 40
0.0
 40
0.0
 40
0.2372200919
 40
0.4999938933
 40
0.7627710182
 40
1.0
 40
1.0
 40
1.0
 40
1.0
 10
-6.9276985699
 20
21.2717692827
 30
0.0
 10
-6.9276985698
 20
21.387678771
 30
0.0
 10
-6.9711733538
 20
21.6321419329
 30
0.0
 10
-7.1227207478
 20
21.9756607538
 30
0.0
 10
-7.34444613
 20
22.2786672319
 30
0.0
 10
-7.5344226447
 20
22.4385544364
 30
0.0
 10
-7.634805351
 20
22.4965141528
 30
0.0
  0
SPLINE
  5
251
100
AcDbEntity
  8
RACCORDO
100
AcDbSpline
 62
250
  6
CONTINUOUS
 70
0
 71
3
 72
11
 73
7
 74
0
 42
0.0000001
 43
0.0000001
 44
0.0000000001
 40
0.0
 40
0.0
 40
0.0
 40
0.0
 40
0.2897779252
 40
0.5490718067
 40
0.7822284051
 40
1.0
 40
1.0
 40
1.0
 40
1.0
 10
-19.6556206312
 20
29.4371822394
 30
0.0
 10
-19.6995130728
 20
29.4625251851
 30
0.0
 10
-19.7867974938
 20
29.5040742099
 30
0.0
 10
-19.9209785299
 20
29.5364534824
 30
0.0
 10
-20.0468612306
 20
29.5332835359
 30
0.0
 10
-20.122656755
 20
29.5057648948
 30
0.0
 10
-20.1556424554
 20
29.4867193713
 30
0.0
  0
SPLINE
  5
252
100
AcDbEntity
  8
RACCORDO
100
AcDbSpline
 62
250
  6
CONTINUOUS
 70
0
 71
3
 72
11
 73
7
 74
0
 42
0.0000001
 43
0.0000001
 44
0.0000000001
 40
0.0
 40
0.0
 40
0.0
 40
0.0
 40
0.2177769457
 40
0.4509357678
 40
0.7102276401
 40
1.0
 40
1.0
 40
1.0
 40
1.0
 10
11.9570995652
 20
-34.2987724994
 30
0.0
 10
11.9900811445
 20
-34.2797293554
 30
0.0
 10
12.0518005104
 20
-34.2278529266
 30
0.0
 10
12.1174779144
 20
-34.1204359206
 30
0.0
 10
12.156523534
 20
-33.98806364
 30
0.0
 10
12.1641845222
 20
-33.8917145757
 30
0.0
 10
12.1641845222
 20
-33.841039684
 30
0.0
  0
SPLINE
  5
253
100
AcDbEntity
  8
RACCORDO
100
AcDbSpline
 62
250
  6
CONTINUOUS
 70
0
 71
3
 72
11
 73
7
 74
0
 42
0.0000001
 43
0.0000001
 44
0.0000000001
 40
0.0
 40
0.0
 40
0.0
 40
0.0
 40
0.2372270142
 40
0.5000021289
 40
0.7627769855
 40
1.0
 40
1.0
 40
1.0
 40
1.0
 10
-8.3419121322
 20
21.2717692827
 30
0.0
 10
-8.2415295974
 20
21.2138096652
 30
0.0
 10
-8.0080776187
 20
21.129219794
 30
0.0
 10
-7.6348023183
 20
21.0886998762
 30
0.0
 10
-7.2615290962
 20
21.129220996
 30
0.0
 10
-7.0280794122
 20
21.2138106424
 30
0.0
 10
-6.9276985699
 20
21.2717692827
 30
0.0
  0
SPLINE
  5
254
100
AcDbEntity
  8
RACCORDO
100
AcDbSpline
 62
250
  6
CONTINUOUS
 70
0
 71
3
 72
11
 73
7
 74
0
 42
0.0000001
 43
0.0000001
 44
0.0000000001
 40
0.0
 40
0.0
 40
0.0
 40
0.0
 40
0.2372211652
 40
0.4999960222
 40
0.7627739446
 40
1.0
 40
1.0
 40
1.0
 40
1.0
 10
-8.3419121322
 20
21.2717692827
 30
0.0
 10
-8.3419121322
 20
21.3876792936
 30
0.0
 10
-8.298436972
 20
21.6321434895
 30
0.0
 10
-8.146888501
 20
21.9756634167
 30
0.0
 10
-7.9251626976
 20
22.2786689798
 30
0.0
 10
-7.7351868175
 20
22.4385551522
 30
0.0
 10
-7.634805351
 20
22.4965141528
 30
0.0
  0
SPLINE
  5
255
100
AcDbEntity
  8
RACCORDO
100
AcDbSpline
 62
250
  6
CONTINUOUS
 70
0
 71
3
 72
11
 73
7
 74
0
 42
0.0000001
 43
0.0000001
 44
0.0000000001
 40
0.0
 40
0.0
 40
0.0
 40
0.0
 40
0.2372219686
 40
0.4999976545
 40
0.7627764554
 40
1.0
 40
1.0
 40
1.0
 40
1.0
 10
-20.3627274124
 20
28.2124373693
 30
0.0
 10
-20.3627274124
 20
28.3283477744
 30
0.0
 10
-20.3192519747
 20
28.5728127694
 30
0.0
 10
-20.1677026732
 20
28.9163336896
 30
0.0
 10
-19.9459765295
 20
29.2193385965
 30
0.0
 10
-19.7560010366
 20
29.3792238514
 30
0.0
 10
-19.6556206312
 20
29.4371822394
 30
0.0
  0
SPLINE
  5
256
100
AcDbEntity
  8
RACCORDO
100
AcDbSpline
 62
250
  6
CONTINUOUS
 70
0
 71
3
 72
11
 73
7
 74
0
 42
0.0000001
 43
0.0000001
 44
0.0000000001
 40
0.0
 40
0.0
 40
0.0
 40
0.0
 40
0.2897654036
 40
0.5490567221
 40
0.7822185431
 40
1.0
 40
1.0
 40
1.0
 40
1.0
 10
-20.3627274124
 20
28.2124373693
 30
0.0
 10
-20.4066158065
 20
28.237777978
 30
0.0
 10
-20.4862312429
 20
28.292594376
 30
0.0
 10
-20.5813524399
 20
28.3926070452
 30
0.0
 10
-20.6415443867
 20
28.5032067307
 30
0.0
 10
-20.655613874
 20
28.5826042852
 30
0.0
 10
-20.6556158973
 20
28.6206933597
 30
0.0
  0
SPLINE
  5
257
100
AcDbEntity
  8
RACCORDO
100
AcDbSpline
 62
250
  6
CONTINUOUS
 70
0
 71
3
 72
11
 73
7
 74
0
 42
0.0000001
 43
0.0000001
 44
0.0000000001
 40
0.0
 40
0.0
 40
0.0
 40
0.0
 40
0.2897654704
 40
0.5490570052
 40
0.7822187014
 40
1.0
 40
1.0
 40
1.0
 40
1.0
 10
-20.3627274124
 20
-15.8769575775
 30
0.0
 10
-20.406616199
 20
-15.8516167422
 30
0.0
 10
-20.4862322667
 20
-15.796799707
 30
0.0
 10
-20.5813542018
 20
-15.6967859311
 30
0.0
 10
-20.6415455215
 20
-15.586184661
 30
0.0
 10
-20.6556145321
 20
-15.5067863132
 30
0.0
 10
-20.6556159582
 20
-15.4686969345
 30
0.0
  0
SPLINE
  5
258
100
AcDbEntity
  8
RACCORDO
100
AcDbSpline
 62
250
  6
CONTINUOUS
 70
0
 71
3
 72
11
 73
7
 74
0
 42
0.0000001
 43
0.0000001
 44
0.0000000001
 40
0.0
 40
0.0
 40
0.0
 40
0.0
 40
0.2897720585
 40
0.5490643619
 40
0.7822229663
 40
1.0
 40
1.0
 40
1.0
 40
1.0
 10
-20.3627274124
 20
-15.8769575775
 30
0.0
 10
-20.3627274124
 20
-15.9276324127
 30
0.0
 10
-20.3550663504
 20
-16.0239814731
 30
0.0
 10
-20.3160208578
 20
-16.1563537871
 30
0.0
 10
-20.2503433188
 20
-16.2637707274
 30
0.0
 10
-20.1886240639
 20
-16.3156472745
 30
0.0
 10
-20.1556424246
 20
-16.3346903396
 30
0.0
  0
SPLINE
  5
259
100
AcDbEntity
  8
RACCORDO
100
AcDbSpline
 62
250
  6
CONTINUOUS
 70
0
 71
3
 72
11
 73
7
 74
0
 42
0.0000001
 43
0.0000001
 44
0.0000000001
 40
0.0
 40
0.0
 40
0.0
 40
0.0
 40
0.2897707934
 40
0.5490636898
 40
0.782223243
 40
1.0
 40
1.0
 40
1.0
 40
1.0
 10
-8.3419121322
 20
-22.8176256641
 30
0.0
 10
-8.3419121322
 20
-22.8682985085
 30
0.0
 10
-8.3342515382
 20
-22.964644021
 30
0.0
 10
-8.2952093769
 20
-23.0970122577
 30
0.0
 10
-8.2295368927
 20
-23.2044270789
 30
0.0
 10
-8.1678226223
 20
-23.2563050805
 30
0.0
 10
-8.1348431985
 20
-23.2753492262
 30
0.0
  0
SPLINE
  5
25A
100
AcDbEntity
  8
RACCORDO
100
AcDbSpline
 62
250
  6
CONTINUOUS
 70
0
 71
3
 72
11
 73
7
 74
0
 42
0.0000001
 43
0.0000001
 44
0.0000000001
 40
0.0
 40
0.0
 40
0.0
 40
0.0
 40
0.2372270142
 40
0.5000021289
 40
0.7627769855
 40
1.0
 40
1.0
 40
1.0
 40
1.0
 10
-8.3419121322
 20
-22.8176256641
 30
0.0
 10
-8.2415295974
 20
-22.8755852816
 30
0.0
 10
-8.0080776187
 20
-22.9601751528
 30
0.0
 10
-7.6348023183
 20
-23.0006950706
 30
0.0
 10
-7.2615290962
 20
-22.9601739509
 30
0.0
 10
-7.0280794122
 20
-22.8755843044
 30
0.0
 10
-6.9276985699
 20
-22.8176256641
 30
0.0
  0
SPLINE
  5
25B
100
AcDbEntity
  8
SMUSSO
100
AcDbSpline
 62
7
  6
CONTINUOUS
 70
0
 71
3
 72
11
 73
7
 74
0
 42
0.0000001
 43
0.0000001
 44
0.0000000001
 40
0.0
 40
0.0
 40
0.0
 40
0.0
 40
0.2897991883
 40
0.5490483492
 40
0.7822274639
 40
1.0
 40
1.0
 40
1.0
 40
1.0
 10
-17.8878536782
 20
-10.77407753
 30
0.0
 10
-17.887853677
 20
-10.6473775785
 30
0.0
 10
-17.8687204378
 20
-10.4065049754
 30
0.0
 10
-17.7710685133
 20
-10.0755856235
 30
0.0
 10
-17.6069214962
 20
-9.8070239215
 30
0.0
 10
-17.4526005116
 20
-9.6773418477
 30
0.0
 10
-17.370147126
 20
-9.6297353766
 30
0.0
  0
SPLINE
  5
25C
100
AcDbEntity
  8
SMUSSO
100
AcDbSpline
 62
7
  6
CONTINUOUS
 70
0
 71
3
 72
23
 73
19
 74
0
 42
0.0000001
 43
0.0000001
 44
0.0000000001
 40
0.0
 40
0.0
 40
0.0
 40
0.0
 40
0.0603789239
 40
0.1143894567
 40
0.1629707878
 40
0.2083417286
 40
0.2537137435
 40
0.3022966584
 40
0.3563119981
 40
0.4166927627
 40
0.4832809059
 40
0.5551286954
 40
0.6307551116
 40
0.7083496786
 40
0.7859434927
 40
0.8615694237
 40
0.933413313
 40
1.0
 40
1.0
 40
1.0
 40
1.0
 10
-14.3523197723
 20
-13.6319996833
 30
0.0
 10
-14.3523197706
 20
-13.8093934885
 30
0.0
 10
-14.3791281783
 20
-14.1466466432
 30
0.0
 10
-14.5157761135
 20
-14.6098971696
 30
0.0
 10
-14.7458960919
 20
-14.9860641575
 30
0.0
 10
-15.0653194341
 20
-15.2547011615
 30
0.0
 10
-15.4577045079
 20
-15.3969594172
 30
0.0
 10
-15.8985333895
 20
-15.4081461484
 30
0.0
 10
-16.3681589927
 20
-15.2947538593
 30
0.0
 10
-16.8510206397
 20
-15.0649518205
 30
0.0
 10
-17.3311495928
 20
-14.7283279141
 30
0.0
 10
-17.7917436622
 20
-14.2974423915
 30
0.0
 10
-18.2160370932
 20
-13.7882370883
 30
0.0
 10
-18.5882779507
 20
-13.2196691591
 30
0.0
 10
-18.8945517697
 20
-12.6130333721
 30
0.0
 10
-19.1233811841
 20
-11.9909454617
 30
0.0
 10
-19.2662376165
 20
-11.3768005233
 30
0.0
 10
-19.3020672437
 20
-10.9697097975
 30
0.0
 10
-19.3020672406
 20
-10.77407753
 30
0.0
  0
SPLINE
  5
25D
100
AcDbEntity
  8
SMUSSO
100
AcDbSpline
 62
7
  6
CONTINUOUS
 70
0
 71
3
 72
15
 73
11
 74
0
 42
0.0000001
 43
0.0000001
 44
0.0000000001
 40
0.0
 40
0.0
 40
0.0
 40
0.0
 40
0.1449027608
 40
0.2745230177
 40
0.391114149
 40
0.499999931
 40
0.6088862758
 40
0.7254758515
 40
0.8551004289
 40
1.0
 40
1.0
 40
1.0
 40
1.0
 10
-19.3020672406
 20
-10.77407753
 30
0.0
 10
-19.3020672423
 20
-10.5966940247
 30
0.0
 10
-19.2752618504
 20
-10.2594594603
 30
0.0
 10
-19.1386302874
 20
-9.7962312319
 30
0.0
 10
-18.9085392318
 20
-9.4200739715
 30
0.0
 10
-18.5891534425
 20
-9.1514305398
 30
0.0
 10
-18.1968170153
 20
-9.0091415667
 30
0.0
 10
-17.7560062479
 20
-8.9979253934
 30
0.0
 10
-17.286519673
 20
-9.1111996831
 30
0.0
 10
-16.9810528625
 20
-9.2565820663
 30
0.0
 10
-16.8274326848
 20
-9.345263314
 30
0.0
  0
SPLINE
  5
25E
100
AcDbEntity
  8
SMUSSO
100
AcDbSpline
 62
7
  6
CONTINUOUS
 70
0
 71
3
 72
23
 73
19
 74
0
 42
0.0000001
 43
0.0000001
 44
0.0000000001
 40
0.0
 40
0.0
 40
0.0
 40
0.0
 40
0.0603789239
 40
0.1143894567
 40
0.1629707878
 40
0.2083417286
 40
0.2537137435
 40
0.3022966584
 40
0.3563119981
 40
0.4166927627
 40
0.4832809059
 40
0.5551286954
 40
0.6307551116
 40
0.7083496786
 40
0.7859434927
 40
0.8615694237
 40
0.933413313
 40
1.0
 40
1.0
 40
1.0
 40
1.0
 10
-14.3523197723
 20
19.0268113884
 30
0.0
 10
-14.3523197706
 20
18.8494175832
 30
0.0
 10
-14.3791281783
 20
18.5121644285
 30
0.0
 10
-14.5157761135
 20
18.0489139022
 30
0.0
 10
-14.7458960919
 20
17.6727469142
 30
0.0
 10
-15.0653194341
 20
17.4041099102
 30
0.0
 10
-15.4577045079
 20
17.2618516545
 30
0.0
 10
-15.8985333895
 20
17.2506649233
 30
0.0
 10
-16.3681589927
 20
17.3640572124
 30
0.0
 10
-16.8510206397
 20
17.5938592513
 30
0.0
 10
-17.3311495928
 20
17.9304831576
 30
0.0
 10
-17.7917436622
 20
18.3613686802
 30
0.0
 10
-18.2160370932
 20
18.8705739834
 30
0.0
 10
-18.5882779507
 20
19.4391419126
 30
0.0
 10
-18.8945517697
 20
20.0457776996
 30
0.0
 10
-19.1233811841
 20
20.66786561
 30
0.0
 10
-19.2662376165
 20
21.2820105484
 30
0.0
 10
-19.3020672437
 20
21.6891012742
 30
0.0
 10
-19.3020672406
 20
21.8847335417
 30
0.0
  0
SPLINE
  5
25F
100
AcDbEntity
  8
SMUSSO
100
AcDbSpline
 62
7
  6
CONTINUOUS
 70
0
 71
3
 72
15
 73
11
 74
0
 42
0.0000001
 43
0.0000001
 44
0.0000000001
 40
0.0
 40
0.0
 40
0.0
 40
0.0
 40
0.1449027608
 40
0.2745230177
 40
0.391114149
 40
0.499999931
 40
0.6088862758
 40
0.7254758515
 40
0.8551004289
 40
1.0
 40
1.0
 40
1.0
 40
1.0
 10
-19.3020672406
 20
21.8847335417
 30
0.0
 10
-19.3020672423
 20
22.062117047
 30
0.0
 10
-19.2752618504
 20
22.3993516114
 30
0.0
 10
-19.1386302874
 20
22.8625798398
 30
0.0
 10
-18.9085392318
 20
23.2387371002
 30
0.0
 10
-18.5891534425
 20
23.5073805319
 30
0.0
 10
-18.1968170153
 20
23.649669505
 30
0.0
 10
-17.7560062479
 20
23.6608856783
 30
0.0
 10
-17.286519673
 20
23.5476113886
 30
0.0
 10
-16.9810528625
 20
23.4022290054
 30
0.0
 10
-16.8274326848
 20
23.3135477577
 30
0.0
  0
SPLINE
  5
260
100
AcDbEntity
  8
SMUSSO
100
AcDbSpline
 62
7
  6
CONTINUOUS
 70
0
 71
3
 72
23
 73
19
 74
0
 42
0.0000001
 43
0.0000001
 44
0.0000000001
 40
0.0
 40
0.0
 40
0.0
 40
0.0
 40
0.0603789239
 40
0.1143894567
 40
0.1629707878
 40
0.2083417286
 40
0.2537137435
 40
0.3022966584
 40
0.3563119981
 40
0.4166927627
 40
0.4832809059
 40
0.5551286954
 40
0.6307551116
 40
0.7083496786
 40
0.7859434927
 40
0.8615694237
 40
0.933413313
 40
1.0
 40
1.0
 40
1.0
 40
1.0
 10
9.689310788
 20
-27.5133358564
 30
0.0
 10
9.6893107898
 20
-27.6907296616
 30
0.0
 10
9.662502382
 20
-28.0279828163
 30
0.0
 10
9.5258544468
 20
-28.4912333427
 30
0.0
 10
9.2957344685
 20
-28.8674003307
 30
0.0
 10
8.9763111262
 20
-29.1360373347
 30
0.0
 10
8.5839260524
 20
-29.2782955903
 30
0.0
 10
8.1430971709
 20
-29.2894823216
 30
0.0
 10
7.6734715676
 20
-29.1760900325
 30
0.0
 10
7.1906099206
 20
-28.9462879936
 30
0.0
 10
6.7104809676
 20
-28.6096640873
 30
0.0
 10
6.2498868981
 20
-28.1787785647
 30
0.0
 10
5.8255934671
 20
-27.6695732614
 30
0.0
 10
5.4533526097
 20
-27.1010053323
 30
0.0
 10
5.1470787906
 20
-26.4943695453
 30
0.0
 10
4.9182493763
 20
-25.8722816349
 30
0.0
 10
4.7753929439
 20
-25.2581366965
 30
0.0
 10
4.7395633166
 20
-24.8510459707
 30
0.0
 10
4.7395633197
 20
-24.6554137031
 30
0.0
  0
SPLINE
  5
261
100
AcDbEntity
  8
SMUSSO
100
AcDbSpline
 62
7
  6
CONTINUOUS
 70
0
 71
3
 72
15
 73
11
 74
0
 42
0.0000001
 43
0.0000001
 44
0.0000000001
 40
0.0
 40
0.0
 40
0.0
 40
0.0
 40
0.1449027608
 40
0.2745230177
 40
0.391114149
 40
0.499999931
 40
0.6088862758
 40
0.7254758515
 40
0.8551004289
 40
1.0
 40
1.0
 40
1.0
 40
1.0
 10
4.7395633197
 20
-24.6554137031
 30
0.0
 10
4.739563318
 20
-24.4780301979
 30
0.0
 10
4.76636871
 20
-24.1407956334
 30
0.0
 10
4.9030002729
 20
-23.677567405
 30
0.0
 10
5.1330913286
 20
-23.3014101446
 30
0.0
 10
5.4524771178
 20
-23.032766713
 30
0.0
 10
5.844813545
 20
-22.8904777399
 30
0.0
 10
6.2856243124
 20
-22.8792615665
 30
0.0
 10
6.7551108874
 20
-22.9925358562
 30
0.0
 10
7.0605776978
 20
-23.1379182395
 30
0.0
 10
7.2141978756
 20
-23.2265994872
 30
0.0
  0
SPLINE
  5
262
100
AcDbEntity
  8
SMUSSO
100
AcDbSpline
 62
7
  6
CONTINUOUS
 70
0
 71
3
 72
23
 73
19
 74
0
 42
0.0000001
 43
0.0000001
 44
0.0000000001
 40
0.0
 40
0.0
 40
0.0
 40
0.0
 40
0.0603789239
 40
0.1143894567
 40
0.1629707878
 40
0.2083417286
 40
0.2537137435
 40
0.3022966584
 40
0.3563119981
 40
0.4166927627
 40
0.4832809059
 40
0.5551286954
 40
0.6307551116
 40
0.7083496786
 40
0.7859434927
 40
0.8615694237
 40
0.933413313
 40
1.0
 40
1.0
 40
1.0
 40
1.0
 10
9.689310788
 20
5.1454752153
 30
0.0
 10
9.6893107898
 20
4.9680814101
 30
0.0
 10
9.662502382
 20
4.6308282554
 30
0.0
 10
9.5258544468
 20
4.167577729
 30
0.0
 10
9.2957344685
 20
3.791410741
 30
0.0
 10
8.9763111262
 20
3.522773737
 30
0.0
 10
8.5839260524
 20
3.3805154814
 30
0.0
 10
8.1430971709
 20
3.3693287501
 30
0.0
 10
7.6734715676
 20
3.4827210393
 30
0.0
 10
7.1906099206
 20
3.7125230781
 30
0.0
 10
6.7104809676
 20
4.0491469845
 30
0.0
 10
6.2498868981
 20
4.480032507
 30
0.0
 10
5.8255934671
 20
4.9892378103
 30
0.0
 10
5.4533526097
 20
5.5578057394
 30
0.0
 10
5.1470787906
 20
6.1644415264
 30
0.0
 10
4.9182493763
 20
6.7865294368
 30
0.0
 10
4.7753929439
 20
7.4006743753
 30
0.0
 10
4.7395633166
 20
7.807765101
 30
0.0
 10
4.7395633197
 20
8.0033973686
 30
0.0
  0
SPLINE
  5
263
100
AcDbEntity
  8
SMUSSO
100
AcDbSpline
 62
7
  6
CONTINUOUS
 70
0
 71
3
 72
15
 73
11
 74
0
 42
0.0000001
 43
0.0000001
 44
0.0000000001
 40
0.0
 40
0.0
 40
0.0
 40
0.0
 40
0.1449027608
 40
0.2745230177
 40
0.391114149
 40
0.499999931
 40
0.6088862758
 40
0.7254758515
 40
0.8551004289
 40
1.0
 40
1.0
 40
1.0
 40
1.0
 10
4.7395633197
 20
8.0033973686
 30
0.0
 10
4.739563318
 20
8.1807808739
 30
0.0
 10
4.76636871
 20
8.5180154383
 30
0.0
 10
4.9030002729
 20
8.9812436667
 30
0.0
 10
5.1330913286
 20
9.3574009271
 30
0.0
 10
5.4524771178
 20
9.6260443587
 30
0.0
 10
5.844813545
 20
9.7683333318
 30
0.0
 10
6.2856243124
 20
9.7795495052
 30
0.0
 10
6.7551108874
 20
9.6662752155
 30
0.0
 10
7.0605776978
 20
9.5208928322
 30
0.0
 10
7.2141978756
 20
9.4322115845
 30
0.0
  0
SPLINE
  5
264
100
AcDbEntity
  8
RACCORDO
100
AcDbSpline
 62
250
  6
CONTINUOUS
 70
0
 71
3
 72
11
 73
7
 74
0
 42
0.0000001
 43
0.0000001
 44
0.0000000001
 40
0.0
 40
0.0
 40
0.0
 40
0.0
 40
0.2177769457
 40
0.4509357678
 40
0.7102276401
 40
1.0
 40
1.0
 40
1.0
 40
1.0
 10
-7.1347835269
 20
-23.2753584795
 30
0.0
 10
-7.1018019475
 20
-23.2563153355
 30
0.0
 10
-7.0400825817
 20
-23.2044389068
 30
0.0
 10
-6.9744051777
 20
-23.0970219007
 30
0.0
 10
-6.935359558
 20
-22.9646496201
 30
0.0
 10
-6.9276985698
 20
-22.8683005559
 30
0.0
 10
-6.9276985699
 20
-22.8176256641
 30
0.0
  0
SPLINE
  5
265
100
AcDbEntity
  8
SMUSSO
100
AcDbSpline
 62
7
  6
CONTINUOUS
 70
0
 71
3
 72
17
 73
13
 74
0
 42
0.0000001
 43
0.0000001
 44
0.0000000001
 40
0.0
 40
0.0
 40
0.0
 40
0.0
 40
0.0428591341
 40
0.0874878625
 40
0.1353207982
 40
0.1872850534
 40
0.3045517462
 40
0.4382236203
 40
0.5825723781
 40
0.729729221
 40
0.8713161827
 40
1.0
 40
1.0
 40
1.0
 40
1.0
 10
9.1716042357
 20
4.8176822485
 30
0.0
 10
9.109970737
 20
4.7820966463
 30
0.0
 10
8.9741058583
 20
4.7256288441
 30
0.0
 10
8.7498376358
 20
4.6927680458
 30
0.0
 10
8.5089908893
 20
4.7104728284
 30
0.0
 10
8.1590416296
 20
4.8035744353
 30
0.0
 10
7.7116867268
 20
5.0482025486
 30
0.0
 10
7.2174120585
 20
5.4859267865
 30
0.0
 10
6.7805343068
 20
6.0451661265
 30
0.0
 10
6.4366717949
 20
6.6806845527
 30
0.0
 10
6.2135677647
 20
7.3404107154
 30
0.0
 10
6.1537768855
 20
7.7897137329
 30
0.0
 10
6.1537768821
 20
8.0033973686
 30
0.0
  0
SPLINE
  5
266
100
AcDbEntity
  8
SMUSSO
100
AcDbSpline
 62
7
  6
CONTINUOUS
 70
0
 71
3
 72
17
 73
13
 74
0
 42
0.0000001
 43
0.0000001
 44
0.0000000001
 40
0.0
 40
0.0
 40
0.0
 40
0.0
 40
0.0428591341
 40
0.0874878625
 40
0.1353207982
 40
0.1872850534
 40
0.3045517462
 40
0.4382236203
 40
0.5825723781
 40
0.729729221
 40
0.8713161827
 40
1.0
 40
1.0
 40
1.0
 40
1.0
 10
-14.8700263246
 20
18.6990184217
 30
0.0
 10
-14.9316598233
 20
18.6634328195
 30
0.0
 10
-15.0675247021
 20
18.6069650173
 30
0.0
 10
-15.2917929245
 20
18.5741042189
 30
0.0
 10
-15.532639671
 20
18.5918090016
 30
0.0
 10
-15.8825889307
 20
18.6849106084
 30
0.0
 10
-16.3299438336
 20
18.9295387217
 30
0.0
 10
-16.8242185018
 20
19.3672629596
 30
0.0
 10
-17.2610962536
 20
19.9265022996
 30
0.0
 10
-17.6049587654
 20
20.5620207259
 30
0.0
 10
-17.8280627957
 20
21.2217468885
 30
0.0
 10
-17.8878536749
 20
21.6710499061
 30
0.0
 10
-17.8878536782
 20
21.8847335417
 30
0.0
  0
SPLINE
  5
267
100
AcDbEntity
  8
SMUSSO
100
AcDbSpline
 62
7
  6
CONTINUOUS
 70
0
 71
3
 72
11
 73
7
 74
0
 42
0.0000001
 43
0.0000001
 44
0.0000000001
 40
0.0
 40
0.0
 40
0.0
 40
0.0
 40
0.2897991883
 40
0.5490483492
 40
0.7822274639
 40
1.0
 40
1.0
 40
1.0
 40
1.0
 10
6.1537768821
 20
-24.6554137031
 30
0.0
 10
6.1537768833
 20
-24.5287137517
 30
0.0
 10
6.1729101226
 20
-24.2878411485
 30
0.0
 10
6.2705620471
 20
-23.9569217966
 30
0.0
 10
6.4347090641
 20
-23.6883600946
 30
0.0
 10
6.5890300488
 20
-23.5586780208
 30
0.0
 10
6.6714834344
 20
-23.5110715497
 30
0.0
  0
SPLINE
  5
268
100
AcDbEntity
  8
SMUSSO
100
AcDbSpline
 62
7
  6
CONTINUOUS
 70
0
 71
3
 72
11
 73
7
 74
0
 42
0.0000001
 43
0.0000001
 44
0.0000000001
 40
0.0
 40
0.0
 40
0.0
 40
0.0
 40
0.2897991883
 40
0.5490483492
 40
0.7822274639
 40
1.0
 40
1.0
 40
1.0
 40
1.0
 10
6.1537768821
 20
8.0033973686
 30
0.0
 10
6.1537768833
 20
8.1300973201
 30
0.0
 10
6.1729101226
 20
8.3709699232
 30
0.0
 10
6.2705620471
 20
8.7018892751
 30
0.0
 10
6.4347090641
 20
8.9704509771
 30
0.0
 10
6.5890300488
 20
9.1001330509
 30
0.0
 10
6.6714834344
 20
9.147739522
 30
0.0
  0
SPLINE
  5
269
100
AcDbEntity
  8
RACCORDO
100
AcDbSpline
 62
250
  6
CONTINUOUS
 70
0
 71
3
 72
11
 73
7
 74
0
 42
0.0000001
 43
0.0000001
 44
0.0000000001
 40
0.0
 40
0.0
 40
0.0
 40
0.0
 40
0.2897779252
 40
0.5490718067
 40
0.7822284051
 40
1.0
 40
1.0
 40
1.0
 40
1.0
 10
-0.5637375392
 20
18.4137682195
 30
0.0
 10
-0.6076299807
 20
18.4391111652
 30
0.0
 10
-0.6949144018
 20
18.4806601901
 30
0.0
 10
-0.8290954379
 20
18.5130394625
 30
0.0
 10
-0.9549781386
 20
18.509869516
 30
0.0
 10
-1.0307736629
 20
18.4823508749
 30
0.0
 10
-1.0637593634
 20
18.4633053515
 30
0.0
  0
SPLINE
  5
26A
100
AcDbEntity
  8
SMUSSO
100
AcDbSpline
 62
7
  6
CONTINUOUS
 70
0
 71
3
 72
17
 73
13
 74
0
 42
0.0000001
 43
0.0000001
 44
0.0000000001
 40
0.0
 40
0.0
 40
0.0
 40
0.0
 40
0.0428591341
 40
0.0874878625
 40
0.1353207982
 40
0.1872850534
 40
0.3045517462
 40
0.4382236203
 40
0.5825723781
 40
0.729729221
 40
0.8713161827
 40
1.0
 40
1.0
 40
1.0
 40
1.0
 10
9.1716042357
 20
-27.8411288232
 30
0.0
 10
9.109970737
 20
-27.8767144254
 30
0.0
 10
8.9741058583
 20
-27.9331822276
 30
0.0
 10
8.7498376358
 20
-27.966043026
 30
0.0
 10
8.5089908893
 20
-27.9483382433
 30
0.0
 10
8.1590416296
 20
-27.8552366364
 30
0.0
 10
7.7116867268
 20
-27.6106085231
 30
0.0
 10
7.2174120585
 20
-27.1728842852
 30
0.0
 10
6.7805343068
 20
-26.6136449452
 30
0.0
 10
6.4366717949
 20
-25.978126519
 30
0.0
 10
6.2135677647
 20
-25.3184003563
 30
0.0
 10
6.1537768855
 20
-24.8690973388
 30
0.0
 10
6.1537768821
 20
-24.6554137031
 30
0.0
  0
SPLINE
  5
26B
100
AcDbEntity
  8
RACCORDO
100
AcDbSpline
 62
250
  6
CONTINUOUS
 70
0
 71
3
 72
11
 73
7
 74
0
 42
0.0000001
 43
0.0000001
 44
0.0000000001
 40
0.0
 40
0.0
 40
0.0
 40
0.0
 40
0.2372200919
 40
0.4999938933
 40
0.7627710182
 40
1.0
 40
1.0
 40
1.0
 40
1.0
 10
12.1641845222
 20
10.2483552629
 30
0.0
 10
12.1641845223
 20
10.3642647512
 30
0.0
 10
12.1207097382
 20
10.608727913
 30
0.0
 10
11.9691623443
 20
10.952246734
 30
0.0
 10
11.747436962
 20
11.255253212
 30
0.0
 10
11.5574604474
 20
11.4151404166
 30
0.0
 10
11.457077741
 20
11.473100133
 30
0.0
  0
SPLINE
  5
26C
100
AcDbEntity
  8
RACCORDO
100
AcDbSpline
 62
250
  6
CONTINUOUS
 70
0
 71
3
 72
11
 73
7
 74
0
 42
0.0000001
 43
0.0000001
 44
0.0000000001
 40
0.0
 40
0.0
 40
0.0
 40
0.0
 40
0.2372270142
 40
0.5000021289
 40
0.7627769855
 40
1.0
 40
1.0
 40
1.0
 40
1.0
 10
10.7499709598
 20
10.2483552629
 30
0.0
 10
10.8503534946
 20
10.1903956453
 30
0.0
 10
11.0838054733
 20
10.1058057741
 30
0.0
 10
11.4570807738
 20
10.0652858564
 30
0.0
 10
11.8303539958
 20
10.1058069761
 30
0.0
 10
12.0638036798
 20
10.1903966225
 30
0.0
 10
12.1641845222
 20
10.2483552629
 30
0.0
  0
SPLINE
  5
26D
100
AcDbEntity
  8
RACCORDO
100
AcDbSpline
 62
250
  6
CONTINUOUS
 70
0
 71
3
 72
11
 73
7
 74
0
 42
0.0000001
 43
0.0000001
 44
0.0000000001
 40
0.0
 40
0.0
 40
0.0
 40
0.0
 40
0.2372211652
 40
0.4999960222
 40
0.7627739446
 40
1.0
 40
1.0
 40
1.0
 40
1.0
 10
10.7499709598
 20
10.2483552629
 30
0.0
 10
10.7499709598
 20
10.3642652738
 30
0.0
 10
10.79344612
 20
10.6087294696
 30
0.0
 10
10.944994591
 20
10.9522493969
 30
0.0
 10
11.1667203944
 20
11.2552549599
 30
0.0
 10
11.3566962746
 20
11.4151411323
 30
0.0
 10
11.457077741
 20
11.473100133
 30
0.0
  0
SPLINE
  5
26E
100
AcDbEntity
  8
RACCORDO
100
AcDbSpline
 62
250
  6
CONTINUOUS
 70
0
 71
3
 72
11
 73
7
 74
0
 42
0.0000001
 43
0.0000001
 44
0.0000000001
 40
0.0
 40
0.0
 40
0.0
 40
0.0
 40
0.2372219686
 40
0.4999976545
 40
0.7627764554
 40
1.0
 40
1.0
 40
1.0
 40
1.0
 10
-1.2708443204
 20
17.1890233494
 30
0.0
 10
-1.2708443204
 20
17.3049337545
 30
0.0
 10
-1.2273688827
 20
17.5493987496
 30
0.0
 10
-1.0758195811
 20
17.8929196698
 30
0.0
 10
-0.8540934375
 20
18.1959245767
 30
0.0
 10
-0.6641179445
 20
18.3558098316
 30
0.0
 10
-0.5637375392
 20
18.4137682195
 30
0.0
  0
SPLINE
  5
26F
100
AcDbEntity
  8
RACCORDO
100
AcDbSpline
 62
250
  6
CONTINUOUS
 70
0
 71
3
 72
11
 73
7
 74
0
 42
0.0000001
 43
0.0000001
 44
0.0000000001
 40
0.0
 40
0.0
 40
0.0
 40
0.0
 40
0.2897654036
 40
0.5490567221
 40
0.7822185431
 40
1.0
 40
1.0
 40
1.0
 40
1.0
 10
-1.2708443204
 20
17.1890233494
 30
0.0
 10
-1.3147327145
 20
17.2143639581
 30
0.0
 10
-1.3943481508
 20
17.2691803561
 30
0.0
 10
-1.4894693479
 20
17.3691930254
 30
0.0
 10
-1.5496612946
 20
17.4797927109
 30
0.0
 10
-1.563730782
 20
17.5591902653
 30
0.0
 10
-1.5637328053
 20
17.5972793398
 30
0.0
  0
SPLINE
  5
270
100
AcDbEntity
  8
RACCORDO
100
AcDbSpline
 62
250
  6
CONTINUOUS
 70
0
 71
3
 72
11
 73
7
 74
0
 42
0.0000001
 43
0.0000001
 44
0.0000000001
 40
0.0
 40
0.0
 40
0.0
 40
0.0
 40
0.2897654704
 40
0.5490570052
 40
0.7822187014
 40
1.0
 40
1.0
 40
1.0
 40
1.0
 10
-1.2708443204
 20
-26.9003715974
 30
0.0
 10
-1.3147331069
 20
-26.8750307621
 30
0.0
 10
-1.3943491747
 20
-26.8202137269
 30
0.0
 10
-1.4894711098
 20
-26.7201999509
 30
0.0
 10
-1.5496624295
 20
-26.6095986808
 30
0.0
 10
-1.5637314401
 20
-26.530200333
 30
0.0
 10
-1.5637328661
 20
-26.4921109543
 30
0.0
  0
SPLINE
  5
271
100
AcDbEntity
  8
RACCORDO
100
AcDbSpline
 62
250
  6
CONTINUOUS
 70
0
 71
3
 72
11
 73
7
 74
0
 42
0.0000001
 43
0.0000001
 44
0.0000000001
 40
0.0
 40
0.0
 40
0.0
 40
0.0
 40
0.2897720585
 40
0.5490643619
 40
0.7822229663
 40
1.0
 40
1.0
 40
1.0
 40
1.0
 10
-1.2708443204
 20
-26.9003715974
 30
0.0
 10
-1.2708443204
 20
-26.9510464326
 30
0.0
 10
-1.2631832584
 20
-27.047395493
 30
0.0
 10
-1.2241377658
 20
-27.1797678069
 30
0.0
 10
-1.1584602268
 20
-27.2871847473
 30
0.0
 10
-1.0967409719
 20
-27.3390612943
 30
0.0
 10
-1.0637593325
 20
-27.3581043594
 30
0.0
  0
SPLINE
  5
272
100
AcDbEntity
  8
RACCORDO
100
AcDbSpline
 62
250
  6
CONTINUOUS
 70
0
 71
3
 72
11
 73
7
 74
0
 42
0.0000001
 43
0.0000001
 44
0.0000000001
 40
0.0
 40
0.0
 40
0.0
 40
0.0
 40
0.2897707934
 40
0.5490636898
 40
0.782223243
 40
1.0
 40
1.0
 40
1.0
 40
1.0
 10
10.7499709598
 20
-33.841039684
 30
0.0
 10
10.7499709598
 20
-33.8917125283
 30
0.0
 10
10.7576315538
 20
-33.9880580408
 30
0.0
 10
10.7966737151
 20
-34.1204262776
 30
0.0
 10
10.8623461994
 20
-34.2278410988
 30
0.0
 10
10.9240604698
 20
-34.2797191004
 30
0.0
 10
10.9570398935
 20
-34.2987632461
 30
0.0
  0
SPLINE
  5
273
100
AcDbEntity
  8
RACCORDO
100
AcDbSpline
 62
250
  6
CONTINUOUS
 70
0
 71
3
 72
11
 73
7
 74
0
 42
0.0000001
 43
0.0000001
 44
0.0000000001
 40
0.0
 40
0.0
 40
0.0
 40
0.0
 40
0.2372270142
 40
0.5000021289
 40
0.7627769855
 40
1.0
 40
1.0
 40
1.0
 40
1.0
 10
10.7499709598
 20
-33.841039684
 30
0.0
 10
10.8503534946
 20
-33.8989993015
 30
0.0
 10
11.0838054733
 20
-33.9835891727
 30
0.0
 10
11.4570807738
 20
-34.0241090904
 30
0.0
 10
11.8303539958
 20
-33.9835879707
 30
0.0
 10
12.0638036798
 20
-33.8989983243
 30
0.0
 10
12.1641845222
 20
-33.841039684
 30
0.0
  0
SPLINE
  5
274
100
AcDbEntity
  8
SMUSSO
100
AcDbSpline
 62
7
  6
CONTINUOUS
 70
0
 71
3
 72
17
 73
13
 74
0
 42
0.0000001
 43
0.0000001
 44
0.0000000001
 40
0.0
 40
0.0
 40
0.0
 40
0.0
 40
0.0428591341
 40
0.0874878625
 40
0.1353207982
 40
0.1872850534
 40
0.3045517462
 40
0.4382236203
 40
0.5825723781
 40
0.729729221
 40
0.8713161827
 40
1.0
 40
1.0
 40
1.0
 40
1.0
 10
-14.8700263246
 20
-13.95979265
 30
0.0
 10
-14.9316598233
 20
-13.9953782522
 30
0.0
 10
-15.0675247021
 20
-14.0518460545
 30
0.0
 10
-15.2917929245
 20
-14.0847068528
 30
0.0
 10
-15.532639671
 20
-14.0670020701
 30
0.0
 10
-15.8825889307
 20
-13.9739004633
 30
0.0
 10
-16.3299438336
 20
-13.72927235
 30
0.0
 10
-16.8242185018
 20
-13.2915481121
 30
0.0
 10
-17.2610962536
 20
-12.7323087721
 30
0.0
 10
-17.6049587654
 20
-12.0967903458
 30
0.0
 10
-17.8280627957
 20
-11.4370641832
 30
0.0
 10
-17.8878536749
 20
-10.9877611656
 30
0.0
 10
-17.8878536782
 20
-10.77407753
 30
0.0
  0
SPLINE
  5
275
100
AcDbEntity
  8
SMUSSO
100
AcDbSpline
 62
7
  6
CONTINUOUS
 70
0
 71
3
 72
11
 73
7
 74
0
 42
0.0000001
 43
0.0000001
 44
0.0000000001
 40
0.0
 40
0.0
 40
0.0
 40
0.0
 40
0.2897991883
 40
0.5490483492
 40
0.7822274639
 40
1.0
 40
1.0
 40
1.0
 40
1.0
 10
-17.8878536782
 20
21.8847335417
 30
0.0
 10
-17.887853677
 20
22.0114334932
 30
0.0
 10
-17.8687204378
 20
22.2523060963
 30
0.0
 10
-17.7710685133
 20
22.5832254482
 30
0.0
 10
-17.6069214962
 20
22.8517871502
 30
0.0
 10
-17.4526005116
 20
22.981469224
 30
0.0
 10
-17.370147126
 20
23.0290756952
 30
0.0
  0
ENDSEC
  0
SECTION
  2
OBJECTS
  0
DICTIONARY
  5
C
100
AcDbDictionary
280
0
281
1
  3
ACAD_GROUP
350
D
  3
ACAD_MLINESTYLE
350
17
  3
ACAD_LAYOUT
350
1A
  3
ACAD_PLOTSETTINGS
350
19
  3
ACAD_PLOTSTYLENAME
350
E
  0
DICTIONARY
  5
D
102
{ACAD_REACTORS
330
C
102
}
100
AcDbDictionary
280
0
281
1
  0
ACDBDICTIONARYWDFLT
  5
E
102
{ACAD_REACTORS
330
C
102
}
100
AcDbDictionary
281
1
  3
Normal
350
F
100
AcDbDictionaryWithDefault
340
F
  0
DICTIONARY
  5
17
102
{ACAD_REACTORS
330
C
102
}
100
AcDbDictionary
280
0
281
1
  3
Standard
350
18
  0
DICTIONARY
  5
19
102
{ACAD_REACTORS
330
C
102
}
100
AcDbDictionary
281
1
  0
DICTIONARY
  5
1A
102
{ACAD_REACTORS
330
C
102
}
100
AcDbDictionary
281
1
  3
Model
350
276
  3
Layout1
350
277
  0
ACDBPLACEHOLDER
  5
F
102
{ACAD_REACTORS
330
E
102
}
  0
MLINESTYLE
  5
18
102
{ACAD_REACTORS
330
17
102
}
100
AcDbMlineStyle
  2
STANDARD
 70
0
  3

 62
256
 51
90.0
 52
90.0
 71
2
 49
0.5
 62
256
  6
BYLAYER
 49
-0.5
 62
256
  6
BYLAYER
  0
LAYOUT
  5
276
102
{ACAD_REACTORS
330
1A
102
}
100
AcDbPlotSettings
  1

  2
none_device
  4
ANSI_C_(22.00_x_17.00_Inches)
  6

 40
0.0
 41
0.0
 42
0.0
 43
0.0
 44
558.8
 45
431.8
 46
0.0
 47
0.0
 48
0.0
 49
0.0
140
0.0
141
0.0
142
1.0
143
1.0
 70
1024
 72
1
 73
0
 74
0
  7

 75
0
147
1.0
148
0.0
149
0.0
100
AcDbLayout
  1
Model
 70
0
 71
0
 10
0.0
 20
0.0
 11
558.8
 21
431.8
 12
0.0
 22
0.0
 32
0.0
 14
0.0
 24
0.0
 34
0.0
 15
0.0
 25
0.0
 35
0.0
146
0.0
 13
0.0
 23
0.0
 33
0.0
 16
1.0
 26
0.0
 36
0.0
 17
0.0
 27
1.0
 37
0.0
 76
0
330
20E
345
0
346
0
  0
LAYOUT
  5
277
102
{ACAD_REACTORS
330
1A
102
}
100
AcDbPlotSettings
  1

  2
none_device
  4
ANSI_C_(22.00_x_17.00_Inches)
  6

 40
0.0
 41
0.0
 42
0.0
 43
0.0
 44
558.8
 45
431.8
 46
0.0
 47
0.0
 48
0.0
 49
0.0
140
0.0
141
0.0
142
1.0
143
1.0
 70
0
 72
1
 73
0
 74
0
  7

 75
0
147
1.0
148
0.0
149
0.0
100
AcDbLayout
  1
Layout1
 70
0
 71
1
 10
0.0
 20
0.0
 11
558.8
 21
431.8
 12
0.0
 22
0.0
 32
0.0
 14
0.0
 24
0.0
 34
0.0
 15
0.0
 25
0.0
 35
0.0
146
0.0
 13
0.0
 23
0.0
 33
0.0
 16
1.0
 26
0.0
 36
0.0
 17
0.0
 27
1.0
 37
0.0
 76
0
330
20F
345
0
346
0
  0
ENDSEC
  0
EOF
