  0
SECTION
  2
HEADER
  9
$ACADVER
  1
AC1024
  9
$DWGCODEPAGE
  3
ANSI_1252
  9
$EXTMAX
 10
558.8
 20
431.8
 30
0.0
  9
$EXTMIN
 10
0.0
 20
0.0
 30
0.0
  9
$LIMMIN
 10
0.0
 20
0.0
  9
$LIMMAX
 10
558.8
 20
431.8
  9
$VIEWCTR
 10
279.4
 20
215.9
  9
$VIEWSIZE
 40
431.8
  9
$CLAYER
  8
0
  9
$LTSCALE
 40
30.734
  9
$CELTYPE
  6
BYLAYER
  9
$DIMSCALE
 40
1.0
  9
$DIMASZ
 40
3.0
  9
$DIMEXO
 40
0.5
  9
$DIMDLI
 40
21.2344
  9
$DIMEXE
 40
1.5
  9
$DIMCEN
 40
5.0292
  9
$DIMLFAC
 40
1.0
  9
$DIMBLK
  1
_FILLED
  9
$DIMALT
 70
0
  9
$DIMALTF
 40
0.0393700787
  9
$DIMTXT
 40
3.0
  9
$DIMTOL
 70
1
  9
$DIMLIM
 70
0
  9
$DIMTFAC
 40
1.0
  9
$DIMTP
 40
0.01
  9
$DIMTM
 40
0.01
  9
$DIMGAP
 40
0.625
  9
$DIMDSEP
 70
44
  9
$AUNITS
 70
0
  9
$PDMODE
 70
3
  9
$PDSIZE
 40
3.0
  9
$HANDSEED
  5
245
  9
$TILEMODE
 70
1
  9
$MEASUREMENT
 70
1
  9
$INSUNITS
 70
4
  0
ENDSEC
  0
SECTION
  2
CLASSES
  0
CLASS
  1
ACDBDICTIONARYWDFLT
  2
AcDbDictionaryWithDefault
  3
AutoCAD 2000
 90
0
 91
1
280
0
281
0
  0
CLASS
  1
ACDBPLACEHOLDER
  2
AcDbPlaceHolder
  3
AutoCAD 2000
 90
0
 91
1
280
0
281
0
  0
CLASS
  1
LAYOUT
  2
AcDbLayout
  3
AutoCAD 2000
 90
0
 91
0
280
0
281
0
  0
ENDSEC
  0
SECTION
  2
TABLES
  0
TABLE
  2
VPORT
  5
8
100
AcDbSymbolTable
 70
2
  0
VPORT
  5
1F4
100
AcDbSymbolTableRecord
100
AcDbViewportTableRecord
  2
*ACTIVE
 70
0
 10
0.0
 20
0.0
 11
1.0
 21
1.0
 12
279.4
 22
215.9
 13
0.0
 23
0.0
 14
1.0
 24
1.0
 15
0.0
 25
0.0
 16
0.0
 26
0.0
 36
1.0
 17
0.0
 27
0.0
 37
0.0
 40
431.8
 41
1.2941176471
 42
50.0
 43
0.0
 44
0.0
 50
0.0
 51
0.0
 71
0
 72
100
 73
1
 74
1
 75
0
 76
0
 77
0
 78
0
  0
ENDTAB
  0
TABLE
  2
LTYPE
  5
5
100
AcDbSymbolTable
 70
6
  0
LTYPE
  5
14
100
AcDbSymbolTableRecord
100
AcDbLinetypeTableRecord
  2
BYBLOCK
 70
0
  3

 72
65
 73
0
 40
0.0
  0
LTYPE
  5
15
100
AcDbSymbolTableRecord
100
AcDbLinetypeTableRecord
  2
BYLAYER
 70
0
  3

 72
65
 73
0
 40
0.0
  0
LTYPE
  5
16
100
AcDbSymbolTableRecord
100
AcDbLinetypeTableRecord
  2
CONTINUOUS
 70
64
  3
Solid line
 72
65
 73
0
 40
0.0
  0
LTYPE
  5
1F5
100
AcDbSymbolTableRecord
100
AcDbLinetypeTableRecord
  2
CENTER
 70
64
  3
____ _ ____ _ ____ _ ____ _ ____ _ ____ _ ____
 72
65
 73
4
 40
0.6
 49
0.375
 74
0
 49
-0.075
 74
0
 49
0.075
 74
0
 49
-0.075
 74
0
  0
LTYPE
  5
1F6
100
AcDbSymbolTableRecord
100
AcDbLinetypeTableRecord
  2
HIDDEN
 70
64
  3
- - - - - - - - - - - - - - - - - - - -
 72
65
 73
2
 40
0.2
 49
0.1
 74
0
 49
-0.1
 74
0
  0
LTYPE
  5
1F7
100
AcDbSymbolTableRecord
100
AcDbLinetypeTableRecord
  2
PHANTOM
 70
64
  3
_____ _ _ _____ _ _ _____ _ _ _____
 72
65
 73
6
 40
0.8
 49
0.45
 74
0
 49
-0.05
 74
0
 49
0.1
 74
0
 49
-0.05
 74
0
 49
0.1
 74
0
 49
-0.05
 74
0
  0
LTYPE
  5
1F8
100
AcDbSymbolTableRecord
100
AcDbLinetypeTableRecord
  2
DOT
 70
64
  3
. . . . . . . . . . . . . . . . . . . .
 72
65
 73
2
 40
0.2
 49
0.1
 74
0
 49
-0.1
 74
0
  0
LTYPE
  5
1F9
100
AcDbSymbolTableRecord
100
AcDbLinetypeTableRecord
  2
DASHED
 70
64
  3
- - - - - - - - - - - - - - - - - - - -
 72
65
 73
2
 40
0.2
 49
0.1
 74
0
 49
-0.1
 74
0
  0
ENDTAB
  0
TABLE
  2
LAYER
  5
2
100
AcDbSymbolTable
 70
36
  0
LAYER
  5
10
100
AcDbSymbolTableRecord
100
AcDbLayerTableRecord
  2
0
 70
0
 62
7
  6
CONTINUOUS
370
-3
390
F
  0
LAYER
  5
1FA
100
AcDbSymbolTableRecord
100
AcDbLayerTableRecord
  2
DEFAULT_1
 70
0
 62
7
  6
CENTER
370
-3
390
F
  0
LAYER
  5
1FB
100
AcDbSymbolTableRecord
100
AcDbLayerTableRecord
  2
DEFAULT_2
 70
0
 62
7
  6
HIDDEN
370
-3
390
F
  0
LAYER
  5
1FC
100
AcDbSymbolTableRecord
100
AcDbLayerTableRecord
  2
DEFAULT_3
 70
0
 62
7
  6
PHANTOM
370
-3
390
F
  0
LAYER
  5
1FD
100
AcDbSymbolTableRecord
100
AcDbLayerTableRecord
  2
ASSI
 70
0
 62
7
  6
CONTINUOUS
370
-3
390
F
  0
LAYER
  5
1FE
100
AcDbSymbolTableRecord
100
AcDbLayerTableRecord
  2
COORDINATE
 70
0
 62
7
  6
CONTINUOUS
370
-3
390
F
  0
LAYER
  5
1FF
100
AcDbSymbolTableRecord
100
AcDbLayerTableRecord
  2
COPY_PUBLISH
 70
0
 62
7
  6
CONTINUOUS
370
-3
390
F
  0
LAYER
  5
200
100
AcDbSymbolTableRecord
100
AcDbLayerTableRecord
  2
COSMETICI
 70
0
 62
7
  6
CONTINUOUS
370
-3
390
F
  0
LAYER
  5
201
100
AcDbSymbolTableRecord
100
AcDbLayerTableRecord
  2
CURVE
 70
0
 62
7
  6
CONTINUOUS
370
-3
390
F
  0
LAYER
  5
202
100
AcDbSymbolTableRecord
100
AcDbLayerTableRecord
  2
DRAFT
 70
0
 62
7
  6
CONTINUOUS
370
-3
390
F
  0
LAYER
  5
203
100
AcDbSymbolTableRecord
100
AcDbLayerTableRecord
  2
IMPORT_IGES
 70
0
 62
7
  6
CONTINUOUS
370
-3
390
F
  0
LAYER
  5
204
100
AcDbSymbolTableRecord
100
AcDbLayerTableRecord
  2
NOTE
 70
0
 62
7
  6
CONTINUOUS
370
-3
390
F
  0
LAYER
  5
205
100
AcDbSymbolTableRecord
100
AcDbLayerTableRecord
  2
PIANI
 70
0
 62
7
  6
CONTINUOUS
370
-3
390
F
  0
LAYER
  5
206
100
AcDbSymbolTableRecord
100
AcDbLayerTableRecord
  2
PUNTI
 70
0
 62
7
  6
CONTINUOUS
370
-3
390
F
  0
LAYER
  5
207
100
AcDbSymbolTableRecord
100
AcDbLayerTableRecord
  2
RACCORDO
 70
0
 62
7
  6
CONTINUOUS
370
-3
390
F
  0
LAYER
  5
208
100
AcDbSymbolTableRecord
100
AcDbLayerTableRecord
  2
SIMBOLI
 70
0
 62
7
  6
CONTINUOUS
370
-3
390
F
  0
LAYER
  5
209
100
AcDbSymbolTableRecord
100
AcDbLayerTableRecord
  2
SMUSSO
 70
0
 62
7
  6
CONTINUOUS
370
-3
390
F
  0
LAYER
  5
20A
100
AcDbSymbolTableRecord
100
AcDbLayerTableRecord
  2
SUPERFICI
 70
0
 62
7
  6
CONTINUOUS
370
-3
390
F
  0
LAYER
  5
20B
100
AcDbSymbolTableRecord
100
AcDbLayerTableRecord
  2
TRASH
 70
0
 62
7
  6
CONTINUOUS
370
-3
390
F
  0
ENDTAB
  0
TABLE
  2
STYLE
  5
3
100
AcDbSymbolTable
 70
1
  0
STYLE
  5
11
100
AcDbSymbolTableRecord
100
AcDbTextStyleTableRecord
  2
STANDARD
 70
0
 40
0.0
 41
0.8
 50
0.0
 71
0
 42
0.2
  3
txt
  4

  0
STYLE
  5
20C
100
AcDbSymbolTableRecord
100
AcDbTextStyleTableRecord
  2
TEXTSTYLE_1
 70
0
 40
0.0
 41
0.8
 50
0.0
 71
0
 42
0.2
  3
gdt
  4

  0
ENDTAB
  0
TABLE
  2
VIEW
  5
6
100
AcDbSymbolTable
 70
0
  0
ENDTAB
  0
TABLE
  2
UCS
  5
7
100
AcDbSymbolTable
 70
0
  0
ENDTAB
  0
TABLE
  2
APPID
  5
9
100
AcDbSymbolTable
 70
1
  0
APPID
  5
20D
100
AcDbSymbolTableRecord
100
AcDbRegAppTableRecord
  2
ACAD
 70
0
  0
ENDTAB
  0
TABLE
  2
BLOCK_RECORD
  5
1
100
AcDbSymbolTable
 70
0
  0
BLOCK_RECORD
  5
20E
100
AcDbSymbolTableRecord
100
AcDbBlockTableRecord
  2
*Model_Space
  0
BLOCK_RECORD
  5
20F
100
AcDbSymbolTableRecord
100
AcDbBlockTableRecord
  2
*Paper_Space
  0
BLOCK_RECORD
  5
210
100
AcDbSymbolTableRecord
100
AcDbBlockTableRecord
  2
_FILLED
  0
ENDTAB
  0
TABLE
  2
DIMSTYLE
  5
A
100
AcDbSymbolTable
 70
1
100
AcDbDimStyleTable
 71
0
  0
DIMSTYLE
105
211
100
AcDbSymbolTableRecord
100
AcDbDimStyleTableRecord
  2
STANDARD
 70
0
  3

  4

 40
1.0
 41
3.0
 42
0.5
 43
0.38
 44
1.5
 45
0.0
 46
0.0
 47
0.01
 48
0.01
140
3.0
141
0.09
142
0.0
143
25.4
144
1.0
145
0.0
146
1.0
147
0.625
 71
1
 72
0
 73
0
 74
0
 75
0
 76
0
 77
1
 78
8
 79
2
170
0
171
1
172
0
173
0
174
0
175
0
176
0
177
0
178
0
270
2
179
2
271
2
272
2
273
2
274
2
275
0
280
0
281
0
282
0
283
1
284
8
285
0
286
0
287
3
288
0
340
11
278
44
341
210
342
210
343
210
344
210
  0
ENDTAB
  0
ENDSEC
  0
SECTION
  2
BLOCKS
  0
BLOCK
  5
20
100
AcDbEntity
  8
0
100
AcDbBlockBegin
  2
*Model_Space
 70
0
 10
0.0
 20
0.0
 30
0.0
  3
*Model_Space
  1

  0
ENDBLK
  5
21
100
AcDbEntity
  8
0
100
AcDbBlockEnd
  0
BLOCK
  5
1C
100
AcDbEntity
  8
0
100
AcDbBlockBegin
  2
*Paper_Space
 70
0
 10
0.0
 20
0.0
 30
0.0
  3
*Paper_Space
  1

  0
ENDBLK
  5
1D
100
AcDbEntity
  8
0
100
AcDbBlockEnd
  0
BLOCK
  5
212
100
AcDbEntity
  8
0
100
AcDbBlockBegin
  2
_FILLED
 70
64
 10
0.0
 20
0.0
  3
_FILLED
  1

  0
SOLID
  5
213
100
AcDbEntity
  8
0
  6
BYBLOCK
 62
0
100
AcDbTrace
 10
0.0
 20
0.0
 11
-1.0
 21
0.1333333333
 12
-1.0
 22
-0.1333333333
 13
-1.0
 23
-0.1333333333
  0
ENDBLK
  5
214
100
AcDbEntity
  8
0
  6
BYBLOCK
 62
0
100
AcDbBlockEnd
  0
ENDSEC
  0
SECTION
  2
ENTITIES
  0
LINE
  5
215
100
AcDbEntity
  8
RACCORDO
100
AcDbLine
 62
7
  6
CONTINUOUS
 10
-7.5495992665
 20
26.2415473752
 11
-11.0851331724
 21
24.2001744085
  0
LINE
  5
216
100
AcDbEntity
  8
RACCORDO
100
AcDbLine
 62
250
  6
CONTINUOUS
 10
-6.5495509462
 20
26.1424650198
 11
-10.0850848521
 21
24.1010920532
  0
LINE
  5
217
100
AcDbEntity
  8
ASSI
100
AcDbLine
 62
7
  6
CONTINUOUS
 10
-12.9135119769
 20
17.5686985599
 11
-5.842444165
 21
21.6514444932
  0
LINE
  5
218
100
AcDbEntity
  8
ASSI
100
AcDbLine
 62
7
  6
CONTINUOUS
 10
-15.4031043368
 20
14.0983645166
 11
-15.4031043368
 21
-12.8451546175
  0
LINE
  5
219
100
AcDbEntity
  8
RACCORDO
100
AcDbLine
 62
7
  6
CONTINUOUS
 10
-11.4992984145
 20
23.2847006862
 11
-11.4992984145
 21
18.3852477466
  0
LINE
  5
21A
100
AcDbEntity
  8
ASSI
100
AcDbLine
 62
7
  6
CONTINUOUS
 10
6.1783711152
 20
14.7107764066
 11
-0.8926966967
 21
10.6280304733
  0
LINE
  5
21B
100
AcDbEntity
  8
RACCORDO
100
AcDbLine
 62
7
  6
CONTINUOUS
 10
10.4210118023
 20
-14.6823902875
 11
6.1783711152
 21
-12.2327427275
  0
LINE
  5
21C
100
AcDbEntity
  8
RACCORDO
100
AcDbLine
 62
250
  6
CONTINUOUS
 10
10.4210118023
 20
12.2611288467
 11
13.9565457082
 21
14.3025018133
  0
LINE
  5
21D
100
AcDbEntity
  8
ASSI
100
AcDbLine
 62
7
  6
CONTINUOUS
 10
-1.9891644123
 20
-16.8488149206
 11
-1.9891644123
 21
-25.0918142201
  0
LINE
  5
21E
100
AcDbEntity
  8
RACCORDO
100
AcDbLine
 62
250
  6
CONTINUOUS
 10
11.8352253646
 20
9.8116391064
 11
15.3707592706
 21
11.8530120731
  0
LINE
  5
21F
100
AcDbEntity
  8
ASSI
100
AcDbLine
 62
250
  6
CONTINUOUS
 10
-0.8926966967
 20
10.6280304733
 11
-0.8926966967
 21
-16.3154886608
  0
LINE
  5
220
100
AcDbEntity
  8
ASSI
100
AcDbLine
 62
250
  6
CONTINUOUS
 10
7.5925846775
 20
3.0759960525
 11
9.0066561787
 21
3.8924632148
  0
LINE
  5
221
100
AcDbEntity
  8
ASSI
100
AcDbLine
 62
7
  6
CONTINUOUS
 10
2.3250913624
 20
-14.4575781638
 11
2.3250913624
 21
-25.0918142201
  0
LINE
  5
222
100
AcDbEntity
  8
ASSI
100
AcDbLine
 62
7
  6
CONTINUOUS
 10
6.1783711152
 20
14.7107764066
 11
6.1783711152
 21
-12.2327427275
  0
LINE
  5
223
100
AcDbEntity
  8
ASSI
100
AcDbLine
 62
250
  6
CONTINUOUS
 10
7.5925846775
 20
-2.2310607467
 11
10.4210118023
 21
-0.5979623734
  0
LINE
  5
224
100
AcDbEntity
  8
ASSI
100
AcDbLine
 62
7
  6
CONTINUOUS
 10
7.5925846775
 20
3.0759960525
 11
7.5925846775
 21
-2.2310607467
  0
LINE
  5
225
100
AcDbEntity
  8
ASSI
100
AcDbLine
 62
7
  6
CONTINUOUS
 10
10.4210118023
 20
-3.86415912
 11
10.4210118023
 21
1.4428976792
  0
LINE
  5
226
100
AcDbEntity
  8
RACCORDO
100
AcDbLine
 62
7
  6
CONTINUOUS
 10
11.8352253646
 20
9.8116391064
 11
11.8352253646
 21
-13.8659989206
  0
LINE
  5
227
100
AcDbEntity
  8
ASSI
100
AcDbLine
 62
7
  6
CONTINUOUS
 10
6.1783711152
 20
-12.2327427275
 11
-0.8926966967
 21
-16.3154886608
  0
LINE
  5
228
100
AcDbEntity
  8
RACCORDO
100
AcDbLine
 62
7
  6
CONTINUOUS
 10
15.3707592706
 20
11.8530120731
 11
15.3707592706
 21
-11.8246259539
  0
LINE
  5
229
100
AcDbEntity
  8
RACCORDO
100
AcDbLine
 62
7
  6
CONTINUOUS
 10
10.4210118023
 20
12.2611288467
 11
6.1783711152
 21
14.7107764066
  0
LINE
  5
22A
100
AcDbEntity
  8
RACCORDO
100
AcDbLine
 62
7
  6
CONTINUOUS
 10
-5.842444165
 20
21.6514444932
 11
-10.0850848521
 21
24.1010920532
  0
LINE
  5
22B
100
AcDbEntity
  8
RACCORDO
100
AcDbLine
 62
250
  6
CONTINUOUS
 10
15.3707592706
 20
-11.8246259539
 11
11.8352253646
 21
-13.8659989206
  0
LINE
  5
22C
100
AcDbEntity
  8
RACCORDO
100
AcDbLine
 62
7
  6
CONTINUOUS
 10
14.9565940285
 20
-12.7400996762
 11
11.4210601226
 21
-14.7814726429
  0
LINE
  5
22D
100
AcDbEntity
  8
RACCORDO
100
AcDbLine
 62
7
  6
CONTINUOUS
 10
-6.5495509462
 20
26.1424650198
 11
13.9565457082
 21
14.3025018133
  0
SPLINE
  5
22E
100
AcDbEntity
  8
ASSI
100
AcDbSpline
 62
7
  6
CONTINUOUS
 70
0
 71
3
 72
17
 73
13
 74
0
 42
0.0000001
 43
0.0000001
 44
0.0000000001
 40
0.0
 40
0.0
 40
0.0
 40
0.0
 40
0.1286901665
 40
0.2702775869
 40
0.4174347753
 40
0.561781077
 40
0.6954504089
 40
0.812711328
 40
0.8646753584
 40
0.9125087275
 40
0.9571381745
 40
1.0
 40
1.0
 40
1.0
 40
1.0
 10
1.935730428
 20
17.1604239666
 30
0.0
 10
1.75066106
 20
17.0535672329
 30
0.0
 10
1.3316333476
 20
16.8806719898
 30
0.0
 10
0.6487002244
 20
16.7440234073
 30
0.0
 10
-0.0736359657
 20
16.7240465079
 30
0.0
 10
-0.7764028134
 20
16.8228323575
 30
0.0
 10
-1.4026324909
 20
17.0320348761
 30
0.0
 10
-1.8381181915
 20
17.2972333343
 30
0.0
 10
-2.0936993546
 20
17.5537748297
 30
0.0
 10
-2.2294326204
 20
17.7535365012
 30
0.0
 10
-2.31303951
 20
17.9642310279
 30
0.0
 10
-2.3320560692
 20
18.1101415851
 30
0.0
 10
-2.3320304522
 20
18.1813180114
 30
0.0
  0
SPLINE
  5
22F
100
AcDbEntity
  8
ASSI
100
AcDbSpline
 62
7
  6
CONTINUOUS
 70
0
 71
3
 72
11
 73
7
 74
0
 42
0.0000001
 43
0.0000001
 44
0.0000000001
 40
0.0
 40
0.0
 40
0.0
 40
0.0
 40
0.2177876107
 40
0.4509271595
 40
0.7102536904
 40
1.0
 40
1.0
 40
1.0
 40
1.0
 10
2.3250829607
 20
-25.091538955
 30
0.0
 10
2.3251289038
 20
-25.1737265691
 30
0.0
 10
2.2947977548
 20
-25.3450481887
 30
0.0
 10
2.1650004346
 20
-25.5837396259
 30
0.0
 10
1.9597542443
 20
-25.7995425933
 30
0.0
 10
1.7879755659
 20
-25.9178405643
 30
0.0
 10
1.6932832321
 20
-25.9725147311
 30
0.0
  0
SPLINE
  5
230
100
AcDbEntity
  8
ASSI
100
AcDbSpline
 62
7
  6
CONTINUOUS
 70
0
 71
3
 72
21
 73
17
 74
0
 42
0.0000001
 43
0.0000001
 44
0.0000000001
 40
0.0
 40
0.0
 40
0.0
 40
0.0
 40
0.0624062262
 40
0.1287803262
 40
0.1983990529
 40
0.2704070989
 40
0.4174439839
 40
0.5616744516
 40
0.630300926
 40
0.695416628
 40
0.7563912032
 40
0.8128541895
 40
0.8647788622
 40
0.9125761726
 40
0.9571719603
 40
1.0
 40
1.0
 40
1.0
 40
1.0
 10
-0.8926966967
 20
-16.3154886608
 30
0.0
 10
-1.1980644273
 20
-16.4918041613
 30
0.0
 10
-1.8525366531
 20
-16.8144957716
 30
0.0
 10
-2.9082227186
 20
-17.1970702916
 30
0.0
 10
-4.0491583679
 20
-17.4867138886
 30
0.0
 10
-5.6619084728
 20
-17.7423523452
 30
0.0
 10
-7.724007535
 20
-17.7990483456
 30
0.0
 10
-9.7490262776
 20
-17.5149868303
 30
0.0
 10
-11.2604257011
 20
-17.0795461579
 30
0.0
 10
-12.2829435463
 20
-16.6675470807
 30
0.0
 10
-13.1913375838
 20
-16.1734522872
 30
0.0
 10
-13.9666341466
 20
-15.6068979609
 30
0.0
 10
-14.5923081412
 20
-14.9785534988
 30
0.0
 10
-15.0539206671
 20
-14.299512774
 30
0.0
 10
-15.3383949622
 20
-13.5832206499
 30
0.0
 10
-15.4030828571
 20
-13.0871459335
 30
0.0
 10
-15.4030825572
 20
-12.8451546175
 30
0.0
  0
SPLINE
  5
231
100
AcDbEntity
  8
ASSI
100
AcDbSpline
 62
7
  6
CONTINUOUS
 70
0
 71
3
 72
11
 73
7
 74
0
 42
0.0000001
 43
0.0000001
 44
0.0000000001
 40
0.0
 40
0.0
 40
0.0
 40
0.0
 40
0.2177785388
 40
0.4509559516
 40
0.7102214471
 40
1.0
 40
1.0
 40
1.0
 40
1.0
 10
2.6679574023
 20
18.1809028884
 30
0.0
 10
2.6679231353
 20
18.0856925435
 30
0.0
 10
2.6327527742
 20
17.8872189692
 30
0.0
 10
2.4822295335
 20
17.6107880655
 30
0.0
 10
2.2444650838
 20
17.360781584
 30
0.0
 10
2.0454436484
 20
17.223771005
 30
0.0
 10
1.935730428
 20
17.1604239666
 30
0.0
  0
SPLINE
  5
232
100
AcDbEntity
  8
RACCORDO
100
AcDbSpline
 62
7
  6
CONTINUOUS
 70
0
 71
3
 72
11
 73
7
 74
0
 42
0.0000001
 43
0.0000001
 44
0.0000000001
 40
0.0
 40
0.0
 40
0.0
 40
0.0
 40
0.2897723666
 40
0.549064237
 40
0.7822230537
 40
1.0
 40
1.0
 40
1.0
 40
1.0
 10
15.3707592706
 20
-11.8246259539
 30
0.0
 10
15.3707592706
 20
-11.9259757621
 30
0.0
 10
15.3554372872
 20
-12.1186739353
 30
0.0
 10
15.2773460082
 20
-12.3834185498
 30
0.0
 10
15.145991132
 20
-12.5982525859
 30
0.0
 10
15.0225523405
 20
-12.7020054285
 30
0.0
 10
14.9565891537
 20
-12.7400917019
 30
0.0
  0
SPLINE
  5
233
100
AcDbEntity
  8
RACCORDO
100
AcDbSpline
 62
7
  6
CONTINUOUS
 70
0
 71
3
 72
11
 73
7
 74
0
 42
0.0000001
 43
0.0000001
 44
0.0000000001
 40
0.0
 40
0.0
 40
0.0
 40
0.0
 40
0.2372289818
 40
0.5000061067
 40
0.7627799081
 40
1.0
 40
1.0
 40
1.0
 40
1.0
 10
13.9565457082
 20
14.3025018133
 30
0.0
 10
14.1573111208
 20
14.1865823803
 30
0.0
 10
14.5372641504
 20
13.8668079715
 30
0.0
 10
14.9807149147
 20
13.2607950153
 30
0.0
 10
15.2838097028
 20
12.5737573735
 30
0.0
 10
15.3707592706
 20
12.0848310498
 30
0.0
 10
15.3707592706
 20
11.8530120731
 30
0.0
  0
SPLINE
  5
234
100
AcDbEntity
  8
ASSI
100
AcDbSpline
 62
7
  6
CONTINUOUS
 70
0
 71
3
 72
11
 73
7
 74
0
 42
0.0000001
 43
0.0000001
 44
0.0000000001
 40
0.0
 40
0.0
 40
0.0
 40
0.0
 40
0.2177777315
 40
0.4509363268
 40
0.7102279263
 40
1.0
 40
1.0
 40
1.0
 40
1.0
 10
10.0068406781
 20
-4.7796231233
 30
0.0
 10
10.0728043681
 20
-4.7415371974
 30
0.0
 10
10.1962455879
 20
-4.6377865903
 30
0.0
 10
10.3275980601
 20
-4.4229505882
 30
0.0
 10
10.4056901374
 20
-4.1582069193
 30
0.0
 10
10.4210118023
 20
-3.965508809
 30
0.0
 10
10.4210118023
 20
-3.86415912
 30
0.0
  0
SPLINE
  5
235
100
AcDbEntity
  8
RACCORDO
100
AcDbSpline
 62
7
  6
CONTINUOUS
 70
0
 71
3
 72
11
 73
7
 74
0
 42
0.0000001
 43
0.0000001
 44
0.0000000001
 40
0.0
 40
0.0
 40
0.0
 40
0.0
 40
0.2897779185
 40
0.5490718018
 40
0.7822284057
 40
1.0
 40
1.0
 40
1.0
 40
1.0
 10
10.4210118023
 20
-14.6823902875
 30
0.0
 10
10.508796664
 20
-14.7330761665
 30
0.0
 10
10.6833654639
 20
-14.8161742
 30
0.0
 10
10.95172747
 20
-14.8809327527
 30
0.0
 10
11.2034928166
 20
-14.8745929067
 30
0.0
 10
11.3550838483
 20
-14.8195556838
 30
0.0
 10
11.4210552478
 20
-14.7814646685
 30
0.0
  0
SPLINE
  5
236
100
AcDbEntity
  8
ASSI
100
AcDbSpline
 62
7
  6
CONTINUOUS
 70
0
 71
3
 72
17
 73
13
 74
0
 42
0.0000001
 43
0.0000001
 44
0.0000000001
 40
0.0
 40
0.0
 40
0.0
 40
0.0
 40
0.1286870395
 40
0.2702700582
 40
0.4174284093
 40
0.5617763598
 40
0.6954484777
 40
0.8127154582
 40
0.8646788244
 40
0.9125126636
 40
0.9571416788
 40
1.0
 40
1.0
 40
1.0
 40
1.0
 10
10.4210118023
 20
1.4428976792
 30
0.0
 10
10.4210118023
 20
1.6138486443
 30
0.0
 10
10.373185329
 20
1.9732918669
 30
0.0
 10
10.1946759651
 20
2.5010629106
 30
0.0
 10
9.9196185065
 20
3.0094889481
 30
0.0
 10
9.5700969922
 20
3.4568687892
 30
0.0
 10
9.1746827872
 20
3.8070476366
 30
0.0
 10
8.8168017079
 20
4.0027607394
 30
0.0
 10
8.5368388113
 20
4.0772248294
 30
0.0
 10
8.3441634796
 20
4.0914063823
 30
0.0
 10
8.1647459781
 20
4.065116282
 30
0.0
 10
8.056061542
 20
4.0199280624
 30
0.0
 10
8.0067558017
 20
3.9914600557
 30
0.0
  0
SPLINE
  5
237
100
AcDbEntity
  8
RACCORDO
100
AcDbSpline
 62
7
  6
CONTINUOUS
 70
0
 71
3
 72
11
 73
7
 74
0
 42
0.0000001
 43
0.0000001
 44
0.0000000001
 40
0.0
 40
0.0
 40
0.0
 40
0.0
 40
0.2177769463
 40
0.450935763
 40
0.7102276334
 40
1.0
 40
1.0
 40
1.0
 40
1.0
 10
-11.0851282976
 20
24.2001664342
 30
0.0
 10
-11.1510914844
 20
24.1620801608
 30
0.0
 10
-11.2745302759
 20
24.0583273182
 30
0.0
 10
-11.4058851521
 20
23.8434932821
 30
0.0
 10
-11.4839764311
 20
23.5787486676
 30
0.0
 10
-11.4992984145
 20
23.3860504944
 30
0.0
 10
-11.4992984145
 20
23.2847006862
 30
0.0
  0
SPLINE
  5
238
100
AcDbEntity
  8
RACCORDO
100
AcDbSpline
 62
7
  6
CONTINUOUS
 70
0
 71
3
 72
11
 73
7
 74
0
 42
0.0000001
 43
0.0000001
 44
0.0000000001
 40
0.0
 40
0.0
 40
0.0
 40
0.0
 40
0.2177715943
 40
0.4509281982
 40
0.7102220815
 40
1.0
 40
1.0
 40
1.0
 40
1.0
 10
-7.5495943917
 20
26.2415394008
 30
0.0
 10
-7.4836229922
 20
26.2796304161
 30
0.0
 10
-7.3320319606
 20
26.334667639
 30
0.0
 10
-7.080266614
 20
26.341007485
 30
0.0
 10
-6.8119046078
 20
26.2762489323
 30
0.0
 10
-6.6373358079
 20
26.1931508988
 30
0.0
 10
-6.5495509462
 20
26.1424650198
 30
0.0
  0
SPLINE
  5
239
100
AcDbEntity
  8
ASSI
100
AcDbSpline
 62
7
  6
CONTINUOUS
 70
0
 71
3
 72
13
 73
9
 74
0
 42
0.0000001
 43
0.0000001
 44
0.0000000001
 40
0.0
 40
0.0
 40
0.0
 40
0.0
 40
0.1080979743
 40
0.218234164
 40
0.3322626254
 40
0.4517161396
 40
0.7105952165
 40
1.0
 40
1.0
 40
1.0
 40
1.0
 10
-15.4030825572
 20
14.0983645166
 30
0.0
 10
-15.4030823577
 20
14.2592921998
 30
0.0
 10
-15.3751712722
 20
14.5848400249
 30
0.0
 10
-15.2504056904
 20
15.0656679583
 30
0.0
 10
-15.0445297337
 20
15.5361796656
 30
0.0
 10
-14.654973622
 20
16.1597179341
 30
0.0
 10
-13.96320679
 20
16.8877287679
 30
0.0
 10
-13.2866268359
 20
17.3532667165
 30
0.0
 10
-12.9135119769
 20
17.5686985599
 30
0.0
  0
SPLINE
  5
23A
100
AcDbEntity
  8
ASSI
100
AcDbSpline
 62
7
  6
CONTINUOUS
 70
0
 71
3
 72
17
 73
13
 74
0
 42
0.0000001
 43
0.0000001
 44
0.0000000001
 40
0.0
 40
0.0
 40
0.0
 40
0.0
 40
0.1286845479
 40
0.2702591681
 40
0.4174110234
 40
0.5617537146
 40
0.6954257016
 40
0.8126960382
 40
0.8646668586
 40
0.9125039186
 40
0.9571378441
 40
1.0
 40
1.0
 40
1.0
 40
1.0
 10
1.6932832321
 20
-25.9725147311
 30
0.0
 10
1.5336197535
 20
-26.0647024225
 30
0.0
 10
1.1721304434
 20
-26.2138752609
 30
0.0
 10
0.5829563664
 20
-26.3317593227
 30
0.0
 10
-0.0402109029
 20
-26.3490509402
 30
0.0
 10
-0.646529347
 20
-26.263888525
 30
0.0
 10
-1.1868511628
 20
-26.0834602105
 30
0.0
 10
-1.5626263198
 20
-25.8547189609
 30
0.0
 10
-1.7832444887
 20
-25.6334516489
 30
0.0
 10
-1.9003922209
 20
-25.4611164843
 30
0.0
 10
-1.9726875445
 20
-25.2793859136
 30
0.0
 10
-1.9891216829
 20
-25.1534981273
 30
0.0
 10
-1.9891560105
 20
-25.0920894852
 30
0.0
  0
SPLINE
  5
23B
100
AcDbEntity
  8
ASSI
100
AcDbSpline
 62
7
  6
CONTINUOUS
 70
0
 71
3
 72
17
 73
13
 74
0
 42
0.0000001
 43
0.0000001
 44
0.0000000001
 40
0.0
 40
0.0
 40
0.0
 40
0.0
 40
0.1286870395
 40
0.2702700582
 40
0.4174284093
 40
0.5617763598
 40
0.6954484777
 40
0.8127154582
 40
0.8646788244
 40
0.9125126636
 40
0.9571416788
 40
1.0
 40
1.0
 40
1.0
 40
1.0
 10
7.5925846775
 20
-2.2310607467
 30
0.0
 10
7.5925846775
 20
-2.4020117118
 30
0.0
 10
7.6404111508
 20
-2.7614549344
 30
0.0
 10
7.8189205147
 20
-3.2892259782
 30
0.0
 10
8.0939779733
 20
-3.7976520156
 30
0.0
 10
8.4434994876
 20
-4.2450318567
 30
0.0
 10
8.8389136926
 20
-4.5952107041
 30
0.0
 10
9.1967947719
 20
-4.790923807
 30
0.0
 10
9.4767576685
 20
-4.865387897
 30
0.0
 10
9.6694330001
 20
-4.8795694498
 30
0.0
 10
9.8488505017
 20
-4.8532793495
 30
0.0
 10
9.9575349378
 20
-4.80809113
 30
0.0
 10
10.0068406781
 20
-4.7796231233
 30
0.0
  0
SPLINE
  5
23C
100
AcDbEntity
  8
ASSI
100
AcDbSpline
 62
7
  6
CONTINUOUS
 70
0
 71
3
 72
11
 73
7
 74
0
 42
0.0000001
 43
0.0000001
 44
0.0000000001
 40
0.0
 40
0.0
 40
0.0
 40
0.0
 40
0.2177777315
 40
0.4509363268
 40
0.7102279263
 40
1.0
 40
1.0
 40
1.0
 40
1.0
 10
8.0067558017
 20
3.9914600557
 30
0.0
 10
7.9407921117
 20
3.9533741299
 30
0.0
 10
7.8173508919
 20
3.8496235227
 30
0.0
 10
7.6859984197
 20
3.6347875207
 30
0.0
 10
7.6079063424
 20
3.3700438518
 30
0.0
 10
7.5925846775
 20
3.1773457414
 30
0.0
 10
7.5925846775
 20
3.0759960525
 30
0.0
  0
SPLINE
  5
23D
100
AcDbEntity
  8
RACCORDO
100
AcDbSpline
 62
7
  6
CONTINUOUS
 70
0
 71
3
 72
11
 73
7
 74
0
 42
0.0000001
 43
0.0000001
 44
0.0000000001
 40
0.0
 40
0.0
 40
0.0
 40
0.0
 40
0.2897779185
 40
0.5490718018
 40
0.7822284057
 40
1.0
 40
1.0
 40
1.0
 40
1.0
 10
-10.0850848521
 20
24.1010920532
 30
0.0
 10
-10.1728697139
 20
24.1517779321
 30
0.0
 10
-10.3474385137
 20
24.2348759657
 30
0.0
 10
-10.6158005199
 20
24.2996345183
 30
0.0
 10
-10.8675658665
 20
24.2932946724
 30
0.0
 10
-11.0191568981
 20
24.2382574494
 30
0.0
 10
-11.0851282976
 20
24.2001664342
 30
0.0
  0
SPLINE
  5
23E
100
AcDbEntity
  8
ASSI
100
AcDbSpline
 62
7
  6
CONTINUOUS
 70
0
 71
3
 72
17
 73
13
 74
0
 42
0.0000001
 43
0.0000001
 44
0.0000000001
 40
0.0
 40
0.0
 40
0.0
 40
0.0
 40
0.1286901665
 40
0.2702775869
 40
0.4174347753
 40
0.561781077
 40
0.6954504089
 40
0.812711328
 40
0.8646753584
 40
0.9125087275
 40
0.9571381745
 40
1.0
 40
1.0
 40
1.0
 40
1.0
 10
-1.5998034779
 20
19.2017969332
 30
0.0
 10
-1.4147341098
 20
19.3086536669
 30
0.0
 10
-0.9957063974
 20
19.4815489101
 30
0.0
 10
-0.3127732743
 20
19.6181974926
 30
0.0
 10
0.4095629158
 20
19.6381743919
 30
0.0
 10
1.1123297635
 20
19.5393885423
 30
0.0
 10
1.738559441
 20
19.3301860238
 30
0.0
 10
2.1740451417
 20
19.0649875655
 30
0.0
 10
2.4296263048
 20
18.8084460701
 30
0.0
 10
2.5653595705
 20
18.6086843986
 30
0.0
 10
2.6489664601
 20
18.3979898719
 30
0.0
 10
2.6679830193
 20
18.2520793147
 30
0.0
 10
2.6679574023
 20
18.1809028884
 30
0.0
  0
SPLINE
  5
23F
100
AcDbEntity
  8
RACCORDO
100
AcDbSpline
 62
7
  6
CONTINUOUS
 70
0
 71
3
 72
11
 73
7
 74
0
 42
0.0000001
 43
0.0000001
 44
0.0000000001
 40
0.0
 40
0.0
 40
0.0
 40
0.0
 40
0.2177769463
 40
0.450935763
 40
0.7102276334
 40
1.0
 40
1.0
 40
1.0
 40
1.0
 10
11.4210552478
 20
-14.7814646685
 30
0.0
 10
11.4870184346
 20
-14.7433783952
 30
0.0
 10
11.610457226
 20
-14.6396255525
 30
0.0
 10
11.7418121022
 20
-14.4247915165
 30
0.0
 10
11.8199033812
 20
-14.1600469019
 30
0.0
 10
11.8352253646
 20
-13.9673487288
 30
0.0
 10
11.8352253646
 20
-13.8659989206
 30
0.0
  0
SPLINE
  5
240
100
AcDbEntity
  8
ASSI
100
AcDbSpline
 62
7
  6
CONTINUOUS
 70
0
 71
3
 72
21
 73
17
 74
0
 42
0.0000001
 43
0.0000001
 44
0.0000000001
 40
0.0
 40
0.0
 40
0.0
 40
0.0
 40
0.0624062262
 40
0.1287803262
 40
0.1983990529
 40
0.2704070989
 40
0.4174439839
 40
0.5616744516
 40
0.630300926
 40
0.695416628
 40
0.7563912032
 40
0.8128541895
 40
0.8647788622
 40
0.9125761726
 40
0.9571719603
 40
1.0
 40
1.0
 40
1.0
 40
1.0
 10
-0.8926966967
 20
10.6280304733
 30
0.0
 10
-1.1980644273
 20
10.4517149728
 30
0.0
 10
-1.8525366531
 20
10.1290233626
 30
0.0
 10
-2.9082227186
 20
9.7464488425
 30
0.0
 10
-4.0491583679
 20
9.4568052455
 30
0.0
 10
-5.6619084728
 20
9.201166789
 30
0.0
 10
-7.724007535
 20
9.1444707886
 30
0.0
 10
-9.7490262776
 20
9.4285323039
 30
0.0
 10
-11.2604257011
 20
9.8639729763
 30
0.0
 10
-12.2829435463
 20
10.2759720535
 30
0.0
 10
-13.1913375838
 20
10.770066847
 30
0.0
 10
-13.9666341466
 20
11.3366211733
 30
0.0
 10
-14.5923081412
 20
11.9649656354
 30
0.0
 10
-15.0539206671
 20
12.6440063602
 30
0.0
 10
-15.3383949622
 20
13.3602984842
 30
0.0
 10
-15.4030828571
 20
13.8563732006
 30
0.0
 10
-15.4030825572
 20
14.0983645166
 30
0.0
  0
SPLINE
  5
241
100
AcDbEntity
  8
ASSI
100
AcDbSpline
 62
7
  6
CONTINUOUS
 70
0
 71
3
 72
11
 73
7
 74
0
 42
0.0000001
 43
0.0000001
 44
0.0000000001
 40
0.0
 40
0.0
 40
0.0
 40
0.0
 40
0.2177785388
 40
0.4509559516
 40
0.7102214471
 40
1.0
 40
1.0
 40
1.0
 40
1.0
 10
-2.3320304522
 20
18.1813180114
 30
0.0
 10
-2.3319961852
 20
18.2765283564
 30
0.0
 10
-2.296825824
 20
18.4750019307
 30
0.0
 10
-2.1463025833
 20
18.7514328343
 30
0.0
 10
-1.9085381336
 20
19.0014393158
 30
0.0
 10
-1.7095166982
 20
19.1384498948
 30
0.0
 10
-1.5998034779
 20
19.2017969332
 30
0.0
  0
SPLINE
  5
242
100
AcDbEntity
  8
RACCORDO
100
AcDbSpline
 62
7
  6
CONTINUOUS
 70
0
 71
3
 72
11
 73
7
 74
0
 42
0.0000001
 43
0.0000001
 44
0.0000000001
 40
0.0
 40
0.0
 40
0.0
 40
0.0
 40
0.2372200919
 40
0.4999938933
 40
0.7627710182
 40
1.0
 40
1.0
 40
1.0
 40
1.0
 10
11.8352253646
 20
9.8116391064
 30
0.0
 10
11.8352253646
 20
10.0434580831
 30
0.0
 10
11.7482757969
 20
10.5323844068
 30
0.0
 10
11.4451810088
 20
11.2194220486
 30
0.0
 10
11.0017302444
 20
11.8254350049
 30
0.0
 10
10.6217772149
 20
12.1452094136
 30
0.0
 10
10.4210118023
 20
12.2611288467
 30
0.0
  0
ENDSEC
  0
SECTION
  2
OBJECTS
  0
DICTIONARY
  5
C
100
AcDbDictionary
280
0
281
1
  3
ACAD_GROUP
350
D
  3
ACAD_MLINESTYLE
350
17
  3
ACAD_LAYOUT
350
1A
  3
ACAD_PLOTSETTINGS
350
19
  3
ACAD_PLOTSTYLENAME
350
E
  0
DICTIONARY
  5
D
102
{ACAD_REACTORS
330
C
102
}
100
AcDbDictionary
280
0
281
1
  0
ACDBDICTIONARYWDFLT
  5
E
102
{ACAD_REACTORS
330
C
102
}
100
AcDbDictionary
281
1
  3
Normal
350
F
100
AcDbDictionaryWithDefault
340
F
  0
DICTIONARY
  5
17
102
{ACAD_REACTORS
330
C
102
}
100
AcDbDictionary
280
0
281
1
  3
Standard
350
18
  0
DICTIONARY
  5
19
102
{ACAD_REACTORS
330
C
102
}
100
AcDbDictionary
281
1
  0
DICTIONARY
  5
1A
102
{ACAD_REACTORS
330
C
102
}
100
AcDbDictionary
281
1
  3
Model
350
243
  3
Layout1
350
244
  0
ACDBPLACEHOLDER
  5
F
102
{ACAD_REACTORS
330
E
102
}
  0
MLINESTYLE
  5
18
102
{ACAD_REACTORS
330
17
102
}
100
AcDbMlineStyle
  2
STANDARD
 70
0
  3

 62
256
 51
90.0
 52
90.0
 71
2
 49
0.5
 62
256
  6
BYLAYER
 49
-0.5
 62
256
  6
BYLAYER
  0
LAYOUT
  5
243
102
{ACAD_REACTORS
330
1A
102
}
100
AcDbPlotSettings
  1

  2
none_device
  4
ANSI_C_(22.00_x_17.00_Inches)
  6

 40
0.0
 41
0.0
 42
0.0
 43
0.0
 44
558.8
 45
431.8
 46
0.0
 47
0.0
 48
0.0
 49
0.0
140
0.0
141
0.0
142
1.0
143
1.0
 70
1024
 72
1
 73
0
 74
0
  7

 75
0
147
1.0
148
0.0
149
0.0
100
AcDbLayout
  1
Model
 70
0
 71
0
 10
0.0
 20
0.0
 11
558.8
 21
431.8
 12
0.0
 22
0.0
 32
0.0
 14
0.0
 24
0.0
 34
0.0
 15
0.0
 25
0.0
 35
0.0
146
0.0
 13
0.0
 23
0.0
 33
0.0
 16
1.0
 26
0.0
 36
0.0
 17
0.0
 27
1.0
 37
0.0
 76
0
330
20E
345
0
346
0
  0
LAYOUT
  5
244
102
{ACAD_REACTORS
330
1A
102
}
100
AcDbPlotSettings
  1

  2
none_device
  4
ANSI_C_(22.00_x_17.00_Inches)
  6

 40
0.0
 41
0.0
 42
0.0
 43
0.0
 44
558.8
 45
431.8
 46
0.0
 47
0.0
 48
0.0
 49
0.0
140
0.0
141
0.0
142
1.0
143
1.0
 70
0
 72
1
 73
0
 74
0
  7

 75
0
147
1.0
148
0.0
149
0.0
100
AcDbLayout
  1
Layout1
 70
0
 71
1
 10
0.0
 20
0.0
 11
558.8
 21
431.8
 12
0.0
 22
0.0
 32
0.0
 14
0.0
 24
0.0
 34
0.0
 15
0.0
 25
0.0
 35
0.0
146
0.0
 13
0.0
 23
0.0
 33
0.0
 16
1.0
 26
0.0
 36
0.0
 17
0.0
 27
1.0
 37
0.0
 76
0
330
20F
345
0
346
0
  0
ENDSEC
  0
EOF
