0
SECTION
2
HEADER
9
$ACADVER
1
AC1015
9
$DWGCODEPAGE
3
ANSI_1252
9
$EXTMAX
10
297.0000000000
20
210.0000000000
30
0.0000000000
9
$EXTMIN
10
0.0000000000
20
0.0000000000
30
0.0000000000
9
$LIMMIN
10
0.0000000000
20
0.0000000000
9
$LIMMAX
10
297.0000000000
20
210.0000000000
9
$VIEWCTR
10
148.5000000000
20
105.0000000000
9
$VIEWSIZE
40
210.0000000000
9
$CLAYER
8
0
9
$LTSCALE
40
16.3350000000
9
$CELTYPE
6
BYLAYER
9
$DIMSCALE
40
1
9
$DIMASZ
40
3.0000000000
9
$DIMEXO
40
1.8562500000
9
$DIMDLI
40
11.2860000000
9
$DIMEXE
40
5.3460000000
9
$DIMCEN
40
2.6730000000
9
$DIMLFAC
40
1.0000000000
9
$DIMBLK
1
_FILLED
9
$DIMTXT
40
3.0000000000
9
$DIMTOL
70
1
9
$DIMLIM
70
0
9
$DIMTFAC
40
1.0000000000
9
$DIMTP
40
0.0100000000
9
$DIMTM
40
0.0100000000
9
$PDMODE
70
3
9
$PDSIZE
40
3.0000000000
9
$HANDSEED
5
341
9
$MEASUREMENT
70
1
9
$INSUNITS
70
4
0
ENDSEC
0
SECTION
2
CLASSES
0
CLASS
1
ACDBDICTIONARYWDFLT
2
AcDbDictionaryWithDefault
3
AutoCAD 2000
90
0
280
0
281
0
0
CLASS
1
ACDBPLACEHOLDER
2
AcDbPlaceHolder
3
AutoCAD 2000
90
0
280
0
281
0
0
CLASS
1
LAYOUT
2
AcDbLayout
3
AutoCAD 2000
90
0
280
0
281
0
0
ENDSEC
0
SECTION
2
TABLES
0
TABLE
2
VPORT
5
8
100
AcDbSymbolTable
70
2
0
VPORT
5
1F4
100
AcDbSymbolTableRecord
100
AcDbViewportTableRecord
2
*ACTIVE
70
0
10
0.0
20
0.0
11
1.0
21
1.0
12
148.5000000000
22
105.0000000000
13
0.0
23
0.0
14
1.0
24
1.0
15
0.0
25
0.0
16
0.0
26
0.0
36
1.0
17
0.0
27
0.0
37
0.0
40
210.0000000000
41
1.4142857143
42
50.0
43
0.0
44
0.0
50
0.0
51
0.0
71
0
72
100
73
1
74
1
75
0
76
0
77
0
78
0
0
ENDTAB
0
TABLE
2
LTYPE
5
5
100
AcDbSymbolTable
70
6
0
LTYPE
5
14
100
AcDbSymbolTableRecord
100
AcDbLinetypeTableRecord
2
BYBLOCK
70
0
3

72
65
73
0
40
0.0
0
LTYPE
5
15
100
AcDbSymbolTableRecord
100
AcDbLinetypeTableRecord
2
BYLAYER
70
0
3

72
65
73
0
40
0.0
0
LTYPE
5
16
100
AcDbSymbolTableRecord
100
AcDbLinetypeTableRecord
2
CONTINUOUS
70
64
3
Solid line
72
65
73
0
40
0
0
LTYPE
5
1F5
100
AcDbSymbolTableRecord
100
AcDbLinetypeTableRecord
2
CENTER
70
64
3
____ _ ____ _ ____ _ ____ _ ____ _ ____ _ ____
72
65
73
4
40
0.6
49
0.375
74
0
49
-0.075
74
0
49
0.075
74
0
49
-0.075
74
0
0
LTYPE
5
1F6
100
AcDbSymbolTableRecord
100
AcDbLinetypeTableRecord
2
HIDDEN
70
64
3
- - - - - - - - - - - - - - - - - - - -
72
65
73
2
40
0.2
49
0.1
74
0
49
-0.1
74
0
0
LTYPE
5
1F7
100
AcDbSymbolTableRecord
100
AcDbLinetypeTableRecord
2
PHANTOM
70
64
3
_____ _ _ _____ _ _ _____ _ _ _____
72
65
73
6
40
0.8
49
0.45
74
0
49
-0.05
74
0
49
0.1
74
0
49
-0.05
74
0
49
0.1
74
0
49
-0.05
74
0
0
LTYPE
5
1F8
100
AcDbSymbolTableRecord
100
AcDbLinetypeTableRecord
2
DOT
70
64
3
. . . . . . . . . . . . . . . . . . . .
72
65
73
2
40
0.2
49
0.1
74
0
49
-0.1
74
0
0
LTYPE
5
1F9
100
AcDbSymbolTableRecord
100
AcDbLinetypeTableRecord
2
DASHED
70
64
3
- - - - - - - - - - - - - - - - - - - -
72
65
73
2
40
0.2
49
0.1
74
0
49
-0.1
74
0
0
ENDTAB
0
TABLE
2
LAYER
5
2
100
AcDbSymbolTable
70
36
0
LAYER
5
10
100
AcDbSymbolTableRecord
100
AcDbLayerTableRecord
2
0
70
0
62
7
6
CONTINUOUS
370
-3
390
F
0
LAYER
5
1FA
100
AcDbSymbolTableRecord
100
AcDbLayerTableRecord
2
DEFAULT_1
70
0
62
7
6
CENTER
370
-3
390
F
0
LAYER
5
1FB
100
AcDbSymbolTableRecord
100
AcDbLayerTableRecord
2
DEFAULT_2
70
0
62
0
6
HIDDEN
370
-3
390
F
0
LAYER
5
1FC
100
AcDbSymbolTableRecord
100
AcDbLayerTableRecord
2
DEFAULT_3
70
0
62
7
6
PHANTOM
370
-3
390
F
0
LAYER
5
1FD
100
AcDbSymbolTableRecord
100
AcDbLayerTableRecord
2
_BLACK_HOLE
70
0
62
7
6
CONTINUOUS
370
-3
390
F
0
LAYER
5
1FE
100
AcDbSymbolTableRecord
100
AcDbLayerTableRecord
2
ASSI
70
0
62
7
6
CONTINUOUS
370
-3
390
F
0
LAYER
5
1FF
100
AcDbSymbolTableRecord
100
AcDbLayerTableRecord
2
COORDINATE
70
0
62
7
6
CONTINUOUS
370
-3
390
F
0
LAYER
5
200
100
AcDbSymbolTableRecord
100
AcDbLayerTableRecord
2
COORD_ORIGINE
70
0
62
7
6
CONTINUOUS
370
-3
390
F
0
LAYER
5
201
100
AcDbSymbolTableRecord
100
AcDbLayerTableRecord
2
COPY-PUBBLISH
70
0
62
7
6
CONTINUOUS
370
-3
390
F
0
LAYER
5
202
100
AcDbSymbolTableRecord
100
AcDbLayerTableRecord
2
COPY_PUBLISH
70
0
62
7
6
CONTINUOUS
370
-3
390
F
0
LAYER
5
203
100
AcDbSymbolTableRecord
100
AcDbLayerTableRecord
2
COSMETIC
70
0
62
7
6
CONTINUOUS
370
-3
390
F
0
LAYER
5
204
100
AcDbSymbolTableRecord
100
AcDbLayerTableRecord
2
CURVE
70
0
62
7
6
CONTINUOUS
370
-3
390
F
0
LAYER
5
205
100
AcDbSymbolTableRecord
100
AcDbLayerTableRecord
2
CURVE_INCISIONI
70
0
62
7
6
CONTINUOUS
370
-3
390
F
0
LAYER
5
206
100
AcDbSymbolTableRecord
100
AcDbLayerTableRecord
2
DRAFT
70
0
62
7
6
CONTINUOUS
370
-3
390
F
0
LAYER
5
207
100
AcDbSymbolTableRecord
100
AcDbLayerTableRecord
2
IGES
70
0
62
7
6
CONTINUOUS
370
-3
390
F
0
LAYER
5
208
100
AcDbSymbolTableRecord
100
AcDbLayerTableRecord
2
IMPORT_IGES
70
0
62
7
6
CONTINUOUS
370
-3
390
F
0
LAYER
5
209
100
AcDbSymbolTableRecord
100
AcDbLayerTableRecord
2
INTF_CYAN
70
0
62
7
6
CONTINUOUS
370
-3
390
F
0
LAYER
5
20A
100
AcDbSymbolTableRecord
100
AcDbLayerTableRecord
2
PIANI
70
0
62
7
6
CONTINUOUS
370
-3
390
F
0
LAYER
5
20B
100
AcDbSymbolTableRecord
100
AcDbLayerTableRecord
2
PIANI_ORIGINE
70
0
62
7
6
CONTINUOUS
370
-3
390
F
0
LAYER
5
20C
100
AcDbSymbolTableRecord
100
AcDbLayerTableRecord
2
PUNTI
70
0
62
7
6
CONTINUOUS
370
-3
390
F
0
LAYER
5
20D
100
AcDbSymbolTableRecord
100
AcDbLayerTableRecord
2
RACCORDO
70
0
62
7
6
CONTINUOUS
370
-3
390
F
0
LAYER
5
20E
100
AcDbSymbolTableRecord
100
AcDbLayerTableRecord
2
SMUSSO
70
0
62
7
6
CONTINUOUS
370
-3
390
F
0
LAYER
5
20F
100
AcDbSymbolTableRecord
100
AcDbLayerTableRecord
2
SNAPLINE
70
0
62
7
6
CONTINUOUS
370
-3
390
F
0
LAYER
5
210
100
AcDbSymbolTableRecord
100
AcDbLayerTableRecord
2
TRASH
70
0
62
7
6
CONTINUOUS
370
-3
390
F
0
LAYER
5
211
100
AcDbSymbolTableRecord
100
AcDbLayerTableRecord
2
XSEC_DATUMS
70
0
62
7
6
CONTINUOUS
370
-3
390
F
0
ENDTAB
0
TABLE
2
STYLE
5
3
100
AcDbSymbolTable
70
1
0
STYLE
5
11
100
AcDbSymbolTableRecord
100
AcDbTextStyleTableRecord
2
STANDARD
70
0
40
0.0
41
0.8000000000
50
0.0
71
0
42
0.2
3
txt
4

0
ENDTAB
0
TABLE
2
VIEW
5
6
100
AcDbSymbolTable
70
0
0
ENDTAB
0
TABLE
2
UCS
5
7
100
AcDbSymbolTable
70
0
0
ENDTAB
0
TABLE
2
APPID
5
9
100
AcDbSymbolTable
70
1
0
APPID
5
212
100
AcDbSymbolTableRecord
100
AcDbRegAppTableRecord
2
ACAD
70
0
0
ENDTAB
0
TABLE
2
BLOCK_RECORD
5
1
100
AcDbSymbolTable
70
0
0
BLOCK_RECORD
5
1F
100
AcDbSymbolTableRecord
100
AcDbBlockTableRecord
2
*MODEL_SPACE
0
BLOCK_RECORD
5
1B
100
AcDbSymbolTableRecord
100
AcDbBlockTableRecord
2
*PAPER_SPACE
0
ENDTAB
0
TABLE
2
DIMSTYLE
5
A
100
AcDbSymbolTable
70
1
100
AcDbDimStyleTable
71
0
0
DIMSTYLE
105
213
100
AcDbSymbolTableRecord
100
AcDbDimStyleTableRecord
2
STANDARD
70
0
3

4

40
1.0
41
3.0000000000
42
0.0625
43
0.38
44
0.18
45
0.0
46
0.0
47
0.0100000000
48
0.0100000000
140
3.0000000000
141
0.09
142
0.0
143
25.4
144
1.0000000000
145
0.0
146
1.0000000000
147
0.09
71
1
72
0
73
0
74
0
75
0
76
0
77
1
78
8
170
0
171
2
172
0
173
0
174
0
175
0
176
0
177
0
178
0
270
2
271
2
272
2
273
2
274
2
275
0
280
0
281
0
282
0
283
1
284
8
285
0
286
0
287
3
288
0
340
11
0
ENDTAB
0
ENDSEC
0
SECTION
2
BLOCKS
0
BLOCK
5
20
100
AcDbEntity
8
0
100
AcDbBlockBegin
2
*MODEL_SPACE
70
0
10
0.0
20
0.0
30
0.0
3
*MODEL_SPACE
1

0
ENDBLK
5
21
100
AcDbEntity
8
0
100
AcDbBlockEnd
0
BLOCK
5
1C
100
AcDbEntity
8
0
100
AcDbBlockBegin
2
*PAPER_SPACE
70
0
10
0.0
20
0.0
30
0.0
3
*PAPER_SPACE
1

0
ENDBLK
5
1D
100
AcDbEntity
8
0
100
AcDbBlockEnd
0
ENDSEC
0
SECTION
2
ENTITIES
0
LWPOLYLINE
5
214
100
AcDbEntity
8
0
100
AcDbPolyline
62
0
6
CONTINUOUS
90
5
70
0
10
5.6309369505
20
-36.1176711220
10
5.9648574706
20
-36.1469441442
10
6.3001294586
20
-36.1460150025
10
6.6298342133
20
-36.1142166773
10
6.9472183853
20
-36.0504900454
0
LWPOLYLINE
5
215
100
AcDbEntity
8
0
100
AcDbPolyline
62
0
6
CONTINUOUS
90
4
70
0
10
-18.3486005357
20
28.2178312541
10
-18.4428613522
20
28.1426761382
10
-18.5440793824
20
28.0467697595
10
-18.6313005021
20
27.9455948060
0
LINE
5
216
100
AcDbEntity
8
0
100
AcDbLine
62
0
6
CONTINUOUS
10
-18.3488959486
20
28.2180335209
11
-11.9985139263
21
32.9099182337
0
LINE
5
217
100
AcDbEntity
8
0
100
AcDbLine
62
0
6
CONTINUOUS
10
-18.0685976998
20
28.2382850303
11
-11.7239867477
21
32.9259058743
0
LINE
5
218
100
AcDbEntity
8
0
100
AcDbLine
62
0
6
CONTINUOUS
10
-11.7921120261
20
33.0595507737
11
-7.9156554381
21
35.1999219202
0
LINE
5
219
100
AcDbEntity
8
0
100
AcDbLine
62
0
6
CONTINUOUS
10
-11.5427278887
20
33.0592857873
11
-7.6683660225
21
35.1985003408
0
LINE
5
21A
100
AcDbEntity
8
0
100
AcDbLine
62
0
6
CONTINUOUS
10
5.3064799193
20
-36.0580679538
11
5.6309369505
21
-36.1176711220
0
LINE
5
21B
100
AcDbEntity
8
0
100
AcDbLine
62
0
6
CONTINUOUS
10
5.1282751023
20
-36.0103341792
11
5.3064799193
21
-36.0580679538
0
LINE
5
21C
100
AcDbEntity
8
0
100
AcDbLine
62
0
6
CONTINUOUS
10
2.5266400525
20
-35.2016383859
11
5.1293818258
21
-36.0109184258
0
LWPOLYLINE
5
21D
100
AcDbEntity
8
0
100
AcDbPolyline
62
0
6
CONTINUOUS
90
7
70
0
10
-18.6313005021
20
27.9455948060
10
-18.7044615659
20
27.8393623219
10
-18.7632652737
20
27.7289834341
10
-18.8071630145
20
27.6165416308
10
-18.8363289468
20
27.5037141017
10
-18.8513559093
20
27.3913291747
10
-18.8538056317
20
27.3217373642
0
LINE
5
21E
100
AcDbEntity
8
0
100
AcDbLine
62
0
6
CONTINUOUS
10
-1.9379493027
20
34.7678867379
11
-1.5663376507
21
34.9901930449
0
LWPOLYLINE
5
21F
100
AcDbEntity
8
0
100
AcDbPolyline
62
0
6
CONTINUOUS
90
9
70
0
10
-18.2496309155
20
-26.2008592629
10
-16.2679774342
20
-27.3122521912
10
-13.8549653381
20
-28.5754186411
10
-11.3446144945
20
-29.7961791027
10
-8.7411978281
20
-30.9724401032
10
-6.0485368040
20
-32.1026069159
10
-3.2701987437
20
-33.1852465187
10
-0.4101284567
20
-34.2188190961
10
2.5266400525
20
-35.2016383859
0
LINE
5
220
100
AcDbEntity
8
0
100
AcDbLine
62
0
6
CONTINUOUS
10
-18.2496309155
20
-26.2008592629
11
-18.2489539743
21
-26.2012497901
0
LINE
5
221
100
AcDbEntity
8
0
100
AcDbLine
62
0
6
CONTINUOUS
10
-18.3831892118
20
-26.1149479971
11
-18.2488105364
21
-26.2010026854
0
LINE
5
222
100
AcDbEntity
8
0
100
AcDbLine
62
0
6
CONTINUOUS
10
-1.0035503987
20
34.3758598500
11
-0.6470843189
21
34.6045204791
0
LINE
5
223
100
AcDbEntity
8
0
100
AcDbLine
62
0
6
CONTINUOUS
10
-0.4966535441
20
28.7437008905
11
-0.8515574512
21
28.5738072018
0
LWPOLYLINE
5
224
100
AcDbEntity
8
0
100
AcDbPolyline
62
0
6
CONTINUOUS
90
29
70
0
10
-13.5186634935
20
-21.5474301725
10
-13.2479940413
20
-21.7760416099
10
-12.9572715705
20
-21.9976210324
10
-12.6470254384
20
-22.2118548492
10
-12.3181433527
20
-22.4182153989
10
-11.9712912382
20
-22.6163874343
10
-11.6071459481
20
-22.8060600847
10
-11.2268560805
20
-22.9867317765
10
-10.8313555299
20
-23.1580682584
10
-10.4213670108
20
-23.3198608259
10
-9.9978685952
20
-23.4718069593
10
-9.5618484648
20
-23.6136441628
10
-9.1141545137
20
-23.7451715588
10
-8.6556540670
20
-23.8662027311
10
-8.1873044751
20
-23.9765345574
10
-7.7100935551
20
-24.0759869905
10
-7.2249632906
20
-24.1644005750
10
-6.7329310691
20
-24.2416296048
10
-6.2350167093
20
-24.3075405943
10
-5.7322094103
20
-24.3620319796
10
-5.2255581548
20
-24.4050087673
10
-4.7161089072
20
-24.4363994813
10
-4.2048660358
20
-24.4561602413
10
-3.6928920599
20
-24.4642500626
10
-3.1812512232
20
-24.4606672611
10
-2.6709500325
20
-24.4454160069
10
-2.1630292595
20
-24.4185240777
10
-1.6585651553
20
-24.3800497792
10
-1.2196042299
20
-24.3368013681
0
LWPOLYLINE
5
225
100
AcDbEntity
8
0
100
AcDbPolyline
62
0
6
CONTINUOUS
90
4
70
0
10
-14.1211073720
20
-20.9270497964
10
-13.9975649533
20
-21.0706731485
10
-13.7687552873
20
-21.3121251446
10
-13.5186634935
20
-21.5474301725
0
LINE
5
226
100
AcDbEntity
8
0
100
AcDbLine
62
0
6
CONTINUOUS
10
-14.1211035806
20
-20.9270562101
11
-14.1209756931
21
-20.9272105284
0
LINE
5
227
100
AcDbEntity
8
0
100
AcDbLine
62
0
6
CONTINUOUS
10
-1.2195170838
20
-24.3367923498
11
-1.2196803683
21
-24.3368106376
0
LWPOLYLINE
5
228
100
AcDbEntity
8
0
100
AcDbPolyline
62
0
6
CONTINUOUS
90
6
70
0
10
-18.8537882836
20
-25.3037117852
10
-18.8525752681
20
-25.3524968110
10
-18.8119509579
20
-25.5677072907
10
-18.7155516219
20
-25.7727343528
10
-18.5708022365
20
-25.9557420218
10
-18.3831892118
20
-26.1149479971
0
LINE
5
229
100
AcDbEntity
8
0
100
AcDbLine
62
0
6
CONTINUOUS
10
-18.8538239826
20
27.3254409036
11
-18.8538239826
21
-25.3082574991
0
LINE
5
22A
100
AcDbEntity
8
0
100
AcDbLine
62
0
6
CONTINUOUS
10
3.8117294121
20
26.6173260583
11
4.0996131147
21
26.8153380615
0
LINE
5
22B
100
AcDbEntity
8
0
100
AcDbLine
62
0
6
CONTINUOUS
10
-16.7941163277
20
-15.7022733799
11
-16.7929344072
21
-15.7068295093
0
LWPOLYLINE
5
22C
100
AcDbEntity
8
0
100
AcDbPolyline
62
0
6
CONTINUOUS
90
3
70
0
10
-16.9310968999
20
-15.0677225107
10
-16.8645515850
20
-15.4066312975
10
-16.7941326981
20
-15.7022042175
0
LINE
5
22D
100
AcDbEntity
8
0
100
AcDbLine
62
0
6
CONTINUOUS
10
-16.9851949556
20
-14.7188074725
11
-16.9310968999
21
-15.0677225107
0
LWPOLYLINE
5
22E
100
AcDbEntity
8
0
100
AcDbPolyline
62
0
6
CONTINUOUS
90
5
70
0
10
-17.0771290195
20
-13.2954645969
10
-17.0727127748
20
-13.6178400830
10
-17.0560044241
20
-13.9932177055
10
-17.0268316918
20
-14.3604302093
10
-16.9851949556
20
-14.7188074725
0
LINE
5
22F
100
AcDbEntity
8
0
100
AcDbLine
62
0
6
CONTINUOUS
10
-18.3807648055
20
26.6551555135
11
-18.3807648025
21
-25.9296577471
0
LINE
5
230
100
AcDbEntity
8
0
100
AcDbLine
62
0
6
CONTINUOUS
10
16.6216137581
20
-27.1502371940
11
18.3728188929
21
-27.8849549854
0
LINE
5
231
100
AcDbEntity
8
0
100
AcDbLine
62
0
6
CONTINUOUS
10
16.5463350593
20
-26.6085843378
11
16.6216137581
21
-26.6401675020
0
LINE
5
232
100
AcDbEntity
8
0
100
AcDbLine
62
0
6
CONTINUOUS
10
16.7686806817
20
26.9195235777
11
17.1251467614
21
27.1481842067
0
LINE
5
233
100
AcDbEntity
8
0
100
AcDbLine
62
0
6
CONTINUOUS
10
15.8342817777
20
27.3115504655
11
16.2058934297
21
27.5338567726
0
LWPOLYLINE
5
234
100
AcDbEntity
8
0
100
AcDbPolyline
62
0
6
CONTINUOUS
90
19
70
0
10
-14.9470370101
20
-5.5090123187
10
-15.1360427514
20
-5.8626709703
10
-15.3478241296
20
-6.2837252903
10
-15.5491742678
20
-6.7118960958
10
-15.7396647615
20
-7.1462753847
10
-15.9188969501
20
-7.5859247372
10
-16.0864812563
20
-8.0299198282
10
-16.2420374492
20
-8.4772891316
10
-16.3852274184
20
-8.9270744612
10
-16.5157359243
20
-9.3783745497
10
-16.6332632682
20
-9.8302180537
10
-16.7375177094
20
-10.2816269147
10
-16.8282555643
20
-10.7316968531
10
-16.9052342418
20
-11.1794535038
10
-16.9682347636
20
-11.6239283514
10
-17.0170776521
20
-12.0642468240
10
-17.0515830653
20
-12.4994864283
10
-17.0716025775
20
-12.9286714282
10
-17.0771290630
20
-13.2954896869
0
LINE
5
235
100
AcDbEntity
8
0
100
AcDbLine
62
0
6
CONTINUOUS
10
14.2984861428
20
22.0081821719
11
7.1085455496
21
17.6752192230
0
LINE
5
236
100
AcDbEntity
8
0
100
AcDbLine
62
0
6
CONTINUOUS
10
14.6809834457
20
21.4152862260
11
7.4902151183
21
17.0818244494
0
LINE
5
237
100
AcDbEntity
8
0
100
AcDbLine
62
0
6
CONTINUOUS
10
14.5028998496
20
22.1318474728
11
18.2193564746
21
24.3373111411
0
LINE
5
238
100
AcDbEntity
8
0
100
AcDbLine
62
0
6
CONTINUOUS
10
14.8858637350
20
21.5382282933
11
18.6023203600
21
23.7436919617
0
LINE
5
239
100
AcDbEntity
8
0
100
AcDbLine
62
0
6
CONTINUOUS
10
-14.9471098012
20
-5.5091457062
11
-14.9471519546
21
-5.5092219241
0
LINE
5
23A
100
AcDbEntity
8
0
100
AcDbLine
62
0
6
CONTINUOUS
10
-14.7787357222
20
-5.3288297493
11
-14.6656900591
21
-5.2563148765
0
LINE
5
23B
100
AcDbEntity
8
0
100
AcDbLine
62
0
6
CONTINUOUS
10
-14.9754115013
20
-5.4598609092
11
-14.8509416366
21
-5.3856922049
0
LINE
5
23C
100
AcDbEntity
8
0
100
AcDbLine
62
0
6
CONTINUOUS
10
-1.5663376507
20
34.9901930449
11
-1.5663376507
21
34.6119771378
0
LINE
5
23D
100
AcDbEntity
8
0
100
AcDbLine
62
0
6
CONTINUOUS
10
-0.8515574512
20
28.5738072018
11
-0.8515574512
21
28.3643801679
0
LINE
5
23E
100
AcDbEntity
8
0
100
AcDbLine
62
0
6
CONTINUOUS
10
-0.4966535441
20
28.7437008905
11
-0.4966535441
21
28.2154802991
0
LINE
5
23F
100
AcDbEntity
8
0
100
AcDbLine
62
0
6
CONTINUOUS
10
3.8117294121
20
26.6173260583
11
3.8117294121
21
26.4078990244
0
LINE
5
240
100
AcDbEntity
8
0
100
AcDbLine
62
0
6
CONTINUOUS
10
5.0214232818
20
-35.7480415215
11
5.0214232779
21
16.8367717307
0
LINE
5
241
100
AcDbEntity
8
0
100
AcDbLine
62
0
6
CONTINUOUS
10
7.4901748447
20
-35.6299558817
11
7.4902151183
21
17.0818244494
0
LINE
5
242
100
AcDbEntity
8
0
100
AcDbLine
62
0
6
CONTINUOUS
10
-0.8965323857
20
-11.4663953969
11
-0.7590652245
21
-11.3841595016
0
LINE
5
243
100
AcDbEntity
8
0
100
AcDbLine
62
0
6
CONTINUOUS
10
-14.8146356044
20
-21.3337086250
11
-14.5260867496
21
-21.1617690579
0
LINE
5
244
100
AcDbEntity
8
0
100
AcDbLine
62
0
6
CONTINUOUS
10
-13.5349132606
20
-23.4813377184
11
-13.3105808939
21
-23.3476632665
0
LINE
5
245
100
AcDbEntity
8
0
100
AcDbLine
62
0
6
CONTINUOUS
10
14.6809834457
20
21.4152862260
11
14.6809834457
21
-32.2522437854
0
LINE
5
246
100
AcDbEntity
8
0
100
AcDbLine
62
0
6
CONTINUOUS
10
14.8858637350
20
-32.1554786412
11
14.8858637350
21
21.5382282933
0
LINE
5
247
100
AcDbEntity
8
0
100
AcDbLine
62
0
6
CONTINUOUS
10
16.2058934297
20
27.5338567726
11
16.2058934297
21
27.1556408654
0
LINE
5
248
100
AcDbEntity
8
0
100
AcDbLine
62
0
6
CONTINUOUS
10
16.6216137581
20
-27.1502371940
11
16.6216137581
21
-25.8381031483
0
LINE
5
249
100
AcDbEntity
8
0
100
AcDbLine
62
0
6
CONTINUOUS
10
18.3728188929
20
-27.8849549854
11
18.3728188929
21
-7.9144323480
0
LINE
5
24A
100
AcDbEntity
8
0
100
AcDbLine
62
0
6
CONTINUOUS
10
18.3728188929
20
25.8519768560
11
18.3728188929
21
26.0904674546
0
LINE
5
24B
100
AcDbEntity
8
0
100
AcDbLine
62
0
6
CONTINUOUS
10
18.6023203600
20
-4.5579747403
11
18.6023203600
21
23.7436919617
0
LINE
5
24C
100
AcDbEntity
8
0
100
AcDbLine
62
0
6
CONTINUOUS
10
18.7137473793
20
-4.4199036221
11
18.7137473793
21
23.9010226726
0
LINE
5
24D
100
AcDbEntity
8
0
100
AcDbLine
62
0
6
CONTINUOUS
10
18.7137445605
20
-4.4200491476
11
18.7132606486
21
-4.4299942097
0
LINE
5
24E
100
AcDbEntity
8
0
100
AcDbLine
62
0
6
CONTINUOUS
10
15.9741549065
20
-31.4573775931
11
18.6023203600
21
-4.5579747403
0
LINE
5
24F
100
AcDbEntity
8
0
100
AcDbLine
62
0
6
CONTINUOUS
10
16.0832123269
20
-31.3486683127
11
18.7132484976
21
-4.4301185774
0
LINE
5
250
100
AcDbEntity
8
0
100
AcDbLine
62
0
6
CONTINUOUS
10
16.0831600813
20
-31.3491856876
11
16.0832122463
21
-31.3486691375
0
LINE
5
251
100
AcDbEntity
8
0
100
AcDbLine
62
0
6
CONTINUOUS
10
-1.1833406340
20
-24.3977701367
11
-0.7076003954
21
-24.1142875675
0
LINE
5
252
100
AcDbEntity
8
0
100
AcDbLine
62
0
6
CONTINUOUS
10
-1.0322047691
20
-24.2774681416
11
-0.7154814620
21
-24.1025905407
0
LINE
5
253
100
AcDbEntity
8
0
100
AcDbLine
62
0
6
CONTINUOUS
10
-0.4957069516
20
-27.5807676482
11
-0.0319866362
21
-27.3044474723
0
LINE
5
254
100
AcDbEntity
8
0
100
AcDbLine
62
0
6
CONTINUOUS
10
18.2193564746
20
24.3373111411
11
17.8378283319
21
26.4709628781
0
LINE
5
255
100
AcDbEntity
8
0
100
AcDbLine
62
0
6
CONTINUOUS
10
18.7059404387
20
23.9890333785
11
18.3652263759
21
25.8944371235
0
LINE
5
256
100
AcDbEntity
8
0
100
AcDbLine
62
0
6
CONTINUOUS
10
18.3728188929
20
26.0904674546
11
17.1956850073
21
32.9621850697
0
LINE
5
257
100
AcDbEntity
8
0
100
AcDbLine
62
0
6
CONTINUOUS
10
0.7840153922
20
-29.7283967416
11
1.3368672950
21
-29.3989651209
0
LINE
5
258
100
AcDbEntity
8
0
100
AcDbLine
62
0
6
CONTINUOUS
10
14.2984861428
20
22.0081821719
11
-11.7239867477
21
32.9259058743
0
LINE
5
259
100
AcDbEntity
8
0
100
AcDbLine
62
0
6
CONTINUOUS
10
14.5028998496
20
22.1318474728
11
3.8117294121
21
26.6173260583
0
LINE
5
25A
100
AcDbEntity
8
0
100
AcDbLine
62
0
6
CONTINUOUS
10
-0.8515574512
20
28.5738072018
11
-11.5427278887
21
33.0592857873
0
LINE
5
25B
100
AcDbEntity
8
0
100
AcDbLine
62
0
6
CONTINUOUS
10
4.0996131147
20
26.8153380615
11
-0.4966535441
21
28.7437008905
0
LINE
5
25C
100
AcDbEntity
8
0
100
AcDbLine
62
0
6
CONTINUOUS
10
18.2502010719
20
26.1419117388
11
18.3728188929
21
26.0904674546
0
LINE
5
25D
100
AcDbEntity
8
0
100
AcDbLine
62
0
6
CONTINUOUS
10
-3.3074793967
20
35.3424728362
11
17.8378283319
21
26.4709628781
0
LINE
5
25E
100
AcDbEntity
8
0
100
AcDbLine
62
0
6
CONTINUOUS
10
-1.5663376507
20
34.9901930449
11
-0.6470843189
21
34.6045204791
0
LINE
5
25F
100
AcDbEntity
8
0
100
AcDbLine
62
0
6
CONTINUOUS
10
16.2058934297
20
27.5338567726
11
17.1251467614
21
27.1481842067
0
LINE
5
260
100
AcDbEntity
8
0
100
AcDbLine
62
0
6
CONTINUOUS
10
15.8558891210
20
-31.7206825029
11
15.8555926396
21
-31.7208731250
0
LINE
5
261
100
AcDbEntity
8
0
100
AcDbLine
62
0
6
CONTINUOUS
10
14.8858637350
20
-32.1554786412
11
15.9741549065
21
-31.4573775931
0
LINE
5
262
100
AcDbEntity
8
0
100
AcDbLine
62
0
6
CONTINUOUS
10
14.7652456009
20
-32.4202929488
11
15.8555461209
21
-31.7209029733
0
LINE
5
263
100
AcDbEntity
8
0
100
AcDbLine
62
0
6
CONTINUOUS
10
7.3409898160
20
-35.9101488794
11
7.3379451154
21
-35.9116080870
0
LINE
5
264
100
AcDbEntity
8
0
100
AcDbLine
62
0
6
CONTINUOUS
10
7.4901748447
20
-35.6299558817
11
14.6809834457
21
-32.2522437854
0
LINE
5
265
100
AcDbEntity
8
0
100
AcDbLine
62
0
6
CONTINUOUS
10
7.3379451210
20
-35.9116080844
11
14.5344256866
21
-32.5312317170
0
LINE
5
266
100
AcDbEntity
8
0
100
AcDbLine
62
0
6
CONTINUOUS
10
9.6122319214
20
36.1438214134
11
-3.5733048355
21
35.4255503397
0
LINE
5
267
100
AcDbEntity
8
0
100
AcDbLine
62
0
6
CONTINUOUS
10
-7.6683660225
20
35.1985003408
11
-3.3074793967
21
35.3424728362
0
LINE
5
268
100
AcDbEntity
8
0
100
AcDbLine
62
0
6
CONTINUOUS
10
-7.6904733795
20
35.2619389924
11
-3.5712994531
21
35.3979314636
0
LWPOLYLINE
5
269
100
AcDbEntity
8
0
100
AcDbPolyline
62
0
6
CONTINUOUS
90
3
70
0
10
6.9472183853
20
-36.0504900454
10
7.2432497389
20
-35.9527590617
10
7.3408639566
20
-35.9098871242
0
SPLINE
5
26A
100
AcDbEntity
8
0
100
AcDbSpline
62
0
6
CONTINUOUS
70
0
71
3
72
12
73
8
74
6
42
0.0000001000
43
0.0000001000
44
0.0000000001
12
0.0000000000
22
0.7763560662
32
0.0000000000
13
0.6685987657
23
0.3988219810
33
0.0000000000
40
0.0000000000
40
0.0000000000
40
0.0000000000
40
0.0000000000
40
0.2350173700
40
0.4536451740
40
0.6572106344
40
0.8493629696
40
1.0000000000
40
1.0000000000
40
1.0000000000
40
1.0000000000
10
-0.8134013336
20
-28.2528399389
30
0.0000000000
10
-0.8134013336
20
-28.1920208852
30
0.0000000000
10
-0.8046765485
20
-28.0743328319
30
0.0000000000
10
-0.7623084239
20
-27.9085990445
30
0.0000000000
10
-0.6918613201
20
-27.7646342497
30
0.0000000000
10
-0.6008315375
20
-27.6545375734
30
0.0000000000
10
-0.5292742778
20
-27.6008011205
30
0.0000000000
10
-0.4957023669
20
-27.5807753342
30
0.0000000000
11
-0.8134013336
21
-28.2528399389
31
0.0000000000
11
-0.7988539131
21
-28.0709636400
31
0.0000000000
11
-0.7556536677
21
-27.9068202955
31
0.0000000000
11
-0.6851132149
21
-27.7653973180
31
0.0000000000
11
-0.5893758908
21
-27.6509917731
31
0.0000000000
11
-0.4957023669
21
-27.5807753342
31
0.0000000000
0
SPLINE
5
26B
100
AcDbEntity
8
0
100
AcDbSpline
62
0
6
CONTINUOUS
70
0
71
3
72
21
73
17
74
15
42
0.0000001000
43
0.0000001000
44
0.0000000001
12
-2.1694360331
22
-1.2940777351
32
0.0000000000
13
0.0000000000
23
2.5190815643
33
0.0000000000
40
0.0000000000
40
0.0000000000
40
0.0000000000
40
0.0000000000
40
0.0110620961
40
0.0689733785
40
0.1293715724
40
0.1938070914
40
0.2631245520
40
0.3374757874
40
0.4164333431
40
0.4991273674
40
0.5843756656
40
0.6708017464
40
0.7569440662
40
0.8413613279
40
0.9227387190
40
1.0000000000
40
1.0000000000
40
1.0000000000
40
1.0000000000
10
0.7840108075
20
-29.7283890556
30
0.0000000000
10
0.7760113042
20
-29.7331607931
30
0.0000000000
10
0.7253807414
20
-29.7616427529
30
0.0000000000
10
0.6222644189
20
-29.7995911543
30
0.0000000000
10
0.4681314803
20
-29.8151060581
30
0.0000000000
10
0.3051809223
20
-29.7948481482
30
0.0000000000
10
0.1382538418
20
-29.7400979902
30
0.0000000000
10
-0.0279230534
20
-29.6528480356
30
0.0000000000
10
-0.1886310070
20
-29.5358299278
30
0.0000000000
10
-0.3392336175
20
-29.3925559372
30
0.0000000000
10
-0.4753257173
20
-29.2272870174
30
0.0000000000
10
-0.5928906425
20
-29.0449319477
30
0.0000000000
10
-0.6884406392
20
-28.8509134669
30
0.0000000000
10
-0.7591310352
20
-28.6509665134
30
0.0000000000
10
-0.8028426125
20
-28.4510654549
30
0.0000000000
10
-0.8134013336
20
-28.3177157617
30
0.0000000000
10
-0.8134013336
20
-28.2528399389
30
0.0000000000
11
0.7840108075
21
-29.7283890556
31
0.0000000000
11
0.7596590659
21
-29.7420845746
31
0.0000000000
11
0.6229319972
21
-29.7929533229
31
0.0000000000
11
0.4716575081
21
-29.8092332406
31
0.0000000000
11
0.3104319972
21
-29.7904296705
31
0.0000000000
11
0.1441542203
21
-29.7371139496
31
0.0000000000
11
-0.0221235567
21
-29.6509060492
31
0.0000000000
11
-0.1833490675
21
-29.5344253526
31
0.0000000000
11
-0.3346235567
21
-29.3912110669
31
0.0000000000
11
-0.4713506253
21
-29.2256146856
31
0.0000000000
11
-0.5893758908
21
-29.0426677711
31
0.0000000000
11
-0.6851132149
21
-28.8479290728
31
0.0000000000
11
-0.7556536677
21
-28.6473156273
31
0.0000000000
11
-0.7988539131
21
-28.4469229729
31
0.0000000000
11
-0.8134013336
21
-28.2528399389
31
0.0000000000
0
SPLINE
5
26C
100
AcDbEntity
8
0
100
AcDbSpline
62
0
6
CONTINUOUS
70
0
71
3
72
12
73
8
74
6
42
0.0000001000
43
0.0000001000
44
0.0000000001
12
0.0000000000
22
-0.7763560662
32
0.0000000000
13
-0.6685987657
23
-0.3988219810
33
0.0000000000
40
0.0000000000
40
0.0000000000
40
0.0000000000
40
0.0000000000
40
0.2350173700
40
0.4536451740
40
0.6572106344
40
0.8493629696
40
1.0000000000
40
1.0000000000
40
1.0000000000
40
1.0000000000
10
1.1017097742
20
-29.0563244510
30
0.0000000000
10
1.1017097742
20
-29.1171435046
30
0.0000000000
10
1.0929849890
20
-29.2348315579
30
0.0000000000
10
1.0506168644
20
-29.4005653453
30
0.0000000000
10
0.9801697607
20
-29.5445301401
30
0.0000000000
10
0.8891399780
20
-29.6546268165
30
0.0000000000
10
0.8175827183
20
-29.7083632693
30
0.0000000000
10
0.7840108075
20
-29.7283890556
30
0.0000000000
11
1.1017097742
21
-29.0563244510
31
0.0000000000
11
1.0871623537
21
-29.2382007499
31
0.0000000000
11
1.0439621083
21
-29.4023440943
31
0.0000000000
11
0.9734216555
21
-29.5437670718
31
0.0000000000
11
0.8776843313
21
-29.6581726168
31
0.0000000000
11
0.7840108075
21
-29.7283890556
31
0.0000000000
0
SPLINE
5
26D
100
AcDbEntity
8
0
100
AcDbSpline
62
0
6
CONTINUOUS
70
0
71
3
72
21
73
17
74
15
42
0.0000001000
43
0.0000001000
44
0.0000000001
12
2.1694360331
22
1.2940777351
32
0.0000000000
13
0.0000000000
23
-2.5190815643
33
0.0000000000
40
0.0000000000
40
0.0000000000
40
0.0000000000
40
0.0000000000
40
0.0110620961
40
0.0689733785
40
0.1293715724
40
0.1938070914
40
0.2631245520
40
0.3374757874
40
0.4164333431
40
0.4991273674
40
0.5843756656
40
0.6708017464
40
0.7569440662
40
0.8413613279
40
0.9227387190
40
1.0000000000
40
1.0000000000
40
1.0000000000
40
1.0000000000
10
-0.4957023669
20
-27.5807753342
30
0.0000000000
10
-0.4877028636
20
-27.5760035968
30
0.0000000000
10
-0.4370723009
20
-27.5475216370
30
0.0000000000
10
-0.3339559783
20
-27.5095732355
30
0.0000000000
10
-0.1798230397
20
-27.4940583317
30
0.0000000000
10
-0.0168724817
20
-27.5143162416
30
0.0000000000
10
0.1500545988
20
-27.5690663996
30
0.0000000000
10
0.3162314939
20
-27.6563163542
30
0.0000000000
10
0.4769394476
20
-27.7733344620
30
0.0000000000
10
0.6275420581
20
-27.9166084526
30
0.0000000000
10
0.7636341579
20
-28.0818773724
30
0.0000000000
10
0.8811990831
20
-28.2642324421
30
0.0000000000
10
0.9767490798
20
-28.4582509230
30
0.0000000000
10
1.0474394757
20
-28.6581978764
30
0.0000000000
10
1.0911510531
20
-28.8580989349
30
0.0000000000
10
1.1017097742
20
-28.9914486281
30
0.0000000000
10
1.1017097742
20
-29.0563244510
30
0.0000000000
11
-0.4957023669
21
-27.5807753342
31
0.0000000000
11
-0.4713506253
21
-27.5670798152
31
0.0000000000
11
-0.3346235567
21
-27.5162110669
31
0.0000000000
11
-0.1833490675
21
-27.4999311492
31
0.0000000000
11
-0.0221235567
21
-27.5187347193
31
0.0000000000
11
0.1441542203
21
-27.5720504402
31
0.0000000000
11
0.3104319972
21
-27.6582583406
31
0.0000000000
11
0.4716575081
21
-27.7747390372
31
0.0000000000
11
0.6229319972
21
-27.9179533229
31
0.0000000000
11
0.7596590659
21
-28.0835497042
31
0.0000000000
11
0.8776843313
21
-28.2664966187
31
0.0000000000
11
0.9734216555
21
-28.4612353171
31
0.0000000000
11
1.0439621083
21
-28.6618487625
31
0.0000000000
11
1.0871623537
21
-28.8622414169
31
0.0000000000
11
1.1017097742
21
-29.0563244510
31
0.0000000000
0
SPLINE
5
26E
100
AcDbEntity
8
0
100
AcDbSpline
62
0
6
CONTINUOUS
70
0
71
3
72
12
73
8
74
6
42
0.0000001000
43
0.0000001000
44
0.0000000001
12
-0.0000000003
22
0.8175205970
32
0.0000000000
13
0.7022924103
23
0.4184797507
33
0.0000000000
40
0.0000000000
40
0.0000000000
40
0.0000000000
40
0.0000000000
40
0.2261048846
40
0.4377343387
40
0.6351478501
40
0.8208661433
40
1.0000000000
40
1.0000000000
40
1.0000000000
40
1.0000000000
10
-15.1557255412
20
-22.0379202962
30
0.0000000000
10
-15.1557255413
20
-21.9763051628
30
0.0000000000
10
-15.1467455144
20
-21.8567247317
30
0.0000000000
10
-15.1035431738
20
-21.6881094782
30
0.0000000000
10
-15.0323927176
20
-21.5411089899
30
0.0000000000
10
-14.9360667819
20
-21.4202836972
30
0.0000000000
10
-14.8565703848
20
-21.3586965876
30
0.0000000000
10
-14.8146356022
20
-21.3337086237
30
0.0000000000
11
-15.1557255412
21
-22.0379202962
31
0.0000000000
11
-15.1409004506
21
-21.8536703608
31
0.0000000000
11
-15.0969254024
21
-21.6863408873
31
0.0000000000
11
-15.0257358520
21
-21.5415007869
31
0.0000000000
11
-14.9305363421
21
-21.4232258707
31
0.0000000000
11
-14.8146356022
21
-21.3337086237
31
0.0000000000
0
SPLINE
5
26F
100
AcDbEntity
8
0
100
AcDbSpline
62
0
6
CONTINUOUS
70
0
71
3
72
19
73
15
74
13
42
0.0000001000
43
0.0000001000
44
0.0000000001
12
-2.1713286472
22
-1.2938443611
32
0.0000000000
13
-0.0000000010
23
2.5275880354
33
0.0000000000
40
0.0000000000
40
0.0000000000
40
0.0000000000
40
0.0000000000
40
0.0643704313
40
0.1318319220
40
0.2039608059
40
0.2819631262
40
0.3655213233
40
0.4536454651
40
0.5451428628
40
0.6385876096
40
0.7323530377
40
0.8248116916
40
0.9144412140
40
1.0000000000
40
1.0000000000
40
1.0000000000
40
1.0000000000
10
-13.5349132581
20
-23.4813377169
30
0.0000000000
10
-13.5815030452
20
-23.5090994901
30
0.0000000000
10
-13.6851653386
20
-23.5531554963
30
0.0000000000
10
-13.8571557934
20
-23.5769072413
30
0.0000000000
10
-14.0410774819
20
-23.5575801627
30
0.0000000000
10
-14.2293434011
20
-23.4957103043
30
0.0000000000
10
-14.4147316797
20
-23.3941299851
30
0.0000000000
10
-14.5903922478
20
-23.2574438785
30
0.0000000000
10
-14.7504577617
20
-23.0911830421
30
0.0000000000
10
-14.8898495719
20
-22.9013862864
30
0.0000000000
10
-15.0041122093
20
-22.6945752050
30
0.0000000000
10
-15.0894350746
20
-22.4776377633
30
0.0000000000
10
-15.1427404924
20
-22.2577984331
30
0.0000000000
10
-15.1557255412
20
-22.1100060841
30
0.0000000000
10
-15.1557255412
20
-22.0379202962
30
0.0000000000
11
-13.5349132581
21
-23.4813377169
31
0.0000000000
11
-13.6845241403
21
-23.5452791181
31
0.0000000000
11
-13.8532853468
21
-23.5696711563
31
0.0000000000
11
-14.0347395258
21
-23.5520052510
31
0.0000000000
11
-14.2224897932
21
-23.4918304378
31
0.0000000000
11
-14.4082899957
21
-23.3914112159
31
0.0000000000
11
-14.5846267945
21
-23.2553262387
31
0.0000000000
11
-14.7454214147
21
-23.0891039417
31
0.0000000000
11
-14.8854180388
21
-22.8988762409
31
0.0000000000
11
-14.9999599147
21
-22.6913929018
31
0.0000000000
11
-15.0851392501
21
-22.4737717869
31
0.0000000000
11
-15.1378172659
21
-22.2534348922
31
0.0000000000
11
-15.1557255412
21
-22.0379202962
31
0.0000000000
0
SPLINE
5
270
100
AcDbEntity
8
0
100
AcDbSpline
62
0
6
CONTINUOUS
70
0
71
3
72
23
73
19
74
17
42
0.0000001000
43
0.0000001000
44
0.0000000001
12
-0.0000000000
22
-2.7732913544
32
0.0000000000
13
0.8359358550
23
2.6487718674
33
0.0000000000
40
0.0000000000
40
0.0000000000
40
0.0000000000
40
0.0000000000
40
0.0674435137
40
0.1404517319
40
0.2165221750
40
0.2938388802
40
0.3709436001
40
0.4466101359
40
0.5194349009
40
0.5883525039
40
0.6529924763
40
0.7125984954
40
0.7681423927
40
0.8205344810
40
0.8720807281
40
0.9246733334
40
0.9804927015
40
1.0000000000
40
1.0000000000
40
1.0000000000
40
1.0000000000
10
-15.1284676520
20
-22.0722298619
30
0.0000000000
10
-15.1284676520
20
-22.1345766997
30
0.0000000000
10
-15.1178278469
20
-22.2645572435
30
0.0000000000
10
-15.0732729058
20
-22.4602941742
30
0.0000000000
10
-15.0003117696
20
-22.6570682633
30
0.0000000000
10
-14.9017878553
20
-22.8465940153
30
0.0000000000
10
-14.7811824566
20
-23.0224415423
30
0.0000000000
10
-14.6424681946
20
-23.1789207738
30
0.0000000000
10
-14.4901087730
20
-23.3109556070
30
0.0000000000
10
-14.3288390609
20
-23.4142763769
30
0.0000000000
10
-14.1639202321
20
-23.4851367931
30
0.0000000000
10
-14.0003893633
20
-23.5208228020
30
0.0000000000
10
-13.8439973312
20
-23.5193625253
30
0.0000000000
10
-13.7000799553
20
-23.4798120774
30
0.0000000000
10
-13.5750557111
20
-23.4031280155
30
0.0000000000
10
-13.4741533214
20
-23.2925872241
30
0.0000000000
10
-13.4186074101
20
-23.1869125373
30
0.0000000000
10
-13.3953130342
20
-23.1211348503
30
0.0000000000
10
-13.3898774175
20
-23.1039113891
30
0.0000000000
11
-15.1284676520
21
-22.0722298619
31
0.0000000000
11
-15.1140385676
21
-22.2587129849
31
0.0000000000
11
-15.0697377460
21
-22.4562801314
31
0.0000000000
11
-14.9967454558
21
-22.6542159006
31
0.0000000000
11
-14.8979530688
21
-22.8445228923
31
0.0000000000
11
-14.7768986668
21
-23.0207918586
31
0.0000000000
11
-14.6374080990
21
-23.1775638339
31
0.0000000000
11
-14.4843543199
21
-23.3093368041
31
0.0000000000
11
-14.3229229670
21
-23.4116601015
31
0.0000000000
11
-14.1577462149
21
-23.4813217954
31
0.0000000000
11
-13.9959576940
21
-23.5152359591
31
0.0000000000
11
-13.8419426573
21
-23.5124958236
31
0.0000000000
11
-13.7020548993
21
-23.4732138087
31
0.0000000000
11
-13.5801756526
21
-23.3985081117
31
0.0000000000
11
-13.4812042043
21
-23.2913716477
31
0.0000000000
11
-13.4080094743
21
-23.1549655807
31
0.0000000000
11
-13.3898774175
21
-23.1039113891
31
0.0000000000
0
SPLINE
5
271
100
AcDbEntity
8
0
100
AcDbSpline
62
0
6
CONTINUOUS
70
0
71
3
72
9
73
5
74
3
42
0.0000001000
43
0.0000001000
44
0.0000000001
12
0.0870078465
22
0.2756957184
32
0.0000000000
13
-0.0000000000
23
0.2886562492
33
0.0000000000
40
0.0000000000
40
0.0000000000
40
0.0000000000
40
0.0000000000
40
0.3881288921
40
1.0000000000
40
1.0000000000
40
1.0000000000
40
1.0000000000
10
-13.3898774175
20
-23.1039113891
30
0.0000000000
10
-13.3786206645
20
-23.0682428979
30
0.0000000000
10
-13.3562137892
20
-22.9742553050
30
0.0000000000
10
-13.3487684407
20
-22.8777758108
30
0.0000000000
10
-13.3487684407
20
-22.8189023378
30
0.0000000000
11
-13.3898774175
21
-23.1039113891
31
0.0000000000
11
-13.3634810179
21
-22.9949089072
31
0.0000000000
11
-13.3487684407
21
-22.8189023378
31
0.0000000000
0
SPLINE
5
272
100
AcDbEntity
8
0
100
AcDbSpline
62
0
6
CONTINUOUS
70
0
71
3
72
16
73
12
74
10
42
0.0000001000
43
0.0000001000
44
0.0000000001
12
0.0000000000
22
1.7526894911
32
0.0000000000
13
-1.6368017078
23
0.6328028232
33
0.0000000000
40
0.0000000000
40
0.0000000000
40
0.0000000000
40
0.0000000000
40
0.1067163107
40
0.2222376151
40
0.3426043591
40
0.4649430561
40
0.5869463275
40
0.7066739511
40
0.8219050222
40
0.9309537682
40
1.0000000000
40
1.0000000000
40
1.0000000000
40
1.0000000000
10
-13.3487684407
20
-22.8189023378
30
0.0000000000
10
-13.3487684407
20
-22.7565554857
30
0.0000000000
10
-13.3594080116
20
-22.6265749206
30
0.0000000000
10
-13.4039635038
20
-22.4308381200
30
0.0000000000
10
-13.4769242651
20
-22.2340639348
30
0.0000000000
10
-13.5754483208
20
-22.0445382281
30
0.0000000000
10
-13.6960536533
20
-21.8686906691
30
0.0000000000
10
-13.8347679228
20
-21.7122114421
30
0.0000000000
10
-13.9871273281
20
-21.5801765955
30
0.0000000000
10
-14.1319846332
20
-21.4873707770
30
0.0000000000
10
-14.2267999050
20
-21.4437131935
30
0.0000000000
10
-14.2644715683
20
-21.4291489767
30
0.0000000000
11
-13.3487684407
21
-22.8189023378
31
0.0000000000
11
-13.3631974423
21
-22.6324191654
31
0.0000000000
11
-13.4074984956
21
-22.4348521569
31
0.0000000000
11
-13.4804906686
21
-22.2369163179
31
0.0000000000
11
-13.5792830733
21
-22.0466093368
31
0.0000000000
11
-13.7003374554
21
-21.8703403586
31
0.0000000000
11
-13.8398280149
21
-21.7135683784
31
0.0000000000
11
-13.9928817830
21
-21.5817954017
31
0.0000000000
11
-14.1543131333
21
-21.4794721028
31
0.0000000000
11
-14.2644715683
21
-21.4291489767
31
0.0000000000
0
SPLINE
5
273
100
AcDbEntity
8
0
100
AcDbSpline
62
0
6
CONTINUOUS
70
0
71
3
72
16
73
12
74
10
42
0.0000001000
43
0.0000001000
44
0.0000000001
12
-1.2226899703
22
0.4727033589
32
0.0000000000
13
0.0000000000
23
-1.3092580804
33
0.0000000000
40
0.0000000000
40
0.0000000000
40
0.0000000000
40
0.0000000000
40
0.0444899805
40
0.1707484012
40
0.2884023724
40
0.3993801296
40
0.5085662264
40
0.6199687077
40
0.7382062472
40
0.8650988064
40
1.0000000000
40
1.0000000000
40
1.0000000000
40
1.0000000000
10
-14.2644715683
20
-21.4291489767
30
0.0000000000
10
-14.2826040526
20
-21.4221387889
30
0.0000000000
10
-14.3530061220
20
-21.3973341228
30
0.0000000000
10
-14.4768467302
20
-21.3703093977
30
0.0000000000
10
-14.6332387638
20
-21.3717696755
30
0.0000000000
10
-14.7771561427
20
-21.4113201271
30
0.0000000000
10
-14.9021803993
20
-21.4880041824
30
0.0000000000
10
-15.0030827623
20
-21.5985450162
30
0.0000000000
10
-15.0761707477
20
-21.7375927102
30
0.0000000000
10
-15.1196267377
20
-21.8987949219
30
0.0000000000
10
-15.1284676520
20
-22.0133563693
30
0.0000000000
10
-15.1284676520
20
-22.0722298619
30
0.0000000000
11
-14.2644715683
21
-21.4291489767
31
0.0000000000
11
-14.3194898780
21
-21.4098104044
31
0.0000000000
11
-14.4812783987
21
-21.3758962406
31
0.0000000000
11
-14.6352934377
21
-21.3786363775
31
0.0000000000
11
-14.7751811955
21
-21.4179183923
31
0.0000000000
11
-14.8970604580
21
-21.4926240986
31
0.0000000000
11
-14.9960318893
21
-21.5997605526
31
0.0000000000
11
-15.0692267027
21
-21.7361666692
31
0.0000000000
11
-15.1137549880
21
-21.8962232407
31
0.0000000000
11
-15.1284676520
21
-22.0722298619
31
0.0000000000
0
SPLINE
5
274
100
AcDbEntity
8
0
100
AcDbSpline
62
0
6
CONTINUOUS
70
0
71
3
72
13
73
9
74
7
42
0.0000001000
43
0.0000001000
44
0.0000000001
12
0.0000000001
22
1.2582978656
32
0.0000000000
13
-0.8570382674
23
0.9224488697
33
0.0000000000
40
0.0000000000
40
0.0000000000
40
0.0000000000
40
0.0000000000
40
0.1599557757
40
0.3331089110
40
0.5135252405
40
0.6968971600
40
0.8797663119
40
1.0000000000
40
1.0000000000
40
1.0000000000
40
1.0000000000
10
-13.2172188778
20
-22.8092654273
30
0.0000000000
10
-13.2172188778
20
-22.7421747569
30
0.0000000000
10
-13.2286691940
20
-22.6023046092
30
0.0000000000
10
-13.2766120064
20
-22.3916741643
30
0.0000000000
10
-13.3551259158
20
-22.1799285903
30
0.0000000000
10
-13.4611457533
20
-21.9759821081
30
0.0000000000
10
-13.5768427052
20
-21.8072917058
30
0.0000000000
10
-13.6593641951
20
-21.7103137869
30
0.0000000000
10
-13.6937124857
20
-21.6733439770
30
0.0000000000
11
-13.2172188778
21
-22.8092654273
31
0.0000000000
11
-13.2327462253
21
-22.6085932470
31
0.0000000000
11
-13.2804166929
21
-22.3959939866
31
0.0000000000
11
-13.3589632867
21
-22.1829978132
31
0.0000000000
11
-13.4652724441
21
-21.9782108675
31
0.0000000000
11
-13.5955375977
21
-21.7885301417
31
0.0000000000
11
-13.6937124857
21
-21.6733439770
31
0.0000000000
0
SPLINE
5
275
100
AcDbEntity
8
0
100
AcDbSpline
62
0
6
CONTINUOUS
70
0
71
3
72
8
73
4
74
2
42
0.0000001000
43
0.0000001000
44
0.0000000001
12
-0.0507576704
22
0.0546315812
32
0.0000000000
13
-0.0530972434
23
0.0523702996
33
0.0000000000
40
0.0000000000
40
0.0000000000
40
0.0000000000
40
0.0000000000
40
1.0000000000
40
1.0000000000
40
1.0000000000
40
1.0000000000
10
-13.6937124857
20
-21.6733439770
30
0.0000000000
10
-13.7106317091
20
-21.6551334500
30
0.0000000000
10
-13.7279425376
20
-21.6372866362
30
0.0000000000
10
-13.7456416187
20
-21.6198298697
30
0.0000000000
11
-13.6937124857
21
-21.6733439770
31
0.0000000000
11
-13.7456416187
21
-21.6198298697
31
0.0000000000
0
SPLINE
5
276
100
AcDbEntity
8
0
100
AcDbSpline
62
0
6
CONTINUOUS
70
0
71
3
72
9
73
5
74
3
42
0.0000001000
43
0.0000001000
44
0.0000000001
12
-0.3013905282
22
0.2972642504
32
0.0000000000
13
-0.3746466044
23
0.1974885025
33
0.0000000000
40
0.0000000000
40
0.0000000000
40
0.0000000000
40
0.0000000000
40
0.5137826122
40
1.0000000000
40
1.0000000000
40
1.0000000000
40
1.0000000000
10
-13.7456416187
20
-21.6198298697
30
0.0000000000
10
-13.7972580230
20
-21.5689201353
30
0.0000000000
10
-13.9041485441
20
-21.4762887697
30
0.0000000000
10
-14.0233351092
20
-21.3999294222
30
0.0000000000
10
-14.0840550069
20
-21.3679219742
30
0.0000000000
11
-13.7456416187
21
-21.6198298697
31
0.0000000000
11
-13.9103408237
21
-21.4780307318
31
0.0000000000
11
-14.0840550069
21
-21.3679219742
31
0.0000000000
0
SPLINE
5
277
100
AcDbEntity
8
0
100
AcDbSpline
62
0
6
CONTINUOUS
70
0
71
3
72
9
73
5
74
3
42
0.0000001000
43
0.0000001000
44
0.0000000001
12
-0.3284010069
22
0.1731109326
32
0.0000000000
13
-0.3697844611
23
0.0365926500
33
0.0000000000
40
0.0000000000
40
0.0000000000
40
0.0000000000
40
0.0000000000
40
0.5202579895
40
1.0000000000
40
1.0000000000
40
1.0000000000
40
1.0000000000
10
-14.0840550069
20
-21.3679219742
30
0.0000000000
10
-14.1410060895
20
-21.3379011923
30
0.0000000000
10
-14.2551557870
20
-21.2888547127
30
0.0000000000
10
-14.3767643581
20
-21.2623170648
30
0.0000000000
10
-14.4358980717
20
-21.2564653876
30
0.0000000000
11
-14.0840550069
21
-21.3679219742
31
0.0000000000
11
-14.2617995549
21
-21.2929599755
31
0.0000000000
11
-14.4358980717
21
-21.2564653876
31
0.0000000000
0
SPLINE
5
278
100
AcDbEntity
8
0
100
AcDbSpline
62
0
6
CONTINUOUS
70
0
71
3
72
10
73
6
74
4
42
0.0000001000
43
0.0000001000
44
0.0000000001
12
-0.3910688044
22
0.0386988784
32
0.0000000000
13
-0.3379763847
23
-0.2014499958
33
0.0000000000
40
0.0000000000
40
0.0000000000
40
0.0000000000
40
0.0000000000
40
0.4227167772
40
0.8214467031
40
1.0000000000
40
1.0000000000
40
1.0000000000
40
1.0000000000
10
-14.4358980717
20
-21.2564653876
30
0.0000000000
10
-14.4910018533
20
-21.2510124992
30
0.0000000000
10
-14.5994206564
20
-21.2520248088
30
0.0000000000
10
-14.7270160493
20
-21.2870898299
30
0.0000000000
10
-14.7944983939
20
-21.3217422621
30
0.0000000000
10
-14.8146139931
20
-21.3337321158
30
0.0000000000
11
-14.4358980717
21
-21.2564653876
31
0.0000000000
11
-14.6016316511
21
-21.2594139971
31
0.0000000000
11
-14.7521630443
21
-21.3016848624
31
0.0000000000
11
-14.8146139931
21
-21.3337321158
31
0.0000000000
0
SPLINE
5
279
100
AcDbEntity
8
0
100
AcDbSpline
62
0
6
CONTINUOUS
70
0
71
3
72
12
73
8
74
6
42
0.0000001000
43
0.0000001000
44
0.0000000001
12
0.6689811095
22
0.3987552195
32
0.0000000000
13
0.0000000001
23
0.7761761409
33
0.0000000000
40
0.0000000000
40
0.0000000000
40
0.0000000000
40
0.0000000000
40
0.1079742685
40
0.3101864496
40
0.5248050126
40
0.7551345707
40
1.0000000000
40
1.0000000000
40
1.0000000000
40
1.0000000000
10
-13.5349292559
20
-23.4813108798
30
0.0000000000
10
-13.5108516739
20
-23.4669591120
30
0.0000000000
10
-13.4447964037
20
-23.4204946876
30
0.0000000000
10
-13.3521442408
20
-23.3189914265
30
0.0000000000
10
-13.2734938719
20
-23.1693645028
30
0.0000000000
10
-13.2267335761
20
-22.9958962735
30
0.0000000000
10
-13.2172188778
20
-22.8726183286
30
0.0000000000
10
-13.2172188778
20
-22.8092654273
30
0.0000000000
11
-13.5349292559
21
-23.4813108798
31
0.0000000000
11
-13.4662330790
21
-23.4329717414
31
0.0000000000
11
-13.3597312706
21
-23.3176834940
31
0.0000000000
11
-13.2809669107
21
-23.1708990454
31
0.0000000000
11
-13.2330513996
21
-22.9986635323
31
0.0000000000
11
-13.2172188778
21
-22.8092654273
31
0.0000000000
0
SPLINE
5
27A
100
AcDbEntity
8
0
100
AcDbSpline
62
0
6
CONTINUOUS
70
0
71
3
72
8
73
4
74
2
42
0.0000001000
43
0.0000001000
44
0.0000000001
12
0.0513525169
22
0.0056307970
32
0.0000000000
13
0.0505637134
23
0.0108802849
33
0.0000000000
40
0.0000000000
40
0.0000000000
40
0.0000000000
40
0.0000000000
40
1.0000000000
40
1.0000000000
40
1.0000000000
40
1.0000000000
10
-1.2195192652
20
-24.3367724553
30
0.0000000000
10
-1.2024017596
20
-24.3348955230
30
0.0000000000
10
-1.1853618719
20
-24.3321376061
30
0.0000000000
10
-1.1685073008
20
-24.3285108445
30
0.0000000000
11
-1.2195192652
21
-24.3367724553
31
0.0000000000
11
-1.1685073008
21
-24.3285108445
31
0.0000000000
0
SPLINE
5
27B
100
AcDbEntity
8
0
100
AcDbSpline
62
0
6
CONTINUOUS
70
0
71
3
72
9
73
5
74
3
42
0.0000001000
43
0.0000001000
44
0.0000000001
12
0.1429339284
22
0.0307564804
32
0.0000000000
13
0.1277902217
23
0.0705475492
33
0.0000000000
40
0.0000000000
40
0.0000000000
40
0.0000000000
40
0.0000000000
40
0.2623869380
40
1.0000000000
40
1.0000000000
40
1.0000000000
40
1.0000000000
10
-1.1685073008
20
-24.3285108445
30
0.0000000000
10
-1.1560059688
20
-24.3258208116
30
0.0000000000
10
-1.1087498782
20
-24.3137469502
30
0.0000000000
10
-1.0636129489
20
-24.2948022355
30
0.0000000000
10
-1.0321930366
20
-24.2774566376
30
0.0000000000
11
-1.1685073008
21
-24.3285108445
31
0.0000000000
11
-1.1313531047
21
-24.3190117276
31
0.0000000000
11
-1.0321930366
21
-24.2774566376
31
0.0000000000
0
SPLINE
5
27C
100
AcDbEntity
8
0
100
AcDbSpline
62
0
6
CONTINUOUS
70
0
71
3
72
8
73
4
74
2
42
0.0000001000
43
0.0000001000
44
0.0000000001
12
0.0174920568
22
0.0318972395
32
0.0000000000
13
0.0197603787
23
0.0305312241
33
0.0000000000
40
0.0000000000
40
0.0000000000
40
0.0000000000
40
0.0000000000
40
1.0000000000
40
1.0000000000
40
1.0000000000
40
1.0000000000
10
-14.9470999530
20
-5.5091511068
30
0.0000000000
10
-14.9412692674
20
-5.4985186937
30
0.0000000000
10
-14.9350527960
20
-5.4880966920
30
0.0000000000
10
-14.9284660031
20
-5.4779196173
30
0.0000000000
11
-14.9470999530
21
-5.5091511068
31
0.0000000000
11
-14.9284660031
21
-5.4779196173
31
0.0000000000
0
SPLINE
5
27D
100
AcDbEntity
8
0
100
AcDbSpline
62
0
6
CONTINUOUS
70
0
71
3
72
9
73
5
74
3
42
0.0000001000
43
0.0000001000
44
0.0000000001
12
0.1157592534
22
0.1788564761
32
0.0000000000
13
0.1792136027
23
0.1149823540
33
0.0000000000
40
0.0000000000
40
0.0000000000
40
0.0000000000
40
0.0000000000
40
0.6319633003
40
1.0000000000
40
1.0000000000
40
1.0000000000
40
1.0000000000
10
-14.9284660031
20
-5.4779196173
30
0.0000000000
10
-14.9040808031
20
-5.4402427076
30
0.0000000000
10
-14.8574629775
20
-5.3859357768
30
0.0000000000
10
-14.8007137838
20
-5.3429458727
30
0.0000000000
10
-14.7787280562
20
-5.3288399640
30
0.0000000000
11
-14.9284660031
21
-5.4779196173
31
0.0000000000
11
-14.8411130516
21
-5.3761225003
31
0.0000000000
11
-14.7787280562
21
-5.3288399640
31
0.0000000000
0
SPLINE
5
27E
100
AcDbEntity
8
0
100
AcDbSpline
62
0
6
CONTINUOUS
70
0
71
3
72
12
73
8
74
6
42
0.0000001000
43
0.0000001000
44
0.0000000001
12
1.4861915333
22
-5.7219724802
32
0.0000000000
13
3.7720194502
23
-4.5514852928
33
0.0000000000
40
0.0000000000
40
0.0000000000
40
0.0000000000
40
0.0000000000
40
0.0287177175
40
0.3236503989
40
0.6062721332
40
0.8831100173
40
1.0000000000
40
1.0000000000
40
1.0000000000
40
1.0000000000
10
-16.7929362539
20
-15.7068244873
30
0.0000000000
10
-16.7787095777
20
-15.7615984838
30
0.0000000000
10
-16.6144898803
20
-16.3778963228
30
0.0000000000
10
-16.2250807180
20
-17.5100723338
30
0.0000000000
10
-15.4796431856
20
-19.0232255994
30
0.0000000000
10
-14.7476808495
20
-20.1398914544
30
0.0000000000
10
-14.2679098294
20
-20.7499028840
30
0.0000000000
10
-14.1209393999
20
-20.9272438964
30
0.0000000000
11
-16.7929362539
21
-15.7068244873
31
0.0000000000
11
-16.7492231785
21
-15.8708738323
31
0.0000000000
11
-16.1825066596
21
-17.5185419978
31
0.0000000000
11
-15.4446508219
21
-19.0163349294
31
0.0000000000
11
-14.5480485375
21
-20.3841732359
31
0.0000000000
11
-14.1209393999
21
-20.9272438964
31
0.0000000000
0
SPLINE
5
27F
100
AcDbEntity
8
0
100
AcDbSpline
62
0
6
CONTINUOUS
70
0
71
3
72
23
73
19
74
17
42
0.0000001000
43
0.0000001000
44
0.0000000001
12
-12.3089138505
22
-1.1021762282
32
0.0000000000
13
-7.8946347955
23
9.5163147650
33
0.0000000000
40
0.0000000000
40
0.0000000000
40
0.0000000000
40
0.0000000000
40
0.0211131716
40
0.1173527901
40
0.2108048975
40
0.2975099295
40
0.3768672666
40
0.4503215940
40
0.5194676989
40
0.5853639866
40
0.6485658396
40
0.7092281273
40
0.7672881717
40
0.8227167200
40
0.8757225680
40
0.9268642534
40
0.9769503991
40
1.0000000000
40
1.0000000000
40
1.0000000000
40
1.0000000000
10
-2.1597492143
20
-10.9710564099
30
0.0000000000
10
-2.2463759511
20
-10.9788132219
30
0.0000000000
10
-2.7281472298
20
-11.0188575294
30
0.0000000000
10
-3.5958259435
20
-11.0603859420
30
0.0000000000
10
-4.7347464218
20
-11.0513086351
30
0.0000000000
10
-5.8020496765
20
-10.9855901808
30
0.0000000000
10
-6.7827001342
20
-10.8748273813
30
0.0000000000
10
-7.6852769391
20
-10.7274949606
30
0.0000000000
10
-8.5252986269
20
-10.5476004979
30
0.0000000000
10
-9.3144029535
20
-10.3365044108
30
0.0000000000
10
-10.0580210649
20
-10.0947182516
30
0.0000000000
10
-10.7567086094
20
-9.8228731856
30
0.0000000000
10
-11.4083463203
20
-9.5219731208
30
0.0000000000
10
-12.0105685093
20
-9.1928204023
30
0.0000000000
10
-12.5625095571
20
-8.8347261105
30
0.0000000000
10
-13.0646272398
20
-8.4441884007
30
0.0000000000
10
-13.4361328838
20
-8.0906465060
30
0.0000000000
10
-13.6356349139
20
-7.8644798819
30
0.0000000000
10
-13.6962909742
20
-7.7913641296
30
0.0000000000
11
-2.1597492143
21
-10.9710564099
31
0.0000000000
11
-2.4197694454
21
-10.9926742597
31
0.0000000000
11
-3.6075226855
21
-11.0497126566
31
0.0000000000
11
-4.7621650996
21
-11.0404032034
31
0.0000000000
11
-5.8314353220
21
-10.9742585396
31
0.0000000000
11
-6.8057208696
21
-10.8637999475
31
0.0000000000
11
-7.7013775277
21
-10.7171045383
31
0.0000000000
11
-8.5366755526
21
-10.5376442698
31
0.0000000000
11
-9.3230512285
21
-10.3265940801
31
0.0000000000
11
-10.0654517536
21
-10.0843840913
31
0.0000000000
11
-10.7636420100
21
-9.8117460466
31
0.0000000000
11
-11.4144880121
21
-9.5100259462
31
0.0000000000
11
-12.0148470986
21
-9.1804636395
31
0.0000000000
11
-12.5634746859
21
-8.8227711865
31
0.0000000000
11
-13.0611846628
21
-8.4334372375
31
0.0000000000
11
-13.5079844574
21
-8.0052391216
31
0.0000000000
11
-13.6962909742
21
-7.7913641296
31
0.0000000000
0
SPLINE
5
280
100
AcDbEntity
8
0
100
AcDbSpline
62
0
6
CONTINUOUS
70
0
71
3
72
11
73
7
74
5
42
0.0000001000
43
0.0000001000
44
0.0000000001
12
-0.0546695911
22
0.3770888248
32
0.0000000000
13
-0.1480153368
23
0.3512009722
33
0.0000000000
40
0.0000000000
40
0.0000000000
40
0.0000000000
40
0.0000000000
40
0.3128295342
40
0.6042947666
40
0.8582968976
40
1.0000000000
40
1.0000000000
40
1.0000000000
40
1.0000000000
10
-1.1795539892
20
-11.2635096381
30
0.0000000000
10
-1.1852547435
20
-11.2241881310
30
0.0000000000
10
-1.1980383432
20
-11.1484759226
30
0.0000000000
10
-1.2215868186
20
-11.0419712411
30
0.0000000000
10
-1.2456323230
20
-10.9580313961
30
0.0000000000
10
-1.2629288216
20
-10.9107285273
30
0.0000000000
10
-1.2699202324
20
-10.8941397715
30
0.0000000000
11
-1.1795539892
21
-11.2635096381
31
0.0000000000
11
-1.1995075846
21
-11.1459938105
31
0.0000000000
11
-1.2237914148
21
-11.0376239463
31
0.0000000000
11
-1.2509833912
21
-10.9447396491
31
0.0000000000
11
-1.2699202324
21
-10.8941397715
31
0.0000000000
0
SPLINE
5
281
100
AcDbEntity
8
0
100
AcDbSpline
62
0
6
CONTINUOUS
70
0
71
3
72
11
73
7
74
5
42
0.0000001000
43
0.0000001000
44
0.0000000001
12
0.4405532647
22
-0.2447770066
32
0.0000000000
13
0.1638876078
23
-0.4764343625
33
0.0000000000
40
0.0000000000
40
0.0000000000
40
0.0000000000
40
0.0000000000
40
0.1838973664
40
0.4834563926
40
0.7946718423
40
1.0000000000
40
1.0000000000
40
1.0000000000
40
1.0000000000
10
-1.2393321538
20
-10.8926550748
30
0.0000000000
10
-1.2123266255
20
-10.9076596904
30
0.0000000000
10
-1.1448653371
20
-10.9539197378
30
0.0000000000
10
-1.0511232493
20
-11.0498343439
30
0.0000000000
10
-0.9766206401
20
-11.1657135693
30
0.0000000000
10
-0.9424155692
20
-11.2456187422
30
0.0000000000
10
-0.9311986557
20
-11.2782272055
30
0.0000000000
11
-1.2393321538
21
-10.8926550748
31
0.0000000000
11
-1.1625139952
21
-10.9446020735
31
0.0000000000
11
-1.0564170350
21
-11.0515559644
31
0.0000000000
11
-0.9716551883
21
-11.1831301299
31
0.0000000000
11
-0.9311986557
21
-11.2782272055
31
0.0000000000
0
SPLINE
5
282
100
AcDbEntity
8
0
100
AcDbSpline
62
0
6
CONTINUOUS
70
0
71
3
72
9
73
5
74
3
42
0.0000001000
43
0.0000001000
44
0.0000000001
12
0.0624572820
22
-0.1815683061
32
0.0000000000
13
0.0025531169
23
-0.1916407252
33
0.0000000000
40
0.0000000000
40
0.0000000000
40
0.0000000000
40
0.0000000000
40
0.2618342621
40
1.0000000000
40
1.0000000000
40
1.0000000000
40
1.0000000000
10
-0.9311986557
20
-11.2782272055
30
0.0000000000
10
-0.9257475036
20
-11.2940741400
30
0.0000000000
10
-0.9070749190
20
-11.3553598475
30
0.0000000000
10
-0.8971585070
20
-11.4192399430
30
0.0000000000
10
-0.8965302992
20
-11.4663941488
30
0.0000000000
11
-0.9311986557
21
-11.2782272055
31
0.0000000000
11
-0.9165695573
21
-11.3263453999
31
0.0000000000
11
-0.8965302992
21
-11.4663941488
31
0.0000000000
0
SPLINE
5
283
100
AcDbEntity
8
0
100
AcDbSpline
62
0
6
CONTINUOUS
70
0
71
3
72
15
73
11
74
9
42
0.0000001000
43
0.0000001000
44
0.0000000001
12
0.0000192942
22
8.2000674193
32
0.0000000000
13
4.1053384961
23
7.0984013350
33
0.0000000000
40
0.0000000000
40
0.0000000000
40
0.0000000000
40
0.0000000000
40
0.1058460404
40
0.2159081050
40
0.3302939494
40
0.4492565927
40
0.5739504316
40
0.7065569567
40
0.8485506233
40
1.0000000000
40
1.0000000000
40
1.0000000000
40
1.0000000000
10
-3.4187264106
20
-19.0612387108
30
0.0000000000
10
-3.4187257299
20
-18.7719238218
30
0.0000000000
10
-3.3963363883
20
-18.1815949179
30
0.0000000000
10
-3.3002559183
20
-17.2832878124
30
0.0000000000
10
-3.1403460956
20
-16.3577049512
30
0.0000000000
10
-2.9143253830
20
-15.4048862091
30
0.0000000000
10
-2.6165610296
20
-14.4198202282
30
0.0000000000
10
-2.2370580639
20
-13.3957453955
30
0.0000000000
10
-1.7629999798
20
-12.3311888470
30
0.0000000000
10
-1.3868045226
20
-11.6218565881
30
0.0000000000
10
-1.1795542038
20
-11.2635071021
30
0.0000000000
11
-3.4187264106
21
-19.0612387108
31
0.0000000000
11
-3.3870600927
21
-18.1938718971
31
0.0000000000
11
-3.2920818193
21
-17.2963670834
31
0.0000000000
11
-3.1331910036
21
-16.3719513229
31
0.0000000000
11
-2.9086440625
21
-15.4226451404
31
0.0000000000
11
-2.6132108684
21
-14.4437574277
31
0.0000000000
11
-2.2355900989
21
-13.4240500490
31
0.0000000000
11
-1.7618872218
21
-12.3604080523
31
0.0000000000
11
-1.1795542038
21
-11.2635071021
31
0.0000000000
0
SPLINE
5
284
100
AcDbEntity
8
0
100
AcDbSpline
62
0
6
CONTINUOUS
70
0
71
3
72
10
73
6
74
4
42
0.0000001000
43
0.0000001000
44
0.0000000001
12
0.2928912142
22
-0.1891970689
32
0.0000000000
13
0.2503108049
23
-0.2427453299
33
0.0000000000
40
0.0000000000
40
0.0000000000
40
0.0000000000
40
0.0000000000
40
0.3868863101
40
0.7308712880
40
1.0000000000
40
1.0000000000
40
1.0000000000
40
1.0000000000
10
-1.1795539892
20
-11.2635096381
30
0.0000000000
10
-1.1417821222
20
-11.2879088901
30
0.0000000000
10
-1.0690508448
20
-11.3319489655
30
0.0000000000
10
-0.9750105433
20
-11.4002654905
30
0.0000000000
10
-0.9189855740
20
-11.4446175681
30
0.0000000000
10
-0.8965302991
20
-11.4663941474
30
0.0000000000
11
-1.1795539892
21
-11.2635096381
31
0.0000000000
11
-1.0659024209
21
-11.3361846540
31
0.0000000000
11
-0.9684848807
21
-11.4061557281
31
0.0000000000
11
-0.8965302991
21
-11.4663941474
31
0.0000000000
0
SPLINE
5
285
100
AcDbEntity
8
0
100
AcDbSpline
62
0
6
CONTINUOUS
70
0
71
3
72
8
73
4
74
2
42
0.0000001000
43
0.0000001000
44
0.0000000001
12
0.0000005491
22
0.2444071929
32
0.0000000000
13
0.0053330423
23
0.2443848886
33
0.0000000000
40
0.0000000000
40
0.0000000000
40
0.0000000000
40
0.0000000000
40
1.0000000000
40
1.0000000000
40
1.0000000000
40
1.0000000000
10
-3.0527704074
20
-18.9753184427
30
0.0000000000
10
-3.0527702244
20
-18.8938493784
30
0.0000000000
10
-3.0518658670
20
-18.8123737830
30
0.0000000000
10
-3.0500881863
20
-18.7309121535
30
0.0000000000
11
-3.0527704074
21
-18.9753184427
31
0.0000000000
11
-3.0500881863
21
-18.7309121535
31
0.0000000000
0
SPLINE
5
286
100
AcDbEntity
8
0
100
AcDbSpline
62
0
6
CONTINUOUS
70
0
71
3
72
16
73
12
74
10
42
0.0000001000
43
0.0000001000
44
0.0000000001
12
0.1669744712
22
7.6515495170
32
0.0000000000
13
3.8310656766
23
6.6241854569
33
0.0000000000
40
0.0000000000
40
0.0000000000
40
0.0000000000
40
0.0000000000
40
0.0649389736
40
0.1652401079
40
0.2690539545
40
0.3764808594
40
0.4879304214
40
0.6049042755
40
0.7288224420
40
0.8606789478
40
1.0000000000
40
1.0000000000
40
1.0000000000
40
1.0000000000
10
-3.0500881863
20
-18.7309121535
30
0.0000000000
10
-3.0464738027
20
-18.5652842295
30
0.0000000000
10
-3.0280904273
20
-18.1439835122
30
0.0000000000
10
-2.9628302322
20
-17.4604210549
30
0.0000000000
10
-2.8414404404
20
-16.6746429745
30
0.0000000000
10
-2.6706417451
20
-15.8690391074
30
0.0000000000
10
-2.4477418861
20
-15.0414478327
30
0.0000000000
10
-2.1674306944
20
-14.1870835623
30
0.0000000000
10
-1.8215026771
20
-13.3009122883
30
0.0000000000
10
-1.4012288147
20
-12.3843225423
30
0.0000000000
10
-1.0744484193
20
-11.7740248928
30
0.0000000000
10
-0.8965323857
20
-11.4663953969
30
0.0000000000
11
-3.0500881863
21
-18.7309121535
31
0.0000000000
11
-3.0286736207
21
-18.2343738595
31
0.0000000000
11
-2.9564326725
21
-17.4702519940
31
0.0000000000
11
-2.8357232146
21
-16.6850670870
31
0.0000000000
11
-2.6656849281
21
-15.8807877887
31
0.0000000000
11
-2.4442371216
21
-15.0572002863
31
0.0000000000
11
-2.1654303718
21
-14.2066158148
31
0.0000000000
11
-1.8207241268
21
-13.3232356857
31
0.0000000000
11
-1.4001088226
21
-12.4060873507
31
0.0000000000
11
-0.8965323857
21
-11.4663953969
31
0.0000000000
0
SPLINE
5
287
100
AcDbEntity
8
0
100
AcDbSpline
62
0
6
CONTINUOUS
70
0
71
3
72
15
73
11
74
9
42
0.0000001000
43
0.0000001000
44
0.0000000001
12
-5.1374536639
22
2.9729679102
32
0.0000000000
13
0.0000281649
23
5.9356523098
33
0.0000000000
40
0.0000000000
40
0.0000000000
40
0.0000000000
40
0.0000000000
40
0.1216272815
40
0.2400005830
40
0.3573651447
40
0.4760045517
40
0.5983873864
40
0.7261589582
40
0.8599163969
40
1.0000000000
40
1.0000000000
40
1.0000000000
40
1.0000000000
10
-1.1795531819
20
-24.2830951396
30
0.0000000000
10
-1.3878380228
20
-24.1625638047
30
0.0000000000
10
-1.7733235724
20
-23.8778883171
30
0.0000000000
10
-2.2499659344
20
-23.3506986190
30
0.0000000000
10
-2.6288431512
20
-22.7574696580
30
0.0000000000
10
-2.9246052485
20
-22.1109255169
30
0.0000000000
10
-3.1482595795
20
-21.4148412837
30
0.0000000000
10
-3.3056078245
20
-20.6705280640
30
0.0000000000
10
-3.3990367449
20
-19.8804889918
30
0.0000000000
10
-3.4187277257
20
-19.3384012316
30
0.0000000000
10
-3.4187264106
20
-19.0612387108
30
0.0000000000
11
-1.1795531819
21
-24.2830951396
31
0.0000000000
11
-1.7617587591
21
-23.8562110046
31
0.0000000000
11
-2.2355815815
21
-23.3373943922
31
0.0000000000
11
-2.6132462896
21
-22.7520141621
31
0.0000000000
11
-2.9087377242
21
-22.1128071145
31
0.0000000000
11
-3.1332209261
21
-21.4219408833
31
0.0000000000
11
-3.2920917362
21
-20.6803600100
31
0.0000000000
11
-3.3870641159
21
-19.8921232188
31
0.0000000000
11
-3.4187264106
21
-19.0612387108
31
0.0000000000
0
SPLINE
5
288
100
AcDbEntity
8
0
100
AcDbSpline
62
0
6
CONTINUOUS
70
0
71
3
72
15
73
11
74
9
42
0.0000001000
43
0.0000001000
44
0.0000000001
12
-4.7123916592
22
2.7269051452
32
0.0000000000
13
-0.1373394406
23
5.4440819540
33
0.0000000000
40
0.0000000000
40
0.0000000000
40
0.0000000000
40
0.0000000000
40
0.1275234751
40
0.2518910302
40
0.3751194244
40
0.4997332779
40
0.6281535494
40
0.7622992517
40
0.9027418846
40
1.0000000000
40
1.0000000000
40
1.0000000000
40
1.0000000000
10
-0.8965306068
20
-24.0037724076
30
0.0000000000
10
-1.0968441270
20
-23.8878576008
30
0.0000000000
10
-1.4679794053
20
-23.6138582975
30
0.0000000000
10
-1.9269939605
20
-23.1063370496
30
0.0000000000
10
-2.2920516695
20
-22.5348406874
30
0.0000000000
10
-2.5768859510
20
-21.9122181345
30
0.0000000000
10
-2.7922751301
20
-21.2419064084
30
0.0000000000
10
-2.9438079382
20
-20.5252256783
30
0.0000000000
10
-3.0231687742
20
-19.8542698199
30
0.0000000000
10
-3.0449236987
20
-19.4231284411
30
0.0000000000
10
-3.0493761570
20
-19.2466347242
30
0.0000000000
11
-0.8965306068
21
-24.0037724076
31
0.0000000000
11
-1.4565055063
21
-23.5933045633
31
0.0000000000
11
-1.9132161877
21
-23.0933978407
31
0.0000000000
11
-2.2769821693
21
-22.5296559391
31
0.0000000000
11
-2.5616871557
21
-21.9138213458
31
0.0000000000
11
-2.7777654926
21
-21.2488628870
31
0.0000000000
11
-2.9307856182
21
-20.5347156132
31
0.0000000000
11
-3.0222701394
21
-19.7755673435
31
0.0000000000
11
-3.0493761570
21
-19.2466347242
31
0.0000000000
0
SPLINE
5
289
100
AcDbEntity
8
0
100
AcDbSpline
62
0
6
CONTINUOUS
70
0
71
3
72
8
73
4
74
2
42
0.0000001000
43
0.0000001000
44
0.0000000001
12
-0.0068438206
22
0.2712863854
32
0.0000000000
13
0.0000012292
23
0.2713075219
33
0.0000000000
40
0.0000000000
40
0.0000000000
40
0.0000000000
40
0.0000000000
40
1.0000000000
40
1.0000000000
40
1.0000000000
40
1.0000000000
10
-3.0493761570
20
-19.2466347242
30
0.0000000000
10
-3.0516574306
20
-19.1562059291
30
0.0000000000
10
-3.0527708171
20
-19.0657542833
30
0.0000000000
10
-3.0527704074
20
-18.9753184427
30
0.0000000000
11
-3.0493761570
21
-19.2466347242
31
0.0000000000
11
-3.0527704074
21
-18.9753184427
31
0.0000000000
0
SPLINE
5
28A
100
AcDbEntity
8
0
100
AcDbSpline
62
0
6
CONTINUOUS
70
0
71
3
72
10
73
6
74
4
42
0.0000001000
43
0.0000001000
44
0.0000000001
12
0.3723993131
22
0.1596300267
32
0.0000000000
13
0.1753623939
23
0.3652547394
33
0.0000000000
40
0.0000000000
40
0.0000000000
40
0.0000000000
40
0.0000000000
40
0.3230865552
40
0.6587908267
40
1.0000000000
40
1.0000000000
40
1.0000000000
40
1.0000000000
10
-1.1795539903
20
-24.2830945748
30
0.0000000000
10
-1.1394482532
20
-24.2659031363
30
0.0000000000
10
-1.0621910944
20
-24.2194921886
30
0.0000000000
10
-0.9656166737
20
-24.1235230623
30
0.0000000000
10
-0.9164753851
20
-24.0453149937
30
0.0000000000
10
-0.8965302992
20
-24.0037722378
30
0.0000000000
11
-1.1795539903
21
-24.2830945748
31
0.0000000000
11
-1.0669501703
21
-24.2163373950
31
0.0000000000
11
-0.9701403845
21
-24.1207936824
31
0.0000000000
11
-0.8965302992
21
-24.0037722378
31
0.0000000000
0
SPLINE
5
28B
100
AcDbEntity
8
0
100
AcDbSpline
62
0
6
CONTINUOUS
70
0
71
3
72
10
73
6
74
4
42
0.0000001000
43
0.0000001000
44
0.0000000001
12
-0.0041740637
22
-0.3181131265
32
0.0000000000
13
-0.2802639854
23
-0.1561659128
33
0.0000000000
40
0.0000000000
40
0.0000000000
40
0.0000000000
40
0.0000000000
40
0.4037436201
40
0.7583101410
40
1.0000000000
40
1.0000000000
40
1.0000000000
40
1.0000000000
10
-0.8965302992
20
-24.0037722378
30
0.0000000000
10
-0.8970920498
20
-24.0465842862
30
0.0000000000
10
-0.9083050108
20
-24.1276231203
30
0.0000000000
10
-0.9591755317
20
-24.2239458995
30
0.0000000000
10
-1.0096589562
20
-24.2647948410
30
0.0000000000
10
-1.0322379439
20
-24.2773760802
30
0.0000000000
11
-0.8965302992
21
-24.0037722378
31
0.0000000000
11
-0.9167888656
21
-24.1306117978
31
0.0000000000
11
-0.9720434959
21
-24.2289541138
31
0.0000000000
11
-1.0322379439
21
-24.2773760802
31
0.0000000000
0
SPLINE
5
28C
100
AcDbEntity
8
0
100
AcDbSpline
62
0
6
CONTINUOUS
70
0
71
3
72
9
73
5
74
3
42
0.0000001000
43
0.0000001000
44
0.0000000001
12
-0.0236605195
22
-0.0643836058
32
0.0000000000
13
-0.0655429571
23
-0.0129737107
33
0.0000000000
40
0.0000000000
40
0.0000000000
40
0.0000000000
40
0.0000000000
40
0.6673633468
40
1.0000000000
40
1.0000000000
40
1.0000000000
40
1.0000000000
10
-1.1795539903
20
-24.2830945748
30
0.0000000000
10
-1.1848173781
20
-24.2974169944
30
0.0000000000
10
-1.1906195778
20
-24.3201100340
30
0.0000000000
10
-1.2123210329
20
-24.3349937390
30
0.0000000000
10
-1.2195883628
20
-24.3364322496
30
0.0000000000
11
-1.1795539903
21
-24.2830945748
31
0.0000000000
11
-1.1996428413
21
-24.3242279268
31
0.0000000000
11
-1.2195883628
21
-24.3364322496
31
0.0000000000
0
SPLINE
5
28D
100
AcDbEntity
8
0
100
AcDbSpline
62
0
6
CONTINUOUS
70
0
71
3
72
9
73
5
74
3
42
0.0000001000
43
0.0000001000
44
0.0000000001
12
0.1010571039
22
0.0651223787
32
0.0000000000
13
0.1199377811
23
0.0078208618
33
0.0000000000
40
0.0000000000
40
0.0000000000
40
0.0000000000
40
0.0000000000
40
0.3456806615
40
1.0000000000
40
1.0000000000
40
1.0000000000
40
1.0000000000
10
-14.7786539576
20
-5.3289549035
30
0.0000000000
10
-14.7670094621
20
-5.3214510545
30
0.0000000000
10
-14.7313834126
20
-5.3028263623
30
0.0000000000
10
-14.6918224078
20
-5.2945432079
30
0.0000000000
10
-14.6656632046
20
-5.2928374275
30
0.0000000000
11
-14.7786539576
21
-5.3289549035
31
0.0000000000
11
-14.7419087814
21
-5.3098104260
31
0.0000000000
11
-14.6656632046
21
-5.2928374275
31
0.0000000000
0
SPLINE
5
28E
100
AcDbEntity
8
0
100
AcDbSpline
62
0
6
CONTINUOUS
70
0
71
3
72
9
73
5
74
3
42
0.0000001000
43
0.0000001000
44
0.0000000001
12
0.0000012154
22
-1.3632158439
32
0.0000000000
13
0.1757461454
23
-1.3521917258
33
0.0000000000
40
0.0000000000
40
0.0000000000
40
0.0000000000
40
0.0000000000
40
0.6095542609
40
1.0000000000
40
1.0000000000
40
1.0000000000
40
1.0000000000
10
-17.0713862201
20
-13.3332678055
30
0.0000000000
10
-17.0713859731
20
-13.6102524808
30
0.0000000000
10
-17.0555652093
20
-14.0648749937
30
0.0000000000
10
-17.0099077238
20
-14.5172902265
30
0.0000000000
10
-16.9870346126
20
-14.6932760591
30
0.0000000000
11
-17.0713862201
21
-13.3332678055
31
0.0000000000
11
-17.0410127203
21
-14.1636665314
31
0.0000000000
11
-16.9870346126
21
-14.6932760591
31
0.0000000000
0
SPLINE
5
28F
100
AcDbEntity
8
0
100
AcDbSpline
62
0
6
CONTINUOUS
70
0
71
3
72
9
73
5
74
3
42
0.0000001000
43
0.0000001000
44
0.0000000001
12
0.0663718270
22
-0.5106651703
32
0.0000000000
13
0.0961467647
23
-0.5059657322
33
0.0000000000
40
0.0000000000
40
0.0000000000
40
0.0000000000
40
0.0000000000
40
0.5042791723
40
1.0000000000
40
1.0000000000
40
1.0000000000
40
1.0000000000
10
-16.9870346126
20
-14.6932760591
30
0.0000000000
10
-16.9758779692
20
-14.7791153289
30
0.0000000000
10
-16.9513732312
20
-14.9490267265
30
0.0000000000
10
-16.9219201460
20
-15.1181761317
30
0.0000000000
10
-16.9060328281
20
-15.2017820489
30
0.0000000000
11
-16.9870346126
21
-14.6932760591
31
0.0000000000
11
-16.9499051590
21
-14.9502871140
31
0.0000000000
11
-16.9060328281
21
-15.2017820489
31
0.0000000000
0
SPLINE
5
290
100
AcDbEntity
8
0
100
AcDbSpline
62
0
6
CONTINUOUS
70
0
71
3
72
9
73
5
74
3
42
0.0000001000
43
0.0000001000
44
0.0000000001
12
0.0957591458
22
-0.5039259140
32
0.0000000000
13
0.1286482923
23
-0.4965881513
33
0.0000000000
40
0.0000000000
40
0.0000000000
40
0.0000000000
40
0.0000000000
40
0.9736851499
40
1.0000000000
40
1.0000000000
40
1.0000000000
40
1.0000000000
10
-16.9060328281
20
-15.2017820489
30
0.0000000000
10
-16.8749530753
20
-15.3653371086
30
0.0000000000
10
-16.8379756972
20
-15.5323496020
30
0.0000000000
10
-16.7952448234
20
-15.6979175099
30
0.0000000000
10
-16.7941163699
20
-15.7022733908
30
0.0000000000
11
-16.9060328281
21
-15.2017820489
31
0.0000000000
11
-16.7974897523
21
-15.6892027202
31
0.0000000000
11
-16.7941163699
21
-15.7022733908
31
0.0000000000
0
SPLINE
5
291
100
AcDbEntity
8
0
100
AcDbSpline
62
0
6
CONTINUOUS
70
0
71
3
72
8
73
4
74
2
42
0.0000001000
43
0.0000001000
44
0.0000000001
12
-0.0104143102
22
-0.0189579928
32
0.0000000000
13
-0.0103909879
23
-0.0189710707
33
0.0000000000
40
0.0000000000
40
0.0000000000
40
0.0000000000
40
0.0000000000
40
1.0000000000
40
1.0000000000
40
1.0000000000
40
1.0000000000
10
-14.9234736207
20
-5.4972487284
30
0.0000000000
10
-14.9269450575
20
-5.5035680593
30
0.0000000000
10
-14.9304126072
20
-5.5098895734
30
0.0000000000
10
-14.9338762698
20
-5.5162132637
30
0.0000000000
11
-14.9234736207
21
-5.4972487284
31
0.0000000000
11
-14.9338762698
21
-5.5162132637
31
0.0000000000
0
SPLINE
5
292
100
AcDbEntity
8
0
100
AcDbSpline
62
0
6
CONTINUOUS
70
0
71
3
72
15
73
11
74
9
42
0.0000001000
43
0.0000001000
44
0.0000000001
12
-3.9131285527
22
-7.1442907424
32
0.0000000000
13
-0.0256675962
23
-8.1458206007
33
0.0000000000
40
0.0000000000
40
0.0000000000
40
0.0000000000
40
0.0000000000
40
0.1495151630
40
0.2924581241
40
0.4260694790
40
0.5518035852
40
0.6717408836
40
0.7870782351
40
0.8980227678
40
1.0000000000
40
1.0000000000
40
1.0000000000
40
1.0000000000
10
-14.9338762698
20
-5.5162132637
30
0.0000000000
10
-15.1289002876
20
-5.8722731952
30
0.0000000000
10
-15.4862704081
20
-6.5822367048
30
0.0000000000
10
-15.9380608097
20
-7.6480320874
30
0.0000000000
10
-16.3020657064
20
-8.6785992536
30
0.0000000000
10
-16.5876352242
20
-9.6686478798
30
0.0000000000
10
-16.8043864346
20
-10.6251671607
30
0.0000000000
10
-16.9577340005
20
-11.5532235304
30
0.0000000000
10
-17.0486058283
20
-12.4404382588
30
0.0000000000
10
-17.0704542927
20
-13.0186653475
30
0.0000000000
10
-17.0713267962
20
-13.2955614272
30
0.0000000000
11
-14.9338762698
21
-5.5162132637
31
0.0000000000
11
-15.4819501512
21
-6.6038388633
31
0.0000000000
11
-15.9364645386
21
-7.6758300781
31
0.0000000000
11
-16.2987362286
21
-8.7021212387
31
0.0000000000
11
-16.5821853118
21
-9.6863055073
31
0.0000000000
11
-16.7975195252
21
-10.6392487309
31
0.0000000000
11
-16.9499154840
21
-11.5663062492
31
0.0000000000
11
-17.0410170220
21
-12.4654201703
31
0.0000000000
11
-17.0713267962
21
-13.2955614272
31
0.0000000000
0
SPLINE
5
293
100
AcDbEntity
8
0
100
AcDbSpline
62
0
6
CONTINUOUS
70
0
71
3
72
8
73
4
74
2
42
0.0000001000
43
0.0000001000
44
0.0000000001
12
-0.0001188143
22
-0.0377066964
32
0.0000000000
13
0.0000000678
23
-0.0377059974
33
0.0000000000
40
0.0000000000
40
0.0000000000
40
0.0000000000
40
0.0000000000
40
1.0000000000
40
1.0000000000
40
1.0000000000
40
1.0000000000
10
-17.0713267962
20
-13.2955614272
30
0.0000000000
10
-17.0713664009
20
-13.3081303260
30
0.0000000000
10
-17.0713862427
20
-13.3206991397
30
0.0000000000
10
-17.0713862201
20
-13.3332678055
30
0.0000000000
11
-17.0713267962
21
-13.2955614272
31
0.0000000000
11
-17.0713862201
21
-13.3332678055
31
0.0000000000
0
SPLINE
5
294
100
AcDbEntity
8
0
100
AcDbSpline
62
0
6
CONTINUOUS
70
0
71
3
72
8
73
4
74
2
42
0.0000001000
43
0.0000001000
44
0.0000000001
12
-0.0251489532
22
-0.0048059556
32
0.0000000000
13
-0.0142668449
23
-0.0190403055
33
0.0000000000
40
0.0000000000
40
0.0000000000
40
0.0000000000
40
0.0000000000
40
1.0000000000
40
1.0000000000
40
1.0000000000
40
1.0000000000
10
-14.9234745221
20
-5.4972503120
30
0.0000000000
10
-14.9318575065
20
-5.4988522972
30
0.0000000000
10
-14.9419997509
20
-5.5030645151
30
0.0000000000
10
-14.9467553658
20
-5.5094112836
30
0.0000000000
11
-14.9234745221
21
-5.4972503120
31
0.0000000000
11
-14.9467553658
21
-5.5094112836
31
0.0000000000
0
SPLINE
5
295
100
AcDbEntity
8
0
100
AcDbSpline
62
0
6
CONTINUOUS
70
0
71
3
72
8
73
4
74
2
42
0.0000001000
43
0.0000001000
44
0.0000000001
12
0.1270654643
22
-0.1533300825
32
0.0000000000
13
0.1331636510
23
-0.1480150071
33
0.0000000000
40
0.0000000000
40
0.0000000000
40
0.0000000000
40
0.0000000000
40
1.0000000000
40
1.0000000000
40
1.0000000000
40
1.0000000000
10
-14.1209759231
20
-20.9272107190
30
0.0000000000
10
-14.0786207683
20
-20.9783207465
30
0.0000000000
10
-14.0352022129
20
-21.0285323632
30
0.0000000000
10
-13.9908143292
20
-21.0778706989
30
0.0000000000
11
-14.1209759231
21
-20.9272107190
31
0.0000000000
11
-13.9908143292
21
-21.0778706989
31
0.0000000000
0
SPLINE
5
296
100
AcDbEntity
8
0
100
AcDbSpline
62
0
6
CONTINUOUS
70
0
71
3
72
8
73
4
74
2
42
0.0000001000
43
0.0000001000
44
0.0000000001
12
0.1676248948
22
-0.1863196135
32
0.0000000000
13
0.1762776687
23
-0.1781674471
33
0.0000000000
40
0.0000000000
40
0.0000000000
40
0.0000000000
40
0.0000000000
40
1.0000000000
40
1.0000000000
40
1.0000000000
40
1.0000000000
10
-13.9908143292
20
-21.0778706989
30
0.0000000000
10
-13.9349393643
20
-21.1399772368
30
0.0000000000
10
-13.8775284514
20
-21.2007000181
30
0.0000000000
10
-13.8187692285
20
-21.2600891672
30
0.0000000000
11
-13.9908143292
21
-21.0778706989
31
0.0000000000
11
-13.8187692285
21
-21.2600891672
31
0.0000000000
0
SPLINE
5
297
100
AcDbEntity
8
0
100
AcDbSpline
62
0
6
CONTINUOUS
70
0
71
3
72
9
73
5
74
3
42
0.0000001000
43
0.0000001000
44
0.0000000001
12
0.2913990359
22
-0.2945229688
32
0.0000000000
13
0.3112023889
23
-0.2733630711
33
0.0000000000
40
0.0000000000
40
0.0000000000
40
0.0000000000
40
0.0000000000
40
0.4629208035
40
1.0000000000
40
1.0000000000
40
1.0000000000
40
1.0000000000
10
-13.8187692285
20
-21.2600891672
30
0.0000000000
10
-13.7738043365
20
-21.3055361036
30
0.0000000000
10
-13.6749657211
20
-21.4020233903
30
0.0000000000
10
-13.5728350405
20
-21.4949711622
30
0.0000000000
10
-13.5171215975
20
-21.5439103684
30
0.0000000000
11
-13.8187692285
21
-21.2600891672
31
0.0000000000
11
-13.6815899587
21
-21.3941095455
31
0.0000000000
11
-13.5171215975
21
-21.5439103684
31
0.0000000000
0
SPLINE
5
298
100
AcDbEntity
8
0
100
AcDbSpline
62
0
6
CONTINUOUS
70
0
71
3
72
8
73
4
74
2
42
0.0000001000
43
0.0000001000
44
0.0000000001
12
0.1685245612
22
-0.1480335410
32
0.0000000000
13
0.1735056388
23
-0.1421716156
33
0.0000000000
40
0.0000000000
40
0.0000000000
40
0.0000000000
40
0.0000000000
40
1.0000000000
40
1.0000000000
40
1.0000000000
40
1.0000000000
10
-13.5171215975
20
-21.5439103684
30
0.0000000000
10
-13.4609467438
20
-21.5932548820
30
0.0000000000
10
-13.4038963876
20
-21.6416019691
30
0.0000000000
10
-13.3460611746
20
-21.6889925077
30
0.0000000000
11
-13.5171215975
21
-21.5439103684
31
0.0000000000
11
-13.3460611746
21
-21.6889925077
31
0.0000000000
0
SPLINE
5
299
100
AcDbEntity
8
0
100
AcDbSpline
62
0
6
CONTINUOUS
70
0
71
3
72
21
73
17
74
15
42
0.0000001000
43
0.0000001000
44
0.0000000001
12
9.8074281607
22
-8.0362685393
32
0.0000000000
13
12.6020965445
23
1.3474810317
33
0.0000000000
40
0.0000000000
40
0.0000000000
40
0.0000000000
40
0.0000000000
40
0.0178751822
40
0.0729426648
40
0.1306478820
40
0.1913852171
40
0.2551630080
40
0.3218436215
40
0.3914725475
40
0.4645460214
40
0.5425332907
40
0.6268964985
40
0.7186975952
40
0.8157641393
40
0.9126930277
40
1.0000000000
40
1.0000000000
40
1.0000000000
40
1.0000000000
10
-13.3460611746
20
-21.6889925077
30
0.0000000000
10
-13.2876246529
20
-21.7368757624
30
0.0000000000
10
-13.0458949891
20
-21.9282864325
30
0.0000000000
10
-12.5918230346
20
-22.2432548749
30
0.0000000000
10
-11.9572156269
20
-22.6114809778
30
0.0000000000
10
-11.2650823000
20
-22.9497763456
30
0.0000000000
10
-10.5177772961
20
-23.2576011132
30
0.0000000000
10
-9.7183773133
20
-23.5336633416
30
0.0000000000
10
-8.8675545606
20
-23.7770734389
30
0.0000000000
10
-7.9589470685
20
-23.9877218164
30
0.0000000000
10
-6.9797850805
20
-24.1643614923
30
0.0000000000
10
-5.9145897343
20
-24.3026165699
30
0.0000000000
10
-4.7633158791
20
-24.3928678409
30
0.0000000000
10
-3.5557421964
20
-24.4236171216
30
0.0000000000
10
-2.3672774688
20
-24.3898724068
30
0.0000000000
10
-1.5910866928
20
-24.3271461985
30
0.0000000000
10
-1.2243363947
20
-24.2879313688
30
0.0000000000
11
-13.3460611746
21
-21.6889925077
31
0.0000000000
11
-13.1684413269
21
-21.8297548112
31
0.0000000000
11
-12.5960985940
21
-22.2291353576
31
0.0000000000
11
-11.9643452587
21
-22.5975762833
31
0.0000000000
11
-11.2733644449
21
-22.9368280061
31
0.0000000000
11
-10.5264209367
21
-23.2457473047
31
0.0000000000
11
-9.7279312897
21
-23.5225107269
31
0.0000000000
11
-8.8797286209
21
-23.7660021313
31
0.0000000000
11
-7.9776925968
21
-23.9758136335
31
0.0000000000
11
-7.0051033112
21
-24.1518484633
31
0.0000000000
11
-5.9448592723
21
-24.2899378388
31
0.0000000000
11
-4.7849785503
21
-24.3811906438
31
0.0000000000
11
-3.5551812738
21
-24.4125803318
31
0.0000000000
11
-2.3272298307
21
-24.3774732445
31
0.0000000000
11
-1.2243363947
21
-24.2879313688
31
0.0000000000
0
SPLINE
5
29A
100
AcDbEntity
8
0
100
AcDbSpline
62
0
6
CONTINUOUS
70
0
71
3
72
8
73
4
74
2
42
0.0000001000
43
0.0000001000
44
0.0000000001
12
0.0447886035
22
0.0047890280
32
0.0000000000
13
0.0447777826
23
0.0048834551
33
0.0000000000
40
0.0000000000
40
0.0000000000
40
0.0000000000
40
0.0000000000
40
1.0000000000
40
1.0000000000
40
1.0000000000
40
1.0000000000
10
-1.2243363947
20
-24.2879313688
30
0.0000000000
10
-1.2094068602
20
-24.2863350261
30
0.0000000000
10
-1.1944791094
20
-24.2847229580
30
0.0000000000
10
-1.1795531819
20
-24.2830951396
30
0.0000000000
11
-1.2243363947
21
-24.2879313688
31
0.0000000000
11
-1.1795531819
21
-24.2830951396
31
0.0000000000
0
SPLINE
5
29B
100
AcDbEntity
8
0
100
AcDbSpline
62
0
6
CONTINUOUS
70
0
71
3
72
8
73
4
74
2
42
0.0000001000
43
0.0000001000
44
0.0000000001
12
-0.4080645143
22
-0.0547304130
32
0.0000000000
13
-0.4091247958
23
-0.0466113980
33
0.0000000000
40
0.0000000000
40
0.0000000000
40
0.0000000000
40
0.0000000000
40
1.0000000000
40
1.0000000000
40
1.0000000000
40
1.0000000000
10
-1.1795542038
20
-11.2635071021
30
0.0000000000
10
-1.3155757086
20
-11.2817505732
30
0.0000000000
10
-1.4517903132
20
-11.2986328174
30
0.0000000000
10
-1.5881652452
20
-11.3141699501
30
0.0000000000
11
-1.1795542038
21
-11.2635071021
31
0.0000000000
11
-1.5881652452
21
-11.3141699501
31
0.0000000000
0
SPLINE
5
29C
100
AcDbEntity
8
0
100
AcDbSpline
62
0
6
CONTINUOUS
70
0
71
3
72
26
73
22
74
20
42
0.0000001000
43
0.0000001000
44
0.0000000001
12
-16.0020723216
22
-1.8231086670
32
0.0000000000
13
1.9239198743
23
15.9905198070
33
0.0000000000
40
0.0000000000
40
0.0000000000
40
0.0000000000
40
0.0000000000
40
0.0522126682
40
0.1329666352
40
0.2110027146
40
0.2826525121
40
0.3477658828
40
0.4081615917
40
0.4651274616
40
0.5194628947
40
0.5715383627
40
0.6213464154
40
0.6688043941
40
0.7139990755
40
0.7572878032
40
0.7994796776
40
0.8412209507
40
0.8829801944
40
0.9241890482
40
0.9637550556
40
1.0000000000
40
1.0000000000
40
1.0000000000
40
1.0000000000
10
-1.5881652452
20
-11.3141699501
30
0.0000000000
10
-1.8666688759
20
-11.3458997394
30
0.0000000000
10
-2.5776189260
20
-11.4124177143
30
0.0000000000
10
-3.7098234716
20
-11.4616528451
30
0.0000000000
10
-4.9473456532
20
-11.4429216556
30
0.0000000000
10
-6.0980033971
20
-11.3609102737
30
0.0000000000
10
-7.1486233954
20
-11.2296065874
30
0.0000000000
10
-8.1134135154
20
-11.0580290989
30
0.0000000000
10
-9.0116202010
20
-10.8496240666
30
0.0000000000
10
-9.8544154060
20
-10.6055445711
30
0.0000000000
10
-10.6456694127
20
-10.3263960702
30
0.0000000000
10
-11.3841973988
20
-10.0131830561
30
0.0000000000
10
-12.0668881333
20
-9.6672019894
30
0.0000000000
10
-12.6916833177
20
-9.2887238747
30
0.0000000000
10
-13.2591604624
20
-8.8747644450
30
0.0000000000
10
-13.7691560269
20
-8.4186120605
30
0.0000000000
10
-14.2162149830
20
-7.9107117426
30
0.0000000000
10
-14.5820444552
20
-7.3465978789
30
0.0000000000
10
-14.8375176992
20
-6.7358862571
30
0.0000000000
10
-14.9569805837
20
-6.1144693223
30
0.0000000000
10
-14.9484250187
20
-5.7043501775
30
0.0000000000
10
-14.9251808957
20
-5.5111583435
30
0.0000000000
11
-1.5881652452
21
-11.3141699501
31
0.0000000000
11
-2.4254029675
21
-11.3926670329
31
0.0000000000
11
-3.7245892074
21
-11.4493660549
31
0.0000000000
11
-4.9810980156
21
-11.4301765652
31
0.0000000000
11
-6.1319635962
21
-11.3477475546
31
0.0000000000
11
-7.1723592242
21
-11.2171987300
31
0.0000000000
11
-8.1298105371
21
-11.0463031224
31
0.0000000000
11
-9.0232598685
21
-10.8382625472
31
0.0000000000
11
-9.8634776784
21
-10.5940407648
31
0.0000000000
11
-10.6539651348
21
-10.3140827414
31
0.0000000000
11
-11.3919142242
21
-9.9998038773
31
0.0000000000
11
-12.0729679529
21
-9.6530631163
31
0.0000000000
11
-12.6945934139
21
-9.2745596113
31
0.0000000000
11
-13.2566030207
21
-8.8621342569
31
0.0000000000
11
-13.7613770861
21
-8.4073391924
31
0.0000000000
11
-14.2031449039
21
-7.9007141877
31
0.0000000000
11
-14.5658242581
21
-7.3344275857
31
0.0000000000
11
-14.8185731024
21
-6.7208374080
31
0.0000000000
11
-14.9369598351
21
-6.0947806304
31
0.0000000000
11
-14.9251808957
21
-5.5111583435
31
0.0000000000
0
SPLINE
5
29D
100
AcDbEntity
8
0
100
AcDbSpline
62
0
6
CONTINUOUS
70
0
71
3
72
8
73
4
74
2
42
0.0000001000
43
0.0000001000
44
0.0000000001
12
0.0016741610
22
0.0139146671
32
0.0000000000
13
0.0017403821
23
0.0139044995
33
0.0000000000
40
0.0000000000
40
0.0000000000
40
0.0000000000
40
0.0000000000
40
1.0000000000
40
1.0000000000
40
1.0000000000
40
1.0000000000
10
-14.9251808957
20
-5.5111583435
30
0.0000000000
10
-14.9246228420
20
-5.5065201212
30
0.0000000000
10
-14.9240537481
20
-5.5018835616
30
0.0000000000
10
-14.9234736207
20
-5.4972487284
30
0.0000000000
11
-14.9251808957
21
-5.5111583435
31
0.0000000000
11
-14.9234736207
21
-5.4972487284
31
0.0000000000
0
SPLINE
5
29E
100
AcDbEntity
8
0
100
AcDbSpline
62
0
6
CONTINUOUS
70
0
71
3
72
10
73
6
74
4
42
0.0000001000
43
0.0000001000
44
0.0000000001
12
0.1922962807
22
0.2410059509
32
0.0000000000
13
0.2996217725
23
0.0755696213
33
0.0000000000
40
0.0000000000
40
0.0000000000
40
0.0000000000
40
0.0000000000
40
0.3552270222
40
0.7239086404
40
1.0000000000
40
1.0000000000
40
1.0000000000
40
1.0000000000
10
-14.9234745221
20
-5.4972503120
30
0.0000000000
10
-14.9007049104
20
-5.4687130366
30
0.0000000000
10
-14.8462958570
20
-5.4165884997
30
0.0000000000
10
-14.7563060155
20
-5.3651090195
30
0.0000000000
10
-14.6932110667
20
-5.3438240946
30
0.0000000000
10
-14.6656367392
20
-5.3368693881
30
0.0000000000
11
-14.9234745221
21
-5.4972503120
31
0.0000000000
11
-14.8447221002
21
-5.4211350191
31
0.0000000000
11
-14.7463155346
21
-5.3642357997
31
0.0000000000
11
-14.6656367392
21
-5.3368693881
31
0.0000000000
0
SPLINE
5
29F
100
AcDbEntity
8
0
100
AcDbSpline
62
0
6
CONTINUOUS
70
0
71
3
72
12
73
8
74
6
42
0.0000001000
43
0.0000001000
44
0.0000000001
12
-1.4810829963
22
8.6460718193
32
0.0000000000
13
-8.7590240148
23
-0.4771404987
33
0.0000000000
40
0.0000000000
40
0.0000000000
40
0.0000000000
40
0.0000000000
40
0.1373428172
40
0.3075172064
40
0.5149176848
40
0.7508492749
40
1.0000000000
40
1.0000000000
40
1.0000000000
40
1.0000000000
10
17.1956850073
20
32.9621850697
30
0.0000000000
10
17.1278796369
20
33.3580103569
30
0.0000000000
10
16.6731043006
20
34.1909089544
30
0.0000000000
10
15.4429738011
20
35.1003637276
30
0.0000000000
10
13.7642318076
20
35.7714778736
30
0.0000000000
10
11.7645896011
20
36.1481437238
30
0.0000000000
10
10.3396709830
20
36.1834480472
30
0.0000000000
10
9.6122319214
20
36.1438214134
30
0.0000000000
11
17.1956850073
21
32.9621850697
31
0.0000000000
11
16.6658308472
21
34.0441885842
31
0.0000000000
11
15.5052673634
21
34.9830491363
31
0.0000000000
11
13.8276182055
21
35.6869066595
31
0.0000000000
11
11.7970429633
21
36.0868877994
31
0.0000000000
11
9.6122319214
21
36.1438214134
31
0.0000000000
0
SPLINE
5
2A0
100
AcDbEntity
8
0
100
AcDbSpline
62
0
6
CONTINUOUS
70
0
71
3
72
8
73
4
74
2
42
0.0000001000
43
0.0000001000
44
0.0000000001
12
0.0337612455
22
0.0219435222
32
0.0000000000
13
0.0298770253
23
0.0270684026
33
0.0000000000
40
0.0000000000
40
0.0000000000
40
0.0000000000
40
0.0000000000
40
1.0000000000
40
1.0000000000
40
1.0000000000
40
1.0000000000
10
14.7640015923
20
-32.4193548140
30
0.0000000000
10
14.7752553408
20
-32.4120403066
30
0.0000000000
10
14.7859423270
20
-32.4037978051
30
0.0000000000
10
14.7959013354
20
-32.3947750043
30
0.0000000000
11
14.7640015923
21
-32.4193548140
31
0.0000000000
11
14.7959013354
21
-32.3947750043
31
0.0000000000
0
SPLINE
5
2A1
100
AcDbEntity
8
0
100
AcDbSpline
62
0
6
CONTINUOUS
70
0
71
3
72
8
73
4
74
2
42
0.0000001000
43
0.0000001000
44
0.0000000001
12
0.0438770672
22
0.0397523552
32
0.0000000000
13
0.0329247627
23
0.0484464163
33
0.0000000000
40
0.0000000000
40
0.0000000000
40
0.0000000000
40
0.0000000000
40
1.0000000000
40
1.0000000000
40
1.0000000000
40
1.0000000000
10
14.7959013354
20
-32.3947750043
30
0.0000000000
10
14.8105270245
20
-32.3815242192
30
0.0000000000
10
14.8235826451
20
-32.3665905210
30
0.0000000000
10
14.8345575660
20
-32.3504417155
30
0.0000000000
11
14.7959013354
21
-32.3947750043
31
0.0000000000
11
14.8345575660
21
-32.3504417155
31
0.0000000000
0
SPLINE
5
2A2
100
AcDbEntity
8
0
100
AcDbSpline
62
0
6
CONTINUOUS
70
0
71
3
72
9
73
5
74
3
42
0.0000001000
43
0.0000001000
44
0.0000000001
12
0.1482129131
22
-0.0071533705
32
0.0000000000
13
0.1252344370
23
0.0813976087
33
0.0000000000
40
0.0000000000
40
0.0000000000
40
0.0000000000
40
0.0000000000
40
0.4847915580
40
1.0000000000
40
1.0000000000
40
1.0000000000
40
1.0000000000
10
14.6234590849
20
-32.4566326402
30
0.0000000000
10
14.6474098746
20
-32.4577886047
30
0.0000000000
10
14.6967316425
20
-32.4538875814
30
0.0000000000
10
14.7424943126
20
-32.4333337258
30
0.0000000000
10
14.7640015923
20
-32.4193548140
30
0.0000000000
11
14.6234590849
21
-32.4566326402
31
0.0000000000
11
14.6943949587
21
-32.4500924422
31
0.0000000000
11
14.7640015923
21
-32.4193548140
31
0.0000000000
0
SPLINE
5
2A3
100
AcDbEntity
8
0
100
AcDbSpline
62
0
6
CONTINUOUS
70
0
71
3
72
10
73
6
74
4
42
0.0000001000
43
0.0000001000
44
0.0000000001
12
0.0000000000
22
0.0884617219
32
0.0000000000
13
-0.0155724550
23
0.0870851037
33
0.0000000000
40
0.0000000000
40
0.0000000000
40
0.0000000000
40
0.0000000000
40
0.3446959860
40
0.6901595349
40
1.0000000000
40
1.0000000000
40
1.0000000000
40
1.0000000000
10
18.7137473793
20
23.9010220594
30
0.0000000000
10
18.7137473793
20
23.9111861929
30
0.0000000000
10
18.7131264091
20
23.9315427590
30
0.0000000000
10
18.7104288356
20
23.9609229737
30
0.0000000000
10
18.7075481228
20
23.9800427711
30
0.0000000000
10
18.7059397972
20
23.9890369341
30
0.0000000000
11
18.7137473793
21
23.9010220594
31
0.0000000000
11
18.7128175928
21
23.9315002809
31
0.0000000000
11
18.7100234205
21
23.9619325756
31
0.0000000000
11
18.7059397972
21
23.9890369341
31
0.0000000000
0
SPLINE
5
2A4
100
AcDbEntity
8
0
100
AcDbSpline
62
0
6
CONTINUOUS
70
0
71
3
72
9
73
5
74
3
42
0.0000001000
43
0.0000001000
44
0.0000000001
12
0.3070552449
22
0.1971855276
32
0.0000000000
13
0.0976355486
23
0.3515196371
33
0.0000000000
40
0.0000000000
40
0.0000000000
40
0.0000000000
40
0.0000000000
40
0.5305779626
40
1.0000000000
40
1.0000000000
40
1.0000000000
40
1.0000000000
10
15.8559196937
20
-31.7207301104
30
0.0000000000
10
15.9102252758
20
-31.6858560119
30
0.0000000000
10
15.9996089090
20
-31.6002937669
30
0.0000000000
10
16.0521975473
20
-31.4877463537
30
0.0000000000
10
16.0674749733
20
-31.4327426656
30
0.0000000000
11
15.8559196937
21
-31.7207301104
31
0.0000000000
11
15.9947169793
21
-31.5874644537
31
0.0000000000
11
16.0674749733
21
-31.4327426656
31
0.0000000000
0
SPLINE
5
2A5
100
AcDbEntity
8
0
100
AcDbSpline
62
0
6
CONTINUOUS
70
0
71
3
72
8
73
4
74
2
42
0.0000001000
43
0.0000001000
44
0.0000000001
12
0.0230282370
22
0.0829091211
32
0.0000000000
13
0.0082815706
23
0.0847617726
33
0.0000000000
40
0.0000000000
40
0.0000000000
40
0.0000000000
40
0.0000000000
40
1.0000000000
40
1.0000000000
40
1.0000000000
40
1.0000000000
10
16.0674749733
20
-31.4327426656
30
0.0000000000
10
16.0751510524
20
-31.4051062919
30
0.0000000000
10
16.0804518528
20
-31.3769217312
30
0.0000000000
10
16.0832123763
20
-31.3486678070
30
0.0000000000
11
16.0674749733
21
-31.4327426656
31
0.0000000000
11
16.0832123763
21
-31.3486678070
31
0.0000000000
0
SPLINE
5
2A6
100
AcDbEntity
8
0
100
AcDbSpline
62
0
6
CONTINUOUS
70
0
71
3
72
8
73
4
74
2
42
0.0000001000
43
0.0000001000
44
0.0000000001
12
-0.0477337393
22
-0.0271113159
32
0.0000000000
13
-0.0408152561
23
-0.0369783730
33
0.0000000000
40
0.0000000000
40
0.0000000000
40
0.0000000000
40
0.0000000000
40
1.0000000000
40
1.0000000000
40
1.0000000000
40
1.0000000000
10
-11.7912493672
20
33.0585409445
30
0.0000000000
10
-11.8071606136
20
33.0495038392
30
0.0000000000
10
-11.8221242891
20
33.0386339502
30
0.0000000000
10
-11.8357293745
20
33.0263078259
30
0.0000000000
11
-11.7912493672
21
33.0585409445
31
0.0000000000
11
-11.8357293745
21
33.0263078259
31
0.0000000000
0
SPLINE
5
2A7
100
AcDbEntity
8
0
100
AcDbSpline
62
0
6
CONTINUOUS
70
0
71
3
72
9
73
5
74
3
42
0.0000001000
43
0.0000001000
44
0.0000000001
12
-0.0701890723
22
-0.0635908712
32
0.0000000000
13
-0.0411975763
23
-0.0837266637
33
0.0000000000
40
0.0000000000
40
0.0000000000
40
0.0000000000
40
0.0000000000
40
0.6251267584
40
1.0000000000
40
1.0000000000
40
1.0000000000
40
1.0000000000
10
-11.8357293745
20
33.0263078259
30
0.0000000000
10
-11.8503550636
20
33.0130570408
30
0.0000000000
10
-11.8712398208
20
32.9891679687
30
0.0000000000
10
-11.8868001468
20
32.9621694835
30
0.0000000000
10
-11.8919481032
20
32.9517071882
30
0.0000000000
11
-11.8357293745
21
33.0263078259
31
0.0000000000
11
-11.8743856051
21
32.9819745372
31
0.0000000000
11
-11.8919481032
21
32.9517071882
31
0.0000000000
0
SPLINE
5
2A8
100
AcDbEntity
8
0
100
AcDbSpline
62
0
6
CONTINUOUS
70
0
71
3
72
10
73
6
74
4
42
0.0000001000
43
0.0000001000
44
0.0000000001
12
-0.2362087117
22
-0.0077055646
32
0.0000000000
13
-0.2067782608
23
-0.1144194936
33
0.0000000000
40
0.0000000000
40
0.0000000000
40
0.0000000000
40
0.0000000000
40
0.1565526086
40
0.7489515111
40
1.0000000000
40
1.0000000000
40
1.0000000000
40
1.0000000000
10
-7.6904469489
20
35.2619246197
30
0.0000000000
10
-7.7027733122
20
35.2615225110
30
0.0000000000
10
-7.7616735230
20
35.2574276738
30
0.0000000000
10
-7.8386469569
20
35.2380379618
30
0.0000000000
10
-7.8987083774
20
35.2092752562
30
0.0000000000
10
-7.9160121674
20
35.1997003092
30
0.0000000000
11
-7.6904469489
21
35.2619246197
31
0.0000000000
11
-7.7273423670
21
35.2593550379
31
0.0000000000
11
-7.8625236249
21
35.2252981414
31
0.0000000000
11
-7.9160121674
21
35.1997003092
31
0.0000000000
0
SPLINE
5
2A9
100
AcDbEntity
8
0
100
AcDbSpline
62
0
6
CONTINUOUS
70
0
71
3
72
9
73
5
74
3
42
0.0000001000
43
0.0000001000
44
0.0000000001
12
0.1763127745
22
0.0070617475
32
0.0000000000
13
0.1648845098
23
-0.0469619452
33
0.0000000000
40
0.0000000000
40
0.0000000000
40
0.0000000000
40
0.0000000000
40
0.0224620158
40
1.0000000000
40
1.0000000000
40
1.0000000000
40
1.0000000000
10
-3.5717978987
20
35.3978843329
30
0.0000000000
10
-3.5704777852
20
35.3979372066
30
0.0000000000
10
-3.5117399361
20
35.4000379395
30
0.0000000000
10
-3.4547962105
20
35.3910182471
30
0.0000000000
10
-3.4010692534
20
35.3757158853
30
0.0000000000
11
-3.5717978987
21
35.3978843329
31
0.0000000000
11
-3.5678399495
21
35.3980259693
31
0.0000000000
11
-3.4010692534
21
35.3757158853
31
0.0000000000
0
SPLINE
5
2AA
100
AcDbEntity
8
0
100
AcDbSpline
62
0
6
CONTINUOUS
70
0
71
3
72
8
73
4
74
2
42
0.0000001000
43
0.0000001000
44
0.0000000001
12
0.0956852287
22
-0.0272527994
32
0.0000000000
13
0.0914477736
23
-0.0383668966
33
0.0000000000
40
0.0000000000
40
0.0000000000
40
0.0000000000
40
0.0000000000
40
1.0000000000
40
1.0000000000
40
1.0000000000
40
1.0000000000
10
-3.4010692534
20
35.3757158853
30
0.0000000000
10
-3.3691741772
20
35.3666316189
30
0.0000000000
10
-3.3379619879
20
35.3552618018
30
0.0000000000
10
-3.3074793967
20
35.3424728362
30
0.0000000000
11
-3.4010692534
21
35.3757158853
31
0.0000000000
11
-3.3074793967
21
35.3424728362
31
0.0000000000
0
SPLINE
5
2AB
100
AcDbEntity
8
0
100
AcDbSpline
62
0
6
CONTINUOUS
70
0
71
3
72
10
73
6
74
4
42
0.0000001000
43
0.0000001000
44
0.0000000001
12
0.7419311146
22
-0.3112770623
32
0.0000000000
13
0.1520627299
23
-0.7932562073
33
0.0000000000
40
0.0000000000
40
0.0000000000
40
0.0000000000
40
0.0000000000
40
0.3817126479
40
0.7613283945
40
1.0000000000
40
1.0000000000
40
1.0000000000
40
1.0000000000
10
17.8378283319
20
26.4709628781
30
0.0000000000
10
17.9322298287
20
26.4313567476
30
0.0000000000
10
18.1077062017
20
26.3190915950
30
0.0000000000
10
18.2858966581
20
26.1155770749
30
0.0000000000
10
18.3533843877
20
25.9566731416
30
0.0000000000
10
18.3654820730
20
25.8935638974
30
0.0000000000
11
17.8378283319
21
26.4709628781
31
0.0000000000
11
18.0981808747
21
26.3080544775
31
0.0000000000
11
18.2949204939
21
26.0744251596
31
0.0000000000
11
18.3654820730
21
25.8935638974
31
0.0000000000
0
SPLINE
5
2AC
100
AcDbEntity
8
0
100
AcDbSpline
62
0
6
CONTINUOUS
70
0
71
3
72
9
73
5
74
3
42
0.0000001000
43
0.0000001000
44
0.0000000001
12
0.1876308730
22
0.1072728795
32
0.0000000000
13
0.2059796956
23
-0.0650637546
33
0.0000000000
40
0.0000000000
40
0.0000000000
40
0.0000000000
40
0.0000000000
40
0.2868179111
40
1.0000000000
40
1.0000000000
40
1.0000000000
40
1.0000000000
10
-7.9150695137
20
35.1987936590
30
0.0000000000
10
-7.8971308820
20
35.2090495867
30
0.0000000000
10
-7.8303653647
20
35.2365752997
30
0.0000000000
10
-7.7557456310
20
35.2283600705
30
0.0000000000
10
-7.7067786211
20
35.2128926356
30
0.0000000000
11
-7.9150695137
21
35.1987936590
31
0.0000000000
11
-7.8581856663
21
35.2218991105
31
0.0000000000
11
-7.7067786211
21
35.2128926356
31
0.0000000000
0
SPLINE
5
2AD
100
AcDbEntity
8
0
100
AcDbSpline
62
0
6
CONTINUOUS
70
0
71
3
72
8
73
4
74
2
42
0.0000001000
43
0.0000001000
44
0.0000000001
12
0.0394945074
22
-0.0124753118
32
0.0000000000
13
0.0371704599
23
-0.0161427310
33
0.0000000000
40
0.0000000000
40
0.0000000000
40
0.0000000000
40
0.0000000000
40
1.0000000000
40
1.0000000000
40
1.0000000000
40
1.0000000000
10
-7.7067786211
20
35.2128926356
30
0.0000000000
10
-7.6936137853
20
35.2087341984
30
0.0000000000
10
-7.6807561758
20
35.2038812512
30
0.0000000000
10
-7.6683660225
20
35.1985003408
30
0.0000000000
11
-7.7067786211
21
35.2128926356
31
0.0000000000
11
-7.6683660225
21
35.1985003408
31
0.0000000000
0
SPLINE
5
2AE
100
AcDbEntity
8
0
100
AcDbSpline
62
0
6
CONTINUOUS
70
0
71
3
72
9
73
5
74
3
42
0.0000001000
43
0.0000001000
44
0.0000000001
12
-0.2337241635
22
0.0980589297
32
0.0000000000
13
-0.2255426036
23
-0.1281013572
33
0.0000000000
40
0.0000000000
40
0.0000000000
40
0.0000000000
40
0.0000000000
40
0.7606442711
40
1.0000000000
40
1.0000000000
40
1.0000000000
40
1.0000000000
10
-11.5427278887
20
33.0592857873
30
0.0000000000
10
-11.6019882040
20
33.0841484417
30
0.0000000000
10
-11.6930098997
20
33.1016679681
30
0.0000000000
10
-11.7732543958
20
33.0687615424
30
0.0000000000
10
-11.7912493672
20
33.0585409445
30
0.0000000000
11
-11.5427278887
21
33.0592857873
31
0.0000000000
11
-11.7342229978
21
33.0816252639
31
0.0000000000
11
-11.7912493672
21
33.0585409445
31
0.0000000000
0
SPLINE
5
2AF
100
AcDbEntity
8
0
100
AcDbSpline
62
0
6
CONTINUOUS
70
0
71
3
72
8
73
4
74
2
42
0.0000001000
43
0.0000001000
44
0.0000000001
12
0.0129692700
22
-0.0051844886
32
0.0000000000
13
0.0128992333
23
-0.0425811176
33
0.0000000000
40
0.0000000000
40
0.0000000000
40
0.0000000000
40
0.0000000000
40
1.0000000000
40
1.0000000000
40
1.0000000000
40
1.0000000000
10
-7.6905040060
20
35.2617982508
30
0.0000000000
10
-7.6861809160
20
35.2600700880
30
0.0000000000
10
-7.6811708576
20
35.2479588129
30
0.0000000000
10
-7.6768711131
20
35.2337651070
30
0.0000000000
11
-7.6905040060
21
35.2617982508
31
0.0000000000
11
-7.6768711131
21
35.2337651070
31
0.0000000000
0
SPLINE
5
2B0
100
AcDbEntity
8
0
100
AcDbSpline
62
0
6
CONTINUOUS
70
0
71
3
72
8
73
4
74
2
42
0.0000001000
43
0.0000001000
44
0.0000000001
12
0.0108384025
22
-0.0357781957
32
0.0000000000
13
0.0053429050
23
-0.0298273384
33
0.0000000000
40
0.0000000000
40
0.0000000000
40
0.0000000000
40
0.0000000000
40
1.0000000000
40
1.0000000000
40
1.0000000000
40
1.0000000000
10
-7.6768711131
20
35.2337651070
30
0.0000000000
10
-7.6732583123
20
35.2218390418
30
0.0000000000
10
-7.6701469909
20
35.2084427870
30
0.0000000000
10
-7.6683660225
20
35.1985003408
30
0.0000000000
11
-7.6768711131
21
35.2337651070
31
0.0000000000
11
-7.6683660225
21
35.1985003408
31
0.0000000000
0
SPLINE
5
2B1
100
AcDbEntity
8
0
100
AcDbSpline
62
0
6
CONTINUOUS
70
0
71
3
72
8
73
4
74
2
42
0.0000001000
43
0.0000001000
44
0.0000000001
12
0.0000000000
22
0.0819345851
32
0.0000000000
13
-0.0124801635
23
0.0813793533
33
0.0000000000
40
0.0000000000
40
0.0000000000
40
0.0000000000
40
0.0000000000
40
1.0000000000
40
1.0000000000
40
1.0000000000
40
1.0000000000
10
14.8858637350
20
21.5382282933
30
0.0000000000
10
14.8858637350
20
21.5655398217
30
0.0000000000
10
14.8836375750
20
21.5928748277
30
0.0000000000
10
14.8794775205
20
21.6200012788
30
0.0000000000
11
14.8858637350
21
21.5382282933
31
0.0000000000
11
14.8794775205
21
21.6200012788
31
0.0000000000
0
SPLINE
5
2B2
100
AcDbEntity
8
0
100
AcDbSpline
62
0
6
CONTINUOUS
70
0
71
3
72
8
73
4
74
2
42
0.0000001000
43
0.0000001000
44
0.0000000001
12
-0.0122881007
22
0.0801269699
32
0.0000000000
13
-0.0227001408
23
0.0782494060
33
0.0000000000
40
0.0000000000
40
0.0000000000
40
0.0000000000
40
0.0000000000
40
1.0000000000
40
1.0000000000
40
1.0000000000
40
1.0000000000
10
14.8794775205
20
21.6200012788
30
0.0000000000
10
14.8753814870
20
21.6467102688
30
0.0000000000
10
14.8694106240
20
21.6732170735
30
0.0000000000
10
14.8618439104
20
21.6993002088
30
0.0000000000
11
14.8794775205
21
21.6200012788
31
0.0000000000
11
14.8618439104
21
21.6993002088
31
0.0000000000
0
SPLINE
5
2B3
100
AcDbEntity
8
0
100
AcDbSpline
62
0
6
CONTINUOUS
70
0
71
3
72
10
73
6
74
4
42
0.0000001000
43
0.0000001000
44
0.0000000001
12
-0.1397720931
22
0.4818068477
32
0.0000000000
13
-0.4225997140
23
0.2658592277
33
0.0000000000
40
0.0000000000
40
0.0000000000
40
0.0000000000
40
0.0000000000
40
0.1628083469
40
0.6833079411
40
1.0000000000
40
1.0000000000
40
1.0000000000
40
1.0000000000
10
14.8618439104
20
21.6993002088
30
0.0000000000
10
14.8542585560
20
21.7254476009
30
0.0000000000
10
14.8156919230
20
21.8334015004
30
0.0000000000
10
14.7251537746
20
21.9746612083
30
0.0000000000
10
14.6175189654
20
22.0671869053
30
0.0000000000
10
14.5729076409
20
22.0952520740
30
0.0000000000
11
14.8618439104
21
21.6993002088
31
0.0000000000
11
14.8345577230
21
21.7762419820
31
0.0000000000
11
14.6943952305
21
21.9935031825
31
0.0000000000
11
14.5729076409
21
22.0952520740
31
0.0000000000
0
SPLINE
5
2B4
100
AcDbEntity
8
0
100
AcDbSpline
62
0
6
CONTINUOUS
70
0
71
3
72
8
73
4
74
2
42
0.0000001000
43
0.0000001000
44
0.0000000001
12
-0.0671493773
22
0.0422439509
32
0.0000000000
13
-0.0727827937
23
0.0305360077
33
0.0000000000
40
0.0000000000
40
0.0000000000
40
0.0000000000
40
0.0000000000
40
1.0000000000
40
1.0000000000
40
1.0000000000
40
1.0000000000
10
14.5729076409
20
22.0952520740
30
0.0000000000
10
14.5505245152
20
22.1093333910
30
0.0000000000
10
14.5271607809
20
22.1216688036
30
0.0000000000
10
14.5028998496
20
22.1318474728
30
0.0000000000
11
14.5729076409
21
22.0952520740
31
0.0000000000
11
14.5028998496
21
22.1318474728
31
0.0000000000
0
SPLINE
5
2B5
100
AcDbEntity
8
0
100
AcDbSpline
62
0
6
CONTINUOUS
70
0
71
3
72
10
73
6
74
4
42
0.0000001000
43
0.0000001000
44
0.0000000001
12
-0.0176346740
22
-0.1771061292
32
0.0000000000
13
-0.1554070826
23
-0.0807333901
33
0.0000000000
40
0.0000000000
40
0.0000000000
40
0.0000000000
40
0.0000000000
40
0.1606983721
40
0.5343564698
40
1.0000000000
40
1.0000000000
40
1.0000000000
40
1.0000000000
10
18.7130680180
20
-4.4299750292
30
0.0000000000
10
18.7121233969
20
-4.4394619181
30
0.0000000000
10
18.7048856494
20
-4.4706993358
30
0.0000000000
10
18.6680354828
20
-4.5184730315
30
0.0000000000
10
18.6264417942
20
-4.5454437467
30
0.0000000000
10
18.6023203600
20
-4.5579747403
30
0.0000000000
11
18.7130680180
21
-4.4299750292
31
0.0000000000
11
18.7066438605
21
-4.4577337899
31
0.0000000000
11
18.6693112582
21
-4.5114769548
31
0.0000000000
11
18.6023203600
21
-4.5579747403
31
0.0000000000
0
SPLINE
5
2B6
100
AcDbEntity
8
0
100
AcDbSpline
62
0
6
CONTINUOUS
70
0
71
3
72
10
73
6
74
4
42
0.0000001000
43
0.0000001000
44
0.0000000001
12
0.6138456620
22
-0.2487522303
32
0.0000000000
13
0.0887330938
23
-0.6595033937
33
0.0000000000
40
0.0000000000
40
0.0000000000
40
0.0000000000
40
0.0000000000
40
0.3590154942
40
0.7503387663
40
1.0000000000
40
1.0000000000
40
1.0000000000
40
1.0000000000
10
18.2193564746
20
24.3373111411
30
0.0000000000
10
18.2928165092
20
24.3075425062
30
0.0000000000
10
18.4298290242
20
24.2039581350
30
0.0000000000
10
18.5504648933
20
24.0152038180
30
0.0000000000
10
18.5901032799
20
23.8761432180
30
0.0000000000
10
18.5974876844
20
23.8212590743
30
0.0000000000
11
18.2193564746
21
24.3373111411
31
0.0000000000
11
18.4132853353
21
24.1997083368
31
0.0000000000
11
18.5535077997
21
23.9817287975
31
0.0000000000
11
18.5974876844
21
23.8212590743
31
0.0000000000
0
SPLINE
5
2B7
100
AcDbEntity
8
0
100
AcDbSpline
62
0
6
CONTINUOUS
70
0
71
3
72
8
73
4
74
2
42
0.0000001000
43
0.0000001000
44
0.0000000001
12
0.0104003298
22
-0.0772998274
32
0.0000000000
13
-0.0009768143
23
-0.0776252636
33
0.0000000000
40
0.0000000000
40
0.0000000000
40
0.0000000000
40
0.0000000000
40
1.0000000000
40
1.0000000000
40
1.0000000000
40
1.0000000000
10
18.5974876844
20
23.8212590743
30
0.0000000000
10
18.6009544610
20
23.7954924652
30
0.0000000000
10
18.6026459644
20
23.7695670493
30
0.0000000000
10
18.6023203596
20
23.7436919614
30
0.0000000000
11
18.5974876844
21
23.8212590743
31
0.0000000000
11
18.6023203596
21
23.7436919614
31
0.0000000000
0
SPLINE
5
2B8
100
AcDbEntity
8
0
100
AcDbSpline
62
0
6
CONTINUOUS
70
0
71
3
72
10
73
6
74
4
42
0.0000001000
43
0.0000001000
44
0.0000000001
12
0.6437674858
22
0.0212054036
32
0.0000000000
13
0.1183313052
23
-0.6412941222
33
0.0000000000
40
0.0000000000
40
0.0000000000
40
0.0000000000
40
0.0000000000
40
0.3912463257
40
0.7572536571
40
1.0000000000
40
1.0000000000
40
1.0000000000
40
1.0000000000
10
18.2193564746
20
24.3373111411
30
0.0000000000
10
18.3033136958
20
24.3400766532
30
0.0000000000
10
18.4699973809
20
24.3089295592
30
0.0000000000
10
18.6449383760
20
24.1676124544
30
0.0000000000
10
18.6960789872
20
24.0408747662
30
0.0000000000
10
18.7056538177
20
23.9889841653
30
0.0000000000
11
18.2193564746
21
24.3373111411
31
0.0000000000
11
18.4664210576
21
24.2876396284
31
0.0000000000
11
18.6464913619
21
24.1354771695
31
0.0000000000
11
18.7056538177
21
23.9889841653
31
0.0000000000
0
SPLINE
5
2B9
100
AcDbEntity
8
0
100
AcDbSpline
62
0
6
CONTINUOUS
70
0
71
3
72
8
73
4
74
2
42
0.0000001000
43
0.0000001000
44
0.0000000001
12
0.0025455620
22
-0.1991466509
32
0.0000000000
13
-0.1126177829
23
-0.1678294604
33
0.0000000000
40
0.0000000000
40
0.0000000000
40
0.0000000000
40
0.0000000000
40
1.0000000000
40
1.0000000000
40
1.0000000000
40
1.0000000000
10
15.9741549065
20
-31.4573775931
30
0.0000000000
10
15.9750034272
20
-31.5237598101
30
0.0000000000
10
15.9627894348
20
-31.5944997021
30
0.0000000000
10
15.9252501739
20
-31.6504428556
30
0.0000000000
11
15.9741549065
21
-31.4573775931
31
0.0000000000
11
15.9252501739
21
-31.6504428556
31
0.0000000000
0
SPLINE
5
2BA
100
AcDbEntity
8
0
100
AcDbSpline
62
0
6
CONTINUOUS
70
0
71
3
72
8
73
4
74
2
42
0.0000001000
43
0.0000001000
44
0.0000000001
12
-0.0329036092
22
-0.0490348400
32
0.0000000000
13
-0.0442452521
23
-0.0400930048
33
0.0000000000
40
0.0000000000
40
0.0000000000
40
0.0000000000
40
0.0000000000
40
1.0000000000
40
1.0000000000
40
1.0000000000
40
1.0000000000
10
15.9252501739
20
-31.6504428556
30
0.0000000000
10
15.9142823041
20
-31.6667878023
30
0.0000000000
10
15.9011525763
20
-31.6818696449
30
0.0000000000
10
15.8864041589
20
-31.6952339798
30
0.0000000000
11
15.9252501739
21
-31.6504428556
31
0.0000000000
11
15.8864041589
21
-31.6952339798
31
0.0000000000
0
SPLINE
5
2BB
100
AcDbEntity
8
0
100
AcDbSpline
62
0
6
CONTINUOUS
70
0
71
3
72
8
73
4
74
2
42
0.0000001000
43
0.0000001000
44
0.0000000001
12
-0.0293534020
22
-0.0265986977
32
0.0000000000
13
-0.0331522227
23
-0.0216650603
33
0.0000000000
40
0.0000000000
40
0.0000000000
40
0.0000000000
40
0.0000000000
40
1.0000000000
40
1.0000000000
40
1.0000000000
40
1.0000000000
10
15.8864041589
20
-31.6952339798
30
0.0000000000
10
15.8766196916
20
-31.7041002124
30
0.0000000000
10
15.8661227862
20
-31.7122105138
30
0.0000000000
10
15.8550720453
20
-31.7194322006
30
0.0000000000
11
15.8864041589
21
-31.6952339798
31
0.0000000000
11
15.8550720453
21
-31.7194322006
31
0.0000000000
0
SPLINE
5
2BC
100
AcDbEntity
8
0
100
AcDbSpline
62
0
6
CONTINUOUS
70
0
71
3
72
9
73
5
74
3
42
0.0000001000
43
0.0000001000
44
0.0000000001
12
0.1032884165
22
0.0434375533
32
0.0000000000
13
0.0664824594
23
0.0909546119
33
0.0000000000
40
0.0000000000
40
0.0000000000
40
0.0000000000
40
0.0000000000
40
0.6338661156
40
1.0000000000
40
1.0000000000
40
1.0000000000
40
1.0000000000
10
15.9741549065
20
-31.4573775931
30
0.0000000000
10
15.9959785823
20
-31.4481997287
30
0.0000000000
10
16.0292034113
20
-31.4306927005
30
0.0000000000
10
16.0573002157
20
-31.4045129447
30
0.0000000000
10
16.0654140427
20
-31.3934124229
30
0.0000000000
11
15.9741549065
21
-31.4573775931
31
0.0000000000
11
16.0360383991
21
-31.4225209220
31
0.0000000000
11
16.0654140427
21
-31.3934124229
31
0.0000000000
0
SPLINE
5
2BD
100
AcDbEntity
8
0
100
AcDbSpline
62
0
6
CONTINUOUS
70
0
71
3
72
9
73
5
74
3
42
0.0000001000
43
0.0000001000
44
0.0000000001
12
0.0281127542
22
0.0384610418
32
0.0000000000
13
0.0053071473
23
0.0481881873
33
0.0000000000
40
0.0000000000
40
0.0000000000
40
0.0000000000
40
0.0000000000
40
0.4008752866
40
1.0000000000
40
1.0000000000
40
1.0000000000
40
1.0000000000
10
16.0654140427
20
-31.3934124229
30
0.0000000000
10
16.0691706122
20
-31.3882730625
30
0.0000000000
10
16.0773794001
20
-31.3746425016
30
0.0000000000
10
16.0817715551
20
-31.3587730707
30
0.0000000000
10
16.0828314361
20
-31.3491494927
30
0.0000000000
11
16.0654140427
21
-31.3934124229
31
0.0000000000
11
16.0751386759
21
-31.3769849638
31
0.0000000000
11
16.0828314361
21
-31.3491494927
31
0.0000000000
0
SPLINE
5
2BE
100
AcDbEntity
8
0
100
AcDbSpline
62
0
6
CONTINUOUS
70
0
71
3
72
10
73
6
74
4
42
0.0000001000
43
0.0000001000
44
0.0000000001
12
0.1696092821
22
0.1047250099
32
0.0000000000
13
0.0023552210
23
0.2014973116
33
0.0000000000
40
0.0000000000
40
0.0000000000
40
0.0000000000
40
0.0000000000
40
0.3991897155
40
0.7635512204
40
1.0000000000
40
1.0000000000
40
1.0000000000
40
1.0000000000
10
18.6023203600
20
23.7436919617
30
0.0000000000
10
18.6248891204
20
23.7576270107
30
0.0000000000
10
18.6657239554
20
23.7885623644
30
0.0000000000
10
18.7054859454
20
23.8438884970
30
0.0000000000
10
18.7134279206
20
23.8845602815
30
0.0000000000
10
18.7136135503
20
23.9004415460
30
0.0000000000
11
18.6023203600
21
23.7436919617
31
0.0000000000
11
18.6647236058
21
23.7930644816
31
0.0000000000
11
18.7047068324
21
23.8536985013
31
0.0000000000
11
18.7136135503
21
23.9004415460
31
0.0000000000
0
SPLINE
5
2BF
100
AcDbEntity
8
0
100
AcDbSpline
62
0
6
CONTINUOUS
70
0
71
3
72
8
73
4
74
2
42
0.0000001000
43
0.0000001000
44
0.0000000001
12
0.0833426355
22
0.0541695351
32
0.0000000000
13
0.0553440818
23
0.0814348291
33
0.0000000000
40
0.0000000000
40
0.0000000000
40
0.0000000000
40
0.0000000000
40
1.0000000000
40
1.0000000000
40
1.0000000000
40
1.0000000000
10
14.7640015923
20
-32.4193548140
30
0.0000000000
10
14.7917824708
20
-32.4012983023
30
0.0000000000
10
14.8161095388
20
-32.3775866585
30
0.0000000000
10
14.8345575660
20
-32.3504417155
30
0.0000000000
11
14.7640015923
21
-32.4193548140
31
0.0000000000
11
14.8345575660
21
-32.3504417155
31
0.0000000000
0
SPLINE
5
2C0
100
AcDbEntity
8
0
100
AcDbSpline
62
0
6
CONTINUOUS
70
0
71
3
72
8
73
4
74
2
42
0.0000001000
43
0.0000001000
44
0.0000000001
12
0.0343718264
22
0.0505756663
32
0.0000000000
13
0.0217640364
23
0.0570068742
33
0.0000000000
40
0.0000000000
40
0.0000000000
40
0.0000000000
40
0.0000000000
40
1.0000000000
40
1.0000000000
40
1.0000000000
40
1.0000000000
10
14.8345575660
20
-32.3504417155
30
0.0000000000
10
14.8460148415
20
-32.3335831601
30
0.0000000000
10
14.8552045020
20
-32.3154003408
30
0.0000000000
10
14.8624591808
20
-32.2963980494
30
0.0000000000
11
14.8345575660
21
-32.3504417155
31
0.0000000000
11
14.8624591808
21
-32.2963980494
31
0.0000000000
0
SPLINE
5
2C1
100
AcDbEntity
8
0
100
AcDbSpline
62
0
6
CONTINUOUS
70
0
71
3
72
8
73
4
74
2
42
0.0000001000
43
0.0000001000
44
0.0000000001
12
0.0239866167
22
0.0628285127
32
0.0000000000
13
0.0112203105
23
0.0667735344
33
0.0000000000
40
0.0000000000
40
0.0000000000
40
0.0000000000
40
0.0000000000
40
1.0000000000
40
1.0000000000
40
1.0000000000
40
1.0000000000
10
14.8624591808
20
-32.2963980494
30
0.0000000000
10
14.8704547197
20
-32.2754552119
30
0.0000000000
10
14.8760998901
20
-32.2535169842
30
0.0000000000
10
14.8798399936
20
-32.2312591394
30
0.0000000000
11
14.8624591808
21
-32.2963980494
31
0.0000000000
11
14.8798399936
21
-32.2312591394
31
0.0000000000
0
SPLINE
5
2C2
100
AcDbEntity
8
0
100
AcDbSpline
62
0
6
CONTINUOUS
70
0
71
3
72
8
73
4
74
2
42
0.0000001000
43
0.0000001000
44
0.0000000001
12
0.0126919921
22
0.0755317035
32
0.0000000000
13
0.0000000000
23
0.0750512103
33
0.0000000000
40
0.0000000000
40
0.0000000000
40
0.0000000000
40
0.0000000000
40
1.0000000000
40
1.0000000000
40
1.0000000000
40
1.0000000000
10
14.8798399936
20
-32.2312591394
30
0.0000000000
10
14.8840706576
20
-32.2060819049
30
0.0000000000
10
14.8858637350
20
-32.1804957113
30
0.0000000000
10
14.8858637350
20
-32.1554786412
30
0.0000000000
11
14.8798399936
21
-32.2312591394
31
0.0000000000
11
14.8858637350
21
-32.1554786412
31
0.0000000000
0
SPLINE
5
2C3
100
AcDbEntity
8
0
100
AcDbSpline
62
0
6
CONTINUOUS
70
0
71
3
72
10
73
6
74
4
42
0.0000001000
43
0.0000001000
44
0.0000000001
12
0.1472800328
22
0.0954413154
32
0.0000000000
13
-0.0177600986
23
-0.1693738375
33
0.0000000000
40
0.0000000000
40
0.0000000000
40
0.0000000000
40
0.0000000000
40
0.2089283134
40
0.4826604585
40
1.0000000000
40
1.0000000000
40
1.0000000000
40
1.0000000000
10
-14.7249408042
20
-5.1131907707
30
0.0000000000
10
-14.7146838145
20
-5.1065439730
30
0.0000000000
10
-14.6912339727
20
-5.0993783743
30
0.0000000000
10
-14.6504731883
20
-5.1574453393
30
0.0000000000
10
-14.6626601658
20
-5.2020349446
30
0.0000000000
10
-14.6657228329
20
-5.2312428724
30
0.0000000000
11
-14.7249408042
21
-5.1131907707
31
0.0000000000
11
-14.6950900067
21
-5.1069345909
31
0.0000000000
11
-14.6657228294
21
-5.1431386910
31
0.0000000000
11
-14.6657228329
21
-5.2312428724
31
0.0000000000
0
SPLINE
5
2C4
100
AcDbEntity
8
0
100
AcDbSpline
62
0
6
CONTINUOUS
70
0
71
3
72
11
73
7
74
5
42
0.0000001000
43
0.0000001000
44
0.0000000001
12
-3.8558897750
22
-6.9353711695
32
0.0000000000
13
-0.0000000000
23
-7.9351911896
33
0.0000000000
40
0.0000000000
40
0.0000000000
40
0.0000000000
40
0.0000000000
40
0.2826528179
40
0.5426566980
40
0.7803425369
40
1.0000000000
40
1.0000000000
40
1.0000000000
40
1.0000000000
10
-0.7269848593
20
-11.4377856793
30
0.0000000000
10
-1.0902775628
20
-12.0912197474
30
0.0000000000
10
-1.7058181579
20
-13.3931106513
30
0.0000000000
10
-2.3564151146
20
-15.3568283033
30
0.0000000000
10
-2.7366683774
20
-17.2201314529
30
0.0000000000
10
-2.8281307681
20
-18.4307872310
30
0.0000000000
10
-2.8281307681
20
-19.0117952196
30
0.0000000000
11
-0.7269848593
21
-11.4377856793
31
0.0000000000
11
-1.6872566402
21
-13.4647284844
31
0.0000000000
11
-2.3337771201
21
-15.4239949386
31
0.0000000000
11
-2.7054488733
21
-17.2730940669
31
0.0000000000
11
-2.8281307681
21
-19.0117952196
31
0.0000000000
0
SPLINE
5
2C5
100
AcDbEntity
8
0
100
AcDbSpline
62
0
6
CONTINUOUS
70
0
71
3
72
8
73
4
74
2
42
0.0000001000
43
0.0000001000
44
0.0000000001
12
-0.0101308237
22
-0.0966152572
32
0.0000000000
13
-0.0065121218
23
-0.0971076363
33
0.0000000000
40
0.0000000000
40
0.0000000000
40
0.0000000000
40
0.0000000000
40
1.0000000000
40
1.0000000000
40
1.0000000000
40
1.0000000000
10
-14.6657228329
20
-5.2312428724
30
0.0000000000
10
-14.6690997741
20
-5.2634479582
30
0.0000000000
10
-14.6718688241
20
-5.2957463751
30
0.0000000000
10
-14.6740395314
20
-5.3281155872
30
0.0000000000
11
-14.6657228329
21
-5.2312428724
31
0.0000000000
11
-14.6740395314
21
-5.3281155872
31
0.0000000000
0
SPLINE
5
2C6
100
AcDbEntity
8
0
100
AcDbSpline
62
0
6
CONTINUOUS
70
0
71
3
72
8
73
4
74
2
42
0.0000001000
43
0.0000001000
44
0.0000000001
12
-0.0234456592
22
-0.3496176219
32
0.0000000000
13
0.0217526359
23
-0.3519684520
33
0.0000000000
40
0.0000000000
40
0.0000000000
40
0.0000000000
40
0.0000000000
40
1.0000000000
40
1.0000000000
40
1.0000000000
40
1.0000000000
10
-14.6740395314
20
-5.3281155872
30
0.0000000000
10
-14.6818547511
20
-5.4446547945
30
0.0000000000
10
-14.6819141132
20
-5.5621116650
30
0.0000000000
10
-14.6746632346
20
-5.6794344823
30
0.0000000000
11
-14.6740395314
21
-5.3281155872
31
0.0000000000
11
-14.6746632346
21
-5.6794344823
31
0.0000000000
0
SPLINE
5
2C7
100
AcDbEntity
8
0
100
AcDbSpline
62
0
6
CONTINUOUS
70
0
71
3
72
16
73
12
74
10
42
0.0000001000
43
0.0000001000
44
0.0000000001
12
0.9728175047
22
-15.7406703886
32
0.0000000000
13
15.5383436780
23
1.7938253406
33
0.0000000000
40
0.0000000000
40
0.0000000000
40
0.0000000000
40
0.0000000000
40
0.0543992517
40
0.1376128156
40
0.2270894753
40
0.3256823289
40
0.4337216476
40
0.5540535921
40
0.6872699118
40
0.8358388821
40
1.0000000000
40
1.0000000000
40
1.0000000000
40
1.0000000000
10
-14.6746632346
20
-5.6794344823
30
0.0000000000
10
-14.6570230532
20
-5.9648613789
30
0.0000000000
10
-14.5029473146
20
-6.6848936091
30
0.0000000000
10
-13.8595442702
20
-7.7047952796
30
0.0000000000
10
-12.7991775532
20
-8.6585870553
30
0.0000000000
10
-11.4670583876
20
-9.4530303442
30
0.0000000000
10
-9.8863629054
20
-10.1041598692
30
0.0000000000
10
-8.0651462458
20
-10.6068036279
30
0.0000000000
10
-5.9917791252
20
-10.9432383406
30
0.0000000000
10
-3.6663287957
20
-11.0739709245
30
0.0000000000
10
-2.0336045903
20
-10.9859326288
30
0.0000000000
10
-1.1833406340
20
-10.8877738377
30
0.0000000000
11
-14.6746632346
21
-5.6794344823
31
0.0000000000
11
-14.4983582847
21
-6.5181910866
31
0.0000000000
11
-13.8341660001
21
-7.6375577791
31
0.0000000000
11
-12.8096922876
21
-8.5910790422
31
0.0000000000
11
-11.4937627806
21
-9.3951557792
31
0.0000000000
11
-9.9354531436
21
-10.0489443000
31
0.0000000000
11
-8.1232223736
21
-10.5572866304
31
0.0000000000
11
-6.0672541152
21
-10.8961642281
31
0.0000000000
11
-3.7471963409
21
-11.0288390975
31
0.0000000000
11
-1.1833406340
21
-10.8877738377
31
0.0000000000
0
SPLINE
5
2C8
100
AcDbEntity
8
0
100
AcDbSpline
62
0
6
CONTINUOUS
70
0
71
3
72
11
73
7
74
5
42
0.0000001000
43
0.0000001000
44
0.0000000001
12
0.0000000000
22
-5.2842611695
32
0.0000000000
13
4.1256834758
23
-3.3420323666
33
0.0000000000
40
0.0000000000
40
0.0000000000
40
0.0000000000
40
0.0000000000
40
0.3132438284
40
0.5895619262
40
0.8408388334
40
1.0000000000
40
1.0000000000
40
1.0000000000
40
1.0000000000
10
-2.8281307681
20
-19.0117952196
30
0.0000000000
10
-2.8281307681
20
-19.5635492860
30
0.0000000000
10
-2.7539556975
20
-20.6048775224
30
0.0000000000
10
-2.3781404214
20
-22.0479240915
30
0.0000000000
10
-1.8030452538
20
-23.1278999860
30
0.0000000000
10
-1.2938553639
20
-23.6589315028
30
0.0000000000
10
-1.0749724989
20
-23.8362387595
30
0.0000000000
11
-2.8281307681
21
-19.0117952196
31
0.0000000000
11
-2.6958622832
21
-20.6617643090
31
0.0000000000
11
-2.3104428787
21
-22.0701150909
31
0.0000000000
11
-1.6638812666
21
-23.2298758091
31
0.0000000000
11
-1.0749724989
21
-23.8362387595
31
0.0000000000
0
SPLINE
5
2C9
100
AcDbEntity
8
0
100
AcDbSpline
62
0
6
CONTINUOUS
70
0
71
3
72
8
73
4
74
2
42
0.0000001000
43
0.0000001000
44
0.0000000001
12
0.1883942175
22
-0.1526097618
32
0.0000000000
13
0.1987317629
23
-0.1376673174
33
0.0000000000
40
0.0000000000
40
0.0000000000
40
0.0000000000
40
0.0000000000
40
1.0000000000
40
1.0000000000
40
1.0000000000
40
1.0000000000
10
-1.0749724989
20
-23.8362387595
30
0.0000000000
10
-1.0121744264
20
-23.8871086801
30
0.0000000000
10
-0.9476126009
20
-23.9356229576
30
0.0000000000
10
-0.8813686799
20
-23.9815120634
30
0.0000000000
11
-1.0749724989
21
-23.8362387595
31
0.0000000000
11
-0.8813686799
21
-23.9815120634
31
0.0000000000
0
SPLINE
5
2CA
100
AcDbEntity
8
0
100
AcDbSpline
62
0
6
CONTINUOUS
70
0
71
3
72
8
73
4
74
2
42
0.0000001000
43
0.0000001000
44
0.0000000001
12
0.0426671878
22
-0.0295568117
32
0.0000000000
13
0.0431299802
23
-0.0288227664
33
0.0000000000
40
0.0000000000
40
0.0000000000
40
0.0000000000
40
0.0000000000
40
1.0000000000
40
1.0000000000
40
1.0000000000
40
1.0000000000
10
-0.8813686799
20
-23.9815120634
30
0.0000000000
10
-0.8671462840
20
-23.9913643340
30
0.0000000000
10
-0.8528463519
20
-24.0010955974
30
0.0000000000
10
-0.8384696919
20
-24.0107031861
30
0.0000000000
11
-0.8813686799
21
-23.9815120634
31
0.0000000000
11
-0.8384696919
21
-24.0107031861
31
0.0000000000
0
SPLINE
5
2CB
100
AcDbEntity
8
0
100
AcDbSpline
62
0
6
CONTINUOUS
70
0
71
3
72
8
73
4
74
2
42
0.0000001000
43
0.0000001000
44
0.0000000001
12
0.1100009375
22
-0.0735110776
32
0.0000000000
13
0.1129553208
23
-0.0685514468
33
0.0000000000
40
0.0000000000
40
0.0000000000
40
0.0000000000
40
0.0000000000
40
1.0000000000
40
1.0000000000
40
1.0000000000
40
1.0000000000
10
-0.8384696919
20
-24.0107031861
30
0.0000000000
10
-0.8018027127
20
-24.0352068787
30
0.0000000000
10
-0.7646366329
20
-24.0589060922
30
0.0000000000
10
-0.7269848593
20
-24.0817565745
30
0.0000000000
11
-0.8384696919
21
-24.0107031861
31
0.0000000000
11
-0.7269848593
21
-24.0817565745
31
0.0000000000
0
SPLINE
5
2CC
100
AcDbEntity
8
0
100
AcDbSpline
62
0
6
CONTINUOUS
70
0
71
3
72
8
73
4
74
2
42
0.0000001000
43
0.0000001000
44
0.0000000001
12
0.1916852234
22
0.1180339863
32
0.0000000000
13
0.1434687269
23
0.1708096434
33
0.0000000000
40
0.0000000000
40
0.0000000000
40
0.0000000000
40
0.0000000000
40
1.0000000000
40
1.0000000000
40
1.0000000000
40
1.0000000000
10
1.1698964022
20
-29.5466170132
30
0.0000000000
10
1.2337914766
20
-29.5072723511
30
0.0000000000
10
1.2915731053
20
-29.4580256246
30
0.0000000000
10
1.3393960143
20
-29.4010890767
30
0.0000000000
11
1.1698964022
21
-29.5466170132
31
0.0000000000
11
1.3393960143
21
-29.4010890767
31
0.0000000000
0
SPLINE
5
2CD
100
AcDbEntity
8
0
100
AcDbSpline
62
0
6
CONTINUOUS
70
0
71
3
72
9
73
5
74
3
42
0.0000001000
43
0.0000001000
44
0.0000000001
12
0.3840965041
22
0.4572939925
32
0.0000000000
13
0.0000000000
23
0.5879048883
33
0.0000000000
40
0.0000000000
40
0.0000000000
40
0.0000000000
40
0.0000000000
40
0.0757838016
40
1.0000000000
40
1.0000000000
40
1.0000000000
40
1.0000000000
10
1.3393960143
20
-29.4010890767
30
0.0000000000
10
1.3490987787
20
-29.3895372510
30
0.0000000000
10
1.4717215838
20
-29.2329289743
30
0.0000000000
10
1.5173736911
20
-29.0244211477
30
0.0000000000
10
1.5173736911
20
-28.8433040741
30
0.0000000000
11
1.3393960143
21
-29.4010890767
31
0.0000000000
11
1.3672423664
21
-29.3655024412
31
0.0000000000
11
1.5173736911
21
-28.8433040741
31
0.0000000000
0
SPLINE
5
2CE
100
AcDbEntity
8
0
100
AcDbSpline
62
0
6
CONTINUOUS
70
0
71
3
72
8
73
4
74
2
42
0.0000001000
43
0.0000001000
44
0.0000000001
12
0.2814622895
22
-0.4182990258
32
0.0000000000
13
0.2211070955
23
-0.4535508347
33
0.0000000000
40
0.0000000000
40
0.0000000000
40
0.0000000000
40
0.0000000000
40
1.0000000000
40
1.0000000000
40
1.0000000000
40
1.0000000000
10
-13.5128224299
20
-21.5456267643
30
0.0000000000
10
-13.4190016667
20
-21.6850597729
30
0.0000000000
10
-13.3353552200
20
-21.8311791555
30
0.0000000000
10
-13.2616528548
20
-21.9823627671
30
0.0000000000
11
-13.5128224299
21
-21.5456267643
31
0.0000000000
11
-13.2616528548
21
-21.9823627671
31
0.0000000000
0
SPLINE
5
2CF
100
AcDbEntity
8
0
100
AcDbSpline
62
0
6
CONTINUOUS
70
0
71
3
72
8
73
4
74
2
42
0.0000001000
43
0.0000001000
44
0.0000000001
12
0.3662818260
22
-0.7513437213
32
0.0000000000
13
0.1802163811
23
-0.8161589521
33
0.0000000000
40
0.0000000000
40
0.0000000000
40
0.0000000000
40
0.0000000000
40
1.0000000000
40
1.0000000000
40
1.0000000000
40
1.0000000000
10
-13.2616528548
20
-21.9823627671
30
0.0000000000
10
-13.1395589128
20
-22.2328106742
30
0.0000000000
10
-13.0447541240
20
-22.4971561463
30
0.0000000000
10
-12.9846819970
20
-22.7692091303
30
0.0000000000
11
-13.2616528548
21
-21.9823627671
31
0.0000000000
11
-12.9846819970
21
-22.7692091303
31
0.0000000000
0
SPLINE
5
2D0
100
AcDbEntity
8
0
100
AcDbSpline
62
0
6
CONTINUOUS
70
0
71
3
72
8
73
4
74
2
42
0.0000001000
43
0.0000001000
44
0.0000000001
12
0.1844655086
22
0.1145016064
32
0.0000000000
13
0.1321050811
23
0.1741281578
33
0.0000000000
40
0.0000000000
40
0.0000000000
40
0.0000000000
40
0.0000000000
40
1.0000000000
40
1.0000000000
40
1.0000000000
40
1.0000000000
10
-13.4687626184
20
-23.4963545615
30
0.0000000000
10
-13.4072741155
20
-23.4581873594
30
0.0000000000
10
-13.3525719179
20
-23.4072567011
30
0.0000000000
10
-13.3085368908
20
-23.3492139818
30
0.0000000000
11
-13.4687626184
21
-23.4963545615
31
0.0000000000
11
-13.3085368908
21
-23.3492139818
31
0.0000000000
0
SPLINE
5
2D1
100
AcDbEntity
8
0
100
AcDbSpline
62
0
6
CONTINUOUS
70
0
71
3
72
8
73
4
74
2
42
0.0000001000
43
0.0000001000
44
0.0000000001
12
0.0326242249
22
0.0430021020
32
0.0000000000
13
0.0285454832
23
0.0453492343
33
0.0000000000
40
0.0000000000
40
0.0000000000
40
0.0000000000
40
0.0000000000
40
1.0000000000
40
1.0000000000
40
1.0000000000
40
1.0000000000
10
-13.3085368908
20
-23.3492139818
30
0.0000000000
10
-13.2976621492
20
-23.3348799478
30
0.0000000000
10
-13.2874379725
20
-23.3201121664
30
0.0000000000
10
-13.2779228114
20
-23.3049957550
30
0.0000000000
11
-13.3085368908
21
-23.3492139818
31
0.0000000000
11
-13.2779228114
21
-23.3049957550
31
0.0000000000
0
SPLINE
5
2D2
100
AcDbEntity
8
0
100
AcDbSpline
62
0
6
CONTINUOUS
70
0
71
3
72
8
73
4
74
2
42
0.0000001000
43
0.0000001000
44
0.0000000001
12
0.0837033766
22
0.1329766957
32
0.0000000000
13
0.0504898666
23
0.1474344186
33
0.0000000000
40
0.0000000000
40
0.0000000000
40
0.0000000000
40
0.0000000000
40
1.0000000000
40
1.0000000000
40
1.0000000000
40
1.0000000000
10
-13.2779228114
20
-23.3049957550
30
0.0000000000
10
-13.2500216858
20
-23.2606701897
30
0.0000000000
10
-13.2282168697
20
-23.2133470085
30
0.0000000000
10
-13.2113869141
20
-23.1642022022
30
0.0000000000
11
-13.2779228114
21
-23.3049957550
31
0.0000000000
11
-13.2113869141
21
-23.1642022022
31
0.0000000000
0
SPLINE
5
2D3
100
AcDbEntity
8
0
100
AcDbSpline
62
0
6
CONTINUOUS
70
0
71
3
72
8
73
4
74
2
42
0.0000001000
43
0.0000001000
44
0.0000000001
12
0.0550005538
22
0.1606059834
32
0.0000000000
13
0.0239287942
23
0.1690153476
33
0.0000000000
40
0.0000000000
40
0.0000000000
40
0.0000000000
40
0.0000000000
40
1.0000000000
40
1.0000000000
40
1.0000000000
40
1.0000000000
10
-13.2113869141
20
-23.1642022022
30
0.0000000000
10
-13.1930533962
20
-23.1106668745
30
0.0000000000
10
-13.1806233379
20
-23.0549699003
30
0.0000000000
10
-13.1726470731
20
-22.9986314511
30
0.0000000000
11
-13.2113869141
21
-23.1642022022
31
0.0000000000
11
-13.1726470731
21
-22.9986314511
31
0.0000000000
0
SPLINE
5
2D4
100
AcDbEntity
8
0
100
AcDbSpline
62
0
6
CONTINUOUS
70
0
71
3
72
8
73
4
74
2
42
0.0000001000
43
0.0000001000
44
0.0000000001
12
0.0260380357
22
0.1839134738
32
0.0000000000
13
0.0000000000
23
0.1825948332
33
0.0000000000
40
0.0000000000
40
0.0000000000
40
0.0000000000
40
0.0000000000
40
1.0000000000
40
1.0000000000
40
1.0000000000
40
1.0000000000
10
-13.1726470731
20
-22.9986314511
30
0.0000000000
10
-13.1639677279
20
-22.9373269598
30
0.0000000000
10
-13.1605619548
20
-22.8752629217
30
0.0000000000
10
-13.1605619548
20
-22.8143979773
30
0.0000000000
11
-13.1726470731
21
-22.9986314511
31
0.0000000000
11
-13.1605619548
21
-22.8143979773
31
0.0000000000
0
SPLINE
5
2D5
100
AcDbEntity
8
0
100
AcDbSpline
62
0
6
CONTINUOUS
70
0
71
3
72
9
73
5
74
3
42
0.0000001000
43
0.0000001000
44
0.0000000001
12
0.0947285688
22
0.0698591286
32
0.0000000000
13
0.1149365953
23
0.0149830182
33
0.0000000000
40
0.0000000000
40
0.0000000000
40
0.0000000000
40
0.0000000000
40
0.7660239732
40
1.0000000000
40
1.0000000000
40
1.0000000000
40
1.0000000000
10
-11.9970114058
20
32.9092759737
30
0.0000000000
10
-11.9728232876
20
32.9271138962
30
0.0000000000
10
-11.9371332919
20
32.9446606138
30
0.0000000000
10
-11.8991651584
20
32.9518715745
30
0.0000000000
10
-11.8902010224
20
32.9530401302
30
0.0000000000
11
-11.9970114058
21
32.9092759737
31
0.0000000000
11
-11.9168077083
21
32.9479313619
31
0.0000000000
11
-11.8902010224
21
32.9530401302
31
0.0000000000
0
SPLINE
5
2D6
100
AcDbEntity
8
0
100
AcDbSpline
62
0
6
CONTINUOUS
70
0
71
3
72
8
73
4
74
2
42
0.0000001000
43
0.0000001000
44
0.0000000001
12
0.0950609774
22
0.0123920528
32
0.0000000000
13
0.0952378415
23
-0.0202375628
33
0.0000000000
40
0.0000000000
40
0.0000000000
40
0.0000000000
40
0.0000000000
40
1.0000000000
40
1.0000000000
40
1.0000000000
40
1.0000000000
10
-11.8902010224
20
32.9530401302
30
0.0000000000
10
-11.8585140299
20
32.9571708145
30
0.0000000000
10
-11.8258211327
20
32.9548210060
30
0.0000000000
10
-11.7940751855
20
32.9480751517
30
0.0000000000
11
-11.8902010224
21
32.9530401302
31
0.0000000000
11
-11.7940751855
21
32.9480751517
31
0.0000000000
0
SPLINE
5
2D7
100
AcDbEntity
8
0
100
AcDbSpline
62
0
6
CONTINUOUS
70
0
71
3
72
8
73
4
74
2
42
0.0000001000
43
0.0000001000
44
0.0000000001
12
0.0726047218
22
-0.0154281385
32
0.0000000000
13
0.0667069151
23
-0.0279868739
33
0.0000000000
40
0.0000000000
40
0.0000000000
40
0.0000000000
40
0.0000000000
40
1.0000000000
40
1.0000000000
40
1.0000000000
40
1.0000000000
10
-11.7940751855
20
32.9480751517
30
0.0000000000
10
-11.7698736115
20
32.9429324389
30
0.0000000000
10
-11.7462223860
20
32.9352348323
30
0.0000000000
10
-11.7239867477
20
32.9259058743
30
0.0000000000
11
-11.7940751855
21
32.9480751517
31
0.0000000000
11
-11.7239867477
21
32.9259058743
31
0.0000000000
0
SPLINE
5
2D8
100
AcDbEntity
8
0
100
AcDbSpline
62
0
6
CONTINUOUS
70
0
71
3
72
11
73
7
74
5
42
0.0000001000
43
0.0000001000
44
0.0000000001
12
6.6551941048
22
-6.7017994589
32
0.0000000000
13
9.4065958053
23
-0.8418391546
33
0.0000000000
40
0.0000000000
40
0.0000000000
40
0.0000000000
40
0.0000000000
40
0.0208998426
40
0.3905460157
40
0.7649008418
40
1.0000000000
40
1.0000000000
40
1.0000000000
40
1.0000000000
10
-13.2407661259
20
-21.7879024168
30
0.0000000000
10
-13.1944019560
20
-21.8345912681
30
0.0000000000
10
-12.3216062368
20
-22.7006857342
30
0.0000000000
10
-10.3805900757
20
-24.1604108568
30
0.0000000000
10
-7.4999490238
20
-25.3271088857
30
0.0000000000
10
-5.5998326987
20
-25.6549549888
30
0.0000000000
10
-4.8626717802
20
-25.7209268810
30
0.0000000000
11
-13.2407661259
21
-21.7879024168
31
0.0000000000
11
-13.1006489865
21
-21.9269424545
31
0.0000000000
11
-10.3182461793
21
-24.0197854206
31
0.0000000000
11
-7.0498610562
21
-25.3427378456
31
0.0000000000
11
-4.8626717802
21
-25.7209268810
31
0.0000000000
0
SPLINE
5
2D9
100
AcDbEntity
8
0
100
AcDbSpline
62
0
6
CONTINUOUS
70
0
71
3
72
8
73
4
74
2
42
0.0000001000
43
0.0000001000
44
0.0000000001
12
0.0000000000
22
-1.0228606616
32
0.0000000000
13
0.0780894227
23
-1.0224762198
33
0.0000000000
40
0.0000000000
40
0.0000000000
40
0.0000000000
40
0.0000000000
40
1.0000000000
40
1.0000000000
40
1.0000000000
40
1.0000000000
10
-17.1622148970
20
-12.2746908033
30
0.0000000000
10
-17.1622148970
20
-12.6156443572
30
0.0000000000
10
-17.1491306927
20
-12.9571173485
30
0.0000000000
10
-17.1231008852
20
-13.2979427550
30
0.0000000000
11
-17.1622148970
21
-12.2746908033
31
0.0000000000
11
-17.1231008852
21
-13.2979427550
31
0.0000000000
0
SPLINE
5
2DA
100
AcDbEntity
8
0
100
AcDbSpline
62
0
6
CONTINUOUS
70
0
71
3
72
8
73
4
74
2
42
0.0000001000
43
0.0000001000
44
0.0000000001
12
0.0194742807
22
-0.2549895771
32
0.0000000000
13
0.0242985528
23
-0.2546936264
33
0.0000000000
40
0.0000000000
40
0.0000000000
40
0.0000000000
40
0.0000000000
40
1.0000000000
40
1.0000000000
40
1.0000000000
40
1.0000000000
10
-17.1231008852
20
-13.2979427550
30
0.0000000000
10
-17.1166094583
20
-13.3829392808
30
0.0000000000
10
-17.1093129112
20
-13.4678955315
30
0.0000000000
10
-17.1012133936
20
-13.5527934070
30
0.0000000000
11
-17.1231008852
21
-13.2979427550
31
0.0000000000
11
-17.1012133936
21
-13.5527934070
31
0.0000000000
0
SPLINE
5
2DB
100
AcDbEntity
8
0
100
AcDbSpline
62
0
6
CONTINUOUS
70
0
71
3
72
8
73
4
74
2
42
0.0000001000
43
0.0000001000
44
0.0000000001
12
0.0256505452
22
-0.2688649996
32
0.0000000000
13
0.0310118329
23
-0.2684108081
33
0.0000000000
40
0.0000000000
40
0.0000000000
40
0.0000000000
40
0.0000000000
40
1.0000000000
40
1.0000000000
40
1.0000000000
40
1.0000000000
10
-17.1012133936
20
-13.5527934070
30
0.0000000000
10
-17.0926632119
20
-13.6424150735
30
0.0000000000
10
-17.0832182178
20
-13.7319716879
30
0.0000000000
10
-17.0728809401
20
-13.8214419573
30
0.0000000000
11
-17.1012133936
21
-13.5527934070
31
0.0000000000
11
-17.0728809401
21
-13.8214419573
31
0.0000000000
0
SPLINE
5
2DC
100
AcDbEntity
8
0
100
AcDbSpline
62
0
6
CONTINUOUS
70
0
71
3
72
10
73
6
74
4
42
0.0000001000
43
0.0000001000
44
0.0000000001
12
-3.0000181612
22
-5.7513622345
32
0.0000000000
13
0.0000000000
23
-6.4838473058
33
0.0000000000
40
0.0000000000
40
0.0000000000
40
0.0000000000
40
0.0000000000
40
0.3033309005
40
0.6520863569
40
1.0000000000
40
1.0000000000
40
1.0000000000
40
1.0000000000
10
-15.6312610434
20
-6.0303614974
30
0.0000000000
10
-15.9345937801
20
-6.6118834593
30
0.0000000000
10
-16.4963791396
20
-7.9115231079
30
0.0000000000
10
-17.0357760725
20
-10.0139258244
30
0.0000000000
10
-17.1622148970
20
-11.5227511574
30
0.0000000000
10
-17.1622148970
20
-12.2746908033
30
0.0000000000
11
-15.6312610434
21
-6.0303614974
31
0.0000000000
11
-16.4117933104
21
-7.8364197117
31
0.0000000000
11
-16.9737438200
21
-10.0267589244
31
0.0000000000
11
-17.1622148970
21
-12.2746908033
31
0.0000000000
0
SPLINE
5
2DD
100
AcDbEntity
8
0
100
AcDbSpline
62
0
6
CONTINUOUS
70
0
71
3
72
8
73
4
74
2
42
0.0000001000
43
0.0000001000
44
0.0000000001
12
0.0224698104
22
-0.0136367017
32
0.0000000000
13
0.0230678241
23
-0.0157569385
33
0.0000000000
40
0.0000000000
40
0.0000000000
40
0.0000000000
40
0.0000000000
40
1.0000000000
40
1.0000000000
40
1.0000000000
40
1.0000000000
10
-0.7269848593
20
-24.0817565745
30
0.0000000000
10
-0.7194949225
20
-24.0863021417
30
0.0000000000
10
-0.7116297494
20
-24.0911612632
30
0.0000000000
10
-0.7039404747
20
-24.0964135760
30
0.0000000000
11
-0.7269848593
21
-24.0817565745
31
0.0000000000
11
-0.7039404747
21
-24.0964135760
31
0.0000000000
0
SPLINE
5
2DE
100
AcDbEntity
8
0
100
AcDbSpline
62
0
6
CONTINUOUS
70
0
71
3
72
10
73
6
74
4
42
0.0000001000
43
0.0000001000
44
0.0000000001
12
0.2011620806
22
-0.1374077820
32
0.0000000000
13
-0.2030141379
23
-0.1122489788
33
0.0000000000
40
0.0000000000
40
0.0000000000
40
0.0000000000
40
0.0000000000
40
0.3197295656
40
0.6861760082
40
1.0000000000
40
1.0000000000
40
1.0000000000
40
1.0000000000
10
-0.7039404747
20
-24.0964135760
30
0.0000000000
10
-0.6825013198
20
-24.1110580195
30
0.0000000000
10
-0.6394251248
20
-24.1490466224
30
0.0000000000
10
-0.6660118010
20
-24.2365131198
30
0.0000000000
10
-0.7070623712
20
-24.2687174091
30
0.0000000000
10
-0.7282992735
20
-24.2804595499
30
0.0000000000
11
-0.7039404747
21
-24.0964135760
31
0.0000000000
11
-0.6556713702
21
-24.1512430836
31
0.0000000000
11
-0.6740745303
21
-24.2331950748
31
0.0000000000
11
-0.7282992735
21
-24.2804595499
31
0.0000000000
0
SPLINE
5
2DF
100
AcDbEntity
8
0
100
AcDbSpline
62
0
6
CONTINUOUS
70
0
71
3
72
12
73
8
74
6
42
0.0000001000
43
0.0000001000
44
0.0000000001
12
0.9511988804
22
0.1098112316
32
0.0000000000
13
-0.4652790249
23
-0.8368711045
33
0.0000000000
40
0.0000000000
40
0.0000000000
40
0.0000000000
40
0.0000000000
40
0.2086413852
40
0.4062023034
40
0.5925152331
40
0.7853225812
40
1.0000000000
40
1.0000000000
40
1.0000000000
40
1.0000000000
10
-1.1833406340
20
-10.8877738377
30
0.0000000000
10
-1.1171874833
20
-10.8801367818
30
0.0000000000
10
-0.9868096953
20
-10.8766241905
30
0.0000000000
10
-0.7984550645
20
-10.9180545519
30
0.0000000000
10
-0.6516020745
20
-11.0531581232
30
0.0000000000
10
-0.6417746556
20
-11.2568330191
30
0.0000000000
10
-0.6936898926
20
-11.3778999031
30
0.0000000000
10
-0.7269848593
20
-11.4377856793
30
0.0000000000
11
-1.1833406340
21
-10.8877738377
31
0.0000000000
11
-0.9835830485
21
-10.8849484628
31
0.0000000000
11
-0.8013091553
21
-10.9355518019
31
0.0000000000
11
-0.6750566551
21
-11.0615916606
31
0.0000000000
11
-0.6552694950
21
-11.2451444181
31
0.0000000000
11
-0.7269848593
21
-11.4377856793
31
0.0000000000
0
SPLINE
5
2E0
100
AcDbEntity
8
0
100
AcDbSpline
62
0
6
CONTINUOUS
70
0
71
3
72
8
73
4
74
2
42
0.0000001000
43
0.0000001000
44
0.0000000001
12
0.0000000000
22
-0.0758357645
32
0.0000000000
13
-0.0130067885
23
-0.0763284407
33
0.0000000000
40
0.0000000000
40
0.0000000000
40
0.0000000000
40
0.0000000000
40
1.0000000000
40
1.0000000000
40
1.0000000000
40
1.0000000000
10
14.6809834457
20
-32.2522437854
30
0.0000000000
10
14.6809834457
20
-32.2775223736
30
0.0000000000
10
14.6791425837
20
-32.3033912947
30
0.0000000000
10
14.6748069876
20
-32.3288341082
30
0.0000000000
11
14.6809834457
21
-32.2522437854
31
0.0000000000
11
14.6748069876
21
-32.3288341082
31
0.0000000000
0
SPLINE
5
2E1
100
AcDbEntity
8
0
100
AcDbSpline
62
0
6
CONTINUOUS
70
0
71
3
72
9
73
5
74
3
42
0.0000001000
43
0.0000001000
44
0.0000000001
12
-0.0231957261
22
-0.1361207350
32
0.0000000000
13
-0.0818141041
23
-0.1106914291
33
0.0000000000
40
0.0000000000
40
0.0000000000
40
0.0000000000
40
0.0000000000
40
0.9398021419
40
1.0000000000
40
1.0000000000
40
1.0000000000
40
1.0000000000
10
14.6748069876
20
-32.3288341082
30
0.0000000000
10
14.6675405232
20
-32.3714762943
30
0.0000000000
10
14.6523520891
20
-32.4155762776
30
0.0000000000
10
14.6257441886
20
-32.4529031746
30
0.0000000000
10
14.6241025107
20
-32.4551243036
30
0.0000000000
11
14.6748069876
21
-32.3288341082
31
0.0000000000
11
14.6289062842
21
-32.4483846319
31
0.0000000000
11
14.6241025107
21
-32.4551243036
31
0.0000000000
0
SPLINE
5
2E2
100
AcDbEntity
8
0
100
AcDbSpline
62
0
6
CONTINUOUS
70
0
71
3
72
8
73
4
74
2
42
0.0000001000
43
0.0000001000
44
0.0000000001
12
-0.0294422013
22
-0.0398341994
32
0.0000000000
13
-0.0370817280
23
-0.0334370796
33
0.0000000000
40
0.0000000000
40
0.0000000000
40
0.0000000000
40
0.0000000000
40
1.0000000000
40
1.0000000000
40
1.0000000000
40
1.0000000000
10
14.6241025107
20
-32.4551243036
30
0.0000000000
10
14.6142884436
20
-32.4684023700
30
0.0000000000
10
14.6030470517
20
-32.4807559021
30
0.0000000000
10
14.5906864757
20
-32.4919015953
30
0.0000000000
11
14.6241025107
21
-32.4551243036
31
0.0000000000
11
14.5906864757
21
-32.4919015953
31
0.0000000000
0
SPLINE
5
2E3
100
AcDbEntity
8
0
100
AcDbSpline
62
0
6
CONTINUOUS
70
0
71
3
72
8
73
4
74
2
42
0.0000001000
43
0.0000001000
44
0.0000000001
12
-0.0509616482
22
-0.0459527854
32
0.0000000000
13
-0.0612450825
23
-0.0300590880
33
0.0000000000
40
0.0000000000
40
0.0000000000
40
0.0000000000
40
0.0000000000
40
1.0000000000
40
1.0000000000
40
1.0000000000
40
1.0000000000
10
14.5906864757
20
-32.4919015953
30
0.0000000000
10
14.5736992596
20
-32.5072191904
30
0.0000000000
10
14.5545982210
20
-32.5202555192
30
0.0000000000
10
14.5341831935
20
-32.5302752152
30
0.0000000000
11
14.5906864757
21
-32.4919015953
31
0.0000000000
11
14.5341831935
21
-32.5302752152
31
0.0000000000
0
SPLINE
5
2E4
100
AcDbEntity
8
0
100
AcDbSpline
62
0
6
CONTINUOUS
70
0
71
3
72
8
73
4
74
2
42
0.0000001000
43
0.0000001000
44
0.0000000001
12
0.0000000000
22
0.2454275209
32
0.0000000000
13
-0.0963614234
23
0.2279653053
33
0.0000000000
40
0.0000000000
40
0.0000000000
40
0.0000000000
40
0.0000000000
40
1.0000000000
40
1.0000000000
40
1.0000000000
40
1.0000000000
10
14.6809834457
20
21.4152862260
30
0.0000000000
10
14.6809834457
20
21.4970953996
30
0.0000000000
10
14.6610267587
20
21.5791365644
30
0.0000000000
10
14.6289062842
20
21.6551249995
30
0.0000000000
11
14.6809834457
21
21.4152862260
31
0.0000000000
11
14.6289062842
21
21.6551249995
31
0.0000000000
0
SPLINE
5
2E5
100
AcDbEntity
8
0
100
AcDbSpline
62
0
6
CONTINUOUS
70
0
71
3
72
9
73
5
74
3
42
0.0000001000
43
0.0000001000
44
0.0000000001
12
-0.1616589313
22
0.3824417108
32
0.0000000000
13
-0.3498271274
23
0.2212598571
33
0.0000000000
40
0.0000000000
40
0.0000000000
40
0.0000000000
40
0.0000000000
40
0.6164623591
40
1.0000000000
40
1.0000000000
40
1.0000000000
40
1.0000000000
10
14.6289062842
20
21.6551249995
30
0.0000000000
10
14.5956874022
20
21.7337119726
30
0.0000000000
10
14.5206969167
20
21.8506910550
30
0.0000000000
10
14.4143331025
20
21.9426015469
30
0.0000000000
10
14.3696091455
20
21.9708887081
30
0.0000000000
11
14.6289062842
21
21.6551249995
31
0.0000000000
11
14.4913071034
21
21.8684116626
31
0.0000000000
11
14.3696091455
21
21.9708887081
31
0.0000000000
0
SPLINE
5
2E6
100
AcDbEntity
8
0
100
AcDbSpline
62
0
6
CONTINUOUS
70
0
71
3
72
8
73
4
74
2
42
0.0000001000
43
0.0000001000
44
0.0000000001
12
-0.0681698521
22
0.0431163010
32
0.0000000000
13
-0.0739862291
23
0.0310409088
33
0.0000000000
40
0.0000000000
40
0.0000000000
40
0.0000000000
40
0.0000000000
40
1.0000000000
40
1.0000000000
40
1.0000000000
40
1.0000000000
10
14.3696091455
20
21.9708887081
30
0.0000000000
10
14.3468858615
20
21.9852608084
30
0.0000000000
10
14.3231482192
20
21.9978352023
30
0.0000000000
10
14.2984861428
20
22.0081821719
30
0.0000000000
11
14.3696091455
21
21.9708887081
31
0.0000000000
11
14.2984861428
21
22.0081821719
31
0.0000000000
0
SPLINE
5
2E7
100
AcDbEntity
8
0
100
AcDbSpline
62
0
6
CONTINUOUS
70
0
71
3
72
8
73
4
74
2
42
0.0000001000
43
0.0000001000
44
0.0000000001
12
-0.1566678148
22
0.0869622345
32
0.0000000000
13
-0.1751612217
23
0.0596950184
33
0.0000000000
40
0.0000000000
40
0.0000000000
40
0.0000000000
40
0.0000000000
40
1.0000000000
40
1.0000000000
40
1.0000000000
40
1.0000000000
10
-14.0406175535
20
-21.2524133341
30
0.0000000000
10
-14.0928401584
20
-21.2234259226
30
0.0000000000
10
-14.1491830107
20
-21.1974644369
30
0.0000000000
10
-14.2075700846
20
-21.1775660974
30
0.0000000000
11
-14.0406175535
21
-21.2524133341
31
0.0000000000
11
-14.2075700846
21
-21.1775660974
31
0.0000000000
0
SPLINE
5
2E8
100
AcDbEntity
8
0
100
AcDbSpline
62
0
6
CONTINUOUS
70
0
71
3
72
8
73
4
74
2
42
0.0000001000
43
0.0000001000
44
0.0000000001
12
-0.2991308434
22
0.1019439178
32
0.0000000000
13
-0.3038826925
23
-0.0495315776
33
0.0000000000
40
0.0000000000
40
0.0000000000
40
0.0000000000
40
0.0000000000
40
1.0000000000
40
1.0000000000
40
1.0000000000
40
1.0000000000
10
-14.2075700846
20
-21.1775660974
30
0.0000000000
10
-14.3072803657
20
-21.1435847915
30
0.0000000000
10
-14.4129524061
20
-21.1272860198
30
0.0000000000
10
-14.5142466369
20
-21.1437965456
30
0.0000000000
11
-14.2075700846
21
-21.1775660974
31
0.0000000000
11
-14.5142466369
21
-21.1437965456
31
0.0000000000
0
SPLINE
5
2E9
100
AcDbEntity
8
0
100
AcDbSpline
62
0
6
CONTINUOUS
70
0
71
3
72
9
73
5
74
3
42
0.0000001000
43
0.0000001000
44
0.0000000001
12
-0.1519772152
22
-0.0247716353
32
0.0000000000
13
-0.1402098511
23
-0.0702638632
33
0.0000000000
40
0.0000000000
40
0.0000000000
40
0.0000000000
40
0.0000000000
40
0.0682270024
40
1.0000000000
40
1.0000000000
40
1.0000000000
40
1.0000000000
10
-14.5142466369
20
-21.1437965456
30
0.0000000000
10
-14.5177029535
20
-21.1443599104
30
0.0000000000
10
-14.5682873188
20
-21.1531770065
30
0.0000000000
10
-14.6176884727
20
-21.1703293981
30
0.0000000000
10
-14.6612363904
20
-21.1921527216
30
0.0000000000
11
-14.5142466369
21
-21.1437965456
31
0.0000000000
11
-14.5245998850
21
-21.1456018387
31
0.0000000000
11
-14.6612363904
21
-21.1921527216
31
0.0000000000
0
SPLINE
5
2EA
100
AcDbEntity
8
0
100
AcDbSpline
62
0
6
CONTINUOUS
70
0
71
3
72
8
73
4
74
2
42
0.0000001000
43
0.0000001000
44
0.0000000001
12
-0.0423509588
22
-0.0212234871
32
0.0000000000
13
-0.0406367858
23
-0.0247638659
33
0.0000000000
40
0.0000000000
40
0.0000000000
40
0.0000000000
40
0.0000000000
40
1.0000000000
40
1.0000000000
40
1.0000000000
40
1.0000000000
10
-14.6612363904
20
-21.1921527216
30
0.0000000000
10
-14.6753533767
20
-21.1992272173
30
0.0000000000
10
-14.6892094588
20
-21.2069155462
30
0.0000000000
10
-14.7027550540
20
-21.2151701682
30
0.0000000000
11
-14.6612363904
21
-21.1921527216
31
0.0000000000
11
-14.7027550540
21
-21.2151701682
31
0.0000000000
0
SPLINE
5
2EB
100
AcDbEntity
8
0
100
AcDbSpline
62
0
6
CONTINUOUS
70
0
71
3
72
8
73
4
74
2
42
0.0000001000
43
0.0000001000
44
0.0000000001
12
0.0000000000
22
0.1985442029
32
0.0000000000
13
-0.0259884230
23
0.1975759560
33
0.0000000000
40
0.0000000000
40
0.0000000000
40
0.0000000000
40
0.0000000000
40
1.0000000000
40
1.0000000000
40
1.0000000000
40
1.0000000000
10
-13.1605619548
20
-22.8143979773
30
0.0000000000
10
-13.1605619548
20
-22.7482165763
30
0.0000000000
10
-13.1651754767
20
-22.6819890278
30
0.0000000000
10
-13.1738382843
20
-22.6161303758
30
0.0000000000
11
-13.1605619548
21
-22.8143979773
31
0.0000000000
11
-13.1738382843
21
-22.6161303758
31
0.0000000000
0
SPLINE
5
2EC
100
AcDbEntity
8
0
100
AcDbSpline
62
0
6
CONTINUOUS
70
0
71
3
72
8
73
4
74
2
42
0.0000001000
43
0.0000001000
44
0.0000000001
12
-0.0552064235
22
0.4197046462
32
0.0000000000
13
-0.1486153974
23
0.3977811195
33
0.0000000000
40
0.0000000000
40
0.0000000000
40
0.0000000000
40
0.0000000000
40
1.0000000000
40
1.0000000000
40
1.0000000000
40
1.0000000000
10
-13.1738382843
20
-22.6161303758
30
0.0000000000
10
-13.1922404255
20
-22.4762288271
30
0.0000000000
10
-13.2289150598
20
-22.3379919320
30
0.0000000000
10
-13.2784535256
20
-22.2053982255
30
0.0000000000
11
-13.1738382843
21
-22.6161303758
31
0.0000000000
11
-13.2784535256
21
-22.2053982255
31
0.0000000000
0
SPLINE
5
2ED
100
AcDbEntity
8
0
100
AcDbSpline
62
0
6
CONTINUOUS
70
0
71
3
72
8
73
4
74
2
42
0.0000001000
43
0.0000001000
44
0.0000000001
12
-0.0767811986
22
0.2055110821
32
0.0000000000
13
-0.0972749465
23
0.1956916257
33
0.0000000000
40
0.0000000000
40
0.0000000000
40
0.0000000000
40
0.0000000000
40
1.0000000000
40
1.0000000000
40
1.0000000000
40
1.0000000000
10
-13.2784535256
20
-22.2053982255
30
0.0000000000
10
-13.3040472584
20
-22.1368945314
30
0.0000000000
10
-13.3330746135
20
-22.0698971209
30
0.0000000000
10
-13.3654995956
20
-22.0046665790
30
0.0000000000
11
-13.2784535256
21
-22.2053982255
31
0.0000000000
11
-13.3654995956
21
-22.0046665790
31
0.0000000000
0
SPLINE
5
2EE
100
AcDbEntity
8
0
100
AcDbSpline
62
0
6
CONTINUOUS
70
0
71
3
72
9
73
5
74
3
42
0.0000001000
43
0.0000001000
44
0.0000000001
12
-0.3726588093
22
0.7496915791
32
0.0000000000
13
-0.6661167972
23
0.5084253039
33
0.0000000000
40
0.0000000000
40
0.0000000000
40
0.0000000000
40
0.0000000000
40
0.5169690071
40
1.0000000000
40
1.0000000000
40
1.0000000000
40
1.0000000000
10
-13.3654995956
20
-22.0046665790
30
0.0000000000
10
-13.4297172805
20
-21.8754774753
30
0.0000000000
10
-13.5797155831
20
-21.6389859836
30
0.0000000000
10
-13.7785327057
20
-21.4360001829
30
0.0000000000
10
-13.8857843917
20
-21.3541384565
30
0.0000000000
11
-13.3654995956
21
-22.0046665790
31
0.0000000000
11
-13.5978533968
21
-21.6399145609
31
0.0000000000
11
-13.8857843917
21
-21.3541384565
31
0.0000000000
0
SPLINE
5
2EF
100
AcDbEntity
8
0
100
AcDbSpline
62
0
6
CONTINUOUS
70
0
71
3
72
8
73
4
74
2
42
0.0000001000
43
0.0000001000
44
0.0000000001
12
-0.1477538704
22
0.1127757276
32
0.0000000000
13
-0.1618956518
23
0.0898640711
33
0.0000000000
40
0.0000000000
40
0.0000000000
40
0.0000000000
40
0.0000000000
40
1.0000000000
40
1.0000000000
40
1.0000000000
40
1.0000000000
10
-13.8857843917
20
-21.3541384565
30
0.0000000000
10
-13.9350356818
20
-21.3165465473
30
0.0000000000
10
-13.9866523362
20
-21.2823680245
30
0.0000000000
10
-14.0406175535
20
-21.2524133341
30
0.0000000000
11
-13.8857843917
21
-21.3541384565
31
0.0000000000
11
-14.0406175535
21
-21.2524133341
31
0.0000000000
0
SPLINE
5
2F0
100
AcDbEntity
8
0
100
AcDbSpline
62
0
6
CONTINUOUS
70
0
71
3
72
10
73
6
74
4
42
0.0000001000
43
0.0000001000
44
0.0000000001
12
0.0000000000
22
1.9795743482
32
0.0000000000
13
-1.8946961996
23
0.5734465201
33
0.0000000000
40
0.0000000000
40
0.0000000000
40
0.0000000000
40
0.0000000000
40
0.3261720704
40
0.6752960052
40
1.0000000000
40
1.0000000000
40
1.0000000000
40
1.0000000000
10
1.5173736911
20
-28.8433040741
30
0.0000000000
10
1.5173736911
20
-28.6280767862
30
0.0000000000
10
1.3979096153
20
-28.1811602487
30
0.0000000000
10
1.0017820318
20
-27.6394658285
30
0.0000000000
10
0.6108707248
20
-27.3923488730
30
0.0000000000
10
0.4057989165
20
-27.3302820811
30
0.0000000000
11
1.5173736911
21
-28.8433040741
31
0.0000000000
11
1.3674331350
21
-28.2152731045
31
0.0000000000
11
0.9588238116
21
-27.6578855982
31
0.0000000000
11
0.4057989165
21
-27.3302820811
31
0.0000000000
0
SPLINE
5
2F1
100
AcDbEntity
8
0
100
AcDbSpline
62
0
6
CONTINUOUS
70
0
71
3
72
8
73
4
74
2
42
0.0000001000
43
0.0000001000
44
0.0000000001
12
-0.4186904148
22
0.1267203478
32
0.0000000000
13
-0.4344685710
23
-0.0853324851
33
0.0000000000
40
0.0000000000
40
0.0000000000
40
0.0000000000
40
0.0000000000
40
1.0000000000
40
1.0000000000
40
1.0000000000
40
1.0000000000
10
0.4057989165
20
-27.3302820811
30
0.0000000000
10
0.2662354449
20
-27.2880419651
30
0.0000000000
10
0.1118743496
20
-27.2711059638
30
0.0000000000
10
-0.0329485074
20
-27.2995501255
30
0.0000000000
11
0.4057989165
21
-27.3302820811
31
0.0000000000
11
-0.0329485074
21
-27.2995501255
31
0.0000000000
0
SPLINE
5
2F2
100
AcDbEntity
8
0
100
AcDbSpline
62
0
6
CONTINUOUS
70
0
71
3
72
8
73
4
74
2
42
0.0000001000
43
0.0000001000
44
0.0000000001
12
-0.0736924609
22
-0.0144736840
32
0.0000000000
13
-0.0716897540
23
-0.0226009148
33
0.0000000000
40
0.0000000000
40
0.0000000000
40
0.0000000000
40
0.0000000000
40
1.0000000000
40
1.0000000000
40
1.0000000000
40
1.0000000000
10
-0.0329485074
20
-27.2995501255
30
0.0000000000
10
-0.0575126610
20
-27.3043746868
30
0.0000000000
10
-0.0818024061
20
-27.3105048040
30
0.0000000000
10
-0.1056989908
20
-27.3180384422
30
0.0000000000
11
-0.0329485074
21
-27.2995501255
31
0.0000000000
11
-0.1056989908
21
-27.3180384422
31
0.0000000000
0
SPLINE
5
2F3
100
AcDbEntity
8
0
100
AcDbSpline
62
0
6
CONTINUOUS
70
0
71
3
72
8
73
4
74
2
42
0.0000001000
43
0.0000001000
44
0.0000000001
12
-0.1484929623
22
-0.0468138974
32
0.0000000000
13
-0.1348622550
23
-0.0800990139
33
0.0000000000
40
0.0000000000
40
0.0000000000
40
0.0000000000
40
0.0000000000
40
1.0000000000
40
1.0000000000
40
1.0000000000
40
1.0000000000
10
-0.1056989908
20
-27.3180384422
30
0.0000000000
10
-0.1551966449
20
-27.3336430747
30
0.0000000000
10
-0.2030074842
20
-27.3552693711
30
0.0000000000
10
-0.2479615692
20
-27.3819690424
30
0.0000000000
11
-0.1056989908
21
-27.3180384422
31
0.0000000000
11
-0.2479615692
21
-27.3819690424
31
0.0000000000
0
SPLINE
5
2F4
100
AcDbEntity
8
0
100
AcDbSpline
62
0
6
CONTINUOUS
70
0
71
3
72
8
73
4
74
2
42
0.0000001000
43
0.0000001000
44
0.0000000001
12
-3.8459619448
22
1.0864066936
32
0.0000000000
13
-3.8081647519
23
1.2161691438
33
0.0000000000
40
0.0000000000
40
0.0000000000
40
0.0000000000
40
0.0000000000
40
1.0000000000
40
1.0000000000
40
1.0000000000
40
1.0000000000
10
5.0214232779
20
16.8367717307
30
0.0000000000
10
3.7394359630
20
17.1989072952
30
0.0000000000
10
2.4630404128
20
17.5820830767
30
0.0000000000
10
1.1936521621
20
17.9874727913
30
0.0000000000
11
5.0214232779
21
16.8367717307
31
0.0000000000
11
1.1936521621
21
17.9874727913
31
0.0000000000
0
SPLINE
5
2F5
100
AcDbEntity
8
0
100
AcDbSpline
62
0
6
CONTINUOUS
70
0
71
3
72
9
73
5
74
3
42
0.0000001000
43
0.0000001000
44
0.0000000001
12
-11.1707593647
22
3.5674750798
32
0.0000000000
13
-10.6922522484
23
4.8167940177
33
0.0000000000
40
0.0000000000
40
0.0000000000
40
0.0000000000
40
0.0000000000
40
0.4241247507
40
1.0000000000
40
1.0000000000
40
1.0000000000
40
1.0000000000
10
1.1936521621
20
17.9874727913
30
0.0000000000
10
-0.3856130147
20
18.4918242842
30
0.0000000000
10
-4.0836266720
20
19.7620513076
30
0.0000000000
10
-7.7061912921
20
21.2359866294
30
0.0000000000
10
-9.7586591019
20
22.1606107813
30
0.0000000000
11
1.1936521621
21
17.9874727913
31
0.0000000000
11
-3.5088793466
21
19.6059371396
31
0.0000000000
11
-9.7586591019
21
22.1606107813
31
0.0000000000
0
SPLINE
5
2F6
100
AcDbEntity
8
0
100
AcDbSpline
62
0
6
CONTINUOUS
70
0
71
3
72
9
73
5
74
3
42
0.0000001000
43
0.0000001000
44
0.0000000001
12
-8.8698238905
22
3.9958012270
32
0.0000000000
13
-8.3283282390
23
5.0213581277
33
0.0000000000
40
0.0000000000
40
0.0000000000
40
0.0000000000
40
0.0000000000
40
0.1793018734
40
1.0000000000
40
1.0000000000
40
1.0000000000
40
1.0000000000
10
-9.7586591019
20
22.1606107813
30
0.0000000000
10
-10.2887844485
20
22.3994289965
30
0.0000000000
10
-13.2328621726
20
23.7595732348
30
0.0000000000
10
-16.1024170109
20
25.2814824439
30
0.0000000000
10
-18.3807648055
20
26.6551555135
30
0.0000000000
11
-9.7586591019
21
22.1606107813
31
0.0000000000
11
-11.3421459026
21
22.8923824246
31
0.0000000000
11
-18.3807648055
21
26.6551555135
31
0.0000000000
0
SPLINE
5
2F7
100
AcDbEntity
8
0
100
AcDbSpline
62
0
6
CONTINUOUS
70
0
71
3
72
9
73
5
74
3
42
0.0000001000
43
0.0000001000
44
0.0000000001
12
-0.0225203463
22
-0.0276585791
32
0.0000000000
13
-0.0209459039
23
-0.0288576855
33
0.0000000000
40
0.0000000000
40
0.0000000000
40
0.0000000000
40
0.0000000000
40
0.6174260699
40
1.0000000000
40
1.0000000000
40
1.0000000000
40
1.0000000000
10
-14.5248422416
20
-21.1453921430
30
0.0000000000
10
-14.5294771245
20
-21.1510845190
30
0.0000000000
10
-14.5368235098
20
-21.1604340507
30
0.0000000000
10
-14.5439060605
20
-21.1699807752
30
0.0000000000
10
-14.5465771795
20
-21.1736608413
30
0.0000000000
11
-14.5248422416
21
-21.1453921430
31
0.0000000000
11
-14.5384482464
21
-21.1627049811
31
0.0000000000
11
-14.5465771795
21
-21.1736608413
31
0.0000000000
0
SPLINE
5
2F8
100
AcDbEntity
8
0
100
AcDbSpline
62
0
6
CONTINUOUS
70
0
71
3
72
8
73
4
74
2
42
0.0000001000
43
0.0000001000
44
0.0000000001
12
-0.1413078428
22
-0.0861123341
32
0.0000000000
13
-0.1125271422
23
-0.1212007736
33
0.0000000000
40
0.0000000000
40
0.0000000000
40
0.0000000000
40
0.0000000000
40
1.0000000000
40
1.0000000000
40
1.0000000000
40
1.0000000000
10
-14.7027550540
20
-21.2151701682
30
0.0000000000
10
-14.7498576683
20
-21.2438742796
30
0.0000000000
10
-14.7932059132
20
-21.2794259384
30
0.0000000000
10
-14.8307149607
20
-21.3198261963
30
0.0000000000
11
-14.7027550540
21
-21.2151701682
31
0.0000000000
11
-14.8307149607
21
-21.3198261963
31
0.0000000000
0
SPLINE
5
2F9
100
AcDbEntity
8
0
100
AcDbSpline
62
0
6
CONTINUOUS
70
0
71
3
72
8
73
4
74
2
42
0.0000001000
43
0.0000001000
44
0.0000000001
12
-0.0498312330
22
-0.0536722418
32
0.0000000000
13
-0.0424175017
23
-0.0588564672
33
0.0000000000
40
0.0000000000
40
0.0000000000
40
0.0000000000
40
0.0000000000
40
1.0000000000
40
1.0000000000
40
1.0000000000
40
1.0000000000
10
-14.8307149607
20
-21.3198261963
30
0.0000000000
10
-14.8473253716
20
-21.3377169436
30
0.0000000000
10
-14.8627906867
20
-21.3565585254
30
0.0000000000
10
-14.8769298540
20
-21.3761773477
30
0.0000000000
11
-14.8307149607
21
-21.3198261963
31
0.0000000000
11
-14.8769298540
21
-21.3761773477
31
0.0000000000
0
SPLINE
5
2FA
100
AcDbEntity
8
0
100
AcDbSpline
62
0
6
CONTINUOUS
70
0
71
3
72
8
73
4
74
2
42
0.0000001000
43
0.0000001000
44
0.0000000001
12
0.2660007560
22
-0.0793039934
32
0.0000000000
13
0.2720758606
23
-0.0573405432
33
0.0000000000
40
0.0000000000
40
0.0000000000
40
0.0000000000
40
0.0000000000
40
1.0000000000
40
1.0000000000
40
1.0000000000
40
1.0000000000
10
5.0214232818
20
-35.7480414123
30
0.0000000000
10
5.1100902005
20
-35.7744760767
30
0.0000000000
10
5.1999494552
20
-35.7971148919
30
0.0000000000
10
5.2906414087
20
-35.8162284063
30
0.0000000000
11
5.0214232818
21
-35.7480414123
31
0.0000000000
11
5.2906414087
21
-35.8162284063
31
0.0000000000
0
SPLINE
5
2FB
100
AcDbEntity
8
0
100
AcDbSpline
62
0
6
CONTINUOUS
70
0
71
3
72
8
73
4
74
2
42
0.0000001000
43
0.0000001000
44
0.0000000001
12
0.5737723517
22
-0.1209236949
32
0.0000000000
13
0.5858731307
23
-0.0344669599
33
0.0000000000
40
0.0000000000
40
0.0000000000
40
0.0000000000
40
0.0000000000
40
1.0000000000
40
1.0000000000
40
1.0000000000
40
1.0000000000
10
5.2906414087
20
-35.8162284063
30
0.0000000000
10
5.4818988593
20
-35.8565363046
30
0.0000000000
10
5.6768595952
20
-35.8811660323
30
0.0000000000
10
5.8721506387
20
-35.8926550190
30
0.0000000000
11
5.2906414087
21
-35.8162284063
31
0.0000000000
11
5.8721506387
21
-35.8926550190
31
0.0000000000
0
SPLINE
5
2FC
100
AcDbEntity
8
0
100
AcDbSpline
62
0
6
CONTINUOUS
70
0
71
3
72
8
73
4
74
2
42
0.0000001000
43
0.0000001000
44
0.0000000001
12
0.8831479000
22
-0.0519556568
32
0.0000000000
13
0.8755305531
23
0.1413047102
33
0.0000000000
40
0.0000000000
40
0.0000000000
40
0.0000000000
40
0.0000000000
40
1.0000000000
40
1.0000000000
40
1.0000000000
40
1.0000000000
10
5.8721506387
20
-35.8926550190
30
0.0000000000
10
6.1665332720
20
-35.9099735712
30
0.0000000000
10
6.4616664533
20
-35.8974328266
30
0.0000000000
10
6.7535099710
20
-35.8503312565
30
0.0000000000
11
5.8721506387
21
-35.8926550190
31
0.0000000000
11
6.7535099710
21
-35.8503312565
31
0.0000000000
0
SPLINE
5
2FD
100
AcDbEntity
8
0
100
AcDbSpline
62
0
6
CONTINUOUS
70
0
71
3
72
8
73
4
74
2
42
0.0000001000
43
0.0000001000
44
0.0000000001
12
0.5271532545
22
0.0850789702
32
0.0000000000
13
0.5014005963
23
0.1785502863
33
0.0000000000
40
0.0000000000
40
0.0000000000
40
0.0000000000
40
0.0000000000
40
1.0000000000
40
1.0000000000
40
1.0000000000
40
1.0000000000
10
6.7535099710
20
-35.8503312565
30
0.0000000000
10
6.9292277225
20
-35.8219715998
30
0.0000000000
10
7.1037529074
20
-35.7810829757
30
0.0000000000
10
7.2708864394
20
-35.7215662136
30
0.0000000000
11
6.7535099710
21
-35.8503312565
31
0.0000000000
11
7.2708864394
21
-35.7215662136
31
0.0000000000
0
SPLINE
5
2FE
100
AcDbEntity
8
0
100
AcDbSpline
62
0
6
CONTINUOUS
70
0
71
3
72
8
73
4
74
2
42
0.0000001000
43
0.0000001000
44
0.0000000001
12
0.2242797525
22
0.0798667060
32
0.0000000000
13
0.2137416566
23
0.1038673610
33
0.0000000000
40
0.0000000000
40
0.0000000000
40
0.0000000000
40
0.0000000000
40
1.0000000000
40
1.0000000000
40
1.0000000000
40
1.0000000000
10
7.2708864394
20
-35.7215662136
30
0.0000000000
10
7.3456463569
20
-35.6949439783
30
0.0000000000
10
7.4189273295
20
-35.6645945670
30
0.0000000000
10
7.4901745484
20
-35.6299721134
30
0.0000000000
11
7.2708864394
21
-35.7215662136
31
0.0000000000
11
7.4901745484
21
-35.6299721134
31
0.0000000000
0
SPLINE
5
2FF
100
AcDbEntity
8
0
100
AcDbSpline
62
0
6
CONTINUOUS
70
0
71
3
72
10
73
6
74
4
42
0.0000001000
43
0.0000001000
44
0.0000000001
12
-2.1853676838
22
-1.2800694697
32
0.0000000000
13
-2.4358227314
23
0.6936695049
33
0.0000000000
40
0.0000000000
40
0.0000000000
40
0.0000000000
40
0.0000000000
40
0.3110639594
40
0.6607845691
40
1.0000000000
40
1.0000000000
40
1.0000000000
40
1.0000000000
10
7.4902148489
20
17.0818401858
30
0.0000000000
10
7.2636184740
20
16.9491123599
30
0.0000000000
10
6.7267298238
20
16.7626343800
30
0.0000000000
10
5.8813785885
20
16.6826954504
30
0.0000000000
10
5.2968461638
20
16.7583371548
30
0.0000000000
10
5.0214232780
20
16.8367716215
30
0.0000000000
11
7.4902148489
21
17.0818401858
31
0.0000000000
11
6.7533281739
21
16.8031623001
31
0.0000000000
11
5.8719467135
21
16.7155384986
31
0.0000000000
11
5.0214232780
21
16.8367716215
31
0.0000000000
0
SPLINE
5
300
100
AcDbEntity
8
0
100
AcDbSpline
62
0
6
CONTINUOUS
70
0
71
3
72
9
73
5
74
3
42
0.0000001000
43
0.0000001000
44
0.0000000001
12
-0.7194318993
22
0.4315126277
32
0.0000000000
13
-0.0115539644
23
0.8633781704
33
0.0000000000
40
0.0000000000
40
0.0000000000
40
0.0000000000
40
0.0000000000
40
0.6886722432
40
1.0000000000
40
1.0000000000
40
1.0000000000
40
1.0000000000
10
-18.3807648055
20
26.6551554102
30
0.0000000000
10
-18.5459157321
20
26.7542123333
30
0.0000000000
10
-18.7840980028
20
26.9443761990
30
0.0000000000
10
-18.8458585232
20
27.2326470276
30
0.0000000000
10
-18.8470575465
20
27.3222448906
30
0.0000000000
11
-18.3807648055
21
26.6551554102
31
0.0000000000
11
-18.7903033214
21
27.0626626214
31
0.0000000000
11
-18.8470575465
21
27.3222448906
31
0.0000000000
0
SPLINE
5
301
100
AcDbEntity
8
0
100
AcDbSpline
62
0
6
CONTINUOUS
70
0
71
3
72
8
73
4
74
2
42
0.0000001000
43
0.0000001000
44
0.0000000001
12
0.2458933764
22
-0.1275784482
32
0.0000000000
13
0.2267123071
23
-0.1607184911
33
0.0000000000
40
0.0000000000
40
0.0000000000
40
0.0000000000
40
0.0000000000
40
1.0000000000
40
1.0000000000
40
1.0000000000
40
1.0000000000
10
-14.4731734358
20
-20.6367750554
30
0.0000000000
10
-14.3912089770
20
-20.6793012048
30
0.0000000000
10
-14.3124500550
20
-20.7279379785
30
0.0000000000
10
-14.2368792859
20
-20.7815108088
30
0.0000000000
11
-14.4731734358
21
-20.6367750554
31
0.0000000000
11
-14.2368792859
21
-20.7815108088
31
0.0000000000
0
SPLINE
5
302
100
AcDbEntity
8
0
100
AcDbSpline
62
0
6
CONTINUOUS
70
0
71
3
72
9
73
5
74
3
42
0.0000001000
43
0.0000001000
44
0.0000000001
12
-0.0132149329
22
-0.3277215425
32
0.0000000000
13
-0.2973860556
23
-0.1521121276
33
0.0000000000
40
0.0000000000
40
0.0000000000
40
0.0000000000
40
0.0000000000
40
0.6284414725
40
1.0000000000
40
1.0000000000
40
1.0000000000
40
1.0000000000
10
7.4910428525
20
-35.6295481556
30
0.0000000000
10
7.4882745819
20
-35.6981994252
30
0.0000000000
10
7.4643908000
20
-35.8123376506
30
0.0000000000
10
7.3773725781
20
-35.8904308679
30
0.0000000000
10
7.3405404698
20
-35.9092703873
30
0.0000000000
11
7.4910428525
21
-35.6295481556
31
0.0000000000
11
7.4333212311
21
-35.8274222460
31
0.0000000000
11
7.3405404698
21
-35.9092703873
31
0.0000000000
0
SPLINE
5
303
100
AcDbEntity
8
0
100
AcDbSpline
62
0
6
CONTINUOUS
70
0
71
3
72
9
73
5
74
3
42
0.0000001000
43
0.0000001000
44
0.0000000001
12
-0.0026305741
22
-0.2942814421
32
0.0000000000
13
0.2671248089
23
-0.0943975938
33
0.0000000000
40
0.0000000000
40
0.0000000000
40
0.0000000000
40
0.0000000000
40
0.6276441540
40
1.0000000000
40
1.0000000000
40
1.0000000000
40
1.0000000000
10
5.0216886944
20
-35.7478277937
30
0.0000000000
10
5.0211383396
20
-35.8093958026
30
0.0000000000
10
5.0234094065
20
-35.9084136997
30
0.0000000000
10
5.0951928384
20
-35.9984113963
30
0.0000000000
10
5.1283479999
20
-36.0101278950
30
0.0000000000
11
5.0216886944
21
-35.7478277937
31
0.0000000000
11
5.0513726887
21
-35.9301384187
31
0.0000000000
11
5.1283479999
21
-36.0101278950
31
0.0000000000
0
SPLINE
5
304
100
AcDbEntity
8
0
100
AcDbSpline
62
0
6
CONTINUOUS
70
0
71
3
72
9
73
5
74
3
42
0.0000001000
43
0.0000001000
44
0.0000000001
12
0.0020471564
22
-0.3098665536
32
0.0000000000
13
0.2712026811
23
-0.1623118207
33
0.0000000000
40
0.0000000000
40
0.0000000000
40
0.0000000000
40
0.0000000000
40
0.6352576735
40
1.0000000000
40
1.0000000000
40
1.0000000000
40
1.0000000000
10
-18.3807703512
20
-25.9296515826
30
0.0000000000
10
-18.3803368606
20
-25.9952666180
30
0.0000000000
10
-18.3604278743
20
-26.1037970640
30
0.0000000000
10
-18.2821035665
20
-26.1802891916
30
0.0000000000
10
-18.2491305342
20
-26.2000231886
30
0.0000000000
11
-18.3807703512
21
-25.9296515826
31
0.0000000000
11
-18.3314685499
21
-26.1202270778
31
0.0000000000
11
-18.2491305342
21
-26.2000231886
31
0.0000000000
0
SPLINE
5
305
100
AcDbEntity
8
0
100
AcDbSpline
62
0
6
CONTINUOUS
70
0
71
3
72
9
73
5
74
3
42
0.0000001000
43
0.0000001000
44
0.0000000001
12
0.2380015142
22
0.1747453129
32
0.0000000000
13
0.2694629880
23
-0.1007583567
33
0.0000000000
40
0.0000000000
40
0.0000000000
40
0.0000000000
40
0.0000000000
40
0.3120688352
40
1.0000000000
40
1.0000000000
40
1.0000000000
40
1.0000000000
10
-18.3479059182
20
28.2168813952
30
0.0000000000
10
-18.3231482997
20
28.2350589173
30
0.0000000000
10
-18.2330070169
20
28.2788323302
30
0.0000000000
10
-18.1303883622
20
28.2613899682
30
0.0000000000
10
-18.0685976998
20
28.2382850303
30
0.0000000000
11
-18.3479059182
21
28.2168813952
31
0.0000000000
11
-18.2656725962
21
28.2564179352
31
0.0000000000
11
-18.0685976998
21
28.2382850303
31
0.0000000000
0
SPLINE
5
306
100
AcDbEntity
8
0
100
AcDbSpline
62
0
6
CONTINUOUS
70
0
71
3
72
14
73
10
74
8
42
0.0000001000
43
0.0000001000
44
0.0000000001
12
-4.7853598530
22
2.4828191512
32
0.0000000000
13
5.2151861169
23
-1.7524257048
33
0.0000000000
40
0.0000000000
40
0.0000000000
40
0.0000000000
40
0.0000000000
40
0.1575951731
40
0.3387195579
40
0.5224966049
40
0.6849904394
40
0.8129736757
40
0.9214238540
40
1.0000000000
40
1.0000000000
40
1.0000000000
40
1.0000000000
10
-14.4731734358
20
-24.5338893724
30
0.0000000000
10
-14.7245566407
20
-24.4034626011
30
0.0000000000
10
-15.1967176190
20
-23.9932885343
30
0.0000000000
10
-15.7005769652
20
-23.1906898323
30
0.0000000000
10
-15.9907259152
20
-22.2750661480
30
0.0000000000
10
-16.0172260327
20
-21.4145293531
30
0.0000000000
10
-15.7446351344
20
-20.7018296439
30
0.0000000000
10
-15.1830642523
20
-20.4330826669
30
0.0000000000
10
-14.8410914808
20
-20.4915472955
30
0.0000000000
10
-14.7044950722
20
-20.5374469149
30
0.0000000000
11
-14.4731734358
21
-24.5338893724
31
0.0000000000
11
-15.1324168733
21
-23.9979415995
31
0.0000000000
11
-15.6607829299
21
-23.1767801655
31
0.0000000000
11
-15.9542249748
21
-22.2304708022
31
0.0000000000
11
-15.9519625793
21
-21.3544516957
31
0.0000000000
11
-15.6551233685
21
-20.7315975234
31
0.0000000000
11
-15.1269295958
21
-20.4809053451
31
0.0000000000
11
-14.7044950722
21
-20.5374469149
31
0.0000000000
0
SPLINE
5
307
100
AcDbEntity
8
0
100
AcDbSpline
62
0
6
CONTINUOUS
70
0
71
3
72
8
73
4
74
2
42
0.0000001000
43
0.0000001000
44
0.0000000001
12
0.2403600811
22
-0.0807666639
32
0.0000000000
13
0.2205500353
23
-0.1144293989
33
0.0000000000
40
0.0000000000
40
0.0000000000
40
0.0000000000
40
0.0000000000
40
1.0000000000
40
1.0000000000
40
1.0000000000
40
1.0000000000
10
-14.7044950722
20
-20.5374469149
30
0.0000000000
10
-14.6243750452
20
-20.5643691362
30
0.0000000000
10
-14.5466901142
20
-20.5986319224
30
0.0000000000
10
-14.4731734358
20
-20.6367750554
30
0.0000000000
11
-14.7044950722
21
-20.5374469149
31
0.0000000000
11
-14.4731734358
21
-20.6367750554
31
0.0000000000
0
SPLINE
5
308
100
AcDbEntity
8
0
100
AcDbSpline
62
0
6
CONTINUOUS
70
0
71
3
72
10
73
6
74
4
42
0.0000001000
43
0.0000001000
44
0.0000000001
12
0.0047331621
22
0.7162857510
32
0.0000000000
13
0.6452516686
23
0.3110272724
33
0.0000000000
40
0.0000000000
40
0.0000000000
40
0.0000000000
40
0.0000000000
40
0.3274625328
40
0.6769165216
40
1.0000000000
40
1.0000000000
40
1.0000000000
40
1.0000000000
10
-18.3803892485
20
26.6553231419
30
0.0000000000
10
-18.3798726041
20
26.7335087240
30
0.0000000000
10
-18.3410519741
20
26.8952656848
30
0.0000000000
10
-18.2132621244
20
27.1004483090
30
0.0000000000
10
-18.0853464401
20
27.2055203292
30
0.0000000000
10
-18.0158563889
20
27.2390162535
30
0.0000000000
11
-18.3803892485
21
26.6553231419
31
0.0000000000
11
-18.3311545236
21
26.8846596008
31
0.0000000000
11
-18.1985601773
21
27.0969707567
31
0.0000000000
11
-18.0158563889
21
27.2390162535
31
0.0000000000
0
SPLINE
5
309
100
AcDbEntity
8
0
100
AcDbSpline
62
0
6
CONTINUOUS
70
0
71
3
72
10
73
6
74
4
42
0.0000001000
43
0.0000001000
44
0.0000000001
12
-0.0061394980
22
0.6936497828
32
0.0000000000
13
0.5034351030
23
0.4772219732
33
0.0000000000
40
0.0000000000
40
0.0000000000
40
0.0000000000
40
0.0000000000
40
0.3452898326
40
0.7020155332
40
1.0000000000
40
1.0000000000
40
1.0000000000
40
1.0000000000
10
5.0214374446
20
16.8367701994
30
0.0000000000
10
5.0207308092
20
16.9166069386
30
0.0000000000
10
5.0437739525
20
17.0794188590
30
0.0000000000
10
5.1223324719
20
17.2976266739
30
0.0000000000
10
5.2063345658
20
17.4277691675
30
0.0000000000
10
5.2563398460
20
17.4751707459
30
0.0000000000
11
5.0214374446
21
16.8367701994
31
0.0000000000
11
5.0511657425
21
17.0744377541
31
0.0000000000
11
5.1366159610
21
17.3066681330
31
0.0000000000
11
5.2563398460
21
17.4751707459
31
0.0000000000
0
SPLINE
5
30A
100
AcDbEntity
8
0
100
AcDbSpline
62
0
6
CONTINUOUS
70
0
71
3
72
10
73
6
74
4
42
0.0000001000
43
0.0000001000
44
0.0000000001
12
-0.0308277091
22
0.7315287298
32
0.0000000000
13
-0.6628024971
23
0.3110907906
33
0.0000000000
40
0.0000000000
40
0.0000000000
40
0.0000000000
40
0.0000000000
40
0.3291059522
40
0.6817271758
40
1.0000000000
40
1.0000000000
40
1.0000000000
40
1.0000000000
10
7.4910428525
20
17.0823232771
30
0.0000000000
10
7.4876609917
20
17.1625734301
30
0.0000000000
10
7.4422918219
20
17.3273993135
30
0.0000000000
10
7.3092205343
20
17.5348717193
30
0.0000000000
10
7.1788628904
20
17.6422153082
30
0.0000000000
10
7.1085455495
20
17.6752192230
30
0.0000000000
11
7.4910428525
21
17.0823232771
31
0.0000000000
11
7.4332881251
21
17.3162636710
31
0.0000000000
11
7.2933009715
21
17.5331998038
31
0.0000000000
11
7.1085455495
21
17.6752192230
31
0.0000000000
0
SPLINE
5
30B
100
AcDbEntity
8
0
100
AcDbSpline
62
0
6
CONTINUOUS
70
0
71
3
72
8
73
4
74
2
42
0.0000001000
43
0.0000001000
44
0.0000000001
12
0.3406296096
22
-0.1146230335
32
0.0000000000
13
0.3197819960
23
-0.1681756016
33
0.0000000000
40
0.0000000000
40
0.0000000000
40
0.0000000000
40
0.0000000000
40
1.0000000000
40
1.0000000000
40
1.0000000000
40
1.0000000000
10
0.0816709835
20
-26.7432573474
30
0.0000000000
10
0.1952141866
20
-26.7814650252
30
0.0000000000
10
0.3056222353
20
-26.8293752190
30
0.0000000000
10
0.4122162340
20
-26.8854337528
30
0.0000000000
11
0.0816709835
21
-26.7432573474
31
0.0000000000
11
0.4122162340
21
-26.8854337528
31
0.0000000000
0
SPLINE
5
30C
100
AcDbEntity
8
0
100
AcDbSpline
62
0
6
CONTINUOUS
70
0
71
3
72
8
73
4
74
2
42
0.0000001000
43
0.0000001000
44
0.0000000001
12
0.3153377635
22
-0.1658383484
32
0.0000000000
13
0.2911321759
23
-0.2089080930
33
0.0000000000
40
0.0000000000
40
0.0000000000
40
0.0000000000
40
0.0000000000
40
1.0000000000
40
1.0000000000
40
1.0000000000
40
1.0000000000
10
0.4122162340
20
-26.8854337528
30
0.0000000000
10
0.5173288218
20
-26.9407132023
30
0.0000000000
10
0.6187326360
20
-27.0039160794
30
0.0000000000
10
0.7157766946
20
-27.0735521104
30
0.0000000000
11
0.4122162340
21
-26.8854337528
31
0.0000000000
11
0.7157766946
21
-27.0735521104
31
0.0000000000
0
SPLINE
5
30D
100
AcDbEntity
8
0
100
AcDbSpline
62
0
6
CONTINUOUS
70
0
71
3
72
8
73
4
74
2
42
0.0000001000
43
0.0000001000
44
0.0000000001
12
0.2931185537
22
-0.2103334608
32
0.0000000000
13
0.2646086532
23
-0.2448979378
33
0.0000000000
40
0.0000000000
40
0.0000000000
40
0.0000000000
40
0.0000000000
40
1.0000000000
40
1.0000000000
40
1.0000000000
40
1.0000000000
10
0.7157766946
20
-27.0735521104
30
0.0000000000
10
0.8134828792
20
-27.1436632640
30
0.0000000000
10
0.9067696126
20
-27.2202956570
30
0.0000000000
10
0.9949724970
20
-27.3019283030
30
0.0000000000
11
0.7157766946
21
-27.0735521104
31
0.0000000000
11
0.9949724970
21
-27.3019283030
31
0.0000000000
0
SPLINE
5
30E
100
AcDbEntity
8
0
100
AcDbSpline
62
0
6
CONTINUOUS
70
0
71
3
72
8
73
4
74
2
42
0.0000001000
43
0.0000001000
44
0.0000000001
12
0.8608185385
22
-0.7966961109
32
0.0000000000
13
0.4994693753
23
-1.0558433625
33
0.0000000000
40
0.0000000000
40
0.0000000000
40
0.0000000000
40
0.0000000000
40
1.0000000000
40
1.0000000000
40
1.0000000000
40
1.0000000000
10
0.9949724970
20
-27.3019283030
30
0.0000000000
10
1.2819120098
20
-27.5674936733
30
0.0000000000
10
1.5150483632
20
-27.8859774930
30
0.0000000000
10
1.6815381549
20
-28.2379252805
30
0.0000000000
11
0.9949724970
21
-27.3019283030
31
0.0000000000
11
1.6815381549
21
-28.2379252805
31
0.0000000000
0
SPLINE
5
30F
100
AcDbEntity
8
0
100
AcDbSpline
62
0
6
CONTINUOUS
70
0
71
3
72
8
73
4
74
2
42
0.0000001000
43
0.0000001000
44
0.0000000001
12
0.2372477108
22
-0.5015250847
32
0.0000000000
13
0.1316732727
23
-0.5391655354
33
0.0000000000
40
0.0000000000
40
0.0000000000
40
0.0000000000
40
0.0000000000
40
1.0000000000
40
1.0000000000
40
1.0000000000
40
1.0000000000
10
1.6815381549
20
-28.2379252805
30
0.0000000000
10
1.7606207252
20
-28.4051003087
30
0.0000000000
10
1.8246661957
20
-28.5798256292
30
0.0000000000
10
1.8685572867
20
-28.7595474744
30
0.0000000000
11
1.6815381549
21
-28.2379252805
31
0.0000000000
11
1.8685572867
21
-28.7595474744
31
0.0000000000
0
SPLINE
5
310
100
AcDbEntity
8
0
100
AcDbSpline
62
0
6
CONTINUOUS
70
0
71
3
72
8
73
4
74
2
42
0.0000001000
43
0.0000001000
44
0.0000000001
12
0.0471039254
22
-0.1928775113
32
0.0000000000
13
0.0309257944
23
-0.1963633014
33
0.0000000000
40
0.0000000000
40
0.0000000000
40
0.0000000000
40
0.0000000000
40
1.0000000000
40
1.0000000000
40
1.0000000000
40
1.0000000000
10
1.8685572867
20
-28.7595474744
30
0.0000000000
10
1.8842585951
20
-28.8238399781
30
0.0000000000
10
1.8973806837
20
-28.8887719030
30
0.0000000000
10
1.9076892818
20
-28.9542263368
30
0.0000000000
11
1.8685572867
21
-28.7595474744
31
0.0000000000
11
1.9076892818
21
-28.9542263368
31
0.0000000000
0
SPLINE
5
311
100
AcDbEntity
8
0
100
AcDbSpline
62
0
6
CONTINUOUS
70
0
71
3
72
11
73
7
74
5
42
0.0000001000
43
0.0000001000
44
0.0000000001
12
0.4757538636
22
-3.0207986953
32
0.0000000000
13
-2.8759354807
23
0.9677621668
33
0.0000000000
40
0.0000000000
40
0.0000000000
40
0.0000000000
40
0.0000000000
40
0.1138044051
40
0.4222321659
40
0.7003116650
40
1.0000000000
40
1.0000000000
40
1.0000000000
40
1.0000000000
10
1.9076892818
20
-28.9542263368
30
0.0000000000
10
1.9257369103
20
-29.0688197363
30
0.0000000000
10
1.9607016864
20
-29.4999211179
30
0.0000000000
10
1.7931083301
20
-30.2371842874
30
0.0000000000
10
0.9945408858
20
-30.8051149773
30
0.0000000000
10
0.3689657554
20
-30.7370473419
30
0.0000000000
10
0.0816709835
20
-30.6403716644
30
0.0000000000
11
1.9076892818
21
-28.9542263368
31
0.0000000000
11
1.9347043652
21
-29.3021837552
31
0.0000000000
11
1.6785049270
21
-30.2023262504
31
0.0000000000
11
0.9897042508
21
-30.6897258799
31
0.0000000000
11
0.0816709835
21
-30.6403716644
31
0.0000000000
0
SPLINE
5
312
100
AcDbEntity
8
0
100
AcDbSpline
62
0
6
CONTINUOUS
70
0
71
3
72
13
73
9
74
7
42
0.0000001000
43
0.0000001000
44
0.0000000001
12
-5.6689858531
22
1.9076332101
32
0.0000000000
13
5.6689858531
23
-1.9076332101
33
0.0000000000
40
0.0000000000
40
0.0000000000
40
0.0000000000
40
0.0000000000
40
0.1784192770
40
0.3725353816
40
0.5560686410
40
0.7112536825
40
0.8491427911
40
1.0000000000
40
1.0000000000
40
1.0000000000
40
1.0000000000
10
0.0816709835
20
-30.6403716644
30
0.0000000000
10
-0.2554811356
20
-30.5269188184
30
0.0000000000
10
-0.8991481980
20
-30.1035909551
30
0.0000000000
10
-1.5485146961
20
-29.1771284993
30
0.0000000000
10
-1.8213723405
20
-28.1254740757
30
0.0000000000
10
-1.6102596496
20
-27.1335175141
30
0.0000000000
10
-0.8188247930
20
-26.5712505495
30
0.0000000000
10
-0.2033981442
20
-26.6473306068
30
0.0000000000
10
0.0816709835
20
-26.7432573474
30
0.0000000000
11
0.0816709835
21
-30.6403716644
31
0.0000000000
11
-0.8241730588
21
-30.0761602964
31
0.0000000000
11
-1.4954493653
21
-29.1288043327
31
0.0000000000
11
-1.7409138109
21
-28.0588239515
31
0.0000000000
11
-1.4925017111
21
-27.1644669385
31
0.0000000000
11
-0.8189902565
21
-26.6884261986
31
0.0000000000
11
0.0816709835
21
-26.7432573474
31
0.0000000000
0
SPLINE
5
313
100
AcDbEntity
8
0
100
AcDbSpline
62
0
6
CONTINUOUS
70
0
71
3
72
11
73
7
74
5
42
0.0000001000
43
0.0000001000
44
0.0000000001
12
0.0000000000
22
7.9351929995
32
0.0000000000
13
3.8558906545
23
6.9353727514
33
0.0000000000
40
0.0000000000
40
0.0000000000
40
0.0000000000
40
0.0000000000
40
0.2284044441
40
0.4687299550
40
0.7252717886
40
1.0000000000
40
1.0000000000
40
1.0000000000
40
1.0000000000
10
-17.0765574101
20
-13.0338704495
30
0.0000000000
10
-17.0765574101
20
-12.4297260008
30
0.0000000000
10
-16.9791576390
20
-11.1888611840
30
0.0000000000
10
-16.5850854956
20
-9.3069781550
30
0.0000000000
10
-15.9333379140
20
-7.3682169271
30
0.0000000000
10
-15.3285188155
20
-6.0949750929
30
0.0000000000
10
-14.9754115013
20
-5.4598609092
30
0.0000000000
11
-17.0765574101
21
-13.0338704495
31
0.0000000000
11
-16.9442889252
21
-11.2262699180
31
0.0000000000
11
-16.5588695207
21
-9.3585941761
31
0.0000000000
11
-15.9123079086
21
-7.4282913339
31
0.0000000000
11
-14.9754115013
21
-5.4598609092
31
0.0000000000
0
SPLINE
5
314
100
AcDbEntity
8
0
100
AcDbSpline
62
0
6
CONTINUOUS
70
0
71
3
72
9
73
5
74
3
42
0.0000001000
43
0.0000001000
44
0.0000000001
12
0.3350056479
22
-0.0290054054
32
0.0000000000
13
0.2845586008
23
0.1766314861
33
0.0000000000
40
0.0000000000
40
0.0000000000
40
0.0000000000
40
0.0000000000
40
0.5785946867
40
1.0000000000
40
1.0000000000
40
1.0000000000
40
1.0000000000
10
-13.7868068768
20
-23.5686127442
30
0.0000000000
10
-13.7221960476
20
-23.5742068686
30
0.0000000000
10
-13.6103922750
20
-23.5672437149
30
0.0000000000
10
-13.5087341205
20
-23.5211657104
30
0.0000000000
10
-13.4687626184
20
-23.4963545615
30
0.0000000000
11
-13.7868068768
21
-23.5686127442
31
0.0000000000
11
-13.5962143770
21
-23.5530546317
31
0.0000000000
11
-13.4687626184
21
-23.4963545615
31
0.0000000000
0
SPLINE
5
315
100
AcDbEntity
8
0
100
AcDbSpline
62
0
6
CONTINUOUS
70
0
71
3
72
14
73
10
74
8
42
0.0000001000
43
0.0000001000
44
0.0000000001
12
-12.0278938520
22
-1.3885611770
32
0.0000000000
13
-9.7117121087
23
7.2684721942
33
0.0000000000
40
0.0000000000
40
0.0000000000
40
0.0000000000
40
0.0000000000
40
0.2120730279
40
0.4040031987
40
0.5760999085
40
0.7315518216
40
0.8711233945
40
0.9984914659
40
1.0000000000
40
1.0000000000
40
1.0000000000
40
1.0000000000
10
-1.1833406340
20
-24.3977701367
30
0.0000000000
10
-2.0336045903
20
-24.4959289278
30
0.0000000000
10
-3.6663287957
20
-24.5839672235
30
0.0000000000
10
-5.9917791252
20
-24.4532346396
30
0.0000000000
10
-8.0651462458
20
-24.1167999269
30
0.0000000000
10
-9.8863629054
20
-23.6141561683
30
0.0000000000
10
-11.4670583876
20
-22.9630266433
30
0.0000000000
10
-12.4018978578
20
-22.4055112478
30
0.0000000000
10
-12.8194721973
20
-22.0937836762
30
0.0000000000
10
-12.8243556801
20
-22.0901287636
30
0.0000000000
11
-1.1833406340
21
-24.3977701367
31
0.0000000000
11
-3.7471963409
21
-24.5388353965
31
0.0000000000
11
-6.0672541152
21
-24.4061605272
31
0.0000000000
11
-8.1232223736
21
-24.0672829294
31
0.0000000000
11
-9.9354531436
21
-23.5589405991
31
0.0000000000
11
-11.4937627806
21
-22.9051520782
31
0.0000000000
11
-12.8096922876
21
-22.1010753413
31
0.0000000000
11
-12.8243556801
21
-22.0901287636
31
0.0000000000
0
SPLINE
5
316
100
AcDbEntity
8
0
100
AcDbSpline
62
0
6
CONTINUOUS
70
0
71
3
72
8
73
4
74
2
42
0.0000001000
43
0.0000001000
44
0.0000000001
12
0.0013805844
22
-0.0902601382
32
0.0000000000
13
0.0153203549
23
-0.0892904992
33
0.0000000000
40
0.0000000000
40
0.0000000000
40
0.0000000000
40
0.0000000000
40
1.0000000000
40
1.0000000000
40
1.0000000000
40
1.0000000000
10
-18.8451610077
20
-25.3070487649
30
0.0000000000
10
-18.8447008129
20
-25.3371354776
30
0.0000000000
10
-18.8418612852
20
-25.3673165639
30
0.0000000000
10
-18.8367545003
20
-25.3970800637
30
0.0000000000
11
-18.8451610077
21
-25.3070487649
31
0.0000000000
11
-18.8367545003
21
-25.3970800637
31
0.0000000000
0
SPLINE
5
317
100
AcDbEntity
8
0
100
AcDbSpline
62
0
6
CONTINUOUS
70
0
71
3
72
8
73
4
74
2
42
0.0000001000
43
0.0000001000
44
0.0000000001
12
0.0265937434
22
-0.1549943616
32
0.0000000000
13
0.0658247234
23
-0.1394116328
33
0.0000000000
40
0.0000000000
40
0.0000000000
40
0.0000000000
40
0.0000000000
40
1.0000000000
40
1.0000000000
40
1.0000000000
40
1.0000000000
10
-18.8367545003
20
-25.3970800637
30
0.0000000000
10
-18.8278899191
20
-25.4487448509
30
0.0000000000
10
-18.8121937432
20
-25.4991513856
30
0.0000000000
10
-18.7902521687
20
-25.5456219298
30
0.0000000000
11
-18.8367545003
21
-25.3970800637
31
0.0000000000
11
-18.7902521687
21
-25.5456219298
31
0.0000000000
0
SPLINE
5
318
100
AcDbEntity
8
0
100
AcDbSpline
62
0
6
CONTINUOUS
70
0
71
3
72
8
73
4
74
2
42
0.0000001000
43
0.0000001000
44
0.0000000001
12
0.2434650369
22
-0.5156399689
32
0.0000000000
13
0.4852155456
23
-0.2823636078
33
0.0000000000
40
0.0000000000
40
0.0000000000
40
0.0000000000
40
0.0000000000
40
1.0000000000
40
1.0000000000
40
1.0000000000
40
1.0000000000
10
-18.7902521687
20
-25.5456219298
30
0.0000000000
10
-18.7090971564
20
-25.7175019195
30
0.0000000000
10
-18.5425033177
20
-25.8355364412
30
0.0000000000
10
-18.3807648025
20
-25.9296576438
30
0.0000000000
11
-18.7902521687
21
-25.5456219298
31
0.0000000000
11
-18.3807648025
21
-25.9296576438
31
0.0000000000
0
SPLINE
5
319
100
AcDbEntity
8
0
100
AcDbSpline
62
0
6
CONTINUOUS
70
0
71
3
72
11
73
7
74
5
42
0.0000001000
43
0.0000001000
44
0.0000000001
12
4.5851706002
22
-0.4047639459
32
0.0000000000
13
3.8257078519
23
2.5552499398
33
0.0000000000
40
0.0000000000
40
0.0000000000
40
0.0000000000
40
0.0000000000
40
0.0984417089
40
0.4999153498
40
0.8388607470
40
1.0000000000
40
1.0000000000
40
1.0000000000
40
1.0000000000
10
-4.8638078494
20
-25.7210947082
30
0.0000000000
10
-4.7133505062
20
-25.7343765930
30
0.0000000000
10
-3.9473512879
20
-25.7798391140
30
0.0000000000
10
-2.6540564167
20
-25.6599522401
30
0.0000000000
10
-1.3440459536
20
-25.1849660596
30
0.0000000000
10
-0.6812978864
20
-24.7963400353
30
0.0000000000
10
-0.4758073179
20
-24.6590896798
30
0.0000000000
11
-4.8638078494
21
-25.7210947082
31
0.0000000000
11
-4.4114907720
21
-25.7477479861
31
0.0000000000
11
-2.5769587689
21
-25.5674377423
31
0.0000000000
11
-1.1150391794
21
-25.0337944984
31
0.0000000000
11
-0.4758073179
21
-24.6590896798
31
0.0000000000
0
SPLINE
5
31A
100
AcDbEntity
8
0
100
AcDbSpline
62
0
6
CONTINUOUS
70
0
71
3
72
8
73
4
74
2
42
0.0000001000
43
0.0000001000
44
0.0000000001
12
0.0922278048
22
0.0616003892
32
0.0000000000
13
0.0911307024
23
0.0632056105
33
0.0000000000
40
0.0000000000
40
0.0000000000
40
0.0000000000
40
0.0000000000
40
1.0000000000
40
1.0000000000
40
1.0000000000
40
1.0000000000
10
-0.4758073179
20
-24.6590896798
30
0.0000000000
10
-0.4450647163
20
-24.6385562168
30
0.0000000000
10
-0.4145025742
20
-24.6177535945
30
0.0000000000
10
-0.3841256734
20
-24.5966850576
30
0.0000000000
11
-0.4758073179
21
-24.6590896798
31
0.0000000000
11
-0.3841256734
21
-24.5966850576
31
0.0000000000
0
SPLINE
5
31B
100
AcDbEntity
8
0
100
AcDbSpline
62
0
6
CONTINUOUS
70
0
71
3
72
8
73
4
74
2
42
0.0000001000
43
0.0000001000
44
0.0000000001
12
0.4250095524
22
0.2947742912
32
0.0000000000
13
0.3993799209
23
0.3284894052
33
0.0000000000
40
0.0000000000
40
0.0000000000
40
0.0000000000
40
0.0000000000
40
1.0000000000
40
1.0000000000
40
1.0000000000
40
1.0000000000
10
-0.3841256734
20
-24.5966850576
30
0.0000000000
10
-0.2424558226
20
-24.4984269606
30
0.0000000000
10
-0.1048150501
20
-24.3943851072
30
0.0000000000
10
0.0283115902
20
-24.2848886388
30
0.0000000000
11
-0.3841256734
21
-24.5966850576
31
0.0000000000
11
0.0283115902
21
-24.2848886388
31
0.0000000000
0
SPLINE
5
31C
100
AcDbEntity
8
0
100
AcDbSpline
62
0
6
CONTINUOUS
70
0
71
3
72
8
73
4
74
2
42
0.0000001000
43
0.0000001000
44
0.0000000001
12
0.1706142469
22
0.1403299704
32
0.0000000000
13
0.1656007730
23
0.1461895527
33
0.0000000000
40
0.0000000000
40
0.0000000000
40
0.0000000000
40
0.0000000000
40
1.0000000000
40
1.0000000000
40
1.0000000000
40
1.0000000000
10
0.0283115902
20
-24.2848886388
30
0.0000000000
10
0.0851830058
20
-24.2381119820
30
0.0000000000
10
0.1412306013
20
-24.1903398688
30
0.0000000000
10
0.1964308589
20
-24.1416100180
30
0.0000000000
11
0.0283115902
21
-24.2848886388
31
0.0000000000
11
0.1964308589
21
-24.1416100180
31
0.0000000000
0
SPLINE
5
31D
100
AcDbEntity
8
0
100
AcDbSpline
62
0
6
CONTINUOUS
70
0
71
3
72
8
73
4
74
2
42
0.0000001000
43
0.0000001000
44
0.0000000001
12
0.7898243007
22
0.6972434920
32
0.0000000000
13
0.6665201605
23
0.8156843840
33
0.0000000000
40
0.0000000000
40
0.0000000000
40
0.0000000000
40
0.0000000000
40
1.0000000000
40
1.0000000000
40
1.0000000000
40
1.0000000000
10
0.1964308589
20
-24.1416100180
30
0.0000000000
10
0.4597056258
20
-23.9091955206
30
0.0000000000
10
0.7037054610
20
-23.6549947550
30
0.0000000000
10
0.9258788478
20
-23.3830999603
30
0.0000000000
11
0.1964308589
21
-24.1416100180
31
0.0000000000
11
0.9258788478
21
-23.3830999603
31
0.0000000000
0
SPLINE
5
31E
100
AcDbEntity
8
0
100
AcDbSpline
62
0
6
CONTINUOUS
70
0
71
3
72
8
73
4
74
2
42
0.0000001000
43
0.0000001000
44
0.0000000001
12
0.5358041901
22
0.6557147655
32
0.0000000000
13
0.4498302230
23
0.7174240373
33
0.0000000000
40
0.0000000000
40
0.0000000000
40
0.0000000000
40
0.0000000000
40
1.0000000000
40
1.0000000000
40
1.0000000000
40
1.0000000000
10
0.9258788478
20
-23.3830999603
30
0.0000000000
10
1.1044802445
20
-23.1645283718
30
0.0000000000
10
1.2689767837
20
-22.9345224101
30
0.0000000000
10
1.4189201914
20
-22.6953810643
30
0.0000000000
11
0.9258788478
21
-23.3830999603
31
0.0000000000
11
1.4189201914
21
-22.6953810643
31
0.0000000000
0
SPLINE
5
31F
100
AcDbEntity
8
0
100
AcDbSpline
62
0
6
CONTINUOUS
70
0
71
3
72
11
73
7
74
5
42
0.0000001000
43
0.0000001000
44
0.0000000001
12
2.4758792222
22
3.9487237109
32
0.0000000000
13
-0.0000000000
23
4.6538327845
33
0.0000000000
40
0.0000000000
40
0.0000000000
40
0.0000000000
40
0.0000000000
40
0.0922902287
40
0.3804357345
40
0.6843115153
40
1.0000000000
40
1.0000000000
40
1.0000000000
40
1.0000000000
10
1.4189201914
20
-22.6953810643
30
0.0000000000
10
1.4950866780
20
-22.5739048595
30
0.0000000000
10
1.7935782189
20
-22.0634428080
30
0.0000000000
10
2.2139195743
20
-21.0824074668
30
0.0000000000
10
2.5380327895
20
-19.7055520350
30
0.0000000000
10
2.6066378280
20
-18.7425273157
30
0.0000000000
10
2.6066378280
20
-18.2528068425
30
0.0000000000
11
1.4189201914
21
-22.6953810643
31
0.0000000000
11
1.6360953864
21
-22.3241821263
31
0.0000000000
11
2.1681880230
21
-21.0932851067
31
0.0000000000
11
2.4971007085
21
-19.7178791604
31
0.0000000000
11
2.6066378280
21
-18.2528068425
31
0.0000000000
0
SPLINE
5
320
100
AcDbEntity
8
0
100
AcDbSpline
62
0
6
CONTINUOUS
70
0
71
3
72
9
73
5
74
3
42
0.0000001000
43
0.0000001000
44
0.0000000001
12
-0.1158410748
22
-0.0640499350
32
0.0000000000
13
-0.1249157303
23
-0.0408074780
33
0.0000000000
40
0.0000000000
40
0.0000000000
40
0.0000000000
40
0.0000000000
40
0.5524646748
40
1.0000000000
40
1.0000000000
40
1.0000000000
40
1.0000000000
10
-0.7282992735
20
-24.2804595499
30
0.0000000000
10
-0.7496319741
20
-24.2922546588
30
0.0000000000
10
-0.7924452934
20
-24.3079163450
30
0.0000000000
10
-0.8342660946
20
-24.3222309484
30
0.0000000000
10
-0.8529008286
20
-24.3283185443
30
0.0000000000
11
-0.7282992735
21
-24.2804595499
31
0.0000000000
11
-0.7966347335
21
-24.3091485626
31
0.0000000000
11
-0.8529008286
21
-24.3283185443
31
0.0000000000
0
SPLINE
5
321
100
AcDbEntity
8
0
100
AcDbSpline
62
0
6
CONTINUOUS
70
0
71
3
72
9
73
5
74
3
42
0.0000001000
43
0.0000001000
44
0.0000000001
12
-0.1905411901
22
-0.0622460070
32
0.0000000000
13
-0.1963362384
23
-0.0358430615
33
0.0000000000
40
0.0000000000
40
0.0000000000
40
0.0000000000
40
0.0000000000
40
0.6605739342
40
1.0000000000
40
1.0000000000
40
1.0000000000
40
1.0000000000
10
-0.8529008286
20
-24.3283185443
30
0.0000000000
10
-0.8948563431
20
-24.3420245742
30
0.0000000000
10
-0.9577442607
20
-24.3603276449
30
0.0000000000
10
-1.0227511469
20
-24.3736497553
30
0.0000000000
10
-1.0449650259
20
-24.3777051118
30
0.0000000000
11
-0.8529008286
21
-24.3283185443
31
0.0000000000
11
-0.9788652101
21
-24.3640321556
31
0.0000000000
11
-1.0449650259
21
-24.3777051118
31
0.0000000000
0
SPLINE
5
322
100
AcDbEntity
8
0
100
AcDbSpline
62
0
6
CONTINUOUS
70
0
71
3
72
8
73
4
74
2
42
0.0000001000
43
0.0000001000
44
0.0000000001
12
-0.0679364178
22
-0.0124024440
32
0.0000000000
13
-0.0685617189
23
-0.0098346916
33
0.0000000000
40
0.0000000000
40
0.0000000000
40
0.0000000000
40
0.0000000000
40
1.0000000000
40
1.0000000000
40
1.0000000000
40
1.0000000000
10
-1.0449650259
20
-24.3777051118
30
0.0000000000
10
-1.0676104985
20
-24.3818392598
30
0.0000000000
10
-1.0904106585
20
-24.3854885887
30
0.0000000000
10
-1.1132645648
20
-24.3887668193
30
0.0000000000
11
-1.0449650259
21
-24.3777051118
31
0.0000000000
11
-1.1132645648
21
-24.3887668193
31
0.0000000000
0
SPLINE
5
323
100
AcDbEntity
8
0
100
AcDbSpline
62
0
6
CONTINUOUS
70
0
71
3
72
8
73
4
74
2
42
0.0000001000
43
0.0000001000
44
0.0000000001
12
-0.0700154197
22
-0.0100432146
32
0.0000000000
13
-0.0700292196
23
-0.0080845289
33
0.0000000000
40
0.0000000000
40
0.0000000000
40
0.0000000000
40
0.0000000000
40
1.0000000000
40
1.0000000000
40
1.0000000000
40
1.0000000000
10
-1.1132645648
20
-24.3887668193
30
0.0000000000
10
-1.1366030380
20
-24.3921145575
30
0.0000000000
10
-1.1599975608
20
-24.3950752937
30
0.0000000000
10
-1.1833406340
20
-24.3977701367
30
0.0000000000
11
-1.1132645648
21
-24.3887668193
31
0.0000000000
11
-1.1833406340
21
-24.3977701367
31
0.0000000000
0
SPLINE
5
324
100
AcDbEntity
8
0
100
AcDbSpline
62
0
6
CONTINUOUS
70
0
71
3
72
8
73
4
74
2
42
0.0000001000
43
0.0000001000
44
0.0000000001
12
-0.0006492608
22
0.0863174601
32
0.0000000000
13
0.0000000000
23
0.0862985514
33
0.0000000000
40
0.0000000000
40
0.0000000000
40
0.0000000000
40
0.0000000000
40
1.0000000000
40
1.0000000000
40
1.0000000000
40
1.0000000000
10
-17.0762337651
20
-13.1201791382
30
0.0000000000
10
-17.0764501853
20
-13.0914066515
30
0.0000000000
10
-17.0765574101
20
-13.0626366333
30
0.0000000000
10
-17.0765574101
20
-13.0338704495
30
0.0000000000
11
-17.0762337651
21
-13.1201791382
31
0.0000000000
11
-17.0765574101
21
-13.0338704495
31
0.0000000000
0
SPLINE
5
325
100
AcDbEntity
8
0
100
AcDbSpline
62
0
6
CONTINUOUS
70
0
71
3
72
10
73
6
74
4
42
0.0000001000
43
0.0000001000
44
0.0000000001
12
-1.6298578483
22
-0.9822852891
32
0.0000000000
13
-1.8312059933
23
0.5176925776
33
0.0000000000
40
0.0000000000
40
0.0000000000
40
0.0000000000
40
0.0000000000
40
0.3121663675
40
0.6614076898
40
1.0000000000
40
1.0000000000
40
1.0000000000
40
1.0000000000
10
7.1085455496
20
17.6752192230
30
0.0000000000
10
6.9389499482
20
17.5730070795
30
0.0000000000
10
6.5367845642
20
17.4278178598
30
0.0000000000
10
5.9020146960
20
17.3622226077
30
0.0000000000
10
5.4630172686
20
17.4167418373
30
0.0000000000
10
5.2563398460
20
17.4751707459
30
0.0000000000
11
7.1085455496
21
17.6752192230
31
0.0000000000
11
6.5553902523
21
17.4586340674
31
0.0000000000
11
5.8946411065
21
17.3872108108
31
0.0000000000
11
5.2563398460
21
17.4751707459
31
0.0000000000
0
SPLINE
5
326
100
AcDbEntity
8
0
100
AcDbSpline
62
0
6
CONTINUOUS
70
0
71
3
72
9
73
5
74
3
42
0.0000001000
43
0.0000001000
44
0.0000000001
12
0.1824693448
22
0.0368300326
32
0.0000000000
13
0.1679513345
23
0.0846981433
33
0.0000000000
40
0.0000000000
40
0.0000000000
40
0.0000000000
40
0.0000000000
40
0.1028475249
40
1.0000000000
40
1.0000000000
40
1.0000000000
40
1.0000000000
10
0.9398628911
20
-29.6379960182
30
0.0000000000
10
0.9461183979
20
-29.6367333923
30
0.0000000000
10
1.0067998558
20
-29.6235987879
30
0.0000000000
10
1.0659589696
20
-29.6019571303
30
0.0000000000
10
1.1161849547
20
-29.5766280806
30
0.0000000000
11
0.9398628911
21
-29.6379960182
31
0.0000000000
11
0.9585841707
21
-29.6339416849
31
0.0000000000
11
1.1161849547
21
-29.5766280806
31
0.0000000000
0
SPLINE
5
327
100
AcDbEntity
8
0
100
AcDbSpline
62
0
6
CONTINUOUS
70
0
71
3
72
8
73
4
74
2
42
0.0000001000
43
0.0000001000
44
0.0000000001
12
0.0549256915
22
0.0276991195
32
0.0000000000
13
0.0524185683
23
0.0322777753
33
0.0000000000
40
0.0000000000
40
0.0000000000
40
0.0000000000
40
0.0000000000
40
1.0000000000
40
1.0000000000
40
1.0000000000
40
1.0000000000
10
1.1161849547
20
-29.5766280806
30
0.0000000000
10
1.1344935185
20
-29.5673950408
30
0.0000000000
10
1.1524235461
20
-29.5573762717
30
0.0000000000
10
1.1698964022
20
-29.5466170132
30
0.0000000000
11
1.1161849547
21
-29.5766280806
31
0.0000000000
11
1.1698964022
21
-29.5466170132
31
0.0000000000
0
SPLINE
5
328
100
AcDbEntity
8
0
100
AcDbSpline
62
0
6
CONTINUOUS
70
0
71
3
72
9
73
5
74
3
42
0.0000001000
43
0.0000001000
44
0.0000000001
12
-15.0787119952
22
4.2587528376
32
0.0000000000
13
-14.2881825157
23
6.4438008373
33
0.0000000000
40
0.0000000000
40
0.0000000000
40
0.0000000000
40
0.0000000000
40
0.5691823841
40
1.0000000000
40
1.0000000000
40
1.0000000000
40
1.0000000000
10
5.2563398460
20
17.4751707459
30
0.0000000000
10
2.3954940985
20
18.2831731104
30
0.0000000000
10
-2.5815468376
20
19.8879063592
30
0.0000000000
10
-7.4230088000
20
21.8587279955
30
0.0000000000
10
-9.4748757090
20
22.7840956335
30
0.0000000000
11
5.2563398460
21
17.4751707459
31
0.0000000000
11
-3.2262706246
21
20.2285460406
31
0.0000000000
11
-9.4748757090
21
22.7840956335
31
0.0000000000
0
SPLINE
5
329
100
AcDbEntity
8
0
100
AcDbSpline
62
0
6
CONTINUOUS
70
0
71
3
72
9
73
5
74
3
42
0.0000001000
43
0.0000001000
44
0.0000000001
12
-8.7858502094
22
3.9623142323
32
0.0000000000
13
-8.2507756323
23
4.9750825801
33
0.0000000000
40
0.0000000000
40
0.0000000000
40
0.0000000000
40
0.0000000000
40
0.1762219468
40
1.0000000000
40
1.0000000000
40
1.0000000000
40
1.0000000000
10
-9.4748757090
20
22.7840956335
30
0.0000000000
10
-9.9909622517
20
23.0168445427
30
0.0000000000
10
-12.9074018568
20
24.3650082271
30
0.0000000000
10
-15.7502537650
20
25.8728951061
30
0.0000000000
10
-18.0158563943
20
27.2390163869
30
0.0000000000
11
-9.4748757090
21
22.7840956335
31
0.0000000000
11
-11.0165583762
21
23.4969566728
31
0.0000000000
11
-18.0158563943
21
27.2390163869
31
0.0000000000
0
SPLINE
5
32A
100
AcDbEntity
8
0
100
AcDbSpline
62
0
6
CONTINUOUS
70
0
71
3
72
8
73
4
74
2
42
0.0000001000
43
0.0000001000
44
0.0000000001
12
-0.3730465513
22
0.2247593687
32
0.0000000000
13
-0.1803441574
23
0.4018146702
33
0.0000000000
40
0.0000000000
40
0.0000000000
40
0.0000000000
40
0.0000000000
40
1.0000000000
40
1.0000000000
40
1.0000000000
40
1.0000000000
10
-18.0158563943
20
27.2390163869
30
0.0000000000
10
-18.1402052448
20
27.3139361765
30
0.0000000000
10
-18.2628950307
20
27.4138455833
30
0.0000000000
10
-18.3230097498
20
27.5477838067
30
0.0000000000
11
-18.0158563943
21
27.2390163869
31
0.0000000000
11
-18.3230097498
21
27.5477838067
31
0.0000000000
0
SPLINE
5
32B
100
AcDbEntity
8
0
100
AcDbSpline
62
0
6
CONTINUOUS
70
0
71
3
72
9
73
5
74
3
42
0.0000001000
43
0.0000001000
44
0.0000000001
12
-0.2594047302
22
0.5779650843
32
0.0000000000
13
0.4527066440
23
0.4560081294
33
0.0000000000
40
0.0000000000
40
0.0000000000
40
0.0000000000
40
0.0000000000
40
0.5698363482
40
1.0000000000
40
1.0000000000
40
1.0000000000
40
1.0000000000
10
-18.3230097498
20
27.5477838067
30
0.0000000000
10
-18.3722824978
20
27.6575656443
30
0.0000000000
10
-18.3849767809
20
27.8903395360
30
0.0000000000
10
-18.2587870408
20
28.0658924651
30
0.0000000000
10
-18.1938743931
20
28.1312785058
30
0.0000000000
11
-18.3230097498
21
27.5477838067
31
0.0000000000
11
-18.3416523134
21
27.9042712762
31
0.0000000000
11
-18.1938743931
21
28.1312785058
31
0.0000000000
0
SPLINE
5
32C
100
AcDbEntity
8
0
100
AcDbSpline
62
0
6
CONTINUOUS
70
0
71
3
72
8
73
4
74
2
42
0.0000001000
43
0.0000001000
44
0.0000000001
12
0.1170296053
22
0.1178830753
32
0.0000000000
13
0.1302532818
23
0.0962293256
33
0.0000000000
40
0.0000000000
40
0.0000000000
40
0.0000000000
40
0.0000000000
40
1.0000000000
40
1.0000000000
40
1.0000000000
40
1.0000000000
10
-18.1938743931
20
28.1312785058
30
0.0000000000
10
-18.1548645247
20
28.1705728642
30
0.0000000000
10
-18.1120154604
20
28.2062085885
30
0.0000000000
10
-18.0685976998
20
28.2382850303
30
0.0000000000
11
-18.1938743931
21
28.1312785058
31
0.0000000000
11
-18.0685976998
21
28.2382850303
31
0.0000000000
0
SPLINE
5
32D
100
AcDbEntity
8
0
100
AcDbSpline
62
0
6
CONTINUOUS
70
0
71
3
72
8
73
4
74
2
42
0.0000001000
43
0.0000001000
44
0.0000000001
12
0.0674249732
22
0.1212734913
32
0.0000000000
13
0.0735916166
23
0.1175205453
33
0.0000000000
40
0.0000000000
40
0.0000000000
40
0.0000000000
40
0.0000000000
40
1.0000000000
40
1.0000000000
40
1.0000000000
40
1.0000000000
10
-14.9754115013
20
-5.4598609092
30
0.0000000000
10
-14.9529365102
20
-5.4194364121
30
0.0000000000
10
-14.9287004167
20
-5.3779890291
30
0.0000000000
10
-14.9041698779
20
-5.3388155140
30
0.0000000000
11
-14.9754115013
21
-5.4598609092
31
0.0000000000
11
-14.9041698779
21
-5.3388155140
31
0.0000000000
0
SPLINE
5
32E
100
AcDbEntity
8
0
100
AcDbSpline
62
0
6
CONTINUOUS
70
0
71
3
72
8
73
4
74
2
42
0.0000001000
43
0.0000001000
44
0.0000000001
12
0.0353083236
22
0.0563848661
32
0.0000000000
13
0.0352290492
23
0.0521519258
33
0.0000000000
40
0.0000000000
40
0.0000000000
40
0.0000000000
40
0.0000000000
40
1.0000000000
40
1.0000000000
40
1.0000000000
40
1.0000000000
10
-14.9041698779
20
-5.3388155140
30
0.0000000000
10
-14.8924004367
20
-5.3200205586
30
0.0000000000
10
-14.8805632153
20
-5.3017490382
30
0.0000000000
10
-14.8688201989
20
-5.2843650630
30
0.0000000000
11
-14.9041698779
21
-5.3388155140
31
0.0000000000
11
-14.8688201989
21
-5.2843650630
31
0.0000000000
0
SPLINE
5
32F
100
AcDbEntity
8
0
100
AcDbSpline
62
0
6
CONTINUOUS
70
0
71
3
72
9
73
5
74
3
42
0.0000001000
43
0.0000001000
44
0.0000000001
12
0.1142835069
22
0.1691815447
32
0.0000000000
13
0.1867703720
23
0.1210320886
33
0.0000000000
40
0.0000000000
40
0.0000000000
40
0.0000000000
40
0.0000000000
40
0.7789820380
40
1.0000000000
40
1.0000000000
40
1.0000000000
40
1.0000000000
10
-14.8688201989
20
-5.2843650630
30
0.0000000000
10
-14.8391452659
20
-5.2404352681
30
0.0000000000
10
-14.8018230284
20
-5.1913172602
30
0.0000000000
10
-14.7387006731
20
-5.1221075259
30
0.0000000000
10
-14.7249408042
20
-5.1131907707
30
0.0000000000
11
-14.8688201989
21
-5.2843650630
31
0.0000000000
11
-14.7653427134
21
-5.1517192552
31
0.0000000000
11
-14.7249408042
21
-5.1131907707
31
0.0000000000
0
SPLINE
5
330
100
AcDbEntity
8
0
100
AcDbSpline
62
0
6
CONTINUOUS
70
0
71
3
72
8
73
4
74
2
42
0.0000001000
43
0.0000001000
44
0.0000000001
12
-0.2087109621
22
-0.1239601270
32
0.0000000000
13
-0.1546498509
23
-0.1863207116
33
0.0000000000
40
0.0000000000
40
0.0000000000
40
0.0000000000
40
0.0000000000
40
1.0000000000
40
1.0000000000
40
1.0000000000
40
1.0000000000
10
-0.2479615692
20
-27.3819690424
30
0.0000000000
10
-0.3175318899
20
-27.4232890847
30
0.0000000000
10
-0.3802602184
20
-27.4767599766
30
0.0000000000
10
-0.4318101687
20
-27.5388668804
30
0.0000000000
11
-0.2479615692
21
-27.3819690424
31
0.0000000000
11
-0.4318101687
21
-27.5388668804
31
0.0000000000
0
SPLINE
5
331
100
AcDbEntity
8
0
100
AcDbSpline
62
0
6
CONTINUOUS
70
0
71
3
72
8
73
4
74
2
42
0.0000001000
43
0.0000001000
44
0.0000000001
12
0.0000000000
22
1.0147111388
32
0.0000000000
13
-0.0954543522
23
1.0113526718
33
0.0000000000
40
0.0000000000
40
0.0000000000
40
0.0000000000
40
0.0000000000
40
1.0000000000
40
1.0000000000
40
1.0000000000
40
1.0000000000
10
2.6066378280
20
-18.2528068425
30
0.0000000000
10
2.6066378280
20
-17.9145697962
30
0.0000000000
10
2.5899747735
20
-17.5760906232
30
0.0000000000
10
2.5581566561
20
-17.2389730660
30
0.0000000000
11
2.6066378280
21
-18.2528068425
31
0.0000000000
11
2.5581566561
21
-17.2389730660
31
0.0000000000
0
SPLINE
5
332
100
AcDbEntity
8
0
100
AcDbSpline
62
0
6
CONTINUOUS
70
0
71
3
72
9
73
5
74
3
42
0.0000001000
43
0.0000001000
44
0.0000000001
12
-0.0986735194
22
1.0454602147
32
0.0000000000
13
-0.1909926294
23
1.0321268424
33
0.0000000000
40
0.0000000000
40
0.0000000000
40
0.0000000000
40
0.0000000000
40
0.4944637520
40
1.0000000000
40
1.0000000000
40
1.0000000000
40
1.0000000000
10
2.5581566561
20
-17.2389730660
30
0.0000000000
10
2.5418931633
20
-17.0666590058
30
0.0000000000
10
2.5009943975
20
-16.7188917146
30
0.0000000000
10
2.4447247928
20
-16.3734553867
30
0.0000000000
10
2.4125402271
20
-16.1995295429
30
0.0000000000
11
2.5581566561
21
-17.2389730660
31
0.0000000000
11
2.4976891648
21
-16.7233122740
31
0.0000000000
11
2.4125402271
21
-16.1995295429
31
0.0000000000
0
SPLINE
5
333
100
AcDbEntity
8
0
100
AcDbSpline
62
0
6
CONTINUOUS
70
0
71
3
72
18
73
14
74
12
42
0.0000001000
43
0.0000001000
44
0.0000000001
12
-3.7283429684
22
20.1480175780
32
0.0000000000
13
-20.4320232091
23
-1.9753493460
33
0.0000000000
40
0.0000000000
40
0.0000000000
40
0.0000000000
40
0.0000000000
40
0.0530143444
40
0.1342639999
40
0.2162779297
40
0.3007982729
40
0.3925580039
40
0.4950817195
40
0.6104002758
40
0.7310735271
40
0.8441209773
40
0.9437910248
40
1.0000000000
40
1.0000000000
40
1.0000000000
40
1.0000000000
10
2.4125402271
20
-16.1995295429
30
0.0000000000
10
2.3466550077
20
-15.8434848951
30
0.0000000000
10
2.1401195142
20
-14.9492466546
30
0.0000000000
10
1.6624100870
20
-13.5489483286
30
0.0000000000
10
0.9426712801
20
-12.0151423773
30
0.0000000000
10
0.0342118613
20
-10.5009379836
30
0.0000000000
10
-1.1043122594
20
-8.9721510083
30
0.0000000000
10
-2.5394798036
20
-7.4154259827
30
0.0000000000
10
-4.2974037085
20
-5.9066782432
30
0.0000000000
10
-6.3059030056
20
-4.6090501302
30
0.0000000000
10
-8.4019184064
20
-3.6929129117
30
0.0000000000
10
-10.2109926423
20
-3.3010416381
30
0.0000000000
10
-11.2833249602
20
-3.3005327584
30
0.0000000000
10
-11.6661459889
20
-3.3375435459
30
0.0000000000
11
2.4125402271
21
-16.1995295429
31
0.0000000000
11
2.1695179322
21
-15.1411908434
31
0.0000000000
11
1.6359586024
21
-13.5653977659
31
0.0000000000
11
0.9252149708
21
-12.0438957022
31
0.0000000000
11
0.0367186682
21
-10.5587344475
31
0.0000000000
11
-1.0842755288
21
-9.0509027769
31
0.0000000000
11
-2.5070696174
21
-7.5073211486
31
0.0000000000
11
-4.3012279138
21
-5.9722007057
31
0.0000000000
11
-6.3829683323
21
-4.6411217232
31
0.0000000000
11
-8.5124596536
21
-3.7336999948
31
0.0000000000
11
-10.5130583102
21
-3.3303683534
31
0.0000000000
11
-11.6661459889
21
-3.3375435459
31
0.0000000000
0
SPLINE
5
334
100
AcDbEntity
8
0
100
AcDbSpline
62
0
6
CONTINUOUS
70
0
71
3
72
9
73
5
74
3
42
0.0000001000
43
0.0000001000
44
0.0000000001
12
-0.9923584019
22
-0.0959403041
32
0.0000000000
13
-0.9592278751
23
-0.2752449150
33
0.0000000000
40
0.0000000000
40
0.0000000000
40
0.0000000000
40
0.0000000000
40
0.5207986032
40
1.0000000000
40
1.0000000000
40
1.0000000000
40
1.0000000000
10
-11.6661459889
20
-3.3375435459
30
0.0000000000
10
-11.8384189455
20
-3.3541987380
30
0.0000000000
10
-12.1677060467
20
-3.4006415288
30
0.0000000000
10
-12.4917827921
20
-3.4774502773
30
0.0000000000
10
-12.6450039046
20
-3.5214161932
30
0.0000000000
11
-11.6661459889
21
-3.3375435459
31
0.0000000000
11
-12.1799902593
21
-3.4108096139
31
0.0000000000
11
-12.6450039046
21
-3.5214161932
31
0.0000000000
0
SPLINE
5
335
100
AcDbEntity
8
0
100
AcDbSpline
62
0
6
CONTINUOUS
70
0
71
3
72
8
73
4
74
2
42
0.0000001000
43
0.0000001000
44
0.0000000001
12
-0.1812110420
22
-0.0519974650
32
0.0000000000
13
-0.1791125240
23
-0.0587073497
33
0.0000000000
40
0.0000000000
40
0.0000000000
40
0.0000000000
40
0.0000000000
40
1.0000000000
40
1.0000000000
40
1.0000000000
40
1.0000000000
10
-12.6450039046
20
-3.5214161932
30
0.0000000000
10
-12.7054075853
20
-3.5387486815
30
0.0000000000
10
-12.7654884844
20
-3.5571937860
30
0.0000000000
10
-12.8251926591
20
-3.5767629026
30
0.0000000000
11
-12.6450039046
21
-3.5214161932
31
0.0000000000
11
-12.8251926591
21
-3.5767629026
31
0.0000000000
0
SPLINE
5
336
100
AcDbEntity
8
0
100
AcDbSpline
62
0
6
CONTINUOUS
70
0
71
3
72
9
73
5
74
3
42
0.0000001000
43
0.0000001000
44
0.0000000001
12
-1.7617106920
22
-0.5774323499
32
0.0000000000
13
-1.3998789470
23
-1.2125695735
33
0.0000000000
40
0.0000000000
40
0.0000000000
40
0.0000000000
40
0.0000000000
40
0.3693237979
40
1.0000000000
40
1.0000000000
40
1.0000000000
40
1.0000000000
10
-12.8251926591
20
-3.5767629026
30
0.0000000000
10
-13.0420732203
20
-3.6478494054
30
0.0000000000
10
-13.6158500136
20
-3.8804870251
30
0.0000000000
10
-14.1342246012
20
-4.2258691862
30
0.0000000000
10
-14.4285147138
20
-4.4807821106
30
0.0000000000
11
-12.8251926591
21
-3.5767629026
31
0.0000000000
11
-13.4583352046
21
-3.8350649870
31
0.0000000000
11
-14.4285147138
21
-4.4807821106
31
0.0000000000
0
SPLINE
5
337
100
AcDbEntity
8
0
100
AcDbSpline
62
0
6
CONTINUOUS
70
0
71
3
72
8
73
4
74
2
42
0.0000001000
43
0.0000001000
44
0.0000000001
12
-0.5554636947
22
-0.4811404421
32
0.0000000000
13
-0.4760759520
23
-0.5597285566
33
0.0000000000
40
0.0000000000
40
0.0000000000
40
0.0000000000
40
0.0000000000
40
1.0000000000
40
1.0000000000
40
1.0000000000
40
1.0000000000
10
-14.4285147138
20
-4.4807821106
30
0.0000000000
10
-14.6136692787
20
-4.6411622580
30
0.0000000000
10
-14.7859051142
20
-4.8162234892
30
0.0000000000
10
-14.9445970982
20
-5.0027996748
30
0.0000000000
11
-14.4285147138
21
-4.4807821106
31
0.0000000000
11
-14.9445970982
21
-5.0027996748
31
0.0000000000
0
SPLINE
5
338
100
AcDbEntity
8
0
100
AcDbSpline
62
0
6
CONTINUOUS
70
0
71
3
72
9
73
5
74
3
42
0.0000001000
43
0.0000001000
44
0.0000000001
12
-0.2720705798
22
-0.3198768438
32
0.0000000000
13
-0.2451930505
23
-0.3406722818
33
0.0000000000
40
0.0000000000
40
0.0000000000
40
0.0000000000
40
0.0000000000
40
0.8753874739
40
1.0000000000
40
1.0000000000
40
1.0000000000
40
1.0000000000
10
-14.9445970982
20
-5.0027996748
30
0.0000000000
10
-15.0239861574
20
-5.0961384022
30
0.0000000000
10
-15.1108041916
20
-5.2060561183
30
0.0000000000
10
-15.1930967234
20
-5.3192172679
30
0.0000000000
10
-15.2032814319
20
-5.3333679458
30
0.0000000000
11
-14.9445970982
21
-5.0027996748
31
0.0000000000
11
-15.1725170896
21
-5.2910650394
31
0.0000000000
11
-15.2032814319
21
-5.3333679458
31
0.0000000000
0
SPLINE
5
339
100
AcDbEntity
8
0
100
AcDbSpline
62
0
6
CONTINUOUS
70
0
71
3
72
8
73
4
74
2
42
0.0000001000
43
0.0000001000
44
0.0000000001
12
-0.4781427664
22
-0.6643336218
32
0.0000000000
13
-0.3787954012
23
-0.7255815965
33
0.0000000000
40
0.0000000000
40
0.0000000000
40
0.0000000000
40
0.0000000000
40
1.0000000000
40
1.0000000000
40
1.0000000000
40
1.0000000000
10
-15.2032814319
20
-5.3333679458
30
0.0000000000
10
-15.3626623540
20
-5.5548124863
30
0.0000000000
10
-15.5049077074
20
-5.7883501044
30
0.0000000000
10
-15.6311728411
20
-6.0302106366
30
0.0000000000
11
-15.2032814319
21
-5.3333679458
31
0.0000000000
11
-15.6311728411
21
-6.0302106366
31
0.0000000000
0
SPLINE
5
33A
100
AcDbEntity
8
0
100
AcDbSpline
62
0
6
CONTINUOUS
70
0
71
3
72
8
73
4
74
2
42
0.0000001000
43
0.0000001000
44
0.0000000001
12
0.2141635930
22
-0.1240447224
32
0.0000000000
13
0.2145455505
23
-0.1233943647
33
0.0000000000
40
0.0000000000
40
0.0000000000
40
0.0000000000
40
0.0000000000
40
1.0000000000
40
1.0000000000
40
1.0000000000
40
1.0000000000
10
-18.3807648025
20
-25.9296577471
30
0.0000000000
10
-18.3093769382
20
-25.9710059879
30
0.0000000000
10
-18.2379250681
20
-26.0122455758
30
0.0000000000
10
-18.1664098846
20
-26.0533770307
30
0.0000000000
11
-18.3807648025
21
-25.9296577471
31
0.0000000000
11
-18.1664098846
21
-26.0533770307
31
0.0000000000
0
SPLINE
5
33B
100
AcDbEntity
8
0
100
AcDbSpline
62
0
6
CONTINUOUS
70
0
71
3
72
10
73
6
74
4
42
0.0000001000
43
0.0000001000
44
0.0000000001
12
21.8288020776
22
-12.5546820191
32
0.0000000000
13
24.1177186226
23
-7.2403762193
33
0.0000000000
40
0.0000000000
40
0.0000000000
40
0.0000000000
40
0.0000000000
40
0.3051865355
40
0.6425329278
40
1.0000000000
40
1.0000000000
40
1.0000000000
40
1.0000000000
10
-18.1664098846
20
-26.0533770307
30
0.0000000000
10
-15.9457910578
20
-27.3305503340
30
0.0000000000
10
-11.1420277259
20
-29.7999799153
30
0.0000000000
10
-3.3875943406
20
-33.0313998987
30
0.0000000000
10
2.1476598606
20
-34.8853094920
30
0.0000000000
10
5.0214232818
20
-35.7480415215
30
0.0000000000
11
-18.1664098846
21
-26.0533770307
31
0.0000000000
11
-11.3421458960
21
-29.5876891778
31
0.0000000000
11
-3.5088793393
21
-32.8741344257
31
0.0000000000
11
5.0214232818
21
-35.7480415215
31
0.0000000000
0
SPLINE
5
33C
100
AcDbEntity
8
0
100
AcDbSpline
62
0
6
CONTINUOUS
70
0
71
3
72
8
73
4
74
2
42
0.0000001000
43
0.0000001000
44
0.0000000001
12
0.0336096254
22
-0.1522103403
32
0.0000000000
13
0.0262166132
23
-0.1536983233
33
0.0000000000
40
0.0000000000
40
0.0000000000
40
0.0000000000
40
0.0000000000
40
1.0000000000
40
1.0000000000
40
1.0000000000
40
1.0000000000
10
-12.9846819970
20
-22.7692091303
30
0.0000000000
10
-12.9734787885
20
-22.8199459104
30
0.0000000000
10
-12.9634836077
20
-22.8709507635
30
0.0000000000
10
-12.9547447366
20
-22.9221835379
30
0.0000000000
11
-12.9846819970
21
-22.7692091303
31
0.0000000000
11
-12.9547447366
21
-22.9221835379
31
0.0000000000
0
SPLINE
5
33D
100
AcDbEntity
8
0
100
AcDbSpline
62
0
6
CONTINUOUS
70
0
71
3
72
8
73
4
74
2
42
0.0000001000
43
0.0000001000
44
0.0000000001
12
0.0341117946
22
-0.1999848567
32
0.0000000000
13
0.0202292926
23
-0.2018523108
33
0.0000000000
40
0.0000000000
40
0.0000000000
40
0.0000000000
40
0.0000000000
40
1.0000000000
40
1.0000000000
40
1.0000000000
40
1.0000000000
10
-12.9547447366
20
-22.9221835379
30
0.0000000000
10
-12.9433741384
20
-22.9888451568
30
0.0000000000
10
-12.9341304678
20
-23.0558926458
30
0.0000000000
10
-12.9273873702
20
-23.1231767494
30
0.0000000000
11
-12.9547447366
21
-22.9221835379
31
0.0000000000
11
-12.9273873702
21
-23.1231767494
31
0.0000000000
0
SPLINE
5
33E
100
AcDbEntity
8
0
100
AcDbSpline
62
0
6
CONTINUOUS
70
0
71
3
72
8
73
4
74
2
42
0.0000001000
43
0.0000001000
44
0.0000000001
12
0.0403033791
22
-0.4021559400
32
0.0000000000
13
-0.0281154993
23
-0.4042501449
33
0.0000000000
40
0.0000000000
40
0.0000000000
40
0.0000000000
40
0.0000000000
40
1.0000000000
40
1.0000000000
40
1.0000000000
40
1.0000000000
10
-12.9273873702
20
-23.1231767494
30
0.0000000000
10
-12.9139529105
20
-23.2572287294
30
0.0000000000
10
-12.9104441494
20
-23.3922199204
30
0.0000000000
10
-12.9198159825
20
-23.5269699687
30
0.0000000000
11
-12.9273873702
21
-23.1231767494
31
0.0000000000
11
-12.9198159825
21
-23.5269699687
31
0.0000000000
0
SPLINE
5
33F
100
AcDbEntity
8
0
100
AcDbSpline
62
0
6
CONTINUOUS
70
0
71
3
72
8
73
4
74
2
42
0.0000001000
43
0.0000001000
44
0.0000000001
12
-0.0189158148
22
-0.2719752822
32
0.0000000000
13
-0.0565975075
23
-0.2702419902
33
0.0000000000
40
0.0000000000
40
0.0000000000
40
0.0000000000
40
0.0000000000
40
1.0000000000
40
1.0000000000
40
1.0000000000
40
1.0000000000
10
-12.9198159825
20
-23.5269699687
30
0.0000000000
10
-12.9261212541
20
-23.6176283961
30
0.0000000000
10
-12.9382568727
20
-23.7081776713
30
0.0000000000
10
-12.9571227085
20
-23.7982583347
30
0.0000000000
11
-12.9198159825
21
-23.5269699687
31
0.0000000000
11
-12.9571227085
21
-23.7982583347
31
0.0000000000
0
SPLINE
5
340
100
AcDbEntity
8
0
100
AcDbSpline
62
0
6
CONTINUOUS
70
0
71
3
72
10
73
6
74
4
42
0.0000001000
43
0.0000001000
44
0.0000000001
12
-0.4141056841
22
-1.9772733672
32
0.0000000000
13
-1.7602324669
23
0.9132727765
33
0.0000000000
40
0.0000000000
40
0.0000000000
40
0.0000000000
40
0.0000000000
40
0.3538916410
40
0.6579606130
40
1.0000000000
40
1.0000000000
40
1.0000000000
40
1.0000000000
10
-12.9571227085
20
-23.7982583347
30
0.0000000000
10
-13.0059722219
20
-24.0315051736
30
0.0000000000
10
-13.1806872225
20
-24.4593198504
30
0.0000000000
10
-13.8330254644
20
-24.7729902254
30
0.0000000000
10
-14.2724838245
20
-24.6380144593
30
0.0000000000
10
-14.4731734358
20
-24.5338893724
30
0.0000000000
11
-12.9571227085
21
-23.7982583347
31
0.0000000000
11
-13.2675420867
21
-24.4276560754
31
0.0000000000
11
-13.8122374847
21
-24.6862995190
31
0.0000000000
11
-14.4731734358
21
-24.5338893724
31
0.0000000000
0
ENDSEC
0
SECTION
2
OBJECTS
0
DICTIONARY
5
C
100
AcDbDictionary
280
0
281
1
3
ACAD_GROUP
350
D
3
ACAD_MLINESTYLE
350
17
3
ACAD_LAYOUT
350
1A
3
ACAD_PLOTSETTINGS
350
19
3
ACAD_PLOTSTYLENAME
350
E
0
DICTIONARY
5
D
102
{ACAD_REACTORS
330
C
102
}
100
AcDbDictionary
280
0
281
1
0
ACDBDICTIONARYWDFLT
5
E
102
{ACAD_REACTORS
330
C
102
}
100
AcDbDictionary
281
1
3
Normal
350
F
100
AcDbDictionaryWithDefault
340
F
0
DICTIONARY
5
17
102
{ACAD_REACTORS
330
C
102
}
100
AcDbDictionary
280
0
281
1
3
Standard
350
18
0
DICTIONARY
5
19
102
{ACAD_REACTORS
330
C
102
}
100
AcDbDictionary
281
1
0
DICTIONARY
5
1A
102
{ACAD_REACTORS
330
C
102
}
100
AcDbDictionary
281
1
3
Layout1
350
1E
3
Model
350
22
0
ACDBPLACEHOLDER
5
F
102
{ACAD_REACTORS
330
E
102
}
0
MLINESTYLE
5
18
102
{ACAD_REACTORS
330
17
102
}
100
AcDbMlineStyle
2
STANDARD
70
0
3

62
256
51
90.0
52
90.0
71
2
49
0.5
62
256
6
BYLAYER
49
-0.5
62
256
6
BYLAYER
0
LAYOUT
5
1E
102
{ACAD_REACTORS
330
1A
102
}
100
AcDbPlotSettings
1

2

4

6

40
0.0
41
0.0
42
0.0
43
0.0
44
0.0
45
0.0
46
0.0
47
0.0
48
0.0
49
0.0
140
0.0
141
0.0
142
1.0
143
1.0
70
0
72
0
73
0
74
0
7

75
0
147
1.0
148
0.0
149
0.0
100
AcDbLayout
1
Layout1
70
0
71
0
10
0.0
20
0.0
11
0.0
21
0.0
12
0.0
22
0.0
32
0.0
14
0.0
24
0.0
34
0.0
15
0.0
25
0.0
35
0.0
146
0.0
13
0.0
23
0.0
33
0.0
16
0.0
26
0.0
36
0.0
17
0.0
27
0.0
37
0.0
76
0
330
1B
331
0
345
0
346
0
0
LAYOUT
5
22
102
{ACAD_REACTORS
330
1A
102
}
100
AcDbPlotSettings
1

2

4

6

40
0.0
41
0.0
42
0.0
43
0.0
44
0.0
45
0.0
46
0.0
47
0.0
48
0.0
49
0.0
140
0.0
141
0.0
142
1.0
143
1.0
70
0
72
0
73
0
74
0
7

75
0
147
1.0
148
0.0
149
0.0
100
AcDbLayout
1
Model
70
0
71
0
10
0.0
20
0.0
11
0.0
21
0.0
12
0.0
22
0.0
32
0.0
14
0.0
24
0.0
34
0.0
15
0.0
25
0.0
35
0.0
146
0.0
13
0.0
23
0.0
33
0.0
16
0.0
26
0.0
36
0.0
17
0.0
27
0.0
37
0.0
76
0
330
1F
331
0
345
0
346
0
0
ENDSEC
0
EOF
