0
SECTION
2
HEADER
9
$ACADVER
1
AC1014
9
$HANDSEED
5
       336
9
$EXTMAX
10
297.0000000000
20
210.0000000000
9
$EXTMIN
10
0.0000000000
20
0.0000000000
9
$LIMMIN
10
0.0000000000
20
0.0000000000
9
$LIMMAX
10
297.0000000000
20
210.0000000000
9
$VIEWCTR
10
148.5000000000
20
105.0000000000
9
$VIEWSIZE
40
210.0000000000
9
$CLAYER
8
0
9
$LTSCALE
40
16.3350000000
9
$CELTYPE
6
BYLAYER
9
$DIMSCALE
40
1
9
$DIMASZ
40
3.0000000000
9
$DIMEXO
40
1.8562500000
9
$DIMDLI
40
11.2860000000
9
$DIMEXE
40
5.3460000000
9
$DIMCEN
40
2.6730000000
9
$DIMLFAC
40
1.0000000000
9
$DIMTXT
40
3.0000000000
9
$DIMTOL
70
1
9
$DIMLIM
70
0
9
$DIMTFAC
40
1.0000000000
9
$DIMTP
40
0.0100000000
9
$DIMTM
40
0.0100000000
9
$MEASUREMENT
70
1
0
ENDSEC
0
SECTION
2
CLASSES
0
ENDSEC
0
SECTION
2
TABLES
0
TABLE
2
VPORT
5
8
100
AcDbSymbolTable
70
2
0
VPORT
5
1F4
100
AcDbSymbolTableRecord
100
AcDbViewportTableRecord
2
*ACTIVE
70
0
10
0.0
20
0.0
11
1.0
21
1.0
12
148.5000000000
22
105.0000000000
13
0.0
23
0.0
14
1.0
24
1.0
15
0.0
25
0.0
16
0.0
26
0.0
36
1.0
17
0.0
27
0.0
37
0.0
40
210.0000000000
41
1.4142857143
42
50.0
43
0.0
44
0.0
50
0.0
51
0.0
71
0
72
100
73
1
74
1
75
0
76
0
77
0
78
0
0
ENDTAB
0
TABLE
2
LTYPE
5
5
100
AcDbSymbolTable
70
6
0
LTYPE
5
14
100
AcDbSymbolTableRecord
100
AcDbLinetypeTableRecord
2
BYBLOCK
70
0
3

72
65
73
0
40
0.0
0
LTYPE
5
15
100
AcDbSymbolTableRecord
100
AcDbLinetypeTableRecord
2
BYLAYER
70
0
3

72
65
73
0
40
0.0
0
LTYPE
5
16
100
AcDbSymbolTableRecord
100
AcDbLinetypeTableRecord
2
CONTINUOUS
70
64
3
Solid line
72
65
73
0
40
0
0
LTYPE
5
1F5
100
AcDbSymbolTableRecord
100
AcDbLinetypeTableRecord
2
CENTER
70
64
3
____ _ ____ _ ____ _ ____ _ ____ _ ____ _ ____
72
65
73
4
40
0.6
49
0.375
74
0
49
-0.075
74
0
49
0.075
74
0
49
-0.075
74
0
0
LTYPE
5
1F6
100
AcDbSymbolTableRecord
100
AcDbLinetypeTableRecord
2
HIDDEN
70
64
3
- - - - - - - - - - - - - - - - - - - -
72
65
73
2
40
0.2
49
0.1
74
0
49
-0.1
74
0
0
LTYPE
5
1F7
100
AcDbSymbolTableRecord
100
AcDbLinetypeTableRecord
2
PHANTOM
70
64
3
_____ _ _ _____ _ _ _____ _ _ _____
72
65
73
6
40
0.8
49
0.45
74
0
49
-0.05
74
0
49
0.1
74
0
49
-0.05
74
0
49
0.1
74
0
49
-0.05
74
0
0
LTYPE
5
1F8
100
AcDbSymbolTableRecord
100
AcDbLinetypeTableRecord
2
DOT
70
64
3
. . . . . . . . . . . . . . . . . . . .
72
65
73
2
40
0.2
49
0.1
74
0
49
-0.1
74
0
0
LTYPE
5
1F9
100
AcDbSymbolTableRecord
100
AcDbLinetypeTableRecord
2
DASHED
70
64
3
- - - - - - - - - - - - - - - - - - - -
72
65
73
2
40
0.2
49
0.1
74
0
49
-0.1
74
0
0
ENDTAB
0
TABLE
2
LAYER
5
2
100
AcDbSymbolTable
70
36
0
LAYER
5
10
100
AcDbSymbolTableRecord
100
AcDbLayerTableRecord
2
0
70
0
62
7
6
CONTINUOUS
0
LAYER
5
1FA
100
AcDbSymbolTableRecord
100
AcDbLayerTableRecord
2
DEFAULT_1
70
0
62
7
6
CENTER
0
LAYER
5
1FB
100
AcDbSymbolTableRecord
100
AcDbLayerTableRecord
2
DEFAULT_2
70
0
62
8
6
HIDDEN
0
LAYER
5
1FC
100
AcDbSymbolTableRecord
100
AcDbLayerTableRecord
2
DEFAULT_3
70
0
62
7
6
PHANTOM
0
LAYER
5
1FD
100
AcDbSymbolTableRecord
100
AcDbLayerTableRecord
2
ALTRI_PIANI
70
0
62
7
6
CONTINUOUS
0
LAYER
5
1FE
100
AcDbSymbolTableRecord
100
AcDbLayerTableRecord
2
ASSI
70
0
62
7
6
CONTINUOUS
0
LAYER
5
1FF
100
AcDbSymbolTableRecord
100
AcDbLayerTableRecord
2
COORDINATE
70
0
62
7
6
CONTINUOUS
0
LAYER
5
200
100
AcDbSymbolTableRecord
100
AcDbLayerTableRecord
2
COORD_ORIGINE
70
0
62
7
6
CONTINUOUS
0
LAYER
5
201
100
AcDbSymbolTableRecord
100
AcDbLayerTableRecord
2
INTF_YELLOW
70
0
62
7
6
CONTINUOUS
0
LAYER
5
202
100
AcDbSymbolTableRecord
100
AcDbLayerTableRecord
2
PIANI
70
0
62
7
6
CONTINUOUS
0
LAYER
5
203
100
AcDbSymbolTableRecord
100
AcDbLayerTableRecord
2
PIANI_ORIGINE
70
0
62
7
6
CONTINUOUS
0
LAYER
5
204
100
AcDbSymbolTableRecord
100
AcDbLayerTableRecord
2
RACCORDO
70
0
62
7
6
CONTINUOUS
0
LAYER
5
205
100
AcDbSymbolTableRecord
100
AcDbLayerTableRecord
2
SMUSSO
70
0
62
7
6
CONTINUOUS
0
LAYER
5
206
100
AcDbSymbolTableRecord
100
AcDbLayerTableRecord
2
TRASH
70
0
62
7
6
CONTINUOUS
0
ENDTAB
0
TABLE
2
STYLE
5
3
100
AcDbSymbolTable
70
1
0
STYLE
5
11
100
AcDbSymbolTableRecord
100
AcDbTextStyleTableRecord
2
STANDARD
70
0
40
0.0
41
0.8000000000
50
0.0
71
0
42
0.2
3
txt
4

0
ENDTAB
0
TABLE
2
VIEW
5
6
100
AcDbSymbolTable
70
0
0
ENDTAB
0
TABLE
2
UCS
5
7
100
AcDbSymbolTable
70
0
0
ENDTAB
0
TABLE
2
APPID
5
9
100
AcDbSymbolTable
70
1
0
APPID
5
207
100
AcDbSymbolTableRecord
100
AcDbRegAppTableRecord
2
ACAD
70
0
0
ENDTAB
0
TABLE
2
DIMSTYLE
5
A
100
AcDbSymbolTable
70
1
0
DIMSTYLE
105
208
100
AcDbSymbolTableRecord
100
AcDbDimStyleTableRecord
2
STANDARD
70
0
3

4

5

6

7

40
1.0
41
3.0000000000
42
0.0625
43
0.38
44
0.18
45
0.0
46
0.0
47
0.0100000000
48
0.0100000000
140
3.0000000000
141
0.09
142
0.0
143
25.4
144
1.0000000000
145
0.0
146
1.0000000000
147
0.09
71
1
72
0
73
0
74
0
75
0
76
0
77
1
78
8
170
0
171
2
172
0
173
0
174
0
175
0
176
0
177
0
178
0
270
2
271
2
272
2
273
2
274
2
340
11
275
0
280
0
281
0
282
0
283
1
284
8
285
0
286
0
287
3
288
0
0
ENDTAB
0
TABLE
2
BLOCK_RECORD
5
1
100
AcDbSymbolTable
70
0
0
BLOCK_RECORD
5
1B
100
AcDbSymbolTableRecord
100
AcDbBlockTableRecord
2
*MODEL_SPACE
0
BLOCK_RECORD
5
1C
100
AcDbSymbolTableRecord
100
AcDbBlockTableRecord
2
*PAPER_SPACE
0
ENDTAB
0
ENDSEC
0
SECTION
2
BLOCKS
0
BLOCK
5
1E
100
AcDbEntity
8
0
100
AcDbBlockBegin
2
*MODEL_SPACE
70
0
10
0.0
20
0.0
30
0.0
3
*MODEL_SPACE
1

0
ENDBLK
5
1F
100
AcDbEntity
8
0
100
AcDbBlockEnd
0
BLOCK
5
20
100
AcDbEntity
8
0
100
AcDbBlockBegin
2
*PAPER_SPACE
70
0
10
0.0
20
0.0
30
0.0
3
*PAPER_SPACE
1

0
ENDBLK
5
21
100
AcDbEntity
8
0
100
AcDbBlockEnd
0
ENDSEC
0
SECTION
2
ENTITIES
0
LINE
5
209
100
AcDbEntity
8
0
100
AcDbLine
62
7
6
CONTINUOUS
10
-19.8326970742
20
-4.8672172116
11
-20.0323192782
21
-3.9423167712
0
LINE
5
20A
100
AcDbEntity
8
0
100
AcDbLine
62
7
6
CONTINUOUS
10
-17.2759865591
20
5.4968322632
11
-20.0323192782
21
-3.9423167712
0
LINE
5
20B
100
AcDbEntity
8
0
100
AcDbLine
62
7
6
CONTINUOUS
10
-17.1020984323
20
-8.0526825425
11
-16.9909446606
21
-8.3566276419
0
LINE
5
20C
100
AcDbEntity
8
0
100
AcDbLine
62
7
6
CONTINUOUS
10
-17.1831949527
20
-7.6769417386
11
-17.0720411810
21
-7.9808868380
0
LINE
5
20D
100
AcDbEntity
8
0
100
AcDbLine
62
7
6
CONTINUOUS
10
-17.1020984323
20
-8.0526825425
11
-17.1831949527
21
-7.6769417386
0
LINE
5
20E
100
AcDbEntity
8
0
100
AcDbLine
62
7
6
CONTINUOUS
10
-16.9909446606
20
-8.3566276419
11
-17.0720411810
21
-7.9808868380
0
LINE
5
20F
100
AcDbEntity
8
0
100
AcDbLine
62
7
6
CONTINUOUS
10
-16.7499915846
20
-8.3872195779
11
-16.8310881050
21
-8.0114787740
0
LINE
5
210
100
AcDbEntity
8
0
100
AcDbLine
62
7
6
CONTINUOUS
10
-16.4756204348
20
-8.1322215762
11
-16.5567169552
21
-7.7564807723
0
LINE
5
211
100
AcDbEntity
8
0
100
AcDbLine
62
7
6
CONTINUOUS
10
-14.6925676726
20
-8.3586019028
11
-14.5814139010
21
-8.6625470022
0
LINE
5
212
100
AcDbEntity
8
0
100
AcDbLine
62
7
6
CONTINUOUS
10
-14.7736641930
20
-7.9828610989
11
-14.6625104214
21
-8.2868061983
0
LINE
5
213
100
AcDbEntity
8
0
100
AcDbLine
62
7
6
CONTINUOUS
10
-14.6925676726
20
-8.3586019028
11
-14.7736641930
21
-7.9828610989
0
LINE
5
214
100
AcDbEntity
8
0
100
AcDbLine
62
7
6
CONTINUOUS
10
-15.8114319404
20
-2.9792956879
11
-16.1133276063
21
-1.5805362886
0
LINE
5
215
100
AcDbEntity
8
0
100
AcDbLine
62
7
6
CONTINUOUS
10
-14.5814139010
20
-8.6625470022
11
-14.6625104214
21
-8.2868061983
0
LINE
5
216
100
AcDbEntity
8
0
100
AcDbLine
62
7
6
CONTINUOUS
10
-14.3404608250
20
-8.6931389382
11
-14.4215573454
21
-8.3173981343
0
LINE
5
217
100
AcDbEntity
8
0
100
AcDbLine
62
7
6
CONTINUOUS
10
-15.5479260229
20
0.3556994108
11
-16.1133276063
21
-1.5805362886
0
LINE
5
218
100
AcDbEntity
8
0
100
AcDbLine
62
7
6
CONTINUOUS
10
-15.6314214544
20
-1.6417201606
11
-15.0660198709
21
0.2945155387
0
LINE
5
219
100
AcDbEntity
8
0
100
AcDbLine
62
7
6
CONTINUOUS
10
-15.0161143199
20
0.0632904287
11
-15.5815159033
21
-1.8729452707
0
LINE
5
21A
100
AcDbEntity
8
0
100
AcDbLine
62
7
6
CONTINUOUS
10
-7.1118685461
20
-9.6108970190
11
-7.3528216221
21
-9.5803050830
0
LINE
5
21B
100
AcDbEntity
8
0
100
AcDbLine
62
7
6
CONTINUOUS
10
-11.9309300654
20
-8.9990582985
11
-12.1718831413
21
-8.9684663624
0
LINE
5
21C
100
AcDbEntity
8
0
100
AcDbLine
62
7
6
CONTINUOUS
10
-14.3404608250
20
-8.6931389382
11
-14.5814139010
21
-8.6625470022
0
LINE
5
21D
100
AcDbEntity
8
0
100
AcDbLine
62
7
6
CONTINUOUS
10
-16.7499915846
20
-8.3872195779
11
-16.9909446606
21
-8.3566276419
0
LINE
5
21E
100
AcDbEntity
8
0
100
AcDbLine
62
7
6
CONTINUOUS
10
-7.1929650665
20
-9.2351562151
11
-7.4339181425
21
-9.2045642791
0
LINE
5
21F
100
AcDbEntity
8
0
100
AcDbLine
62
7
6
CONTINUOUS
10
-12.0120265858
20
-8.6233174946
11
-12.2529796617
21
-8.5927255586
0
LINE
5
220
100
AcDbEntity
8
0
100
AcDbLine
62
7
6
CONTINUOUS
10
-14.4215573454
20
-8.3173981343
11
-14.6625104214
21
-8.2868061983
0
LINE
5
221
100
AcDbEntity
8
0
100
AcDbLine
62
7
6
CONTINUOUS
10
-16.8310881050
20
-8.0114787740
11
-17.0720411810
21
-7.9808868380
0
LINE
5
222
100
AcDbEntity
8
0
100
AcDbLine
62
7
6
CONTINUOUS
10
-15.6314214544
20
-1.6417201606
11
-15.5815159033
21
-1.8729452707
0
LINE
5
223
100
AcDbEntity
8
0
100
AcDbLine
62
7
6
CONTINUOUS
10
-14.0660896751
20
-8.4381409365
11
-14.1471861955
21
-8.0624001326
0
LINE
5
224
100
AcDbEntity
8
0
100
AcDbLine
62
7
6
CONTINUOUS
10
-17.1831949527
20
-7.6769417386
11
-15.2152229019
21
-0.9375588790
0
LINE
5
225
100
AcDbEntity
8
0
100
AcDbLine
62
7
6
CONTINUOUS
10
-13.3029453472
20
5.4107437241
11
-13.4207373437
21
5.0073612868
0
LINE
5
226
100
AcDbEntity
8
0
100
AcDbLine
62
7
6
CONTINUOUS
10
-16.5567169552
20
-7.7564807723
11
-14.5887449044
21
-1.0170979126
0
LINE
5
227
100
AcDbEntity
8
0
100
AcDbLine
62
7
6
CONTINUOUS
10
-14.5429859829
20
-1.5138534477
11
-16.4756204348
21
-8.1322215762
0
LINE
5
228
100
AcDbEntity
8
0
100
AcDbLine
62
7
6
CONTINUOUS
10
-14.3912142646
20
-1.6475647892
11
-14.2380846691
21
-1.1231676206
0
LINE
5
229
100
AcDbEntity
8
0
100
AcDbLine
62
7
6
CONTINUOUS
10
-12.2830369130
20
-8.6645212631
11
-12.1718831413
21
-8.9684663624
0
LINE
5
22A
100
AcDbEntity
8
0
100
AcDbLine
62
7
6
CONTINUOUS
10
-12.3641334334
20
-8.2887804592
11
-12.2529796617
21
-8.5927255586
0
LINE
5
22B
100
AcDbEntity
8
0
100
AcDbLine
62
7
6
CONTINUOUS
10
-15.0660198709
20
0.2945155387
11
-15.0161143199
21
0.0632904287
0
LINE
5
22C
100
AcDbEntity
8
0
100
AcDbLine
62
7
6
CONTINUOUS
10
-14.3912142646
20
-1.6475647892
11
-14.4348816218
21
-1.4452428179
0
LINE
5
22D
100
AcDbEntity
8
0
100
AcDbLine
62
7
6
CONTINUOUS
10
-14.0893217682
20
-1.8375085512
11
-14.0394162172
21
-2.0687336613
0
LINE
5
22E
100
AcDbEntity
8
0
100
AcDbLine
62
7
6
CONTINUOUS
10
-14.3004666079
20
-0.8341362330
11
-14.2380846691
21
-1.1231676206
0
LINE
5
22F
100
AcDbEntity
8
0
100
AcDbLine
62
7
6
CONTINUOUS
10
-12.2830369130
20
-8.6645212631
11
-12.3641334334
21
-8.2887804592
0
LINE
5
230
100
AcDbEntity
8
0
100
AcDbLine
62
7
6
CONTINUOUS
10
-12.1718831413
20
-8.9684663624
11
-12.2529796617
21
-8.5927255586
0
LINE
5
231
100
AcDbEntity
8
0
100
AcDbLine
62
7
6
CONTINUOUS
10
-14.0893217682
20
-1.8375085512
11
-13.5239201848
21
0.0987271482
0
LINE
5
232
100
AcDbEntity
8
0
100
AcDbLine
62
7
6
CONTINUOUS
10
-12.8592743075
20
1.5781359533
11
-12.5058983179
21
2.7882832654
0
LINE
5
233
100
AcDbEntity
8
0
100
AcDbLine
62
7
6
CONTINUOUS
10
-11.5986423331
20
5.6779267921
11
-12.1876023158
21
3.6610146052
0
LINE
5
234
100
AcDbEntity
8
0
100
AcDbLine
62
7
6
CONTINUOUS
10
-12.1396067570
20
3.6469993874
11
-12.3944914076
21
2.7741387974
0
LINE
5
235
100
AcDbEntity
8
0
100
AcDbLine
62
7
6
CONTINUOUS
10
-12.3007799942
20
1.5072282787
11
-11.9474040046
21
2.7173755908
0
LINE
5
236
100
AcDbEntity
8
0
100
AcDbLine
62
7
6
CONTINUOUS
10
-13.2218906947
20
-1.9476395209
11
-12.6564891113
21
-0.0114038215
0
LINE
5
237
100
AcDbEntity
8
0
100
AcDbLine
62
7
6
CONTINUOUS
10
-11.9309300654
20
-8.9990582985
11
-12.0120265858
21
-8.6233174946
0
LINE
5
238
100
AcDbEntity
8
0
100
AcDbLine
62
7
6
CONTINUOUS
10
-13.2218906947
20
-1.9476395209
11
-13.1719851437
21
-2.1788646310
0
LINE
5
239
100
AcDbEntity
8
0
100
AcDbLine
62
7
6
CONTINUOUS
10
-11.6565589155
20
-8.7440602967
11
-11.7376554359
21
-8.3683194928
0
LINE
5
23A
100
AcDbEntity
8
0
100
AcDbLine
62
7
6
CONTINUOUS
10
-12.6065835603
20
-0.2426289316
11
-13.1719851437
21
-2.1788646310
0
LINE
5
23B
100
AcDbEntity
8
0
100
AcDbLine
62
7
6
CONTINUOUS
10
-14.7736641930
20
-7.9828610989
11
-12.8056921423
21
-1.2434782392
0
LINE
5
23C
100
AcDbEntity
8
0
100
AcDbLine
62
7
6
CONTINUOUS
10
-11.7526140392
20
1.8362900074
11
-11.3992380496
21
3.0464373195
0
LINE
5
23D
100
AcDbEntity
8
0
100
AcDbLine
62
7
6
CONTINUOUS
10
-11.3574509946
20
1.7861192323
11
-11.0040750050
21
2.9962665444
0
LINE
5
23E
100
AcDbEntity
8
0
100
AcDbLine
62
7
6
CONTINUOUS
10
-14.1471861955
20
-8.0624001326
11
-12.1792141448
21
-1.3230172729
0
LINE
5
23F
100
AcDbEntity
8
0
100
AcDbLine
62
7
6
CONTINUOUS
10
-12.1334552233
20
-1.8197728080
11
-14.0660896751
21
-8.4381409365
0
LINE
5
240
100
AcDbEntity
8
0
100
AcDbLine
62
7
6
CONTINUOUS
10
-11.3992380496
20
3.0464373195
11
-11.9474040046
21
2.7173755908
0
LINE
5
241
100
AcDbEntity
8
0
100
AcDbLine
62
7
6
CONTINUOUS
10
-19.8326970742
20
-4.8672172116
11
-16.4867731468
21
-5.2920231217
0
LINE
5
242
100
AcDbEntity
8
0
100
AcDbLine
62
7
6
CONTINUOUS
10
-15.6762997900
20
-5.3949226136
11
-14.0772423872
21
-5.5979424820
0
LINE
5
243
100
AcDbEntity
8
0
100
AcDbLine
62
7
6
CONTINUOUS
10
-13.2667690303
20
-5.7008419739
11
-11.6677116276
21
-5.9038618423
0
LINE
5
244
100
AcDbEntity
8
0
100
AcDbLine
62
7
6
CONTINUOUS
10
-10.8572382707
20
-6.0067613341
11
-6.8486501083
21
-6.5157005628
0
LINE
5
245
100
AcDbEntity
8
0
100
AcDbLine
62
7
6
CONTINUOUS
10
-6.0381767514
20
-6.6186000547
11
6.2866163603
21
-8.1833830770
0
LINE
5
246
100
AcDbEntity
8
0
100
AcDbLine
62
7
6
CONTINUOUS
10
-12.6564891113
20
-0.0114038215
11
-12.6065835603
21
-0.2426289316
0
LINE
5
247
100
AcDbEntity
8
0
100
AcDbLine
62
7
6
CONTINUOUS
10
-12.8592743075
20
1.5781359533
11
-12.4623442674
21
-0.2609418716
0
LINE
5
248
100
AcDbEntity
8
0
100
AcDbLine
62
7
6
CONTINUOUS
10
-11.9816835050
20
-1.9534841495
11
-12.0253508621
21
-1.7511621782
0
LINE
5
249
100
AcDbEntity
8
0
100
AcDbLine
62
7
6
CONTINUOUS
10
-12.1732005763
20
-0.2976521948
11
-12.5327014531
21
1.3680067975
0
LINE
5
24A
100
AcDbEntity
8
0
100
AcDbLine
62
7
6
CONTINUOUS
10
-11.6797910086
20
-2.1434279115
11
-11.6298854575
21
-2.3746530216
0
LINE
5
24B
100
AcDbEntity
8
0
100
AcDbLine
62
7
6
CONTINUOUS
10
-11.8909358482
20
-1.1400555933
11
-11.8285539095
21
-1.4290869809
0
LINE
5
24C
100
AcDbEntity
8
0
100
AcDbLine
62
7
6
CONTINUOUS
10
-11.7519483842
20
-0.3511353059
11
-12.1150746284
21
1.3313209356
0
LINE
5
24D
100
AcDbEntity
8
0
100
AcDbLine
62
7
6
CONTINUOUS
10
-11.9816835050
20
-1.9534841495
11
-11.8285539095
21
-1.4290869809
0
LINE
5
24E
100
AcDbEntity
8
0
100
AcDbLine
62
7
6
CONTINUOUS
10
-10.6827823819
20
1.7004618114
11
-10.3294063923
21
2.9106091235
0
LINE
5
24F
100
AcDbEntity
8
0
100
AcDbLine
62
7
6
CONTINUOUS
10
-11.6797910086
20
-2.1434279115
11
-11.1143894251
21
-0.2071922121
0
LINE
5
250
100
AcDbEntity
8
0
100
AcDbLine
62
7
6
CONTINUOUS
10
-10.2876193374
20
1.6502910363
11
-9.9342433477
21
2.8604383484
0
LINE
5
251
100
AcDbEntity
8
0
100
AcDbLine
62
7
6
CONTINUOUS
10
-11.7526140392
20
1.8362900074
11
-12.3007799942
21
1.5072282787
0
LINE
5
252
100
AcDbEntity
8
0
100
AcDbLine
62
7
6
CONTINUOUS
10
-12.1375384085
20
1.3178360224
11
-11.3574509946
21
1.7861192323
0
LINE
5
253
100
AcDbEntity
8
0
100
AcDbLine
62
7
6
CONTINUOUS
10
-20.0323192782
20
-3.9423167712
11
-16.2334836971
21
-4.4246253477
0
LINE
5
254
100
AcDbEntity
8
0
100
AcDbLine
62
7
6
CONTINUOUS
10
-15.4230103402
20
-4.5275248396
11
-13.8239529375
21
-4.7305447080
0
LINE
5
255
100
AcDbEntity
8
0
100
AcDbLine
62
7
6
CONTINUOUS
10
-13.0134795806
20
-4.8334441999
11
-11.4144221778
21
-5.0364640683
0
LINE
5
256
100
AcDbEntity
8
0
100
AcDbLine
62
7
6
CONTINUOUS
10
-10.6039488210
20
-5.1393635602
11
-6.5953606586
21
-5.6483027888
0
LINE
5
257
100
AcDbEntity
8
0
100
AcDbLine
62
7
6
CONTINUOUS
10
-5.7848873017
20
-5.7512022807
11
6.0869941562
21
-7.2584826366
0
LINE
5
258
100
AcDbEntity
8
0
100
AcDbLine
62
7
6
CONTINUOUS
10
-7.4639753937
20
-9.2763599836
11
-7.3528216221
21
-9.5803050830
0
LINE
5
259
100
AcDbEntity
8
0
100
AcDbLine
62
7
6
CONTINUOUS
10
-7.5450719141
20
-8.9006191797
11
-7.4339181425
21
-9.2045642791
0
LINE
5
25A
100
AcDbEntity
8
0
100
AcDbLine
62
7
6
CONTINUOUS
10
-10.8123599351
20
-2.2535588812
11
-10.7624543841
21
-2.4847839913
0
LINE
5
25B
100
AcDbEntity
8
0
100
AcDbLine
62
7
6
CONTINUOUS
10
-10.8123599351
20
-2.2535588812
11
-10.2469583517
21
-0.3173231818
0
LINE
5
25C
100
AcDbEntity
8
0
100
AcDbLine
62
7
6
CONTINUOUS
10
-10.1970528007
20
-0.5485482919
11
-10.7624543841
21
-2.4847839913
0
LINE
5
25D
100
AcDbEntity
8
0
100
AcDbLine
62
7
6
CONTINUOUS
10
-12.3641334334
20
-8.2887804592
11
-10.3961613826
21
-1.5493975995
0
LINE
5
25E
100
AcDbEntity
8
0
100
AcDbLine
62
7
6
CONTINUOUS
10
-9.5625194055
20
1.1595726514
11
-9.2091434158
21
2.3697199635
0
LINE
5
25F
100
AcDbEntity
8
0
100
AcDbLine
62
7
6
CONTINUOUS
10
-9.0040250921
20
1.0886649768
11
-8.6506491025
21
2.2988122889
0
LINE
5
260
100
AcDbEntity
8
0
100
AcDbLine
62
7
6
CONTINUOUS
10
-11.7376554359
20
-8.3683194928
11
-9.7696833851
21
-1.6289366332
0
LINE
5
261
100
AcDbEntity
8
0
100
AcDbLine
62
7
6
CONTINUOUS
10
-15.1403095485
20
-3.5594069899
11
-13.5412521457
21
-3.7624268583
0
LINE
5
262
100
AcDbEntity
8
0
100
AcDbLine
62
7
6
CONTINUOUS
10
-12.7307787889
20
-3.8653263502
11
-11.1317213861
21
-4.0683462186
0
LINE
5
263
100
AcDbEntity
8
0
100
AcDbLine
62
7
6
CONTINUOUS
10
-10.3212480292
20
-4.1712457105
11
-6.3126598668
21
-4.6801849392
0
LINE
5
264
100
AcDbEntity
8
0
100
AcDbLine
62
7
6
CONTINUOUS
10
-5.5021865100
20
-4.7830844310
11
-3.6539530122
21
-5.0177402482
0
LINE
5
265
100
AcDbEntity
8
0
100
AcDbLine
62
7
6
CONTINUOUS
10
-10.2469583517
20
-0.3173231818
11
-10.1970528007
21
-0.5485482919
0
LINE
5
266
100
AcDbEntity
8
0
100
AcDbLine
62
7
6
CONTINUOUS
10
-9.5721527453
20
-2.2594035098
11
-9.6158201025
21
-2.0570815384
0
LINE
5
267
100
AcDbEntity
8
0
100
AcDbLine
62
7
6
CONTINUOUS
10
-9.2702602489
20
-2.4493472718
11
-9.2203546979
21
-2.6805723818
0
LINE
5
268
100
AcDbEntity
8
0
100
AcDbLine
62
7
6
CONTINUOUS
10
-9.4814050886
20
-1.4459749536
11
-9.4190231498
21
-1.7350063412
0
LINE
5
269
100
AcDbEntity
8
0
100
AcDbLine
62
7
6
CONTINUOUS
10
-7.4639753937
20
-9.2763599836
11
-7.5450719141
21
-8.9006191797
0
LINE
5
26A
100
AcDbEntity
8
0
100
AcDbLine
62
7
6
CONTINUOUS
10
-7.3528216221
20
-9.5803050830
11
-7.4339181425
21
-9.2045642791
0
LINE
5
26B
100
AcDbEntity
8
0
100
AcDbLine
62
7
6
CONTINUOUS
10
-9.7239244637
20
-2.1256921683
11
-11.6565589155
21
-8.7440602967
0
LINE
5
26C
100
AcDbEntity
8
0
100
AcDbLine
62
7
6
CONTINUOUS
10
-8.4771119481
20
1.4947705178
11
-8.5949039446
21
1.0913880804
0
LINE
5
26D
100
AcDbEntity
8
0
100
AcDbLine
62
7
6
CONTINUOUS
10
-9.5721527453
20
-2.2594035098
11
-9.4190231498
21
-1.7350063412
0
LINE
5
26E
100
AcDbEntity
8
0
100
AcDbLine
62
7
6
CONTINUOUS
10
-7.9159975767
20
2.4136602237
11
-8.2929319657
21
1.1228364242
0
LINE
5
26F
100
AcDbEntity
8
0
100
AcDbLine
62
7
6
CONTINUOUS
10
-7.2790420351
20
4.4165571928
11
-7.8680020179
21
2.3996450060
0
LINE
5
270
100
AcDbEntity
8
0
100
AcDbLine
62
7
6
CONTINUOUS
10
-9.2702602489
20
-2.4493472718
11
-8.7048586655
21
-0.5131115724
0
LINE
5
271
100
AcDbEntity
8
0
100
AcDbLine
62
7
6
CONTINUOUS
10
-15.5815159033
20
-1.8729452707
11
-15.4916957777
21
-1.8843490327
0
LINE
5
272
100
AcDbEntity
8
0
100
AcDbLine
62
7
6
CONTINUOUS
10
-14.6812224209
20
-1.9872485246
11
-14.0394162172
21
-2.0687336613
0
LINE
5
273
100
AcDbEntity
8
0
100
AcDbLine
62
7
6
CONTINUOUS
10
-13.1719851437
20
-2.1788646310
11
-13.0821650181
21
-2.1902683930
0
LINE
5
274
100
AcDbEntity
8
0
100
AcDbLine
62
7
6
CONTINUOUS
10
-12.2716916612
20
-2.2931678849
11
-11.6298854575
21
-2.3746530216
0
LINE
5
275
100
AcDbEntity
8
0
100
AcDbLine
62
7
6
CONTINUOUS
10
-10.7624543841
20
-2.4847839913
11
-10.6726342585
21
-2.4961877533
0
LINE
5
276
100
AcDbEntity
8
0
100
AcDbLine
62
7
6
CONTINUOUS
10
-9.8621609016
20
-2.5990872452
11
-9.2203546979
21
-2.6805723818
0
LINE
5
277
100
AcDbEntity
8
0
100
AcDbLine
62
7
6
CONTINUOUS
10
-8.3529236244
20
-2.7907033515
11
-6.8108239383
21
-2.9864917421
0
LINE
5
278
100
AcDbEntity
8
0
100
AcDbLine
62
7
6
CONTINUOUS
10
-5.9433928648
20
-3.0966227118
11
-5.8535727392
21
-3.1080264738
0
LINE
5
279
100
AcDbEntity
8
0
100
AcDbLine
62
7
6
CONTINUOUS
10
-5.0430993823
20
-3.2109259657
11
-4.4012931786
21
-3.2924111024
0
LINE
5
27A
100
AcDbEntity
8
0
100
AcDbLine
62
7
6
CONTINUOUS
10
-16.1133276063
20
-1.5805362886
11
-15.6314214544
21
-1.6417201606
0
LINE
5
27B
100
AcDbEntity
8
0
100
AcDbLine
62
7
6
CONTINUOUS
10
-14.0893217682
20
-1.8375085512
11
-13.2218906947
21
-1.9476395209
0
LINE
5
27C
100
AcDbEntity
8
0
100
AcDbLine
62
7
6
CONTINUOUS
10
-11.6797910086
20
-2.1434279115
11
-10.8123599351
21
-2.2535588812
0
LINE
5
27D
100
AcDbEntity
8
0
100
AcDbLine
62
7
6
CONTINUOUS
10
-9.2702602489
20
-2.4493472718
11
-8.4028291755
21
-2.5594782415
0
LINE
5
27E
100
AcDbEntity
8
0
100
AcDbLine
62
7
6
CONTINUOUS
10
-6.8607294893
20
-2.7552666320
11
-5.9932984158
21
-2.8653976017
0
LINE
5
27F
100
AcDbEntity
8
0
100
AcDbLine
62
7
6
CONTINUOUS
10
-4.4511987297
20
-3.0611859923
11
-4.0656738081
21
-3.1101330900
0
LINE
5
280
100
AcDbEntity
8
0
100
AcDbLine
62
7
6
CONTINUOUS
10
-7.3497313030
20
-2.5526262598
11
-7.9762093005
21
-2.4730872261
0
LINE
5
281
100
AcDbEntity
8
0
100
AcDbLine
62
7
6
CONTINUOUS
10
-4.7530912261
20
-2.8712422303
11
-4.9370865854
21
-2.8478817721
0
LINE
5
282
100
AcDbEntity
8
0
100
AcDbLine
62
7
6
CONTINUOUS
10
-7.1626219857
20
-2.5653228700
11
-7.3483494763
21
-2.5417424966
0
LINE
5
283
100
AcDbEntity
8
0
100
AcDbLine
62
7
6
CONTINUOUS
10
-9.5721527453
20
-2.2594035098
11
-9.7561481047
21
-2.2360430515
0
LINE
5
284
100
AcDbEntity
8
0
100
AcDbLine
62
7
6
CONTINUOUS
10
-11.9816835050
20
-1.9534841495
11
-12.1656788643
21
-1.9301236913
0
LINE
5
285
100
AcDbEntity
8
0
100
AcDbLine
62
7
6
CONTINUOUS
10
-14.3912142646
20
-1.6475647892
11
-14.5752096240
21
-1.6242043310
0
LINE
5
286
100
AcDbEntity
8
0
100
AcDbLine
62
7
6
CONTINUOUS
10
-7.1118685461
20
-9.6108970190
11
-7.1929650665
21
-9.2351562151
0
LINE
5
287
100
AcDbEntity
8
0
100
AcDbLine
62
7
6
CONTINUOUS
10
-9.2557396200
20
0.9519564675
11
-8.8962387432
21
-0.7137025248
0
LINE
5
288
100
AcDbEntity
8
0
100
AcDbLine
62
7
6
CONTINUOUS
10
-8.4028291755
20
-2.5594782415
11
-8.3529236244
21
-2.7907033515
0
LINE
5
289
100
AcDbEntity
8
0
100
AcDbLine
62
7
6
CONTINUOUS
10
-6.8374973962
20
-9.3558990173
11
-6.9185939166
21
-8.9801582134
0
LINE
5
28A
100
AcDbEntity
8
0
100
AcDbLine
62
7
6
CONTINUOUS
10
-8.6570006030
20
-0.5191877380
11
-9.0040250921
21
1.0886649768
0
LINE
5
28B
100
AcDbEntity
8
0
100
AcDbLine
62
7
6
CONTINUOUS
10
-8.0573058209
20
-2.0973464222
11
-7.9762093005
21
-2.4730872261
0
LINE
5
28C
100
AcDbEntity
8
0
100
AcDbLine
62
7
6
CONTINUOUS
10
-8.2357484110
20
-0.5726708490
11
-8.5949039446
21
1.0913880804
0
LINE
5
28D
100
AcDbEntity
8
0
100
AcDbLine
62
7
6
CONTINUOUS
10
-8.4028291755
20
-2.5594782415
11
-7.8374275920
21
-0.6232425421
0
LINE
5
28E
100
AcDbEntity
8
0
100
AcDbLine
62
7
6
CONTINUOUS
10
-7.7875220410
20
-0.8544676522
11
-8.3529236244
21
-2.7907033515
0
LINE
5
28F
100
AcDbEntity
8
0
100
AcDbLine
62
7
6
CONTINUOUS
10
-8.0573058209
20
-2.0973464222
11
-7.9866306230
21
-1.8553169598
0
LINE
5
290
100
AcDbEntity
8
0
100
AcDbLine
62
7
6
CONTINUOUS
10
-16.5567169552
20
-7.7564807723
11
-16.8310881050
21
-8.0114787740
0
LINE
5
291
100
AcDbEntity
8
0
100
AcDbLine
62
7
6
CONTINUOUS
10
-16.4756204348
20
-8.1322215762
11
-16.7499915846
21
-8.3872195779
0
LINE
5
292
100
AcDbEntity
8
0
100
AcDbLine
62
9
6
CONTINUOUS
10
-4.7967585832
20
-2.6689202590
11
-4.8752199073
21
-2.6589586356
0
LINE
5
293
100
AcDbEntity
8
0
100
AcDbLine
62
9
6
CONTINUOUS
10
-7.2062893429
20
-2.3630008987
11
-7.2847506669
21
-2.3530392753
0
LINE
5
294
100
AcDbEntity
8
0
100
AcDbLine
62
9
6
CONTINUOUS
10
-9.6158201025
20
-2.0570815384
11
-9.6942814266
21
-2.0471199150
0
LINE
5
295
100
AcDbEntity
8
0
100
AcDbLine
62
9
6
CONTINUOUS
10
-12.0253508621
20
-1.7511621782
11
-12.1038121862
21
-1.7412005547
0
LINE
5
296
100
AcDbEntity
8
0
100
AcDbLine
62
9
6
CONTINUOUS
10
-14.4348816218
20
-1.4452428179
11
-14.5133429458
21
-1.4352811944
0
LINE
5
297
100
AcDbEntity
8
0
100
AcDbLine
62
7
6
CONTINUOUS
10
-7.4308278234
20
-2.1768854559
11
-8.0573058209
21
-2.0973464222
0
LINE
5
298
100
AcDbEntity
8
0
100
AcDbLine
62
9
6
CONTINUOUS
10
-15.2152229019
20
-0.9375588790
11
-14.5887449044
21
-1.0170979126
0
LINE
5
299
100
AcDbEntity
8
0
100
AcDbLine
62
9
6
CONTINUOUS
10
-12.8056921423
20
-1.2434782392
11
-12.1792141448
21
-1.3230172729
0
LINE
5
29A
100
AcDbEntity
8
0
100
AcDbLine
62
9
6
CONTINUOUS
10
-10.3961613826
20
-1.5493975995
11
-9.7696833851
21
-1.6289366332
0
LINE
5
29B
100
AcDbEntity
8
0
100
AcDbLine
62
9
6
CONTINUOUS
10
-7.9866306230
20
-1.8553169598
11
-7.3601526255
21
-1.9348559935
0
LINE
5
29C
100
AcDbEntity
8
0
100
AcDbLine
62
9
6
CONTINUOUS
10
-5.5770998634
20
-2.1612363201
11
-4.9506218659
21
-2.2407753537
0
LINE
5
29D
100
AcDbEntity
8
0
100
AcDbLine
62
7
6
CONTINUOUS
10
-15.0146508849
20
-0.6063799426
11
-14.3881728874
21
-0.6859189763
0
LINE
5
29E
100
AcDbEntity
8
0
100
AcDbLine
62
7
6
CONTINUOUS
10
-12.6051201253
20
-0.9122993029
11
-11.9786421278
21
-0.9918383366
0
LINE
5
29F
100
AcDbEntity
8
0
100
AcDbLine
62
7
6
CONTINUOUS
10
-10.1955893657
20
-1.2182186632
11
-9.5691113682
21
-1.2977576969
0
LINE
5
2A0
100
AcDbEntity
8
0
100
AcDbLine
62
7
6
CONTINUOUS
10
-7.7860586060
20
-1.5241380235
11
-7.1595806085
21
-1.6036770572
0
LINE
5
2A1
100
AcDbEntity
8
0
100
AcDbLine
62
7
6
CONTINUOUS
10
-5.3765278464
20
-1.8300573838
11
-4.7500498489
21
-1.9095964174
0
LINE
5
2A2
100
AcDbEntity
8
0
100
AcDbLine
62
7
6
CONTINUOUS
10
-8.4771119481
20
1.4947705178
11
-8.6506491025
21
2.2988122889
0
LINE
5
2A3
100
AcDbEntity
8
0
100
AcDbLine
62
7
6
CONTINUOUS
10
-7.8374275920
20
-0.6232425421
11
-7.7875220410
21
-0.8544676522
0
LINE
5
2A4
100
AcDbEntity
8
0
100
AcDbLine
62
7
6
CONTINUOUS
10
-7.4308278234
20
-2.1768854559
11
-7.3497313030
21
-2.5526262598
0
LINE
5
2A5
100
AcDbEntity
8
0
100
AcDbLine
62
7
6
CONTINUOUS
10
-7.1626219857
20
-2.5653228700
11
-7.2062893429
21
-2.3630008987
0
LINE
5
2A6
100
AcDbEntity
8
0
100
AcDbLine
62
7
6
CONTINUOUS
10
-6.8607294893
20
-2.7552666320
11
-6.8108239383
21
-2.9864917421
0
LINE
5
2A7
100
AcDbEntity
8
0
100
AcDbLine
62
7
6
CONTINUOUS
10
-7.0718743290
20
-1.7518943138
11
-7.0094923902
21
-2.0409257015
0
LINE
5
2A8
100
AcDbEntity
8
0
100
AcDbLine
62
7
6
CONTINUOUS
10
-7.4308278234
20
-2.1768854559
11
-7.3601526255
21
-1.9348559935
0
LINE
5
2A9
100
AcDbEntity
8
0
100
AcDbLine
62
7
6
CONTINUOUS
10
-7.3143937041
20
-2.4316115286
11
-7.3497313030
21
-2.5526262598
0
LINE
5
2AA
100
AcDbEntity
8
0
100
AcDbLine
62
7
6
CONTINUOUS
10
-7.1626219857
20
-2.5653228700
11
-7.0094923902
21
-2.0409257015
0
LINE
5
2AB
100
AcDbEntity
8
0
100
AcDbLine
62
7
6
CONTINUOUS
10
-6.8607294893
20
-2.7552666320
11
-6.2953279059
21
-0.8190309327
0
LINE
5
2AC
100
AcDbEntity
8
0
100
AcDbLine
62
7
6
CONTINUOUS
10
-14.1471861955
20
-8.0624001326
11
-14.4215573454
21
-8.3173981343
0
LINE
5
2AD
100
AcDbEntity
8
0
100
AcDbLine
62
7
6
CONTINUOUS
10
-15.0161143199
20
0.0632904287
11
-13.5872425472
21
-0.1181222953
0
LINE
5
2AE
100
AcDbEntity
8
0
100
AcDbLine
62
7
6
CONTINUOUS
10
-12.6065835603
20
-0.2426289316
11
-11.1777117876
21
-0.4240416556
0
LINE
5
2AF
100
AcDbEntity
8
0
100
AcDbLine
62
7
6
CONTINUOUS
10
-10.1970528007
20
-0.5485482919
11
-8.7681810279
21
-0.7299610159
0
LINE
5
2B0
100
AcDbEntity
8
0
100
AcDbLine
62
7
6
CONTINUOUS
10
-7.7875220410
20
-0.8544676522
11
-6.3586502683
21
-1.0358803762
0
LINE
5
2B1
100
AcDbEntity
8
0
100
AcDbLine
62
7
6
CONTINUOUS
10
-5.3779912814
20
-1.1603870125
11
-3.9491195087
21
-1.3417997364
0
LINE
5
2B2
100
AcDbEntity
8
0
100
AcDbLine
62
7
6
CONTINUOUS
10
-3.5002722247
20
-1.1738973906
11
-3.8857971463
21
-1.1249502929
0
LINE
5
2B3
100
AcDbEntity
8
0
100
AcDbLine
62
7
6
CONTINUOUS
10
-5.4278968324
20
-0.9291619024
11
-6.2953279059
21
-0.8190309327
0
LINE
5
2B4
100
AcDbEntity
8
0
100
AcDbLine
62
7
6
CONTINUOUS
10
-7.8374275920
20
-0.6232425421
11
-8.7048586655
21
-0.5131115724
0
LINE
5
2B5
100
AcDbEntity
8
0
100
AcDbLine
62
7
6
CONTINUOUS
10
-10.2469583517
20
-0.3173231818
11
-11.1143894251
21
-0.2071922121
0
LINE
5
2B6
100
AcDbEntity
8
0
100
AcDbLine
62
7
6
CONTINUOUS
10
-12.6564891113
20
-0.0114038215
11
-13.5239201848
21
0.0987271482
0
LINE
5
2B7
100
AcDbEntity
8
0
100
AcDbLine
62
7
6
CONTINUOUS
10
-15.0660198709
20
0.2945155387
11
-15.5479260229
21
0.3556994108
0
LINE
5
2B8
100
AcDbEntity
8
0
100
AcDbLine
62
7
6
CONTINUOUS
10
-10.6827823819
20
1.7004618114
11
-9.6509026646
21
1.0021272426
0
LINE
5
2B9
100
AcDbEntity
8
0
100
AcDbLine
62
7
6
CONTINUOUS
10
-9.5625194055
20
1.1595726514
11
-10.2876193374
21
1.6502910363
0
LINE
5
2BA
100
AcDbEntity
8
0
100
AcDbLine
62
7
6
CONTINUOUS
10
-5.9932984158
20
-2.8653976017
11
-5.9433928648
21
-3.0966227118
0
LINE
5
2BB
100
AcDbEntity
8
0
100
AcDbLine
62
7
6
CONTINUOUS
10
-5.9932984158
20
-2.8653976017
11
-5.4278968324
21
-0.9291619024
0
LINE
5
2BC
100
AcDbEntity
8
0
100
AcDbLine
62
7
6
CONTINUOUS
10
-5.3779912814
20
-1.1603870125
11
-5.9433928648
21
-3.0966227118
0
LINE
5
2BD
100
AcDbEntity
8
0
100
AcDbLine
62
7
6
CONTINUOUS
10
-7.5450719141
20
-8.9006191797
11
-5.5770998634
21
-2.1612363201
0
LINE
5
2BE
100
AcDbEntity
8
0
100
AcDbLine
62
7
6
CONTINUOUS
10
-14.0660896751
20
-8.4381409365
11
-14.3404608250
21
-8.6931389382
0
LINE
5
2BF
100
AcDbEntity
8
0
100
AcDbLine
62
7
6
CONTINUOUS
10
-12.5327014531
20
1.3680067975
11
-12.1375384085
21
1.3178360224
0
LINE
5
2C0
100
AcDbEntity
8
0
100
AcDbLine
62
7
6
CONTINUOUS
10
-9.6509026646
20
1.0021272426
11
-9.2557396200
21
0.9519564675
0
LINE
5
2C1
100
AcDbEntity
8
0
100
AcDbLine
62
7
6
CONTINUOUS
10
-9.0040250921
20
1.0886649768
11
-9.5625194055
21
1.1595726514
0
LINE
5
2C2
100
AcDbEntity
8
0
100
AcDbLine
62
7
6
CONTINUOUS
10
-12.3007799942
20
1.5072282787
11
-12.8592743075
21
1.5781359533
0
LINE
5
2C3
100
AcDbEntity
8
0
100
AcDbLine
62
7
6
CONTINUOUS
10
-9.2091434158
20
2.3697199635
11
-9.9342433477
21
2.8604383484
0
LINE
5
2C4
100
AcDbEntity
8
0
100
AcDbLine
62
7
6
CONTINUOUS
10
-5.4278968324
20
-0.9291619024
11
-5.3779912814
21
-1.1603870125
0
LINE
5
2C5
100
AcDbEntity
8
0
100
AcDbLine
62
7
6
CONTINUOUS
10
-4.7530912261
20
-2.8712422303
11
-4.7967585832
21
-2.6689202590
0
LINE
5
2C6
100
AcDbEntity
8
0
100
AcDbLine
62
7
6
CONTINUOUS
10
-4.4511987297
20
-3.0611859923
11
-4.4012931786
21
-3.2924111024
0
LINE
5
2C7
100
AcDbEntity
8
0
100
AcDbLine
62
7
6
CONTINUOUS
10
-4.6623435694
20
-2.0578136741
11
-4.5999616306
21
-2.3468450617
0
LINE
5
2C8
100
AcDbEntity
8
0
100
AcDbLine
62
7
6
CONTINUOUS
10
-3.6539530122
20
-5.0177402482
11
-4.0656738081
21
-3.1101330900
0
LINE
5
2C9
100
AcDbEntity
8
0
100
AcDbLine
62
7
6
CONTINUOUS
10
-6.9185939166
20
-8.9801582134
11
-4.9506218659
21
-2.2407753537
0
LINE
5
2CA
100
AcDbEntity
8
0
100
AcDbLine
62
7
6
CONTINUOUS
10
-4.9048629444
20
-2.7375308888
11
-6.8374973962
21
-9.3558990173
0
LINE
5
2CB
100
AcDbEntity
8
0
100
AcDbLine
62
7
6
CONTINUOUS
10
-4.7530912261
20
-2.8712422303
11
-4.5999616306
21
-2.3468450617
0
LINE
5
2CC
100
AcDbEntity
8
0
100
AcDbLine
62
7
6
CONTINUOUS
10
-4.4511987297
20
-3.0611859923
11
-3.8857971463
21
-1.1249502929
0
LINE
5
2CD
100
AcDbEntity
8
0
100
AcDbLine
62
7
6
CONTINUOUS
10
-11.7376554359
20
-8.3683194928
11
-12.0120265858
21
-8.6233174946
0
LINE
5
2CE
100
AcDbEntity
8
0
100
AcDbLine
62
7
6
CONTINUOUS
10
-11.6565589155
20
-8.7440602967
11
-11.9309300654
21
-8.9990582985
0
LINE
5
2CF
100
AcDbEntity
8
0
100
AcDbLine
62
7
6
CONTINUOUS
10
-10.2876193374
20
1.6502910363
11
-10.6827823819
21
1.7004618114
0
LINE
5
2D0
100
AcDbEntity
8
0
100
AcDbLine
62
7
6
CONTINUOUS
10
-11.3574509946
20
1.7861192323
11
-11.7526140392
21
1.8362900074
0
LINE
5
2D1
100
AcDbEntity
8
0
100
AcDbLine
62
7
6
CONTINUOUS
10
-3.0885514288
20
-3.0815045488
11
-3.5002722247
21
-1.1738973906
0
LINE
5
2D2
100
AcDbEntity
8
0
100
AcDbLine
62
7
6
CONTINUOUS
10
-4.0656738081
20
-3.1101330900
11
-3.5002722247
21
-1.1738973906
0
LINE
5
2D3
100
AcDbEntity
8
0
100
AcDbLine
62
7
6
CONTINUOUS
10
-3.6539530122
20
-5.0177402482
11
-3.0885514288
21
-3.0815045488
0
LINE
5
2D4
100
AcDbEntity
8
0
100
AcDbLine
62
7
6
CONTINUOUS
10
-8.6506491025
20
2.2988122889
11
-9.2091434158
21
2.3697199635
0
LINE
5
2D5
100
AcDbEntity
8
0
100
AcDbLine
62
7
6
CONTINUOUS
10
-11.9474040046
20
2.7173755908
11
-12.5058983179
21
2.7882832654
0
LINE
5
2D6
100
AcDbEntity
8
0
100
AcDbLine
62
7
6
CONTINUOUS
10
-9.9342433477
20
2.8604383484
11
-10.3294063923
21
2.9106091235
0
LINE
5
2D7
100
AcDbEntity
8
0
100
AcDbLine
62
7
6
CONTINUOUS
10
-11.0040750050
20
2.9962665444
11
-11.3992380496
21
3.0464373195
0
LINE
5
2D8
100
AcDbEntity
8
0
100
AcDbLine
62
7
6
CONTINUOUS
10
-2.4078681528
20
-2.4656818495
11
-2.3704389896
21
-2.6391006821
0
LINE
5
2D9
100
AcDbEntity
8
0
100
AcDbLine
62
7
6
CONTINUOUS
10
-17.2759865591
20
5.4968322632
11
-13.4207373437
21
5.0073612868
0
LINE
5
2DA
100
AcDbEntity
8
0
100
AcDbLine
62
9
6
CONTINUOUS
10
-1.9325958994
20
-2.0607712132
11
-1.9326295605
21
-2.0606152751
0
LINE
5
2DB
100
AcDbEntity
8
0
100
AcDbLine
62
7
6
CONTINUOUS
10
-3.3175086014
20
4.3558815298
11
-1.9326295605
21
-2.0606152751
0
LINE
5
2DC
100
AcDbEntity
8
0
100
AcDbLine
62
7
6
CONTINUOUS
10
-6.9185939166
20
-8.9801582134
11
-7.1929650665
21
-9.2351562151
0
LINE
5
2DD
100
AcDbEntity
8
0
100
AcDbLine
62
7
6
CONTINUOUS
10
-3.2702611175
20
4.1369719206
11
-7.2545271748
21
4.6428231610
0
LINE
5
2DE
100
AcDbEntity
8
0
100
AcDbLine
62
7
6
CONTINUOUS
10
-11.7348005670
20
5.2116485908
11
-13.3029453472
21
5.4107437241
0
LINE
5
2DF
100
AcDbEntity
8
0
100
AcDbLine
62
7
6
CONTINUOUS
10
-6.8374973962
20
-9.3558990173
11
-7.1118685461
21
-9.6108970190
0
LINE
5
2E0
100
AcDbEntity
8
0
100
AcDbLine
62
7
6
CONTINUOUS
10
6.2866163603
20
-8.1833830770
11
6.0869941562
21
-7.2584826366
0
LINE
5
2E1
100
AcDbEntity
8
0
100
AcDbLine
62
7
6
CONTINUOUS
10
4.6979247709
20
6.0858606786
11
6.0828038117
21
-0.3306361263
0
LINE
5
2E2
100
AcDbEntity
8
0
100
AcDbLine
62
7
6
CONTINUOUS
10
6.6828062815
20
-0.5036323271
11
6.7202354448
21
-0.6770511597
0
LINE
5
2E3
100
AcDbEntity
8
0
100
AcDbLine
62
7
6
CONTINUOUS
10
6.0869941562
20
-7.2584826366
11
7.8774325036
21
-1.1270695886
0
LINE
5
2E4
100
AcDbEntity
8
0
100
AcDbLine
62
9
6
CONTINUOUS
10
8.0770547077
20
-2.0519700290
11
7.8774325036
21
-1.1270695886
0
LINE
5
2E5
100
AcDbEntity
8
0
100
AcDbLine
62
7
6
CONTINUOUS
10
6.2866163603
20
-8.1833830770
11
8.0770547077
21
-2.0519700290
0
LINE
5
2E6
100
AcDbEntity
8
0
100
AcDbLine
62
7
6
CONTINUOUS
10
8.1304050339
20
-0.7519408659
11
7.9307828298
21
0.1729595744
0
SPLINE
5
2E7
100
AcDbEntity
8
0
100
AcDbSpline
62
7
6
CONTINUOUS
70
0
71
3
72
9
73
5
74
3
42
0.0000001000
43
0.0000001000
44
0.0000000001
12
0.1014424267
22
0.3445978471
32
0.0000000000
13
-0.0752608948
23
0.3487028664
33
0.0000000000
40
0.0000000000
40
0.0000000000
40
0.0000000000
40
0.0000000000
40
0.2077171909
40
1.0000000000
40
1.0000000000
40
1.0000000000
40
1.0000000000
10
-7.2791475004
20
4.4168044568
30
0.0000000000
10
-7.2721237217
20
4.4406640891
30
0.0000000000
10
-7.2447298884
20
4.5573759080
30
0.0000000000
10
-7.2503885294
20
4.6798241393
30
0.0000000000
10
-7.2702645005
20
4.7719145682
30
0.0000000000
11
-7.2791475004
21
4.4168044568
31
0.0000000000
11
-7.2621694778
21
4.4893976971
31
0.0000000000
11
-7.2702645005
21
4.7719145682
31
0.0000000000
0
SPLINE
5
2E8
100
AcDbEntity
8
0
100
AcDbSpline
62
7
6
CONTINUOUS
70
0
71
3
72
9
73
5
74
3
42
0.0000001000
43
0.0000001000
44
0.0000000001
12
-0.0737699087
22
-0.2505948699
32
0.0000000000
13
0.0237951024
23
-0.2601328033
33
0.0000000000
40
0.0000000000
40
0.0000000000
40
0.0000000000
40
0.0000000000
40
0.2856359223
40
1.0000000000
40
1.0000000000
40
1.0000000000
40
1.0000000000
10
-12.1874968506
20
3.6607673412
30
0.0000000000
10
-12.1945206292
20
3.6369077090
30
0.0000000000
10
-12.2144416884
20
3.5520337513
30
0.0000000000
10
-12.2168834809
20
3.4641261847
30
0.0000000000
10
-12.2112173588
20
3.4021830080
30
0.0000000000
11
-12.1874968506
21
3.6607673412
31
0.0000000000
11
-12.2044748731
21
3.5881741009
31
0.0000000000
11
-12.2112173588
21
3.4021830080
31
0.0000000000
0
SPLINE
5
2E9
100
AcDbEntity
8
0
100
AcDbSpline
62
7
6
CONTINUOUS
70
0
71
3
72
10
73
6
74
4
42
0.0000001000
43
0.0000001000
44
0.0000000001
12
0.3677876956
22
1.2595006573
32
0.0000000000
13
-0.2774365349
23
1.2850729489
33
0.0000000000
40
0.0000000000
40
0.0000000000
40
0.0000000000
40
0.0000000000
40
0.4290915497
40
0.8494052257
40
1.0000000000
40
1.0000000000
40
1.0000000000
40
1.0000000000
10
8.0770547077
20
-2.0519700290
30
0.0000000000
10
8.1296595718
20
-1.8718229993
30
0.0000000000
10
8.1988855773
20
-1.5036941724
30
0.0000000000
10
8.1876206654
20
-1.0632223123
30
0.0000000000
10
8.1443371138
20
-0.8166316190
30
0.0000000000
10
8.1304102830
20
-0.7521231954
30
0.0000000000
11
8.0770547077
21
-2.0519700290
31
0.0000000000
11
8.1794931081
21
-1.4983560929
31
0.0000000000
11
8.1646076680
21
-0.9470629164
31
0.0000000000
11
8.1304102830
21
-0.7521231954
31
0.0000000000
0
SPLINE
5
2EA
100
AcDbEntity
8
0
100
AcDbSpline
62
7
6
CONTINUOUS
70
0
71
3
72
9
73
5
74
3
42
0.0000001000
43
0.0000001000
44
0.0000000001
12
0.1884985824
22
0.6455193889
32
0.0000000000
13
-0.1422556561
23
0.6589849125
33
0.0000000000
40
0.0000000000
40
0.0000000000
40
0.0000000000
40
0.0000000000
40
0.5135683977
40
1.0000000000
40
1.0000000000
40
1.0000000000
40
1.0000000000
10
2.5554507537
20
5.2651670036
30
0.0000000000
10
2.5877197253
20
5.3756731230
30
0.0000000000
10
2.6253162359
20
5.5994063649
30
0.0000000000
10
2.6058606958
20
5.8250694140
30
0.0000000000
10
2.5827948135
20
5.9319197763
30
0.0000000000
11
2.5554507537
21
5.2651670036
31
0.0000000000
11
2.6112888638
21
5.6059867596
31
0.0000000000
11
2.5827948135
21
5.9319197763
31
0.0000000000
0
SPLINE
5
2EB
100
AcDbEntity
8
0
100
AcDbSpline
62
7
6
CONTINUOUS
70
0
71
3
72
10
73
6
74
4
42
0.0000001000
43
0.0000001000
44
0.0000000001
12
-0.3404149524
22
1.5772290504
32
0.0000000000
13
0.4522842427
23
1.5488617695
33
0.0000000000
40
0.0000000000
40
0.0000000000
40
0.0000000000
40
0.0000000000
40
0.3287100527
40
0.6610135357
40
1.0000000000
40
1.0000000000
40
1.0000000000
40
1.0000000000
10
-2.4078681528
20
-2.4656818495
30
0.0000000000
10
-2.4451674251
20
-2.2928648348
30
0.0000000000
10
-2.4906534842
20
-1.9382082587
30
0.0000000000
10
-2.4683958196
20
-1.3985456843
30
0.0000000000
10
-2.3941938894
20
-1.0432804865
30
0.0000000000
10
-2.3430878106
20
-0.8682660948
30
0.0000000000
11
-2.4078681528
21
-2.4656818495
31
0.0000000000
11
-2.4755197243
21
-1.9396249404
31
0.0000000000
11
-2.4540229352
21
-1.4038687604
31
0.0000000000
11
-2.3430878106
21
-0.8682660948
31
0.0000000000
0
SPLINE
5
2EC
100
AcDbEntity
8
0
100
AcDbSpline
62
7
6
CONTINUOUS
70
0
71
3
72
8
73
4
74
2
42
0.0000001000
43
0.0000001000
44
0.0000000001
12
0.0812215674
22
0.2781458400
32
0.0000000000
13
0.1037159472
23
0.2710446507
33
0.0000000000
40
0.0000000000
40
0.0000000000
40
0.0000000000
40
0.0000000000
40
1.0000000000
40
1.0000000000
40
1.0000000000
40
1.0000000000
10
-2.3430878106
20
-0.8682660948
30
0.0000000000
10
-2.3160139548
20
-0.7755508149
30
0.0000000000
10
-2.2850552800
20
-0.6838784767
30
0.0000000000
10
-2.2504832976
20
-0.5935302598
30
0.0000000000
11
-2.3430878106
21
-0.8682660948
31
0.0000000000
11
-2.2504832976
21
-0.5935302598
31
0.0000000000
0
SPLINE
5
2ED
100
AcDbEntity
8
0
100
AcDbSpline
62
7
6
CONTINUOUS
70
0
71
3
72
10
73
6
74
4
42
0.0000001000
43
0.0000001000
44
0.0000000001
12
1.3539143677
22
-1.3403764557
32
0.0000000000
13
0.4013191189
23
-1.8594135431
33
0.0000000000
40
0.0000000000
40
0.0000000000
40
0.0000000000
40
0.0000000000
40
0.3183270507
40
0.6617041393
40
1.0000000000
40
1.0000000000
40
1.0000000000
40
1.0000000000
10
5.7672991999
20
1.1369487764
30
0.0000000000
10
5.9109617224
20
0.9947227484
30
0.0000000000
10
6.1850051429
20
0.6740663812
30
0.0000000000
10
6.5021835447
20
0.1203243296
30
0.0000000000
10
6.6375514160
20
-0.2939550255
30
0.0000000000
10
6.6828062815
20
-0.5036323271
30
0.0000000000
11
5.7672991999
21
1.1369487764
31
0.0000000000
11
6.1597809871
21
0.6756158776
31
0.0000000000
11
6.4832817530
21
0.1081708485
31
0.0000000000
11
6.6828062815
21
-0.5036323271
31
0.0000000000
0
SPLINE
5
2EE
100
AcDbEntity
8
0
100
AcDbSpline
62
7
6
CONTINUOUS
70
0
71
3
72
10
73
6
74
4
42
0.0000001000
43
0.0000001000
44
0.0000000001
12
-0.3080698912
22
1.4273661554
32
0.0000000000
13
0.4093097449
23
1.4016942364
33
0.0000000000
40
0.0000000000
40
0.0000000000
40
0.0000000000
40
0.0000000000
40
0.3285184979
40
0.6607947544
40
1.0000000000
40
1.0000000000
40
1.0000000000
40
1.0000000000
10
-3.3175086014
20
4.3558815298
30
0.0000000000
10
-3.3512441540
20
4.5121869249
30
0.0000000000
10
-3.3925066807
20
4.8330106818
30
0.0000000000
10
-3.3727540992
20
5.3214078089
30
0.0000000000
10
-3.3057518022
20
5.6430598141
30
0.0000000000
10
-3.2594717980
20
5.8015471600
30
0.0000000000
11
-3.3175086014
21
4.3558815298
31
0.0000000000
11
-3.3788472977
21
4.8316574653
31
0.0000000000
11
-3.3597320973
21
5.3164816277
31
0.0000000000
11
-3.2594717980
21
5.8015471600
31
0.0000000000
0
SPLINE
5
2EF
100
AcDbEntity
8
0
100
AcDbSpline
62
7
6
CONTINUOUS
70
0
71
3
72
22
73
18
74
16
42
0.0000001000
43
0.0000001000
44
0.0000000001
12
2.8982933719
22
9.9252978114
32
0.0000000000
13
2.1814211238
23
-10.1070788556
33
0.0000000000
40
0.0000000000
40
0.0000000000
40
0.0000000000
40
0.0000000000
40
0.0625492534
40
0.1274874045
40
0.1951398898
40
0.2647048591
40
0.3358459939
40
0.4077606972
40
0.4798515142
40
0.5513120445
40
0.6215870791
40
0.6899184280
40
0.7561548423
40
0.8197318362
40
0.8813559204
40
0.9411422453
40
1.0000000000
40
1.0000000000
40
1.0000000000
40
1.0000000000
10
-3.2594717980
20
5.8015471600
30
0.0000000000
10
-3.1990431024
20
6.0084871494
30
0.0000000000
10
-3.0319707420
20
6.4185421514
30
0.0000000000
10
-2.6622820818
20
6.9847457743
30
0.0000000000
10
-2.1809120823
20
7.4934271584
30
0.0000000000
10
-1.6043229689
20
7.9268246819
30
0.0000000000
10
-0.9535590715
20
8.2701826002
30
0.0000000000
10
-0.2500175258
20
8.5132414330
30
0.0000000000
10
0.4829843803
20
8.6486899671
30
0.0000000000
10
1.2224127086
20
8.6725815636
30
0.0000000000
10
1.9440288822
20
8.5840764117
30
0.0000000000
10
2.6249853255
20
8.3857435407
30
0.0000000000
10
3.2417583483
20
8.0842597210
30
0.0000000000
10
3.7751490849
20
7.6892992702
30
0.0000000000
10
4.2073292773
20
7.2146446153
30
0.0000000000
10
4.5252913130
20
6.6758112001
30
0.0000000000
10
4.6551269210
20
6.2841540013
30
0.0000000000
10
4.6979247709
20
6.0858606786
30
0.0000000000
11
-3.2594717980
21
5.8015471600
31
0.0000000000
11
-3.0171798914
21
6.4011943147
31
0.0000000000
11
-2.6519449723
21
6.9646177241
31
0.0000000000
11
-2.1725875534
21
7.4740644309
31
0.0000000000
11
-1.5985942948
21
7.9075475734
31
0.0000000000
11
-0.9485193169
21
8.2517696927
31
0.0000000000
11
-0.2458571282
21
8.4950460957
31
0.0000000000
11
0.4871610937
21
8.6303726190
31
0.0000000000
11
1.2256869922
21
8.6535086126
31
0.0000000000
11
1.9467549186
21
8.5637712783
31
0.0000000000
11
2.6246092782
21
8.3645165618
31
0.0000000000
11
3.2390018187
21
8.0619091452
31
0.0000000000
11
3.7660633280
21
7.6690393583
31
0.0000000000
11
4.1937177411
21
7.1966924220
31
0.0000000000
11
4.5067590605
21
6.6636346407
31
0.0000000000
11
4.6979247709
21
6.0858606786
31
0.0000000000
0
SPLINE
5
2F0
100
AcDbEntity
8
0
100
AcDbSpline
62
7
6
CONTINUOUS
70
0
71
3
72
21
73
17
74
15
42
0.0000001000
43
0.0000001000
44
0.0000000001
12
1.0594739802
22
-4.9079058586
32
0.0000000000
13
1.4038762945
23
4.8076190067
33
0.0000000000
40
0.0000000000
40
0.0000000000
40
0.0000000000
40
0.0000000000
40
0.0021796006
40
0.0697236761
40
0.1388223074
40
0.2106262520
40
0.2857251773
40
0.3641028008
40
0.4452101860
40
0.5280995084
40
0.6115813496
40
0.6943889400
40
0.7753436443
40
0.8535189947
40
0.9283971284
40
1.0000000000
40
1.0000000000
40
1.0000000000
40
1.0000000000
10
-1.3271425216
20
5.0878852073
30
0.0000000000
10
-1.3263727782
20
5.0843194492
30
0.0000000000
10
-1.3012647298
20
4.9703577022
30
0.0000000000
10
-1.2204025815
20
4.7503353378
30
0.0000000000
10
-1.0196493151
20
4.4617276534
30
0.0000000000
10
-0.7472246050
20
4.2206848683
30
0.0000000000
10
-0.4159141181
20
4.0370103717
30
0.0000000000
10
-0.0403692905
20
3.9178124119
30
0.0000000000
10
0.3632965063
20
3.8676121773
30
0.0000000000
10
0.7779442819
20
3.8882220633
30
0.0000000000
10
1.1860038635
20
3.9786300914
30
0.0000000000
10
1.5701706032
20
4.1350126108
30
0.0000000000
10
1.9141000210
20
4.3508550082
30
0.0000000000
10
2.2030661166
20
4.6173733536
30
0.0000000000
10
2.4243329079
20
4.9234000453
30
0.0000000000
10
2.5219435623
20
5.1504205614
30
0.0000000000
10
2.5554507537
20
5.2651670036
30
0.0000000000
11
-1.3271425216
21
5.0878852073
31
0.0000000000
11
-1.3247878435
21
5.0771978116
31
0.0000000000
11
-1.2086005141
21
4.7594886700
31
0.0000000000
11
-1.0121525275
21
4.4745762133
31
0.0000000000
11
-0.7440296034
21
4.2349124831
31
0.0000000000
11
-0.4159500001
21
4.0509719343
31
0.0000000000
11
-0.0422523707
21
3.9307936516
31
0.0000000000
11
0.3607309053
21
3.8796300026
31
0.0000000000
11
0.7753875250
21
3.8997170843
31
0.0000000000
11
1.1835950043
21
3.9901769949
31
0.0000000000
11
1.5675127177
21
4.1470562021
31
0.0000000000
11
1.9103616187
21
4.3634983318
31
0.0000000000
11
2.1971575653
21
4.6300438244
31
0.0000000000
11
2.4153661984
21
4.9350433628
31
0.0000000000
11
2.5554507537
21
5.2651670036
31
0.0000000000
0
SPLINE
5
2F1
100
AcDbEntity
8
0
100
AcDbSpline
62
7
6
CONTINUOUS
70
0
71
3
72
10
73
6
74
4
42
0.0000001000
43
0.0000001000
44
0.0000000001
12
-0.0378146115
22
0.1752047121
32
0.0000000000
13
-0.1811423361
23
0.0295668333
33
0.0000000000
40
0.0000000000
40
0.0000000000
40
0.0000000000
40
0.0000000000
40
0.5013516325
40
0.8471388821
40
1.0000000000
40
1.0000000000
40
1.0000000000
40
1.0000000000
10
-14.3004666079
20
-0.8341362330
30
0.0000000000
10
-14.3067860803
20
-0.8048565102
30
0.0000000000
10
-14.3208771301
20
-0.7570543698
30
0.0000000000
10
-14.3494570639
20
-0.7006524228
30
0.0000000000
10
-14.3791978587
20
-0.6884272394
30
0.0000000000
10
-14.3884277320
20
-0.6869206997
30
0.0000000000
11
-14.3004666079
21
-0.8341362330
31
0.0000000000
11
-14.3270092934
21
-0.7482838776
31
0.0000000000
11
-14.3624193205
21
-0.6974166583
31
0.0000000000
11
-14.3884277320
21
-0.6869206997
31
0.0000000000
0
SPLINE
5
2F2
100
AcDbEntity
8
0
100
AcDbSpline
62
7
6
CONTINUOUS
70
0
71
3
72
12
73
8
74
6
42
0.0000001000
43
0.0000001000
44
0.0000000001
12
0.1131778883
22
0.3875812771
32
0.0000000000
13
0.4080553524
23
-0.0666045543
33
0.0000000000
40
0.0000000000
40
0.0000000000
40
0.0000000000
40
0.0000000000
40
0.3410925246
40
0.6239638579
40
0.8293290105
40
0.9612784615
40
1.0000000000
40
1.0000000000
40
1.0000000000
40
1.0000000000
10
-15.2152229019
20
-0.9375588790
30
0.0000000000
10
-15.2023548580
20
-0.8934918535
30
0.0000000000
10
-15.1762687203
20
-0.8137962020
30
0.0000000000
10
-15.1305807225
20
-0.7107574451
30
0.0000000000
10
-15.0859460403
20
-0.6418643012
30
0.0000000000
10
-15.0435488763
20
-0.6059492929
30
0.0000000000
10
-15.0201725732
20
-0.6065219891
30
0.0000000000
10
-15.0149057295
20
-0.6073816660
30
0.0000000000
11
-15.2152229019
21
-0.9375588790
31
0.0000000000
11
-15.1713578804
21
-0.8070090286
31
0.0000000000
11
-15.1235445282
21
-0.7032843862
31
0.0000000000
11
-15.0755638350
21
-0.6356563289
31
0.0000000000
11
-15.0305669536
21
-0.6071306611
31
0.0000000000
11
-15.0149057295
21
-0.6073816660
31
0.0000000000
0
SPLINE
5
2F3
100
AcDbEntity
8
0
100
AcDbSpline
62
7
6
CONTINUOUS
70
0
71
3
72
10
73
6
74
4
42
0.0000001000
43
0.0000001000
44
0.0000000001
12
-0.0378146115
22
0.1752047121
32
0.0000000000
13
-0.1811423361
23
0.0295668333
33
0.0000000000
40
0.0000000000
40
0.0000000000
40
0.0000000000
40
0.0000000000
40
0.5013516325
40
0.8471388821
40
1.0000000000
40
1.0000000000
40
1.0000000000
40
1.0000000000
10
-11.8909358482
20
-1.1400555933
30
0.0000000000
10
-11.8972553206
20
-1.1107758705
30
0.0000000000
10
-11.9113463705
20
-1.0629737301
30
0.0000000000
10
-11.9399263043
20
-1.0065717831
30
0.0000000000
10
-11.9696670991
20
-0.9943465997
30
0.0000000000
10
-11.9788969724
20
-0.9928400599
30
0.0000000000
11
-11.8909358482
21
-1.1400555933
31
0.0000000000
11
-11.9174785337
21
-1.0542032378
31
0.0000000000
11
-11.9528885609
21
-1.0033360186
31
0.0000000000
11
-11.9788969724
21
-0.9928400599
31
0.0000000000
0
SPLINE
5
2F4
100
AcDbEntity
8
0
100
AcDbSpline
62
7
6
CONTINUOUS
70
0
71
3
72
12
73
8
74
6
42
0.0000001000
43
0.0000001000
44
0.0000000001
12
0.1131778883
22
0.3875812771
32
0.0000000000
13
0.4080553524
23
-0.0666045543
33
0.0000000000
40
0.0000000000
40
0.0000000000
40
0.0000000000
40
0.0000000000
40
0.3410925246
40
0.6239638579
40
0.8293290105
40
0.9612784615
40
1.0000000000
40
1.0000000000
40
1.0000000000
40
1.0000000000
10
-12.8056921423
20
-1.2434782392
30
0.0000000000
10
-12.7928240984
20
-1.1994112138
30
0.0000000000
10
-12.7667379607
20
-1.1197155623
30
0.0000000000
10
-12.7210499629
20
-1.0166768054
30
0.0000000000
10
-12.6764152806
20
-0.9477836614
30
0.0000000000
10
-12.6340181167
20
-0.9118686532
30
0.0000000000
10
-12.6106418136
20
-0.9124413493
30
0.0000000000
10
-12.6053749699
20
-0.9133010263
30
0.0000000000
11
-12.8056921423
21
-1.2434782392
31
0.0000000000
11
-12.7618271208
21
-1.1129283889
31
0.0000000000
11
-12.7140137685
21
-1.0092037465
31
0.0000000000
11
-12.6660330754
21
-0.9415756892
31
0.0000000000
11
-12.6210361940
21
-0.9130500213
31
0.0000000000
11
-12.6053749699
21
-0.9133010263
31
0.0000000000
0
SPLINE
5
2F5
100
AcDbEntity
8
0
100
AcDbSpline
62
7
6
CONTINUOUS
70
0
71
3
72
10
73
6
74
4
42
0.0000001000
43
0.0000001000
44
0.0000000001
12
-0.0378146115
22
0.1752047121
32
0.0000000000
13
-0.1811423361
23
0.0295668333
33
0.0000000000
40
0.0000000000
40
0.0000000000
40
0.0000000000
40
0.0000000000
40
0.5013516325
40
0.8471388821
40
1.0000000000
40
1.0000000000
40
1.0000000000
40
1.0000000000
10
-9.4814050886
20
-1.4459749536
30
0.0000000000
10
-9.4877245610
20
-1.4166952308
30
0.0000000000
10
-9.5018156108
20
-1.3688930904
30
0.0000000000
10
-9.5303955447
20
-1.3124911433
30
0.0000000000
10
-9.5601363394
20
-1.3002659599
30
0.0000000000
10
-9.5693662128
20
-1.2987594202
30
0.0000000000
11
-9.4814050886
21
-1.4459749536
31
0.0000000000
11
-9.5079477741
21
-1.3601225981
31
0.0000000000
11
-9.5433578012
21
-1.3092553789
31
0.0000000000
11
-9.5693662128
21
-1.2987594202
31
0.0000000000
0
SPLINE
5
2F6
100
AcDbEntity
8
0
100
AcDbSpline
62
7
6
CONTINUOUS
70
0
71
3
72
14
73
10
74
8
42
0.0000001000
43
0.0000001000
44
0.0000000001
12
-0.7382718159
22
3.4196402421
32
0.0000000000
13
-3.4015351176
23
0.8073657127
33
0.0000000000
40
0.0000000000
40
0.0000000000
40
0.0000000000
40
0.0000000000
40
0.1004399406
40
0.2590857236
40
0.4216126423
40
0.5896850009
40
0.7641765892
40
0.9451372423
40
1.0000000000
40
1.0000000000
40
1.0000000000
40
1.0000000000
10
7.9307880789
20
0.1727772449
30
0.0000000000
10
7.9060707531
20
0.2872667325
30
0.0000000000
10
7.8219223092
20
0.5782260456
30
0.0000000000
10
7.6027108154
20
1.0213849752
30
0.0000000000
10
7.2476601245
20
1.4715306212
30
0.0000000000
10
6.7980341071
20
1.8556263848
30
0.0000000000
10
6.2680974523
20
2.1626374646
30
0.0000000000
10
5.8187269478
20
2.3301132235
30
0.0000000000
10
5.5527770581
20
2.3996954074
30
0.0000000000
10
5.4905711925
20
2.4144601772
30
0.0000000000
11
7.9307880789
21
0.1727772449
31
0.0000000000
11
7.8332284696
21
0.5100591767
31
0.0000000000
11
7.5886032910
21
1.0070380200
31
0.0000000000
11
7.2385427401
21
1.4536736033
31
0.0000000000
11
6.7936832298
21
1.8363951304
31
0.0000000000
11
6.2675415911
21
2.1435738013
31
0.0000000000
11
5.6761043715
21
2.3658761476
31
0.0000000000
11
5.4905711925
21
2.4144601772
31
0.0000000000
0
SPLINE
5
2F7
100
AcDbEntity
8
0
100
AcDbSpline
62
7
6
CONTINUOUS
70
0
71
3
72
12
73
8
74
6
42
0.0000001000
43
0.0000001000
44
0.0000000001
12
0.1131778883
22
0.3875812771
32
0.0000000000
13
0.4080553524
23
-0.0666045543
33
0.0000000000
40
0.0000000000
40
0.0000000000
40
0.0000000000
40
0.0000000000
40
0.3410925246
40
0.6239638579
40
0.8293290105
40
0.9612784615
40
1.0000000000
40
1.0000000000
40
1.0000000000
40
1.0000000000
10
-10.3961613826
20
-1.5493975995
30
0.0000000000
10
-10.3832933387
20
-1.5053305741
30
0.0000000000
10
-10.3572072010
20
-1.4256349226
30
0.0000000000
10
-10.3115192033
20
-1.3225961656
30
0.0000000000
10
-10.2668845210
20
-1.2537030217
30
0.0000000000
10
-10.2244873571
20
-1.2177880135
30
0.0000000000
10
-10.2011110539
20
-1.2183607096
30
0.0000000000
10
-10.1958442103
20
-1.2192203865
30
0.0000000000
11
-10.3961613826
21
-1.5493975995
31
0.0000000000
11
-10.3522963611
21
-1.4188477491
31
0.0000000000
11
-10.3044830089
21
-1.3151231068
31
0.0000000000
11
-10.2565023157
21
-1.2474950495
31
0.0000000000
11
-10.2115054343
21
-1.2189693816
31
0.0000000000
11
-10.1958442103
21
-1.2192203865
31
0.0000000000
0
SPLINE
5
2F8
100
AcDbEntity
8
0
100
AcDbSpline
62
7
6
CONTINUOUS
70
0
71
3
72
10
73
6
74
4
42
0.0000001000
43
0.0000001000
44
0.0000000001
12
-0.0378146115
22
0.1752047121
32
0.0000000000
13
-0.1811423361
23
0.0295668333
33
0.0000000000
40
0.0000000000
40
0.0000000000
40
0.0000000000
40
0.0000000000
40
0.5013516325
40
0.8471388821
40
1.0000000000
40
1.0000000000
40
1.0000000000
40
1.0000000000
10
-7.0718743290
20
-1.7518943138
30
0.0000000000
10
-7.0781938014
20
-1.7226145910
30
0.0000000000
10
-7.0922848512
20
-1.6748124506
30
0.0000000000
10
-7.1208647850
20
-1.6184105036
30
0.0000000000
10
-7.1506055798
20
-1.6061853202
30
0.0000000000
10
-7.1598354531
20
-1.6046787805
30
0.0000000000
11
-7.0718743290
21
-1.7518943138
31
0.0000000000
11
-7.0984170145
21
-1.6660419584
31
0.0000000000
11
-7.1338270416
21
-1.6151747391
31
0.0000000000
11
-7.1598354531
21
-1.6046787805
31
0.0000000000
0
SPLINE
5
2F9
100
AcDbEntity
8
0
100
AcDbSpline
62
7
6
CONTINUOUS
70
0
71
3
72
20
73
16
74
14
42
0.0000001000
43
0.0000001000
44
0.0000000001
12
-1.0974775301
22
5.0848925125
32
0.0000000000
13
-1.4792646851
23
-5.0250318569
33
0.0000000000
40
0.0000000000
40
0.0000000000
40
0.0000000000
40
0.0000000000
40
0.0612314676
40
0.1319834555
40
0.2124366781
40
0.3010898859
40
0.3953830854
40
0.4921498452
40
0.5879808545
40
0.6795572302
40
0.7639946710
40
0.8392462769
40
0.9046384320
40
0.9615973447
40
1.0000000000
40
1.0000000000
40
1.0000000000
40
1.0000000000
10
-7.2702645005
20
4.7719145682
30
0.0000000000
10
-7.2926645537
20
4.8756997118
30
0.0000000000
10
-7.3826949392
20
5.0907309615
30
0.0000000000
10
-7.6091210006
20
5.3846232044
30
0.0000000000
10
-7.9230220966
20
5.6607039119
30
0.0000000000
10
-8.3098075508
20
5.9064423471
30
0.0000000000
10
-8.7511843838
20
6.1106238930
30
0.0000000000
10
-9.2258914065
20
6.2633334701
30
0.0000000000
10
-9.7108850774
20
6.3571744127
30
0.0000000000
10
-10.1826837218
20
6.3876072308
30
0.0000000000
10
-10.6187816146
20
6.3531543062
30
0.0000000000
10
-10.9990841774
20
6.2549628005
30
0.0000000000
10
-11.3067512688
20
6.0957633960
30
0.0000000000
10
-11.5085096062
20
5.8948158677
30
0.0000000000
10
-11.5796009706
20
5.7420043835
30
0.0000000000
10
-11.5985368679
20
5.6776795281
30
0.0000000000
11
-7.2702645005
21
4.7719145682
31
0.0000000000
11
-7.3871010633
21
5.0682375060
31
0.0000000000
11
-7.6068204933
21
5.3635076410
31
0.0000000000
11
-7.9184051408
21
5.6429188958
31
0.0000000000
11
-8.3062308503
21
5.8924604234
31
0.0000000000
11
-8.7508504216
21
6.0996191695
31
0.0000000000
11
-9.2299687726
21
6.2540073296
31
0.0000000000
11
-9.7195609086
21
6.3478832367
31
0.0000000000
11
-10.1950766356
21
6.3765395608
31
0.0000000000
11
-10.6326716095
21
6.3385393541
31
0.0000000000
11
-11.0104029910
21
6.2357881058
31
0.0000000000
11
-11.3093297513
21
6.0734381924
31
0.0000000000
11
-11.5144624546
21
5.8596305165
31
0.0000000000
11
-11.5985368679
21
5.6776795281
31
0.0000000000
0
SPLINE
5
2FA
100
AcDbEntity
8
0
100
AcDbSpline
62
7
6
CONTINUOUS
70
0
71
3
72
9
73
5
74
3
42
0.0000001000
43
0.0000001000
44
0.0000000001
12
0.1471456637
22
0.1912206013
32
0.0000000000
13
0.0740459752
23
0.2304290468
33
0.0000000000
40
0.0000000000
40
0.0000000000
40
0.0000000000
40
0.0000000000
40
0.2370681036
40
1.0000000000
40
1.0000000000
40
1.0000000000
40
1.0000000000
10
-7.9852751900
20
2.1712820889
30
0.0000000000
10
-7.9736473422
20
2.1863928574
30
0.0000000000
10
-7.9270227283
20
2.2519966890
30
0.0000000000
10
-7.8918030453
20
2.3254877471
30
0.0000000000
10
-7.8729723665
20
2.3840883037
30
0.0000000000
11
-7.9852751900
21
2.1712820889
31
0.0000000000
11
-7.9521818964
21
2.2179412816
31
0.0000000000
11
-7.8729723665
21
2.3840883037
31
0.0000000000
0
SPLINE
5
2FB
100
AcDbEntity
8
0
100
AcDbSpline
62
7
6
CONTINUOUS
70
0
71
3
72
8
73
4
74
2
42
0.0000001000
43
0.0000001000
44
0.0000000001
12
0.0050593385
22
0.0157445228
32
0.0000000000
13
0.0046694220
23
0.0158619308
33
0.0000000000
40
0.0000000000
40
0.0000000000
40
0.0000000000
40
0.0000000000
40
1.0000000000
40
1.0000000000
40
1.0000000000
40
1.0000000000
10
-7.8729723665
20
2.3840883037
30
0.0000000000
10
-7.8712859204
20
2.3893364779
30
0.0000000000
10
-7.8696639571
20
2.3946049597
30
0.0000000000
10
-7.8681074831
20
2.3998922700
30
0.0000000000
11
-7.8729723665
21
2.3840883037
31
0.0000000000
11
-7.8681074831
21
2.3998922700
31
0.0000000000
0
SPLINE
5
2FC
100
AcDbEntity
8
0
100
AcDbSpline
62
7
6
CONTINUOUS
70
0
71
3
72
12
73
8
74
6
42
0.0000001000
43
0.0000001000
44
0.0000000001
12
0.1131778883
22
0.3875812771
32
0.0000000000
13
0.4080553524
23
-0.0666045543
33
0.0000000000
40
0.0000000000
40
0.0000000000
40
0.0000000000
40
0.0000000000
40
0.3410925246
40
0.6239638579
40
0.8293290105
40
0.9612784615
40
1.0000000000
40
1.0000000000
40
1.0000000000
40
1.0000000000
10
-7.9866306230
20
-1.8553169598
30
0.0000000000
10
-7.9737625791
20
-1.8112499344
30
0.0000000000
10
-7.9476764414
20
-1.7315542829
30
0.0000000000
10
-7.9019884436
20
-1.6285155259
30
0.0000000000
10
-7.8573537614
20
-1.5596223820
30
0.0000000000
10
-7.8149565975
20
-1.5237073738
30
0.0000000000
10
-7.7915802943
20
-1.5242800699
30
0.0000000000
10
-7.7863134506
20
-1.5251397468
30
0.0000000000
11
-7.9866306230
21
-1.8553169598
31
0.0000000000
11
-7.9427656015
21
-1.7247671094
31
0.0000000000
11
-7.8949522493
21
-1.6210424670
31
0.0000000000
11
-7.8469715561
21
-1.5534144097
31
0.0000000000
11
-7.8019746747
21
-1.5248887419
31
0.0000000000
11
-7.7863134506
21
-1.5251397468
31
0.0000000000
0
SPLINE
5
2FD
100
AcDbEntity
8
0
100
AcDbSpline
62
7
6
CONTINUOUS
70
0
71
3
72
10
73
6
74
4
42
0.0000001000
43
0.0000001000
44
0.0000000001
12
-0.0378146115
22
0.1752047121
32
0.0000000000
13
-0.1811423361
23
0.0295668333
33
0.0000000000
40
0.0000000000
40
0.0000000000
40
0.0000000000
40
0.0000000000
40
0.5013516325
40
0.8471388821
40
1.0000000000
40
1.0000000000
40
1.0000000000
40
1.0000000000
10
-4.6623435694
20
-2.0578136741
30
0.0000000000
10
-4.6686630417
20
-2.0285339513
30
0.0000000000
10
-4.6827540916
20
-1.9807318109
30
0.0000000000
10
-4.7113340254
20
-1.9243298639
30
0.0000000000
10
-4.7410748202
20
-1.9121046805
30
0.0000000000
10
-4.7503046935
20
-1.9105981408
30
0.0000000000
11
-4.6623435694
21
-2.0578136741
31
0.0000000000
11
-4.6888862548
21
-1.9719613187
31
0.0000000000
11
-4.7242962820
21
-1.9210940994
31
0.0000000000
11
-4.7503046935
21
-1.9105981408
31
0.0000000000
0
SPLINE
5
2FE
100
AcDbEntity
8
0
100
AcDbSpline
62
7
6
CONTINUOUS
70
0
71
3
72
12
73
8
74
6
42
0.0000001000
43
0.0000001000
44
0.0000000001
12
0.1131778883
22
0.3875812771
32
0.0000000000
13
0.4080553524
23
-0.0666045543
33
0.0000000000
40
0.0000000000
40
0.0000000000
40
0.0000000000
40
0.0000000000
40
0.3410925246
40
0.6239638579
40
0.8293290105
40
0.9612784615
40
1.0000000000
40
1.0000000000
40
1.0000000000
40
1.0000000000
10
-5.5770998634
20
-2.1612363201
30
0.0000000000
10
-5.5642318195
20
-2.1171692946
30
0.0000000000
10
-5.5381456818
20
-2.0374736432
30
0.0000000000
10
-5.4924576840
20
-1.9344348862
30
0.0000000000
10
-5.4478230017
20
-1.8655417423
30
0.0000000000
10
-5.4054258378
20
-1.8296267340
30
0.0000000000
10
-5.3820495347
20
-1.8301994302
30
0.0000000000
10
-5.3767826910
20
-1.8310591071
30
0.0000000000
11
-5.5770998634
21
-2.1612363201
31
0.0000000000
11
-5.5332348419
21
-2.0306864697
31
0.0000000000
11
-5.4854214896
21
-1.9269618273
31
0.0000000000
11
-5.4374407965
21
-1.8593337700
31
0.0000000000
11
-5.3924439151
21
-1.8308081022
31
0.0000000000
11
-5.3767826910
21
-1.8310591071
31
0.0000000000
0
SPLINE
5
2FF
100
AcDbEntity
8
0
100
AcDbSpline
62
7
6
CONTINUOUS
70
0
71
3
72
11
73
7
74
5
42
0.0000001000
43
0.0000001000
44
0.0000000001
12
0.0423599309
22
0.1450629300
32
0.0000000000
13
0.1373718239
23
-0.0302956798
33
0.0000000000
40
0.0000000000
40
0.0000000000
40
0.0000000000
40
0.0000000000
40
0.4641743442
40
0.7942259185
40
0.9813395125
40
1.0000000000
40
1.0000000000
40
1.0000000000
40
1.0000000000
10
-14.5429859829
20
-1.5138534477
30
0.0000000000
10
-14.5364318519
20
-1.4914086176
30
0.0000000000
10
-14.5226045115
20
-1.4528501366
30
0.0000000000
10
-14.5024419734
20
-1.4104371899
30
0.0000000000
10
-14.4781574388
20
-1.3884024842
30
0.0000000000
10
-14.4687084381
20
-1.3896873649
30
0.0000000000
10
-14.4678539630
20
-1.3898758089
30
0.0000000000
11
-14.5429859829
21
-1.5138534477
31
0.0000000000
11
-14.5194186937
21
-1.4477843462
31
0.0000000000
11
-14.4942864879
21
-1.4047010989
31
0.0000000000
11
-14.4704211797
21
-1.3895344829
31
0.0000000000
11
-14.4678539630
21
-1.3898758089
31
0.0000000000
0
SPLINE
5
300
100
AcDbEntity
8
0
100
AcDbSpline
62
7
6
CONTINUOUS
70
0
71
3
72
11
73
7
74
5
42
0.0000001000
43
0.0000001000
44
0.0000000001
12
0.0423599309
22
0.1450629300
32
0.0000000000
13
0.1373718239
23
-0.0302956798
33
0.0000000000
40
0.0000000000
40
0.0000000000
40
0.0000000000
40
0.0000000000
40
0.4641743442
40
0.7942259185
40
0.9813395125
40
1.0000000000
40
1.0000000000
40
1.0000000000
40
1.0000000000
10
-12.1334552233
20
-1.8197728080
30
0.0000000000
10
-12.1269010923
20
-1.7973279779
30
0.0000000000
10
-12.1130737518
20
-1.7587694969
30
0.0000000000
10
-12.0929112138
20
-1.7163565501
30
0.0000000000
10
-12.0686266792
20
-1.6943218445
30
0.0000000000
10
-12.0591776785
20
-1.6956067252
30
0.0000000000
10
-12.0583232034
20
-1.6957951692
30
0.0000000000
11
-12.1334552233
21
-1.8197728080
31
0.0000000000
11
-12.1098879341
21
-1.7537037064
31
0.0000000000
11
-12.0847557283
21
-1.7106204591
31
0.0000000000
11
-12.0608904201
21
-1.6954538432
31
0.0000000000
11
-12.0583232034
21
-1.6957951692
31
0.0000000000
0
SPLINE
5
301
100
AcDbEntity
8
0
100
AcDbSpline
62
7
6
CONTINUOUS
70
0
71
3
72
11
73
7
74
5
42
0.0000001000
43
0.0000001000
44
0.0000000001
12
0.0423599309
22
0.1450629300
32
0.0000000000
13
0.1373718239
23
-0.0302956798
33
0.0000000000
40
0.0000000000
40
0.0000000000
40
0.0000000000
40
0.0000000000
40
0.4641743442
40
0.7942259185
40
0.9813395125
40
1.0000000000
40
1.0000000000
40
1.0000000000
40
1.0000000000
10
-9.7239244637
20
-2.1256921683
30
0.0000000000
10
-9.7173703326
20
-2.1032473381
30
0.0000000000
10
-9.7035429922
20
-2.0646888572
30
0.0000000000
10
-9.6833804541
20
-2.0222759104
30
0.0000000000
10
-9.6590959195
20
-2.0002412048
30
0.0000000000
10
-9.6496469188
20
-2.0015260854
30
0.0000000000
10
-9.6487924438
20
-2.0017145295
30
0.0000000000
11
-9.7239244637
21
-2.1256921683
31
0.0000000000
11
-9.7003571745
21
-2.0596230667
31
0.0000000000
11
-9.6752249687
21
-2.0165398194
31
0.0000000000
11
-9.6513596604
21
-2.0013732035
31
0.0000000000
11
-9.6487924438
21
-2.0017145295
31
0.0000000000
0
SPLINE
5
302
100
AcDbEntity
8
0
100
AcDbSpline
62
7
6
CONTINUOUS
70
0
71
3
72
11
73
7
74
5
42
0.0000001000
43
0.0000001000
44
0.0000000001
12
0.0423599309
22
0.1450629300
32
0.0000000000
13
0.1373718239
23
-0.0302956798
33
0.0000000000
40
0.0000000000
40
0.0000000000
40
0.0000000000
40
0.0000000000
40
0.4641743442
40
0.7942259185
40
0.9813395125
40
1.0000000000
40
1.0000000000
40
1.0000000000
40
1.0000000000
10
-7.3143937041
20
-2.4316115286
30
0.0000000000
10
-7.3078395730
20
-2.4091666984
30
0.0000000000
10
-7.2940122326
20
-2.3706082175
30
0.0000000000
10
-7.2738496945
20
-2.3281952707
30
0.0000000000
10
-7.2495651599
20
-2.3061605650
30
0.0000000000
10
-7.2401161592
20
-2.3074454457
30
0.0000000000
10
-7.2392616841
20
-2.3076338898
30
0.0000000000
11
-7.3143937041
21
-2.4316115286
31
0.0000000000
11
-7.2908264148
21
-2.3655424270
31
0.0000000000
11
-7.2656942090
21
-2.3224591797
31
0.0000000000
11
-7.2418289008
21
-2.3072925638
31
0.0000000000
11
-7.2392616841
21
-2.3076338898
31
0.0000000000
0
SPLINE
5
303
100
AcDbEntity
8
0
100
AcDbSpline
62
7
6
CONTINUOUS
70
0
71
3
72
11
73
7
74
5
42
0.0000001000
43
0.0000001000
44
0.0000000001
12
0.0423599309
22
0.1450629300
32
0.0000000000
13
0.1373718239
23
-0.0302956798
33
0.0000000000
40
0.0000000000
40
0.0000000000
40
0.0000000000
40
0.0000000000
40
0.4641743442
40
0.7942259185
40
0.9813395125
40
1.0000000000
40
1.0000000000
40
1.0000000000
40
1.0000000000
10
-4.9048629444
20
-2.7375308888
30
0.0000000000
10
-4.8983088134
20
-2.7150860587
30
0.0000000000
10
-4.8844814729
20
-2.6765275778
30
0.0000000000
10
-4.8643189349
20
-2.6341146310
30
0.0000000000
10
-4.8400344003
20
-2.6120799253
30
0.0000000000
10
-4.8305853996
20
-2.6133648060
30
0.0000000000
10
-4.8297309245
20
-2.6135532500
30
0.0000000000
11
-4.9048629444
21
-2.7375308888
31
0.0000000000
11
-4.8812956552
21
-2.6714617873
31
0.0000000000
11
-4.8561634494
21
-2.6283785400
31
0.0000000000
11
-4.8322981412
21
-2.6132119240
31
0.0000000000
11
-4.8297309245
21
-2.6135532500
31
0.0000000000
0
SPLINE
5
304
100
AcDbEntity
8
0
100
AcDbSpline
62
7
6
CONTINUOUS
70
0
71
3
72
15
73
11
74
9
42
0.0000001000
43
0.0000001000
44
0.0000000001
12
2.2945389229
22
-2.1864572337
32
0.0000000000
13
3.1032822832
23
0.6544645927
33
0.0000000000
40
0.0000000000
40
0.0000000000
40
0.0000000000
40
0.0000000000
40
0.0878832001
40
0.2303157699
40
0.3818096982
40
0.5372777134
40
0.6912423273
40
0.8383713353
40
0.9740307431
40
1.0000000000
40
1.0000000000
40
1.0000000000
40
1.0000000000
10
-12.1039597779
20
1.3369161766
30
0.0000000000
10
-12.0367426368
20
1.2728652237
30
0.0000000000
10
-11.8498958402
20
1.1161844730
30
0.0000000000
10
-11.5086815305
20
0.8993989926
30
0.0000000000
10
-11.0771130717
20
0.6997548143
30
0.0000000000
10
-10.6129550939
20
0.5504387834
30
0.0000000000
10
-10.1387390602
20
0.4586831950
30
0.0000000000
10
-9.6774248300
20
0.4289266619
30
0.0000000000
10
-9.3512921444
20
0.4546920347
30
0.0000000000
10
-9.1834174792
20
0.4867164926
30
0.0000000000
10
-9.1565541676
20
0.4923818123
30
0.0000000000
11
-12.1039597779
21
1.3369161766
31
0.0000000000
11
-11.8913861093
21
1.1570663671
31
0.0000000000
11
-11.5121787488
21
0.9130702069
31
0.0000000000
11
-11.0774396125
21
0.7105149884
31
0.0000000000
11
-10.6089683360
21
0.5595576763
31
0.0000000000
11
-10.1302560252
21
0.4677679005
31
0.0000000000
11
-9.6653073143
21
0.4397483836
31
0.0000000000
11
-9.2374366732
21
0.4769041413
31
0.0000000000
11
-9.1565541676
21
0.4923818123
31
0.0000000000
0
SPLINE
5
305
100
AcDbEntity
8
0
100
AcDbSpline
62
7
6
CONTINUOUS
70
0
71
3
72
9
73
5
74
3
42
0.0000001000
43
0.0000001000
44
0.0000000001
12
0.3227086663
22
0.2757774638
32
0.0000000000
13
0.1199569351
23
0.4074912532
33
0.0000000000
40
0.0000000000
40
0.0000000000
40
0.0000000000
40
0.0000000000
40
0.5369563369
40
1.0000000000
40
1.0000000000
40
1.0000000000
40
1.0000000000
10
-8.5261563863
20
0.7757849474
30
0.0000000000
10
-8.4683962319
20
0.8251450997
30
0.0000000000
10
-8.3720038939
20
0.9302370286
30
0.0000000000
10
-8.3115501868
20
1.0601827792
30
0.0000000000
10
-8.2930350872
20
1.1230781934
30
0.0000000000
11
-8.5261563863
21
0.7757849474
31
0.0000000000
11
-8.3752411802
21
0.9451705603
31
0.0000000000
11
-8.2930350872
21
1.1230781934
31
0.0000000000
0
SPLINE
5
306
100
AcDbEntity
8
0
100
AcDbSpline
62
7
6
CONTINUOUS
70
0
71
3
72
9
73
5
74
3
42
0.0000001000
43
0.0000001000
44
0.0000000001
12
-0.1374183632
22
-0.4705935540
32
0.0000000000
13
0.0358799619
23
-0.4905760560
33
0.0000000000
40
0.0000000000
40
0.0000000000
40
0.0000000000
40
0.0000000000
40
0.7537577010
40
1.0000000000
40
1.0000000000
40
1.0000000000
40
1.0000000000
10
-1.2748456862
20
5.6390254250
30
0.0000000000
10
-1.3093724027
20
5.5207875865
30
0.0000000000
10
-1.3354746864
20
5.3571588301
30
0.0000000000
10
-1.3310196811
20
5.1930557848
30
0.0000000000
10
-1.3280746263
20
5.1527889262
30
0.0000000000
11
-1.2748456862
21
5.6390254250
31
0.0000000000
11
-1.3313608531
21
5.2738452485
31
0.0000000000
11
-1.3280746263
21
5.1527889262
31
0.0000000000
0
SPLINE
5
307
100
AcDbEntity
8
0
100
AcDbSpline
62
7
6
CONTINUOUS
70
0
71
3
72
8
73
4
74
2
42
0.0000001000
43
0.0000001000
44
0.0000000001
12
0.0082214292
22
-0.1124091587
32
0.0000000000
13
0.0178110890
23
-0.1112567293
33
0.0000000000
40
0.0000000000
40
0.0000000000
40
0.0000000000
40
0.0000000000
40
1.0000000000
40
1.0000000000
40
1.0000000000
40
1.0000000000
10
-1.3280746263
20
5.1527889262
30
0.0000000000
10
-1.3253341499
20
5.1153192066
30
0.0000000000
10
-1.3209934608
20
5.0779726628
30
0.0000000000
10
-1.3150564312
20
5.0408870864
30
0.0000000000
11
-1.3280746263
21
5.1527889262
31
0.0000000000
11
-1.3150564312
21
5.0408870864
31
0.0000000000
0
SPLINE
5
308
100
AcDbEntity
8
0
100
AcDbSpline
62
7
6
CONTINUOUS
70
0
71
3
72
21
73
17
74
15
42
0.0000001000
43
0.0000001000
44
0.0000000001
12
-1.0594739802
22
4.9079058586
32
0.0000000000
13
-1.4038762945
23
-4.8076190067
33
0.0000000000
40
0.0000000000
40
0.0000000000
40
0.0000000000
40
0.0000000000
40
0.0021796006
40
0.0697236761
40
0.1388223074
40
0.2106262520
40
0.2857251773
40
0.3641028008
40
0.4452101860
40
0.5280995084
40
0.6115813496
40
0.6943889400
40
0.7753436443
40
0.8535189947
40
0.9283971284
40
1.0000000000
40
1.0000000000
40
1.0000000000
40
1.0000000000
10
2.5827948135
20
5.9319197763
30
0.0000000000
10
2.5820250702
20
5.9354855344
30
0.0000000000
10
2.5569170218
20
6.0494472814
30
0.0000000000
10
2.4760548734
20
6.2694696457
30
0.0000000000
10
2.2753016070
20
6.5580773302
30
0.0000000000
10
2.0028768969
20
6.7991201153
30
0.0000000000
10
1.6715664100
20
6.9827946119
30
0.0000000000
10
1.2960215824
20
7.1019925717
30
0.0000000000
10
0.8923557857
20
7.1521928063
30
0.0000000000
10
0.4777080100
20
7.1315829202
30
0.0000000000
10
0.0696484284
20
7.0411748922
30
0.0000000000
10
-0.3145183113
20
6.8847923728
30
0.0000000000
10
-0.6584477290
20
6.6689499754
30
0.0000000000
10
-0.9474138246
20
6.4024316299
30
0.0000000000
10
-1.1686806160
20
6.0964049383
30
0.0000000000
10
-1.2662912704
20
5.8693844222
30
0.0000000000
10
-1.2997984617
20
5.7546379800
30
0.0000000000
11
2.5827948135
21
5.9319197763
31
0.0000000000
11
2.5804401354
21
5.9426071720
31
0.0000000000
11
2.4642528060
21
6.2603163136
31
0.0000000000
11
2.2678048194
21
6.5452287702
31
0.0000000000
11
1.9996818953
21
6.7848925005
31
0.0000000000
11
1.6716022920
21
6.9688330493
31
0.0000000000
11
1.2979046626
21
7.0890113320
31
0.0000000000
11
0.8949213866
21
7.1401749810
31
0.0000000000
11
0.4802647669
21
7.1200878993
31
0.0000000000
11
0.0720572876
21
7.0296279887
31
0.0000000000
11
-0.3118604258
21
6.8727487815
31
0.0000000000
11
-0.6547093268
21
6.6563066518
31
0.0000000000
11
-0.9415052734
21
6.3897611592
31
0.0000000000
11
-1.1597139065
21
6.0847616208
31
0.0000000000
11
-1.2997984617
21
5.7546379800
31
0.0000000000
0
SPLINE
5
309
100
AcDbEntity
8
0
100
AcDbSpline
62
7
6
CONTINUOUS
70
0
71
3
72
19
73
15
74
13
42
0.0000001000
43
0.0000001000
44
0.0000000001
12
-1.2931607048
22
4.7830623718
32
0.0000000000
13
-1.3848723401
23
-4.7425393608
33
0.0000000000
40
0.0000000000
40
0.0000000000
40
0.0000000000
40
0.0000000000
40
0.0720106346
40
0.1476791175
40
0.2267588239
40
0.3097395215
40
0.3963252805
40
0.4855800704
40
0.5761384071
40
0.6664370970
40
0.7549517369
40
0.8404324997
40
0.9221317323
40
1.0000000000
40
1.0000000000
40
1.0000000000
40
1.0000000000
10
2.5919969050
20
5.8811496159
30
0.0000000000
10
2.5609564640
20
5.9959600682
30
0.0000000000
10
2.4646597789
20
6.2226350291
30
0.0000000000
10
2.2301331916
20
6.5186842418
30
0.0000000000
10
1.9158074934
20
6.7582357165
30
0.0000000000
10
1.5399196660
20
6.9284908691
30
0.0000000000
10
1.1212495939
20
7.0221167351
30
0.0000000000
10
0.6801989980
20
7.0351848245
30
0.0000000000
10
0.2381211221
20
6.9673660080
30
0.0000000000
10
-0.1835841909
20
6.8220058412
30
0.0000000000
10
-0.5644441414
20
6.6060394240
30
0.0000000000
10
-0.8858611662
20
6.3294747695
30
0.0000000000
10
-1.1316847296
20
6.0054929996
30
0.0000000000
10
-1.2388998162
20
5.7621231998
30
0.0000000000
10
-1.2748456862
20
5.6390254250
30
0.0000000000
11
2.5919969050
21
5.8811496159
31
0.0000000000
11
2.4536249605
21
6.2089673710
31
0.0000000000
11
2.2230071713
21
6.5032082117
31
0.0000000000
11
1.9136515810
21
6.7418432597
31
0.0000000000
11
1.5410705705
21
6.9129063572
31
0.0000000000
11
1.1239469076
21
7.0078196862
31
0.0000000000
11
0.6831969145
21
7.0218238961
31
0.0000000000
11
0.2409216362
21
6.9542167572
31
0.0000000000
11
-0.1807013981
21
6.8083883738
31
0.0000000000
11
-0.5605302489
21
6.5916511901
31
0.0000000000
11
-0.8795187115
21
6.3148733134
31
0.0000000000
11
-1.1216713725
21
5.9919335421
31
0.0000000000
11
-1.2748456862
21
5.6390254250
31
0.0000000000
0
SPLINE
5
30A
100
AcDbEntity
8
0
100
AcDbSpline
62
7
6
CONTINUOUS
70
0
71
3
72
10
73
6
74
4
42
0.0000001000
43
0.0000001000
44
0.0000000001
12
0.3307445034
22
-1.5324409835
32
0.0000000000
13
-0.4386539402
23
-1.5021843654
33
0.0000000000
40
0.0000000000
40
0.0000000000
40
0.0000000000
40
0.0000000000
40
0.1947086931
40
0.5932775808
40
1.0000000000
40
1.0000000000
40
1.0000000000
40
1.0000000000
10
6.7202021778
20
-0.6770698968
30
0.0000000000
10
6.7416684544
20
-0.7765297572
30
0.0000000000
10
6.7918413456
20
-1.0828622324
30
0.0000000000
10
6.7964296484
20
-1.6079365544
30
0.0000000000
10
6.7160955711
20
-2.0234285779
30
0.0000000000
10
6.6566254405
20
-2.2270859310
30
0.0000000000
11
6.7202021778
21
-0.6770698968
31
0.0000000000
11
6.7694901866
21
-0.9781594105
31
0.0000000000
11
6.7758082292
21
-1.6018559030
31
0.0000000000
11
6.6566254405
21
-2.2270859310
31
0.0000000000
0
SPLINE
5
30B
100
AcDbEntity
8
0
100
AcDbSpline
62
7
6
CONTINUOUS
70
0
71
3
72
9
73
5
74
3
42
0.0000001000
43
0.0000001000
44
0.0000000001
12
0.0989053388
22
0.3371867524
32
0.0000000000
13
-0.0736604077
23
0.3412874025
33
0.0000000000
40
0.0000000000
40
0.0000000000
40
0.0000000000
40
0.0000000000
40
0.2589088708
40
1.0000000000
40
1.0000000000
40
1.0000000000
40
1.0000000000
10
-7.9161237701
20
2.4138174170
30
0.0000000000
10
-7.9075879469
20
2.4429176307
30
0.0000000000
10
-7.8823797287
20
2.5575701626
30
0.0000000000
10
-7.8892187401
20
2.6768124130
30
0.0000000000
10
-7.9074150984
20
2.7611207685
30
0.0000000000
11
-7.9161237701
21
2.4138174170
31
0.0000000000
11
-7.8966829320
21
2.5025944121
31
0.0000000000
11
-7.9074150984
21
2.7611207685
31
0.0000000000
0
SPLINE
5
30C
100
AcDbEntity
8
0
100
AcDbSpline
62
7
6
CONTINUOUS
70
0
71
3
72
9
73
5
74
3
42
0.0000001000
43
0.0000001000
44
0.0000000001
12
0.1014424267
22
0.3445978471
32
0.0000000000
13
-0.0752608948
23
0.3487028664
33
0.0000000000
40
0.0000000000
40
0.0000000000
40
0.0000000000
40
0.0000000000
40
0.2077171909
40
1.0000000000
40
1.0000000000
40
1.0000000000
40
1.0000000000
10
-7.8681074831
20
2.3998922700
30
0.0000000000
10
-7.8610837045
20
2.4237519022
30
0.0000000000
10
-7.8336898711
20
2.5404637212
30
0.0000000000
10
-7.8393485121
20
2.6629119525
30
0.0000000000
10
-7.8592244832
20
2.7550023813
30
0.0000000000
11
-7.8681074831
21
2.3998922700
31
0.0000000000
11
-7.8511294605
21
2.4724855103
31
0.0000000000
11
-7.8592244832
21
2.7550023813
31
0.0000000000
0
SPLINE
5
30D
100
AcDbEntity
8
0
100
AcDbSpline
62
7
6
CONTINUOUS
70
0
71
3
72
10
73
6
74
4
42
0.0000001000
43
0.0000001000
44
0.0000000001
12
0.3677876956
22
1.2595006573
32
0.0000000000
13
-0.2774365349
23
1.2850729489
33
0.0000000000
40
0.0000000000
40
0.0000000000
40
0.0000000000
40
0.0000000000
40
0.4290915497
40
0.8494052257
40
1.0000000000
40
1.0000000000
40
1.0000000000
40
1.0000000000
10
7.8774325036
20
-1.1270695886
30
0.0000000000
10
7.9300373677
20
-0.9469225590
30
0.0000000000
10
7.9992633732
20
-0.5787937321
30
0.0000000000
10
7.9879984613
20
-0.1383218720
30
0.0000000000
10
7.9447149097
20
0.1082688214
30
0.0000000000
10
7.9307880789
20
0.1727772449
30
0.0000000000
11
7.8774325036
21
-1.1270695886
31
0.0000000000
11
7.9798709041
21
-0.5734556526
31
0.0000000000
11
7.9649854639
21
-0.0221624761
31
0.0000000000
11
7.9307880789
21
0.1727772449
31
0.0000000000
0
SPLINE
5
30E
100
AcDbEntity
8
0
100
AcDbSpline
62
7
6
CONTINUOUS
70
0
71
3
72
12
73
8
74
6
42
0.0000001000
43
0.0000001000
44
0.0000000001
12
-0.4080553524
22
0.0666045543
32
0.0000000000
13
-0.1131778883
23
-0.3875812771
33
0.0000000000
40
0.0000000000
40
0.0000000000
40
0.0000000000
40
0.0000000000
40
0.0387215385
40
0.1706709895
40
0.3760361421
40
0.6589074754
40
1.0000000000
40
1.0000000000
40
1.0000000000
40
1.0000000000
10
-11.9788969724
20
-0.9928400599
30
0.0000000000
10
-11.9841638161
20
-0.9919803830
30
0.0000000000
10
-12.0075401192
20
-0.9914076869
30
0.0000000000
10
-12.0499372831
20
-1.0273226951
30
0.0000000000
10
-12.0945719654
20
-1.0962158390
30
0.0000000000
10
-12.1402599632
20
-1.1992545960
30
0.0000000000
10
-12.1663461009
20
-1.2789502475
30
0.0000000000
10
-12.1792141448
20
-1.3230172729
30
0.0000000000
11
-11.9788969724
21
-0.9928400599
31
0.0000000000
11
-11.9945581965
21
-0.9925890550
31
0.0000000000
11
-12.0395550778
21
-1.0211147228
31
0.0000000000
11
-12.0875357710
21
-1.0887427802
31
0.0000000000
11
-12.1353491233
21
-1.1924674225
31
0.0000000000
11
-12.1792141448
21
-1.3230172729
31
0.0000000000
0
SPLINE
5
30F
100
AcDbEntity
8
0
100
AcDbSpline
62
7
6
CONTINUOUS
70
0
71
3
72
24
73
20
74
18
42
0.0000001000
43
0.0000001000
44
0.0000000001
12
-3.2661692534
22
-11.1851004564
32
0.0000000000
13
-2.4626873912
23
11.4103879247
33
0.0000000000
40
0.0000000000
40
0.0000000000
40
0.0000000000
40
0.0000000000
40
0.0562785499
40
0.1145537620
40
0.1749287813
40
0.2372802410
40
0.3012911758
40
0.3664947411
40
0.4323227012
40
0.4981556717
40
0.5633738630
40
0.6274078264
40
0.6897887116
40
0.7501968000
40
0.8085053379
40
0.8648136893
40
0.9194599614
40
0.9730008215
40
1.0000000000
40
1.0000000000
40
1.0000000000
40
1.0000000000
10
6.6566254405
20
-2.2270859310
30
0.0000000000
10
6.5953536841
20
-2.4369130090
30
0.0000000000
10
6.4292245609
20
-2.8528613373
30
0.0000000000
10
6.0684416636
20
-3.4322526622
30
0.0000000000
10
5.6023218059
20
-3.9625347946
30
0.0000000000
10
5.0438733559
20
-4.4295029700
30
0.0000000000
10
4.4082576389
20
-4.8210260856
30
0.0000000000
10
3.7126045875
20
-5.1268000696
30
0.0000000000
10
2.9755778007
20
-5.3387619999
30
0.0000000000
10
2.2169187381
20
-5.4512733273
30
0.0000000000
10
1.4569310503
20
-5.4612852141
30
0.0000000000
10
0.7159507487
20
-5.3684079039
30
0.0000000000
10
0.0138283079
20
-5.1749012038
30
0.0000000000
10
-0.6305445251
20
-4.8855944990
30
0.0000000000
10
-1.1996392794
20
-4.5077705403
30
0.0000000000
10
-1.6776355782
20
-4.0510736531
30
0.0000000000
10
-2.0507786820
20
-3.5274747397
30
0.0000000000
10
-2.2662274442
20
-3.0446820846
30
0.0000000000
10
-2.3482422103
20
-2.7417723119
30
0.0000000000
10
-2.3704057225
20
-2.6390819450
30
0.0000000000
11
6.6566254405
21
-2.2270859310
31
0.0000000000
11
6.4151928165
21
-2.8367948493
31
0.0000000000
11
6.0580960098
21
-3.4143513879
31
0.0000000000
11
5.5950756903
21
-3.9440013100
31
0.0000000000
11
5.0387618453
21
-4.4112971464
31
0.0000000000
11
4.4043292664
21
-4.8034922850
31
0.0000000000
11
3.7090836204
21
-5.1098886646
31
0.0000000000
11
2.9719893963
21
-5.3221285908
31
0.0000000000
11
2.2131526029
21
-5.4344227116
31
0.0000000000
11
1.4532723299
21
-5.4437079361
31
0.0000000000
11
0.7130761302
21
-5.3497309877
31
0.0000000000
11
0.0127546267
21
-5.1550553125
31
0.0000000000
11
-0.6285892357
21
-4.8649911555
31
0.0000000000
11
-1.1934612682
21
-4.4874507106
31
0.0000000000
11
-1.6664532343
21
-4.0327322971
31
0.0000000000
11
-2.0346631462
21
-3.5132394480
31
0.0000000000
11
-2.2880471974
21
-2.9431425738
31
0.0000000000
11
-2.3704057225
21
-2.6390819450
31
0.0000000000
0
SPLINE
5
310
100
AcDbEntity
8
0
100
AcDbSpline
62
7
6
CONTINUOUS
70
0
71
3
72
20
73
16
74
14
42
0.0000001000
43
0.0000001000
44
0.0000000001
12
-1.0940132511
22
5.0688416266
32
0.0000000000
13
-1.5977302150
23
-4.9720926716
33
0.0000000000
40
0.0000000000
40
0.0000000000
40
0.0000000000
40
0.0000000000
40
0.0614253618
40
0.1324013915
40
0.2131093755
40
0.3020433107
40
0.3966350970
40
0.4937082764
40
0.5898427421
40
0.6817091016
40
0.7664139202
40
0.8419038163
40
0.9075030408
40
0.9646423184
40
1.0000000000
40
1.0000000000
40
1.0000000000
40
1.0000000000
10
-7.8592244832
20
2.7550023813
30
0.0000000000
10
-7.8816245364
20
2.8587875250
30
0.0000000000
10
-7.9716549220
20
3.0738187747
30
0.0000000000
10
-8.1980809833
20
3.3677110176
30
0.0000000000
10
-8.5119820793
20
3.6437917251
30
0.0000000000
10
-8.8987675336
20
3.8895301602
30
0.0000000000
10
-9.3401443665
20
4.0937117062
30
0.0000000000
10
-9.8148513893
20
4.2464212832
30
0.0000000000
10
-10.2998450601
20
4.3402622259
30
0.0000000000
10
-10.7716437045
20
4.3706950439
30
0.0000000000
10
-11.2077415974
20
4.3362421193
30
0.0000000000
10
-11.5880441601
20
4.2380506137
30
0.0000000000
10
-11.8957112515
20
4.0788512092
30
0.0000000000
10
-12.0935078333
20
3.8818495154
30
0.0000000000
10
-12.1638012884
20
3.7351718641
30
0.0000000000
10
-12.1826319671
20
3.6765713075
30
0.0000000000
11
-7.8592244832
21
2.7550023813
31
0.0000000000
11
-7.9760610461
21
3.0513253191
31
0.0000000000
11
-8.1957804761
21
3.3465954542
31
0.0000000000
11
-8.5073651235
21
3.6260067090
31
0.0000000000
11
-8.8951908331
21
3.8755482365
31
0.0000000000
11
-9.3398104043
21
4.0827069826
31
0.0000000000
11
-9.8189287553
21
4.2370951427
31
0.0000000000
11
-10.3085208913
21
4.3309710498
31
0.0000000000
11
-10.7840366184
21
4.3596273739
31
0.0000000000
11
-11.2216315922
21
4.3216271673
31
0.0000000000
11
-11.5993629737
21
4.2188759189
31
0.0000000000
11
-11.8982897340
21
4.0565260055
31
0.0000000000
11
-12.1034224373
21
3.8427183296
31
0.0000000000
11
-12.1826319671
21
3.6765713075
31
0.0000000000
0
SPLINE
5
311
100
AcDbEntity
8
0
100
AcDbSpline
62
7
6
CONTINUOUS
70
0
71
3
72
8
73
4
74
2
42
0.0000001000
43
0.0000001000
44
0.0000000001
12
-0.0050593385
22
-0.0157445228
32
0.0000000000
13
-0.0046694220
23
-0.0158619308
33
0.0000000000
40
0.0000000000
40
0.0000000000
40
0.0000000000
40
0.0000000000
40
1.0000000000
40
1.0000000000
40
1.0000000000
40
1.0000000000
10
-12.1826319671
20
3.6765713075
30
0.0000000000
10
-12.1843184133
20
3.6713231333
30
0.0000000000
10
-12.1859403766
20
3.6660546515
30
0.0000000000
10
-12.1874968506
20
3.6607673412
30
0.0000000000
11
-12.1826319671
21
3.6765713075
31
0.0000000000
11
-12.1874968506
21
3.6607673412
31
0.0000000000
0
SPLINE
5
312
100
AcDbEntity
8
0
100
AcDbSpline
62
7
6
CONTINUOUS
70
0
71
3
72
9
73
5
74
3
42
0.0000001000
43
0.0000001000
44
0.0000000001
12
0.0603151198
22
-0.0133017638
32
0.0000000000
13
0.0139984820
23
-0.0648585273
33
0.0000000000
40
0.0000000000
40
0.0000000000
40
0.0000000000
40
0.0000000000
40
0.3338623285
40
1.0000000000
40
1.0000000000
40
1.0000000000
40
1.0000000000
10
-4.8297309245
20
-2.6135532500
30
0.0000000000
10
-4.8230186091
20
-2.6150335693
30
0.0000000000
10
-4.8033574185
20
-2.6327616640
30
0.0000000000
10
-4.7998668886
20
-2.6545186895
30
0.0000000000
10
-4.7967585832
20
-2.6689202590
30
0.0000000000
11
-4.8297309245
21
-2.6135532500
31
0.0000000000
11
-4.8116927947
21
-2.6273201362
31
0.0000000000
11
-4.7967585832
21
-2.6689202590
31
0.0000000000
0
SPLINE
5
313
100
AcDbEntity
8
0
100
AcDbSpline
62
7
6
CONTINUOUS
70
0
71
3
72
9
73
5
74
3
42
0.0000001000
43
0.0000001000
44
0.0000000001
12
0.0603151198
22
-0.0133017638
32
0.0000000000
13
0.0139984820
23
-0.0648585273
33
0.0000000000
40
0.0000000000
40
0.0000000000
40
0.0000000000
40
0.0000000000
40
0.3338623285
40
1.0000000000
40
1.0000000000
40
1.0000000000
40
1.0000000000
10
-7.2392616841
20
-2.3076338898
30
0.0000000000
10
-7.2325493687
20
-2.3091142090
30
0.0000000000
10
-7.2128881781
20
-2.3268423038
30
0.0000000000
10
-7.2093976483
20
-2.3485993293
30
0.0000000000
10
-7.2062893429
20
-2.3630008987
30
0.0000000000
11
-7.2392616841
21
-2.3076338898
31
0.0000000000
11
-7.2212235544
21
-2.3214007760
31
0.0000000000
11
-7.2062893429
21
-2.3630008987
31
0.0000000000
0
SPLINE
5
314
100
AcDbEntity
8
0
100
AcDbSpline
62
7
6
CONTINUOUS
70
0
71
3
72
21
73
17
74
15
42
0.0000001000
43
0.0000001000
44
0.0000000001
12
-1.0733275401
22
4.9729994670
32
0.0000000000
13
-1.4411788819
23
-4.9132476844
33
0.0000000000
40
0.0000000000
40
0.0000000000
40
0.0000000000
40
0.0000000000
40
0.0568836249
40
0.1219937767
40
0.1956411213
40
0.2767873922
40
0.3635109713
40
0.4533487632
40
0.5435662356
40
0.6313970327
40
0.7142793299
40
0.7901142838
40
0.8575831572
40
0.9165755324
40
0.9687334103
40
1.0000000000
40
1.0000000000
40
1.0000000000
40
1.0000000000
10
-7.9074150984
20
2.7611207685
30
0.0000000000
10
-7.9277666854
20
2.8554148474
30
0.0000000000
10
-8.0065056830
20
3.0504173115
30
0.0000000000
10
-8.2037541082
20
3.3199580328
30
0.0000000000
10
-8.4774799162
20
3.5758643266
30
0.0000000000
10
-8.8164529295
20
3.8080284116
30
0.0000000000
10
-9.2066629464
20
4.0072190290
30
0.0000000000
10
-9.6317028072
20
4.1650144318
30
0.0000000000
10
-10.0735381154
20
4.2747249725
30
0.0000000000
10
-10.5133978294
20
4.3316923228
30
0.0000000000
10
-10.9327234924
20
4.3335157462
30
0.0000000000
10
-11.3141504972
20
4.2800385363
30
0.0000000000
10
-11.6424076966
20
4.1728849138
30
0.0000000000
10
-11.9046287297
20
4.0145394882
30
0.0000000000
10
-12.0677841795
20
3.8298496341
30
0.0000000000
10
-12.1244603140
20
3.6980490273
30
0.0000000000
10
-12.1394805636
20
3.6468421942
30
0.0000000000
11
-7.9074150984
21
2.7611207685
31
0.0000000000
11
-8.0108183544
21
3.0314128517
31
0.0000000000
11
-8.2023734816
21
3.3016576005
31
0.0000000000
11
-8.4737086017
21
3.5600440228
31
0.0000000000
11
-8.8129650680
21
3.7952793918
31
0.0000000000
11
-9.2053157450
21
3.9970827934
31
0.0000000000
11
-9.6336130253
21
4.1566344503
31
0.0000000000
11
-10.0791382626
21
4.2669611897
31
0.0000000000
11
-10.5224198662
21
4.3232412036
31
0.0000000000
11
-10.9440843029
21
4.3230147853
31
0.0000000000
11
-11.3257028134
21
4.2662918304
31
0.0000000000
11
-11.6505968377
21
4.1555514042
31
0.0000000000
11
-11.9045669478
21
3.9956333948
31
0.0000000000
11
-12.0765134313
21
3.7935269864
31
0.0000000000
11
-12.1394805636
21
3.6468421942
31
0.0000000000
0
SPLINE
5
315
100
AcDbEntity
8
0
100
AcDbSpline
62
7
6
CONTINUOUS
70
0
71
3
72
10
73
6
74
4
42
0.0000001000
43
0.0000001000
44
0.0000000001
12
-0.8541915642
22
0.6354609184
32
0.0000000000
13
-1.0057797444
23
0.3490858244
33
0.0000000000
40
0.0000000000
40
0.0000000000
40
0.0000000000
40
0.0000000000
40
0.3190138203
40
0.6542525538
40
1.0000000000
40
1.0000000000
40
1.0000000000
40
1.0000000000
10
-8.9354532831
20
2.3349716583
30
0.0000000000
10
-9.0262862545
20
2.4025452634
30
0.0000000000
10
-9.2211365833
20
2.5298615856
30
0.0000000000
10
-9.5371746430
20
2.6924063394
30
0.0000000000
10
-9.7620346559
20
2.7821093800
30
0.0000000000
10
-9.8779499152
20
2.8223412241
30
0.0000000000
11
-8.9354532831
21
2.3349716583
31
0.0000000000
11
-9.2191381033
21
2.5217183047
31
0.0000000000
11
-9.5361902800
21
2.6856119681
31
0.0000000000
11
-9.8779499152
21
2.8223412241
31
0.0000000000
0
SPLINE
5
316
100
AcDbEntity
8
0
100
AcDbSpline
62
7
6
CONTINUOUS
70
0
71
3
72
9
73
5
74
3
42
0.0000001000
43
0.0000001000
44
0.0000000001
12
0.0603151198
22
-0.0133017638
32
0.0000000000
13
0.0139984820
23
-0.0648585273
33
0.0000000000
40
0.0000000000
40
0.0000000000
40
0.0000000000
40
0.0000000000
40
0.3338623285
40
1.0000000000
40
1.0000000000
40
1.0000000000
40
1.0000000000
10
-9.6487924438
20
-2.0017145295
30
0.0000000000
10
-9.6420801283
20
-2.0031948488
30
0.0000000000
10
-9.6224189378
20
-2.0209229435
30
0.0000000000
10
-9.6189284079
20
-2.0426799690
30
0.0000000000
10
-9.6158201025
20
-2.0570815384
30
0.0000000000
11
-9.6487924438
21
-2.0017145295
31
0.0000000000
11
-9.6307543140
21
-2.0154814157
31
0.0000000000
11
-9.6158201025
21
-2.0570815384
31
0.0000000000
0
SPLINE
5
317
100
AcDbEntity
8
0
100
AcDbSpline
62
7
6
CONTINUOUS
70
0
71
3
72
10
73
6
74
4
42
0.0000001000
43
0.0000001000
44
0.0000000001
12
-0.8263920644
22
-0.0966776783
32
0.0000000000
13
-0.6743689323
23
-0.4873365991
33
0.0000000000
40
0.0000000000
40
0.0000000000
40
0.0000000000
40
0.0000000000
40
0.3670137833
40
0.7003080756
40
1.0000000000
40
1.0000000000
40
1.0000000000
40
1.0000000000
10
-11.4417951397
20
3.0208904764
30
0.0000000000
10
-11.5428942324
20
3.0090631295
30
0.0000000000
10
-11.7348255681
20
2.9749620129
30
0.0000000000
10
-11.9988161059
20
2.8865610845
30
0.0000000000
10
-12.1537264963
20
2.8008075104
30
0.0000000000
10
-12.2210941373
20
2.7521238960
30
0.0000000000
11
-11.4417951397
21
3.0208904764
31
0.0000000000
11
-11.7421288338
21
2.9656828112
31
0.0000000000
11
-12.0043066197
21
2.8753294663
31
0.0000000000
11
-12.2210941373
21
2.7521238960
31
0.0000000000
0
SPLINE
5
318
100
AcDbEntity
8
0
100
AcDbSpline
62
7
6
CONTINUOUS
70
0
71
3
72
9
73
5
74
3
42
0.0000001000
43
0.0000001000
44
0.0000000001
12
0.0603151198
22
-0.0133017638
32
0.0000000000
13
0.0139984820
23
-0.0648585273
33
0.0000000000
40
0.0000000000
40
0.0000000000
40
0.0000000000
40
0.0000000000
40
0.3338623285
40
1.0000000000
40
1.0000000000
40
1.0000000000
40
1.0000000000
10
-12.0583232034
20
-1.6957951692
30
0.0000000000
10
-12.0516108879
20
-1.6972754885
30
0.0000000000
10
-12.0319496974
20
-1.7150035832
30
0.0000000000
10
-12.0284591675
20
-1.7367606087
30
0.0000000000
10
-12.0253508621
20
-1.7511621782
30
0.0000000000
11
-12.0583232034
21
-1.6957951692
31
0.0000000000
11
-12.0402850736
21
-1.7095620554
31
0.0000000000
11
-12.0253508621
21
-1.7511621782
31
0.0000000000
0
SPLINE
5
319
100
AcDbEntity
8
0
100
AcDbSpline
62
9
6
CONTINUOUS
70
0
71
3
72
15
73
11
74
9
42
0.0000001000
43
0.0000001000
44
0.0000000001
12
0.7482203467
22
2.5623043671
32
0.0000000000
13
-1.5662199809
23
2.1657196459
33
0.0000000000
40
0.0000000000
40
0.0000000000
40
0.0000000000
40
0.0000000000
40
0.1013783661
40
0.2126177738
40
0.3355260413
40
0.4720024411
40
0.6242891108
40
0.7952146682
40
0.9882043226
40
1.0000000000
40
1.0000000000
40
1.0000000000
40
1.0000000000
10
6.2926234229
20
-1.8435379426
30
0.0000000000
10
6.3179078749
20
-1.7569505326
30
0.0000000000
10
6.3632819629
20
-1.5730124806
30
0.0000000000
10
6.4078805212
20
-1.2773534459
30
0.0000000000
10
6.4226021609
20
-0.9472148983
30
0.0000000000
10
6.3948991614
20
-0.5809726865
30
0.0000000000
10
6.3086653555
20
-0.1796975397
30
0.0000000000
10
6.1443494460
20
0.2513104494
30
0.0000000000
10
5.9739761409
20
0.5408960119
30
0.0000000000
10
5.8678197794
20
0.6892806609
30
0.0000000000
10
5.8616615709
20
0.6977960377
30
0.0000000000
11
6.2926234229
21
-1.8435379426
31
0.0000000000
11
6.3572870182
21
-1.5807666213
31
0.0000000000
11
6.4014040553
21
-1.2871293610
31
0.0000000000
11
6.4158307033
21
-0.9593659427
31
0.0000000000
11
6.3882036433
21
-0.5961166532
31
0.0000000000
11
6.3027820079
21
-0.1986922443
31
0.0000000000
11
6.1405226611
21
0.2277343091
31
0.0000000000
11
5.8800049344
21
0.6721553113
31
0.0000000000
11
5.8616615709
21
0.6977960377
31
0.0000000000
0
SPLINE
5
31A
100
AcDbEntity
8
0
100
AcDbSpline
62
9
6
CONTINUOUS
70
0
71
3
72
31
73
27
74
25
42
0.0000001000
43
0.0000001000
44
0.0000000001
12
-2.4250014387
22
-11.8690295572
32
0.0000000000
13
3.3942134189
23
11.6235917722
33
0.0000000000
40
0.0000000000
40
0.0000000000
40
0.0000000000
40
0.0000000000
40
0.0009208522
40
0.0254424653
40
0.0525363617
40
0.0826212169
40
0.1161912877
40
0.1538701145
40
0.1964127506
40
0.2440256396
40
0.2956289437
40
0.3500608099
40
0.4066685073
40
0.4648309879
40
0.5243370711
40
0.5848508778
40
0.6453229079
40
0.7043423801
40
0.7596479578
40
0.8091085452
40
0.8524310300
40
0.8902496303
40
0.9232543107
40
0.9521244320
40
0.9775029768
40
1.0000000000
40
1.0000000000
40
1.0000000000
40
1.0000000000
10
-2.1549939313
20
-1.0307762638
30
0.0000000000
10
-2.1557382873
20
-1.0344194712
30
0.0000000000
10
-2.1761222480
20
-1.1351156904
30
0.0000000000
10
-2.2078007190
20
-1.3451230656
30
0.0000000000
10
-2.2225223588
20
-1.6752616132
30
0.0000000000
10
-2.1948193593
20
-2.0415038251
30
0.0000000000
10
-2.1085855533
20
-2.4427789719
30
0.0000000000
10
-1.9442696439
20
-2.8737869609
30
0.0000000000
10
-1.6813003911
20
-3.3207589729
30
0.0000000000
10
-1.3063243001
20
-3.7571084446
30
0.0000000000
10
-0.8219957223
20
-4.1496929467
30
0.0000000000
10
-0.2458449591
20
-4.4707602002
30
0.0000000000
10
0.3992204165
20
-4.7034960296
30
0.0000000000
10
1.0918853011
20
-4.8399711880
30
0.0000000000
10
1.8125282784
20
-4.8767280507
30
0.0000000000
10
2.5405451049
20
-4.8127937813
30
0.0000000000
10
3.2512062466
20
-4.6512579390
30
0.0000000000
10
3.9139990649
20
-4.4032424348
30
0.0000000000
10
4.4987286716
20
-4.0906996170
30
0.0000000000
10
4.9867130617
20
-3.7427879512
30
0.0000000000
10
5.3764761287
20
-3.3860382149
30
0.0000000000
10
5.6791408752
20
-3.0374104810
30
0.0000000000
10
5.9092111234
20
-2.7063927776
30
0.0000000000
10
6.0804598275
20
-2.3980111312
30
0.0000000000
10
6.2050802633
20
-2.1139747745
30
0.0000000000
10
6.2671701902
20
-1.9307033472
30
0.0000000000
10
6.2926234229
20
-1.8435379426
30
0.0000000000
11
-2.1549939313
21
-1.0307762638
31
0.0000000000
11
-2.1572072160
21
-1.0417098903
31
0.0000000000
11
-2.2013242531
21
-1.3353471506
31
0.0000000000
11
-2.2157509012
21
-1.6631105688
31
0.0000000000
11
-2.1881238411
21
-2.0263598583
31
0.0000000000
11
-2.1027022058
21
-2.4237842672
31
0.0000000000
11
-1.9404428589
21
-2.8502108206
31
0.0000000000
11
-1.6799251322
21
-3.2946318229
31
0.0000000000
11
-1.3052946196
21
-3.7328749871
31
0.0000000000
11
-0.8211118039
21
-4.1278741865
31
0.0000000000
11
-0.2463492195
21
-4.4504934875
31
0.0000000000
11
0.3978195701
21
-4.6848175519
31
0.0000000000
11
1.0885544035
21
-4.8223362404
31
0.0000000000
11
1.8081311162
21
-4.8599833102
31
0.0000000000
11
2.5381253360
21
-4.7963385891
31
0.0000000000
11
3.2521601570
21
-4.6339952160
31
0.0000000000
11
3.9213267144
21
-4.3830626782
31
0.0000000000
11
4.5115707516
21
-4.0666676719
31
0.0000000000
11
4.9987433938
21
-3.7182891742
31
0.0000000000
11
5.3852038475
21
-3.3635408903
31
0.0000000000
11
5.6849626868
21
-3.0173333773
31
0.0000000000
11
5.9126769574
21
-2.6888976587
31
0.0000000000
11
6.0821064643
21
-2.3831098299
31
0.0000000000
11
6.2053614094
21
-2.1016007534
31
0.0000000000
11
6.2926234229
21
-1.8435379426
31
0.0000000000
0
SPLINE
5
31B
100
AcDbEntity
8
0
100
AcDbSpline
62
9
6
CONTINUOUS
70
0
71
3
72
12
73
8
74
6
42
0.0000001000
43
0.0000001000
44
0.0000000001
12
1.3935768859
22
-2.0987204829
32
0.0000000000
13
-0.7050782413
23
-2.4145628554
33
0.0000000000
40
0.0000000000
40
0.0000000000
40
0.0000000000
40
0.0000000000
40
0.0781516927
40
0.3071479413
40
0.5348417304
40
0.7648002059
40
1.0000000000
40
1.0000000000
40
1.0000000000
40
1.0000000000
10
5.8874182980
20
0.5751519767
30
0.0000000000
10
5.9237217622
20
0.5204791240
30
0.0000000000
10
6.0593618966
20
0.3009429487
30
0.0000000000
10
6.2439906297
20
-0.1111024886
30
0.0000000000
10
6.3682061847
20
-0.6775070198
30
0.0000000000
10
6.3741205133
20
-1.2622827173
30
0.0000000000
10
6.2997108934
20
-1.6481179933
30
0.0000000000
10
6.2444328077
20
-1.8374195554
30
0.0000000000
11
5.8874182980
21
0.5751519767
31
0.0000000000
11
5.9908300588
21
0.4076535745
31
0.0000000000
11
6.2255743957
21
-0.1183611550
31
0.0000000000
11
6.3482703837
21
-0.6778059853
31
0.0000000000
11
6.3549197952
21
-1.2562058603
31
0.0000000000
11
6.2444328077
21
-1.8374195554
31
0.0000000000
0
SPLINE
5
31C
100
AcDbEntity
8
0
100
AcDbSpline
62
9
6
CONTINUOUS
70
0
71
3
72
26
73
22
74
20
42
0.0000001000
43
0.0000001000
44
0.0000000001
12
-3.3194144132
22
-11.3674401988
32
0.0000000000
13
1.8980316974
23
11.7135510218
33
0.0000000000
40
0.0000000000
40
0.0000000000
40
0.0000000000
40
0.0000000000
40
0.0514758427
40
0.1046693385
40
0.1596238257
40
0.2162751398
40
0.2744073389
40
0.3336491836
40
0.3934953984
40
0.4533659874
40
0.5126467996
40
0.5708355916
40
0.6275405319
40
0.6824818791
40
0.7354962620
40
0.7866599375
40
0.8362886348
40
0.8849298263
40
0.9332943619
40
0.9821399404
40
1.0000000000
40
1.0000000000
40
1.0000000000
40
1.0000000000
10
6.2444328077
20
-1.8374195554
30
0.0000000000
10
6.1874762562
20
-2.0324690768
30
0.0000000000
10
6.0330053366
20
-2.4186725954
30
0.0000000000
10
5.6977908885
20
-2.9556124228
30
0.0000000000
10
5.2658488837
20
-3.4457393026
30
0.0000000000
10
4.7495029545
20
-3.8765497060
30
0.0000000000
10
4.1624060083
20
-4.2375659793
30
0.0000000000
10
3.5198792418
20
-4.5196035120
30
0.0000000000
10
2.8389043259
20
-4.7151973666
30
0.0000000000
10
2.1378820256
20
-4.8189841020
30
0.0000000000
10
1.4357632690
20
-4.8281281913
30
0.0000000000
10
0.7513156072
20
-4.7423404303
30
0.0000000000
10
0.1026058443
20
-4.5636778570
30
0.0000000000
10
-0.4929134729
20
-4.2965273864
30
0.0000000000
10
-1.0188763428
20
-3.9476776321
30
0.0000000000
10
-1.4605891080
20
-3.5262341982
30
0.0000000000
10
-1.8056053055
20
-3.0432127101
30
0.0000000000
10
-2.0439108275
20
-2.5113740229
30
0.0000000000
10
-2.1681263825
20
-1.9449694917
30
0.0000000000
10
-2.1727507450
20
-1.4877384206
30
0.0000000000
10
-2.1397059197
20
-1.2257667578
30
0.0000000000
10
-2.1284062667
20
-1.1560318515
30
0.0000000000
11
6.2444328077
21
-1.8374195554
31
0.0000000000
11
6.0197375562
21
-2.4040828812
31
0.0000000000
11
5.6878579878
21
-2.9394928771
31
0.0000000000
11
5.2589042877
21
-3.4288950487
31
0.0000000000
11
4.7447359054
21
-3.8598291052
31
0.0000000000
11
4.1588954450
21
-4.2213563193
31
0.0000000000
11
3.5167767761
21
-4.5039506995
31
0.0000000000
11
2.8356712102
21
-4.6998192980
31
0.0000000000
11
2.1342851069
21
-4.8034341905
31
0.0000000000
11
1.4323222391
21
-4.8119071873
31
0.0000000000
11
0.7487268724
21
-4.7251228587
31
0.0000000000
11
0.1017159985
21
-4.5453933472
31
0.0000000000
11
-0.4911815579
21
-4.2774647299
31
0.0000000000
11
-1.0132963041
21
-3.9288441004
31
0.0000000000
11
-1.4503743657
21
-3.5092433956
31
0.0000000000
11
-1.7907502566
21
-3.0301300861
31
0.0000000000
11
-2.0254945936
21
-2.5041153565
31
0.0000000000
11
-2.1481905815
21
-1.9446705263
31
0.0000000000
11
-2.1548399930
21
-1.3662706512
31
0.0000000000
11
-2.1284062667
21
-1.1560318515
31
0.0000000000
0
SPLINE
5
31D
100
AcDbEntity
8
0
100
AcDbSpline
62
9
6
CONTINUOUS
70
0
71
3
72
24
73
20
74
18
42
0.0000001000
43
0.0000001000
44
0.0000000001
12
-2.8798034255
22
-9.8619783951
32
0.0000000000
13
-2.1720831010
23
10.0604501341
33
0.0000000000
40
0.0000000000
40
0.0000000000
40
0.0000000000
40
0.0000000000
40
0.0566213829
40
0.1150795219
40
0.1754727592
40
0.2377303680
40
0.3016150065
40
0.3667186538
40
0.4324860749
40
0.4982799800
40
0.5634255972
40
0.6273711288
40
0.6896861878
40
0.7500634917
40
0.8083234981
40
0.8645499099
40
0.9190895161
40
0.9725437145
40
1.0000000000
40
1.0000000000
40
1.0000000000
40
1.0000000000
10
6.0267175714
20
-1.6973334516
30
0.0000000000
10
5.9723647539
20
-1.8834664033
30
0.0000000000
10
5.8249883846
20
-2.2518375551
30
0.0000000000
10
5.5052309055
20
-2.7638778761
30
0.0000000000
10
5.0933537859
20
-3.2311292589
30
0.0000000000
10
4.6010249179
20
-3.6418288296
30
0.0000000000
10
4.0412545915
20
-3.9859856312
30
0.0000000000
10
3.4286505343
20
-4.2548473304
30
0.0000000000
10
2.7794004715
20
-4.4412984173
30
0.0000000000
10
2.1110451831
20
-4.5402276771
30
0.0000000000
10
1.4416491112
20
-4.5489331756
30
0.0000000000
10
0.7891012554
20
-4.4671399919
30
0.0000000000
10
0.1706222774
20
-4.2968090949
30
0.0000000000
10
-0.3971523928
20
-4.0421216779
30
0.0000000000
10
-0.8986223508
20
-3.7095480343
30
0.0000000000
10
-1.3197802676
20
-3.3077669070
30
0.0000000000
10
-1.6487616750
20
-2.8472782417
30
0.0000000000
10
-1.8397823979
20
-2.4210883021
30
0.0000000000
10
-1.9126853591
20
-2.1528386246
30
0.0000000000
10
-1.9325644704
20
-2.0607644276
30
0.0000000000
11
6.0267175714
21
-1.6973334516
31
0.0000000000
11
5.8122518701
21
-2.2380753523
31
0.0000000000
11
5.4957626831
21
-2.7485092413
31
0.0000000000
11
5.0867354561
21
-3.2150718526
31
0.0000000000
11
4.5964809242
21
-3.6258888955
31
0.0000000000
11
4.0379080946
21
-3.9705332262
31
0.0000000000
11
3.4256925830
21
-4.2399255781
31
0.0000000000
11
2.7763178625
21
-4.4266384861
31
0.0000000000
11
2.1076158230
21
-4.5254038142
31
0.0000000000
11
1.4383684697
21
-4.5334695680
31
0.0000000000
11
0.7866334635
21
-4.4507264950
31
0.0000000000
11
0.1697741021
21
-4.2793786559
31
0.0000000000
11
-0.3955016966
21
-4.0239494047
31
0.0000000000
11
-0.8933038197
21
-3.6915937983
31
0.0000000000
11
-1.3100442022
21
-3.2915685803
31
0.0000000000
11
-1.6346017805
21
-2.8348041906
31
0.0000000000
11
-1.8584627939
21
-2.3333213218
31
0.0000000000
11
-1.9325644704
21
-2.0607644276
31
0.0000000000
0
SPLINE
5
31E
100
AcDbEntity
8
0
100
AcDbSpline
62
7
6
CONTINUOUS
70
0
71
3
72
12
73
8
74
6
42
0.0000001000
43
0.0000001000
44
0.0000000001
12
-0.4080553524
22
0.0666045543
32
0.0000000000
13
-0.1131778883
23
-0.3875812771
33
0.0000000000
40
0.0000000000
40
0.0000000000
40
0.0000000000
40
0.0000000000
40
0.0387215385
40
0.1706709895
40
0.3760361421
40
0.6589074754
40
1.0000000000
40
1.0000000000
40
1.0000000000
40
1.0000000000
10
-9.5693662128
20
-1.2987594202
30
0.0000000000
10
-9.5746330564
20
-1.2978997433
30
0.0000000000
10
-9.5980093596
20
-1.2973270472
30
0.0000000000
10
-9.6404065235
20
-1.3332420554
30
0.0000000000
10
-9.6850412058
20
-1.4021351993
30
0.0000000000
10
-9.7307292035
20
-1.5051739563
30
0.0000000000
10
-9.7568153412
20
-1.5848696078
30
0.0000000000
10
-9.7696833851
20
-1.6289366332
30
0.0000000000
11
-9.5693662128
21
-1.2987594202
31
0.0000000000
11
-9.5850274368
21
-1.2985084153
31
0.0000000000
11
-9.6300243182
21
-1.3270340831
31
0.0000000000
11
-9.6780050114
21
-1.3946621404
31
0.0000000000
11
-9.7258183636
21
-1.4983867828
31
0.0000000000
11
-9.7696833851
21
-1.6289366332
31
0.0000000000
0
SPLINE
5
31F
100
AcDbEntity
8
0
100
AcDbSpline
62
7
6
CONTINUOUS
70
0
71
3
72
9
73
5
74
3
42
0.0000001000
43
0.0000001000
44
0.0000000001
12
0.0603151198
22
-0.0133017638
32
0.0000000000
13
0.0139984820
23
-0.0648585273
33
0.0000000000
40
0.0000000000
40
0.0000000000
40
0.0000000000
40
0.0000000000
40
0.3338623285
40
1.0000000000
40
1.0000000000
40
1.0000000000
40
1.0000000000
10
-14.4678539630
20
-1.3898758089
30
0.0000000000
10
-14.4611416476
20
-1.3913561282
30
0.0000000000
10
-14.4414804570
20
-1.4090842229
30
0.0000000000
10
-14.4379899272
20
-1.4308412484
30
0.0000000000
10
-14.4348816218
20
-1.4452428179
30
0.0000000000
11
-14.4678539630
21
-1.3898758089
31
0.0000000000
11
-14.4498158333
21
-1.4036426951
31
0.0000000000
11
-14.4348816218
21
-1.4452428179
31
0.0000000000
0
SPLINE
5
320
100
AcDbEntity
8
0
100
AcDbSpline
62
7
6
CONTINUOUS
70
0
71
3
72
9
73
5
74
3
42
0.0000001000
43
0.0000001000
44
0.0000000001
12
-0.1884985824
22
-0.6455193889
32
0.0000000000
13
0.1422556561
23
-0.6589849125
33
0.0000000000
40
0.0000000000
40
0.0000000000
40
0.0000000000
40
0.0000000000
40
0.5135683977
40
1.0000000000
40
1.0000000000
40
1.0000000000
40
1.0000000000
10
-1.2997984617
20
5.7546379800
30
0.0000000000
10
-1.3320674334
20
5.6441318606
30
0.0000000000
10
-1.3696639440
20
5.4203986187
30
0.0000000000
10
-1.3502084039
20
5.1947355696
30
0.0000000000
10
-1.3271425216
20
5.0878852073
30
0.0000000000
11
-1.2997984617
21
5.7546379800
31
0.0000000000
11
-1.3556365718
21
5.4138182240
31
0.0000000000
11
-1.3271425216
21
5.0878852073
31
0.0000000000
0
SPLINE
5
321
100
AcDbEntity
8
0
100
AcDbSpline
62
9
6
CONTINUOUS
70
0
71
3
72
26
73
22
74
20
42
0.0000001000
43
0.0000001000
44
0.0000000001
12
2.8682566301
22
9.8224360262
32
0.0000000000
13
-2.8682566301
23
-9.8224360262
33
0.0000000000
40
0.0000000000
40
0.0000000000
40
0.0000000000
40
0.0000000000
40
0.0427696922
40
0.0881844679
40
0.1353869872
40
0.1838368083
40
0.2331390964
40
0.2836304416
40
0.3359483262
40
0.3902899207
40
0.4464463473
40
0.5041062830
40
0.5628700794
40
0.6221853372
40
0.6813579207
40
0.7399146460
40
0.7976818157
40
0.8539557318
40
0.9072173350
40
0.9562095365
40
1.0000000000
40
1.0000000000
40
1.0000000000
40
1.0000000000
10
4.0975504398
20
5.0693786130
30
0.0000000000
10
4.1384419243
20
5.2094128016
30
0.0000000000
10
4.1989766850
20
5.5057915507
30
0.0000000000
10
4.2074488759
20
5.9703204289
30
0.0000000000
10
4.1191085319
20
6.4468659236
30
0.0000000000
10
3.9283755470
20
6.9069572516
30
0.0000000000
10
3.6413967020
20
7.3274009932
30
0.0000000000
10
3.2694347952
20
7.6934617031
30
0.0000000000
10
2.8237048722
20
7.9960659316
30
0.0000000000
10
2.3162963503
20
8.2277167260
30
0.0000000000
10
1.7616289697
20
8.3821719231
30
0.0000000000
10
1.1754990498
20
8.4553495933
30
0.0000000000
10
0.5742361608
20
8.4454044105
30
0.0000000000
10
-0.0250937235
20
8.3527367182
30
0.0000000000
10
-0.6057191517
20
8.1801214089
30
0.0000000000
10
-1.1525839253
20
7.9320005356
30
0.0000000000
10
-1.6507387348
20
7.6143997166
30
0.0000000000
10
-2.0826569030
20
7.2380124252
30
0.0000000000
10
-2.4310722440
20
6.8213956676
30
0.0000000000
10
-2.6853831860
20
6.3905327644
30
0.0000000000
10
-2.8000307188
20
6.0938027128
30
0.0000000000
10
-2.8418981479
20
5.9504263706
30
0.0000000000
11
4.0975504398
21
5.0693786130
31
0.0000000000
11
4.1842195849
21
5.4983583872
31
0.0000000000
11
4.1919979110
21
5.9630068343
31
0.0000000000
11
4.1038268398
21
6.4378979070
31
0.0000000000
11
3.9146075629
21
6.8961380902
31
0.0000000000
11
3.6312893732
21
7.3135636495
31
0.0000000000
11
3.2642056988
21
7.6771395744
31
0.0000000000
11
2.8222557342
21
7.9792662851
31
0.0000000000
11
2.3170873982
21
8.2116583772
31
0.0000000000
11
1.7638788891
21
8.3670899136
31
0.0000000000
11
1.1785323257
21
8.4411568793
31
0.0000000000
11
0.5772956917
21
8.4318013878
31
0.0000000000
11
-0.0225565165
21
8.3392354161
31
0.0000000000
11
-0.6028779243
21
8.1664693824
31
0.0000000000
11
-1.1482679577
21
7.9183182112
31
0.0000000000
11
-1.6461366087
21
7.5996658052
31
0.0000000000
11
-2.0793366360
21
7.2202986078
31
0.0000000000
11
-2.4277912942
21
6.8012372615
31
0.0000000000
11
-2.6813596909
21
6.3687734966
31
0.0000000000
11
-2.8418981479
21
5.9504263706
31
0.0000000000
0
SPLINE
5
322
100
AcDbEntity
8
0
100
AcDbSpline
62
9
6
CONTINUOUS
70
0
71
3
72
26
73
22
74
20
42
0.0000001000
43
0.0000001000
44
0.0000000001
12
-2.8682566301
22
-9.8224360262
32
0.0000000000
13
2.8682566301
23
9.8224360262
33
0.0000000000
40
0.0000000000
40
0.0000000000
40
0.0000000000
40
0.0000000000
40
0.0427696922
40
0.0881844679
40
0.1353869872
40
0.1838368083
40
0.2331390964
40
0.2836304416
40
0.3359483262
40
0.3902899207
40
0.4464463473
40
0.5041062830
40
0.5628700794
40
0.6221853372
40
0.6813579207
40
0.7399146460
40
0.7976818157
40
0.8539557318
40
0.9072173350
40
0.9562095365
40
1.0000000000
40
1.0000000000
40
1.0000000000
40
1.0000000000
10
-2.8418981479
20
5.9504263706
30
0.0000000000
10
-2.8827896324
20
5.8103921820
30
0.0000000000
10
-2.9433243931
20
5.5140134329
30
0.0000000000
10
-2.9517965839
20
5.0494845547
30
0.0000000000
10
-2.8634562400
20
4.5729390600
30
0.0000000000
10
-2.6727232550
20
4.1128477320
30
0.0000000000
10
-2.3857444100
20
3.6924039904
30
0.0000000000
10
-2.0137825033
20
3.3263432804
30
0.0000000000
10
-1.5680525803
20
3.0237390520
30
0.0000000000
10
-1.0606440583
20
2.7920882576
30
0.0000000000
10
-0.5059766778
20
2.6376330605
30
0.0000000000
10
0.0801532422
20
2.5644553903
30
0.0000000000
10
0.6814161311
20
2.5744005731
30
0.0000000000
10
1.2807460154
20
2.6670682654
30
0.0000000000
10
1.8613714436
20
2.8396835746
30
0.0000000000
10
2.4082362172
20
3.0878044480
30
0.0000000000
10
2.9063910267
20
3.4054052670
30
0.0000000000
10
3.3383091949
20
3.7817925584
30
0.0000000000
10
3.6867245359
20
4.1984093160
30
0.0000000000
10
3.9410354779
20
4.6292722192
30
0.0000000000
10
4.0556830107
20
4.9260022708
30
0.0000000000
10
4.0975504398
20
5.0693786130
30
0.0000000000
11
-2.8418981479
21
5.9504263706
31
0.0000000000
11
-2.9285672930
21
5.5214465964
31
0.0000000000
11
-2.9363456191
21
5.0567981493
31
0.0000000000
11
-2.8481745479
21
4.5819070766
31
0.0000000000
11
-2.6589552710
21
4.1236668934
31
0.0000000000
11
-2.3756370813
21
3.7062413341
31
0.0000000000
11
-2.0085534069
21
3.3426654091
31
0.0000000000
11
-1.5666034422
21
3.0405386985
31
0.0000000000
11
-1.0614351063
21
2.8081466064
31
0.0000000000
11
-0.5082265971
21
2.6527150699
31
0.0000000000
11
0.0771199662
21
2.5786481043
31
0.0000000000
11
0.6783566002
21
2.5880035958
31
0.0000000000
11
1.2782088084
21
2.6805695675
31
0.0000000000
11
1.8585302162
21
2.8533356012
31
0.0000000000
11
2.4039202497
21
3.1014867724
31
0.0000000000
11
2.9017889007
21
3.4201391783
31
0.0000000000
11
3.3349889279
21
3.7995063758
31
0.0000000000
11
3.6834435862
21
4.2185677221
31
0.0000000000
11
3.9370119829
21
4.6510314870
31
0.0000000000
11
4.0975504398
21
5.0693786130
31
0.0000000000
0
SPLINE
5
323
100
AcDbEntity
8
0
100
AcDbSpline
62
7
6
CONTINUOUS
70
0
71
3
72
12
73
8
74
6
42
0.0000001000
43
0.0000001000
44
0.0000000001
12
-0.4080553524
22
0.0666045543
32
0.0000000000
13
-0.1131778883
23
-0.3875812771
33
0.0000000000
40
0.0000000000
40
0.0000000000
40
0.0000000000
40
0.0000000000
40
0.0387215385
40
0.1706709895
40
0.3760361421
40
0.6589074754
40
1.0000000000
40
1.0000000000
40
1.0000000000
40
1.0000000000
10
-7.1598354531
20
-1.6046787805
30
0.0000000000
10
-7.1651022968
20
-1.6038191036
30
0.0000000000
10
-7.1884785999
20
-1.6032464074
30
0.0000000000
10
-7.2308757638
20
-1.6391614157
30
0.0000000000
10
-7.2755104461
20
-1.7080545596
30
0.0000000000
10
-7.3211984439
20
-1.8110933165
30
0.0000000000
10
-7.3472845816
20
-1.8907889680
30
0.0000000000
10
-7.3601526255
20
-1.9348559935
30
0.0000000000
11
-7.1598354531
21
-1.6046787805
31
0.0000000000
11
-7.1754966772
21
-1.6044277756
31
0.0000000000
11
-7.2204935586
21
-1.6329534434
31
0.0000000000
11
-7.2684742518
21
-1.7005815007
31
0.0000000000
11
-7.3162876040
21
-1.8043061431
31
0.0000000000
11
-7.3601526255
21
-1.9348559935
31
0.0000000000
0
SPLINE
5
324
100
AcDbEntity
8
0
100
AcDbSpline
62
9
6
CONTINUOUS
70
0
71
3
72
12
73
8
74
6
42
0.0000001000
43
0.0000001000
44
0.0000000001
12
0.4166791087
22
1.4269308562
32
0.0000000000
13
-0.2752503556
23
1.4620759925
33
0.0000000000
40
0.0000000000
40
0.0000000000
40
0.0000000000
40
0.0000000000
40
0.1946826211
40
0.4082144434
40
0.6441471393
40
0.9061271057
40
1.0000000000
40
1.0000000000
40
1.0000000000
40
1.0000000000
10
6.6191962773
20
-2.0536670984
30
0.0000000000
10
6.6462363376
20
-1.9610675521
30
0.0000000000
10
6.6947468393
20
-1.7643988568
30
0.0000000000
10
6.7424164466
20
-1.4482986831
30
0.0000000000
10
6.7581375279
20
-1.0953782032
30
0.0000000000
10
6.7359452582
20
-0.8021857553
30
0.0000000000
10
6.7072953673
20
-0.6280110341
30
0.0000000000
10
6.6986825181
20
-0.5822612657
30
0.0000000000
11
6.6191962773
21
-2.0536670984
31
0.0000000000
11
6.6883444165
21
-1.7726491230
31
0.0000000000
11
6.7354930113
21
-1.4587501597
31
0.0000000000
11
6.7508991884
21
-1.1083691205
31
0.0000000000
11
6.7213458018
21
-0.7200526308
31
0.0000000000
11
6.6986825181
21
-0.5822612657
31
0.0000000000
0
SPLINE
5
325
100
AcDbEntity
8
0
100
AcDbSpline
62
9
6
CONTINUOUS
70
0
71
3
72
8
73
4
74
2
42
0.0000001000
43
0.0000001000
44
0.0000000001
12
-0.0137094286
22
0.0728218001
32
0.0000000000
13
-0.0154871137
23
0.0724671507
33
0.0000000000
40
0.0000000000
40
0.0000000000
40
0.0000000000
40
0.0000000000
40
1.0000000000
40
1.0000000000
40
1.0000000000
40
1.0000000000
10
6.6986825181
20
-0.5822612657
30
0.0000000000
10
6.6941127086
20
-0.5579873323
30
0.0000000000
10
6.6892458731
20
-0.5337688546
30
0.0000000000
10
6.6840835019
20
-0.5096131377
30
0.0000000000
11
6.6986825181
21
-0.5822612657
31
0.0000000000
11
6.6840835019
21
-0.5096131377
31
0.0000000000
0
SPLINE
5
326
100
AcDbEntity
8
0
100
AcDbSpline
62
7
6
CONTINUOUS
70
0
71
3
72
12
73
8
74
6
42
0.0000001000
43
0.0000001000
44
0.0000000001
12
-0.4080553524
22
0.0666045543
32
0.0000000000
13
-0.1131778883
23
-0.3875812771
33
0.0000000000
40
0.0000000000
40
0.0000000000
40
0.0000000000
40
0.0000000000
40
0.0387215385
40
0.1706709895
40
0.3760361421
40
0.6589074754
40
1.0000000000
40
1.0000000000
40
1.0000000000
40
1.0000000000
10
-14.3884277320
20
-0.6869206997
30
0.0000000000
10
-14.3936945757
20
-0.6860610227
30
0.0000000000
10
-14.4170708788
20
-0.6854883266
30
0.0000000000
10
-14.4594680427
20
-0.7214033348
30
0.0000000000
10
-14.5041027250
20
-0.7902964788
30
0.0000000000
10
-14.5497907228
20
-0.8933352357
30
0.0000000000
10
-14.5758768605
20
-0.9730308872
30
0.0000000000
10
-14.5887449044
20
-1.0170979126
30
0.0000000000
11
-14.3884277320
21
-0.6869206997
31
0.0000000000
11
-14.4040889561
21
-0.6866696947
31
0.0000000000
11
-14.4490858375
21
-0.7151953626
31
0.0000000000
11
-14.4970665307
21
-0.7828234199
31
0.0000000000
11
-14.5448798829
21
-0.8865480623
31
0.0000000000
11
-14.5887449044
21
-1.0170979126
31
0.0000000000
0
SPLINE
5
327
100
AcDbEntity
8
0
100
AcDbSpline
62
7
6
CONTINUOUS
70
0
71
3
72
12
73
8
74
6
42
0.0000001000
43
0.0000001000
44
0.0000000001
12
-0.4080553524
22
0.0666045543
32
0.0000000000
13
-0.1131778883
23
-0.3875812771
33
0.0000000000
40
0.0000000000
40
0.0000000000
40
0.0000000000
40
0.0000000000
40
0.0387215385
40
0.1706709895
40
0.3760361421
40
0.6589074754
40
1.0000000000
40
1.0000000000
40
1.0000000000
40
1.0000000000
10
-4.7503046935
20
-1.9105981408
30
0.0000000000
10
-4.7555715372
20
-1.9097384638
30
0.0000000000
10
-4.7789478403
20
-1.9091657677
30
0.0000000000
10
-4.8213450042
20
-1.9450807759
30
0.0000000000
10
-4.8659796865
20
-2.0139739199
30
0.0000000000
10
-4.9116676843
20
-2.1170126768
30
0.0000000000
10
-4.9377538220
20
-2.1967083283
30
0.0000000000
10
-4.9506218659
20
-2.2407753537
30
0.0000000000
11
-4.7503046935
21
-1.9105981408
31
0.0000000000
11
-4.7659659176
21
-1.9103471359
31
0.0000000000
11
-4.8109627989
21
-1.9388728037
31
0.0000000000
11
-4.8589434921
21
-2.0065008610
31
0.0000000000
11
-4.9067568444
21
-2.1102255034
31
0.0000000000
11
-4.9506218659
21
-2.2407753537
31
0.0000000000
0
SPLINE
5
328
100
AcDbEntity
8
0
100
AcDbSpline
62
9
6
CONTINUOUS
70
0
71
3
72
10
73
6
74
4
42
0.0000001000
43
0.0000001000
44
0.0000000001
12
0.2916383689
22
-1.3511734353
32
0.0000000000
13
-0.3867683789
23
-1.3245006106
33
0.0000000000
40
0.0000000000
40
0.0000000000
40
0.0000000000
40
0.0000000000
40
0.1911933388
40
0.5908685357
40
1.0000000000
40
1.0000000000
40
1.0000000000
40
1.0000000000
10
6.0827723837
20
-0.3306429098
30
0.0000000000
10
6.1013588216
20
-0.4167546966
30
0.0000000000
10
6.1456620332
20
-0.6857031099
30
0.0000000000
10
6.1504076573
20
-1.1486816774
30
0.0000000000
10
6.0794639424
20
-1.5167018268
30
0.0000000000
10
6.0267175714
20
-1.6973334516
30
0.0000000000
11
6.0827723837
21
-0.3306429098
31
0.0000000000
11
6.1256849683
21
-0.5912902375
31
0.0000000000
11
6.1321018858
21
-1.1427310553
31
0.0000000000
11
6.0267175714
21
-1.6973334516
31
0.0000000000
0
SPLINE
5
329
100
AcDbEntity
8
0
100
AcDbSpline
62
9
6
CONTINUOUS
70
0
71
3
72
8
73
4
74
2
42
0.0000001000
43
0.0000001000
44
0.0000000001
12
0.0373993207
22
-0.1732860562
32
0.0000000000
13
0.0474818945
23
-0.1708102494
33
0.0000000000
40
0.0000000000
40
0.0000000000
40
0.0000000000
40
0.0000000000
40
1.0000000000
40
1.0000000000
40
1.0000000000
40
1.0000000000
10
-2.4078612086
20
-2.4656803508
30
0.0000000000
10
-2.3953947683
20
-2.5234423695
30
0.0000000000
10
-2.3812376983
20
-2.5808417612
30
0.0000000000
10
-2.3654104001
20
-2.6377785110
30
0.0000000000
11
-2.4078612086
21
-2.4656803508
31
0.0000000000
11
-2.3654104001
21
-2.6377785110
31
0.0000000000
0
SPLINE
5
32A
100
AcDbEntity
8
0
100
AcDbSpline
62
9
6
CONTINUOUS
70
0
71
3
72
8
73
4
74
2
42
0.0000001000
43
0.0000001000
44
0.0000000001
12
0.0101176413
22
-0.0363969644
32
0.0000000000
13
0.0105720681
23
-0.0362680243
33
0.0000000000
40
0.0000000000
40
0.0000000000
40
0.0000000000
40
0.0000000000
40
1.0000000000
40
1.0000000000
40
1.0000000000
40
1.0000000000
10
-2.3654104001
20
-2.6377785110
30
0.0000000000
10
-2.3620378530
20
-2.6499108325
30
0.0000000000
10
-2.3585894694
20
-2.6620221477
30
0.0000000000
10
-2.3550654467
20
-2.6741114892
30
0.0000000000
11
-2.3654104001
21
-2.6377785110
31
0.0000000000
11
-2.3550654467
21
-2.6741114892
31
0.0000000000
0
SPLINE
5
32B
100
AcDbEntity
8
0
100
AcDbSpline
62
9
6
CONTINUOUS
70
0
71
3
72
26
73
22
74
20
42
0.0000001000
43
0.0000001000
44
0.0000000001
12
3.2044977200
22
-10.9931945403
32
0.0000000000
13
3.2066684324
23
10.9813380030
33
0.0000000000
40
0.0000000000
40
0.0000000000
40
0.0000000000
40
0.0000000000
40
0.0426358454
40
0.0907758429
40
0.1446516773
40
0.2030396791
40
0.2646256369
40
0.3286718727
40
0.3944763434
40
0.4618003737
40
0.5302638663
40
0.5986802173
40
0.6654547711
40
0.7280300307
40
0.7839942255
40
0.8330141102
40
0.8758065531
40
0.9131520514
40
0.9458191851
40
0.9745354398
40
1.0000000000
40
1.0000000000
40
1.0000000000
40
1.0000000000
10
-2.3550654467
20
-2.6741114892
30
0.0000000000
10
-2.3095232902
20
-2.8303462036
30
0.0000000000
10
-2.1856633869
20
-3.1551714345
30
0.0000000000
10
-1.9045045590
20
-3.6329780031
30
0.0000000000
10
-1.5036152251
20
-4.0994048428
30
0.0000000000
10
-0.9858545714
20
-4.5190222395
30
0.0000000000
10
-0.3699737190
20
-4.8621776951
30
0.0000000000
10
0.3195440081
20
-5.1109136370
30
0.0000000000
10
1.0599222090
20
-5.2567642675
30
0.0000000000
10
1.8301935652
20
-5.2960380144
30
0.0000000000
10
2.6083413328
20
-5.2276975347
30
0.0000000000
10
3.3679441669
20
-5.0550442538
30
0.0000000000
10
4.0764015817
20
-4.7899583010
30
0.0000000000
10
4.7014436789
20
-4.4558922088
30
0.0000000000
10
5.2230923791
20
-4.0840059002
30
0.0000000000
10
5.6397564115
20
-3.7026601621
30
0.0000000000
10
5.9633164134
20
-3.3299897838
30
0.0000000000
10
6.2092727464
20
-2.9761403638
30
0.0000000000
10
6.3923481942
20
-2.6464868604
30
0.0000000000
10
6.5255895259
20
-2.3428260498
30
0.0000000000
10
6.5919774768
20
-2.1468787461
30
0.0000000000
10
6.6191962773
20
-2.0536670984
30
0.0000000000
11
-2.3550654467
21
-2.6741114892
31
0.0000000000
11
-2.1815741749
21
-3.1299654416
31
0.0000000000
11
-1.9030329297
21
-3.6050512132
31
0.0000000000
11
-1.5025087368
21
-4.0735078626
31
0.0000000000
11
-0.9849045509
21
-4.4957057538
31
0.0000000000
11
-0.3705095236
21
-4.8405186686
31
0.0000000000
11
0.3180484380
21
-5.0909513507
31
0.0000000000
11
1.0563633773
21
-5.2379169631
31
0.0000000000
11
1.8254959149
21
-5.2781420315
31
0.0000000000
11
2.6057548012
21
-5.2101111269
31
0.0000000000
11
3.3689586533
21
-5.0365959194
31
0.0000000000
11
4.0842258413
21
-4.7683934692
31
0.0000000000
11
4.7151646669
21
-4.4302088373
31
0.0000000000
11
5.2359506860
21
-4.0578199963
31
0.0000000000
11
5.6490863477
21
-3.6786117470
31
0.0000000000
11
5.9695403050
21
-3.3085278345
31
0.0000000000
11
6.2129783988
21
-2.9574381323
31
0.0000000000
11
6.3941089207
21
-2.6305570623
31
0.0000000000
11
6.5258770319
21
-2.3296290301
31
0.0000000000
11
6.6191962773
21
-2.0536670984
31
0.0000000000
0
SPLINE
5
32C
100
AcDbEntity
8
0
100
AcDbSpline
62
7
6
CONTINUOUS
70
0
71
3
72
9
73
5
74
3
42
0.0000001000
43
0.0000001000
44
0.0000000001
12
-0.1347847733
22
0.6244921336
32
0.0000000000
13
-0.4256003194
23
0.4764679718
33
0.0000000000
40
0.0000000000
40
0.0000000000
40
0.0000000000
40
0.0000000000
40
0.4654716171
40
1.0000000000
40
1.0000000000
40
1.0000000000
40
1.0000000000
10
-8.2843494873
20
1.4702969690
30
0.0000000000
10
-8.3052623161
20
1.5671914234
30
0.0000000000
10
-8.3872389203
20
1.7676494318
30
0.0000000000
10
-8.5156281138
20
1.9396785844
30
0.0000000000
10
-8.5914599307
20
2.0245738026
30
0.0000000000
11
-8.2843494873
21
1.4702969690
31
0.0000000000
11
-8.3916338103
21
1.7476469454
31
0.0000000000
11
-8.5914599307
21
2.0245738026
31
0.0000000000
0
SPLINE
5
32D
100
AcDbEntity
8
0
100
AcDbSpline
62
9
6
CONTINUOUS
70
0
71
3
72
10
73
6
74
4
42
0.0000001000
43
0.0000001000
44
0.0000000001
12
0.3863012647
22
1.3229009635
32
0.0000000000
13
-0.2901582600
23
1.3498394809
33
0.0000000000
40
0.0000000000
40
0.0000000000
40
0.0000000000
40
0.0000000000
40
0.3620930633
40
0.7461281414
40
1.0000000000
40
1.0000000000
40
1.0000000000
40
1.0000000000
10
4.6418385305
20
4.7191633533
30
0.0000000000
10
4.6884642000
20
4.8788344408
30
0.0000000000
10
4.7574121851
20
5.2165819438
30
0.0000000000
10
4.7657448303
20
5.6786918707
30
0.0000000000
10
4.7228549733
20
5.9697575751
30
0.0000000000
10
4.6983006343
20
6.0839863277
30
0.0000000000
11
4.6418385305
21
4.7191633533
31
0.0000000000
11
4.7406107083
21
5.2083088734
31
0.0000000000
11
4.7493582633
21
5.7374942714
31
0.0000000000
11
4.6983006343
21
6.0839863277
31
0.0000000000
0
SPLINE
5
32E
100
AcDbEntity
8
0
100
AcDbSpline
62
7
6
CONTINUOUS
70
0
71
3
72
8
73
4
74
2
42
0.0000001000
43
0.0000001000
44
0.0000000001
12
-0.2825573797
22
0.0853425318
32
0.0000000000
13
-0.2882268124
23
0.0645242824
33
0.0000000000
40
0.0000000000
40
0.0000000000
40
0.0000000000
40
0.0000000000
40
1.0000000000
40
1.0000000000
40
1.0000000000
40
1.0000000000
10
-10.0347267055
20
2.8731959380
30
0.0000000000
10
-10.1289124987
20
2.9016434486
30
0.0000000000
10
-10.2241871514
20
2.9267005938
30
0.0000000000
10
-10.3202627556
20
2.9482086880
30
0.0000000000
11
-10.0347267055
21
2.8731959380
31
0.0000000000
11
-10.3202627556
21
2.9482086880
31
0.0000000000
0
SPLINE
5
32F
100
AcDbEntity
8
0
100
AcDbSpline
62
7
6
CONTINUOUS
70
0
71
3
72
10
73
6
74
4
42
0.0000001000
43
0.0000001000
44
0.0000000001
12
-0.9616702238
22
0.2152855960
32
0.0000000000
13
-0.9828774765
23
-0.0617850020
33
0.0000000000
40
0.0000000000
40
0.0000000000
40
0.0000000000
40
0.0000000000
40
0.1491648692
40
0.5863340111
40
1.0000000000
40
1.0000000000
40
1.0000000000
40
1.0000000000
10
-10.3202627556
20
2.9482086880
30
0.0000000000
10
-10.3680785599
20
2.9589130372
30
0.0000000000
10
-10.5568117125
20
2.9975339868
30
0.0000000000
10
-10.8829911816
20
3.0397215451
30
0.0000000000
10
-11.1632270307
20
3.0421991812
30
0.0000000000
10
-11.2987546918
20
3.0336797299
30
0.0000000000
11
-10.3202627556
21
2.9482086880
31
0.0000000000
11
-10.4642698511
21
2.9776649305
31
0.0000000000
11
-10.8913731116
21
3.0318909061
31
0.0000000000
11
-11.2987546918
21
3.0336797299
31
0.0000000000
0
SPLINE
5
330
100
AcDbEntity
8
0
100
AcDbSpline
62
9
6
CONTINUOUS
70
0
71
3
72
24
73
20
74
18
42
0.0000001000
43
0.0000001000
44
0.0000000001
12
2.1702566082
22
-10.0612047745
32
0.0000000000
13
2.8797899492
23
9.8619322434
33
0.0000000000
40
0.0000000000
40
0.0000000000
40
0.0000000000
40
0.0000000000
40
0.0193001699
40
0.0742535002
40
0.1301726020
40
0.1874404152
40
0.2467799033
40
0.3084141593
40
0.3721061254
40
0.4375027756
40
0.5041509234
40
0.5714243865
40
0.6385363784
40
0.7049502175
40
0.7704691104
40
0.8342960685
40
0.8947092195
40
0.9502825046
40
1.0000000000
40
1.0000000000
40
1.0000000000
40
1.0000000000
10
-3.3174820895
20
4.3558872486
30
0.0000000000
10
-3.3035199825
20
4.2911595948
30
0.0000000000
10
-3.2405550462
20
4.0441275656
30
0.0000000000
10
-3.0685017643
20
3.6293286909
30
0.0000000000
10
-2.7416156479
20
3.1505934991
30
0.0000000000
10
-2.3179811565
20
2.7337922476
30
0.0000000000
10
-1.8103635550
20
2.3892494292
30
0.0000000000
10
-1.2325279713
20
2.1254986058
30
0.0000000000
10
-0.6008926785
20
1.9496449526
30
0.0000000000
10
0.0665582631
20
1.8663337977
30
0.0000000000
10
0.7512352277
20
1.8776645020
30
0.0000000000
10
1.4337113660
20
1.9831807710
30
0.0000000000
10
2.0948946600
20
2.1797241201
30
0.0000000000
10
2.7176452812
20
2.4622390444
30
0.0000000000
10
3.2849472144
20
2.8238685170
30
0.0000000000
10
3.7768485230
20
3.2524472342
30
0.0000000000
10
4.1736913027
20
3.7268561972
30
0.0000000000
10
4.4634584823
20
4.2176472485
30
0.0000000000
10
4.5941132161
20
4.5557264965
30
0.0000000000
10
4.6418385305
20
4.7191633533
30
0.0000000000
11
-3.3174820895
21
4.3558872486
31
0.0000000000
11
-3.2684113126
21
4.1634451768
31
0.0000000000
11
-3.0528258573
21
3.6416475683
31
0.0000000000
11
-2.7301110007
21
3.1663507422
31
0.0000000000
11
-2.3120305662
21
2.7523776379
31
0.0000000000
11
-1.8087148637
21
2.4083769545
31
0.0000000000
11
-1.2334286882
21
2.1437817642
31
0.0000000000
11
-0.6034539829
21
1.9668166071
31
0.0000000000
11
0.0631053750
21
1.8824930993
31
0.0000000000
11
0.7477519183
21
1.8931525146
31
0.0000000000
11
1.4308218024
21
1.9985527975
31
0.0000000000
11
2.0916595226
21
2.1952678311
31
0.0000000000
11
2.7127309484
21
2.4778168986
31
0.0000000000
11
3.2797045179
21
2.8406419017
31
0.0000000000
11
3.7730647153
21
3.2726111927
31
0.0000000000
11
4.1699524789
21
3.7498054582
31
0.0000000000
11
4.4588034410
21
4.2422965351
31
0.0000000000
11
4.6418385305
21
4.7191633533
31
0.0000000000
0
SPLINE
5
331
100
AcDbEntity
8
0
100
AcDbSpline
62
7
6
CONTINUOUS
70
0
71
3
72
9
73
5
74
3
42
0.0000001000
43
0.0000001000
44
0.0000000001
12
0.0991881505
22
0.3369401172
32
0.0000000000
13
-0.0735884305
23
0.3409539139
33
0.0000000000
40
0.0000000000
40
0.0000000000
40
0.0000000000
40
0.0000000000
40
0.2077171909
40
1.0000000000
40
1.0000000000
40
1.0000000000
40
1.0000000000
10
-8.2930350872
20
1.1230781934
30
0.0000000000
10
-8.2861673926
20
1.1464076116
30
0.0000000000
10
-8.2593823110
20
1.2605258346
30
0.0000000000
10
-8.2649152045
20
1.3802529941
30
0.0000000000
10
-8.2843494873
20
1.4702969690
30
0.0000000000
11
-8.2930350872
21
1.1230781934
31
0.0000000000
11
-8.2764343541
21
1.1940582506
31
0.0000000000
11
-8.2843494873
21
1.4702969690
31
0.0000000000
0
ENDSEC
0
SECTION
2
OBJECTS
0
DICTIONARY
5
332
100
AcDbDictionary
3
ACAD_GROUP
350
333
3
ACAD_MLINESTYLE
350
334
0
DICTIONARY
5
333
102
{ACAD_REACTORS
330
332
102
}
100
AcDbDictionary
0
DICTIONARY
5
334
102
{ACAD_REACTORS
330
332
102
}
100
AcDbDictionary
3
STANDARD
350
335
0
MLINESTYLE
5
335
102
{ACAD_REACTORS
330
334
102
}
100
AcDbMlineStyle
2
STANDARD
70
0
3

62
256
51
90.0
52
90.0
71
2
49
0.5
62
256
6
BYLAYER
49
-0.5
62
256
6
BYLAYER
0
ENDSEC
0
EOF
