  0
SECTION
  2
HEADER
  9
$ACADVER
  1
AC1015
  9
$DWGCODEPAGE
  3
ANSI_1252
  9
$EXTMAX
 10
297.0
 20
210.0
 30
0.0
  9
$EXTMIN
 10
0.0
 20
0.0
 30
0.0
  9
$LIMMIN
 10
0.0
 20
0.0
  9
$LIMMAX
 10
297.0
 20
210.0
  9
$VIEWCTR
 10
148.5
 20
105.0
  9
$VIEWSIZE
 40
210.0
  9
$CLAYER
  8
0
  9
$LTSCALE
 40
16.335
  9
$CELTYPE
  6
BYLAYER
  9
$DIMSCALE
 40
1.0
  9
$DIMASZ
 40
3.0
  9
$DIMEXO
 40
1.85625
  9
$DIMDLI
 40
11.286
  9
$DIMEXE
 40
5.346
  9
$DIMCEN
 40
2.673
  9
$DIMLFAC
 40
1.0
  9
$DIMBLK
  1
_FILLED
  9
$DIMTXT
 40
3.0
  9
$DIMTOL
 70
1
  9
$DIMLIM
 70
0
  9
$DIMTFAC
 40
1.0
  9
$DIMTP
 40
0.01
  9
$DIMTM
 40
0.01
  9
$PDMODE
 70
3
  9
$PDSIZE
 40
3.0
  9
$HANDSEED
  5
405
  9
$TILEMODE
 70
1
  9
$MEASUREMENT
 70
1
  9
$INSUNITS
 70
4
  0
ENDSEC
  0
SECTION
  2
CLASSES
  0
CLASS
  1
ACDBDICTIONARYWDFLT
  2
AcDbDictionaryWithDefault
  3
AutoCAD 2000
 90
0
280
0
281
0
  0
CLASS
  1
ACDBPLACEHOLDER
  2
AcDbPlaceHolder
  3
AutoCAD 2000
 90
0
280
0
281
0
  0
CLASS
  1
LAYOUT
  2
AcDbLayout
  3
AutoCAD 2000
 90
0
280
0
281
0
  0
ENDSEC
  0
SECTION
  2
TABLES
  0
TABLE
  2
VPORT
  5
8
100
AcDbSymbolTable
 70
2
  0
VPORT
  5
1F4
100
AcDbSymbolTableRecord
100
AcDbViewportTableRecord
  2
*ACTIVE
 70
0
 10
0.0
 20
0.0
 11
1.0
 21
1.0
 12
148.5
 22
105.0
 13
0.0
 23
0.0
 14
1.0
 24
1.0
 15
0.0
 25
0.0
 16
0.0
 26
0.0
 36
1.0
 17
0.0
 27
0.0
 37
0.0
 40
210.0
 41
1.4142857143
 42
50.0
 43
0.0
 44
0.0
 50
0.0
 51
0.0
 71
0
 72
100
 73
1
 74
1
 75
0
 76
0
 77
0
 78
0
  0
ENDTAB
  0
TABLE
  2
LTYPE
  5
5
100
AcDbSymbolTable
 70
6
  0
LTYPE
  5
14
100
AcDbSymbolTableRecord
100
AcDbLinetypeTableRecord
  2
BYBLOCK
 70
0
  3

 72
65
 73
0
 40
0.0
  0
LTYPE
  5
15
100
AcDbSymbolTableRecord
100
AcDbLinetypeTableRecord
  2
BYLAYER
 70
0
  3

 72
65
 73
0
 40
0.0
  0
LTYPE
  5
16
100
AcDbSymbolTableRecord
100
AcDbLinetypeTableRecord
  2
CONTINUOUS
 70
64
  3
Solid line
 72
65
 73
0
 40
0.0
  0
LTYPE
  5
1F5
100
AcDbSymbolTableRecord
100
AcDbLinetypeTableRecord
  2
CENTER
 70
64
  3
____ _ ____ _ ____ _ ____ _ ____ _ ____ _ ____
 72
65
 73
4
 40
0.6
 49
0.375
 74
0
 49
-0.075
 74
0
 49
0.075
 74
0
 49
-0.075
 74
0
  0
LTYPE
  5
1F6
100
AcDbSymbolTableRecord
100
AcDbLinetypeTableRecord
  2
HIDDEN
 70
64
  3
- - - - - - - - - - - - - - - - - - - -
 72
65
 73
2
 40
0.2
 49
0.1
 74
0
 49
-0.1
 74
0
  0
LTYPE
  5
1F7
100
AcDbSymbolTableRecord
100
AcDbLinetypeTableRecord
  2
PHANTOM
 70
64
  3
_____ _ _ _____ _ _ _____ _ _ _____
 72
65
 73
6
 40
0.8
 49
0.45
 74
0
 49
-0.05
 74
0
 49
0.1
 74
0
 49
-0.05
 74
0
 49
0.1
 74
0
 49
-0.05
 74
0
  0
LTYPE
  5
1F8
100
AcDbSymbolTableRecord
100
AcDbLinetypeTableRecord
  2
DOT
 70
64
  3
. . . . . . . . . . . . . . . . . . . .
 72
65
 73
2
 40
0.2
 49
0.1
 74
0
 49
-0.1
 74
0
  0
LTYPE
  5
1F9
100
AcDbSymbolTableRecord
100
AcDbLinetypeTableRecord
  2
DASHED
 70
64
  3
- - - - - - - - - - - - - - - - - - - -
 72
65
 73
2
 40
0.2
 49
0.1
 74
0
 49
-0.1
 74
0
  0
ENDTAB
  0
TABLE
  2
LAYER
  5
2
100
AcDbSymbolTable
 70
36
  0
LAYER
  5
10
100
AcDbSymbolTableRecord
100
AcDbLayerTableRecord
  2
0
 70
0
 62
7
  6
CONTINUOUS
370
-3
390
F
  0
LAYER
  5
1FA
100
AcDbSymbolTableRecord
100
AcDbLayerTableRecord
  2
DEFAULT_1
 70
0
 62
7
  6
CENTER
370
-3
390
F
  0
LAYER
  5
1FB
100
AcDbSymbolTableRecord
100
AcDbLayerTableRecord
  2
DEFAULT_2
 70
0
 62
7
  6
HIDDEN
370
-3
390
F
  0
LAYER
  5
1FC
100
AcDbSymbolTableRecord
100
AcDbLayerTableRecord
  2
DEFAULT_3
 70
0
 62
7
  6
PHANTOM
370
-3
390
F
  0
LAYER
  5
1FD
100
AcDbSymbolTableRecord
100
AcDbLayerTableRecord
  2
2125-R1-RF-VIMAR_60000
 70
0
 62
7
  6
CONTINUOUS
370
-3
390
F
  0
LAYER
  5
1FE
100
AcDbSymbolTableRecord
100
AcDbLayerTableRecord
  2
2125-R1-RF-VIMAR_60000_1
 70
0
 62
7
  6
CONTINUOUS
370
-3
390
F
  0
LAYER
  5
1FF
100
AcDbSymbolTableRecord
100
AcDbLayerTableRecord
  2
2125-R1-RF-VIMAR_60000_2
 70
0
 62
7
  6
CONTINUOUS
370
-3
390
F
  0
LAYER
  5
200
100
AcDbSymbolTableRecord
100
AcDbLayerTableRecord
  2
2125-R1-RF-VIMAR_60000_3
 70
0
 62
7
  6
CONTINUOUS
370
-3
390
F
  0
LAYER
  5
201
100
AcDbSymbolTableRecord
100
AcDbLayerTableRecord
  2
2125-R1-RF-VIMAR_60000_4
 70
0
 62
7
  6
CONTINUOUS
370
-3
390
F
  0
LAYER
  5
202
100
AcDbSymbolTableRecord
100
AcDbLayerTableRecord
  2
2125-R1-RF-VIMAR_60000_5
 70
0
 62
7
  6
CONTINUOUS
370
-3
390
F
  0
LAYER
  5
203
100
AcDbSymbolTableRecord
100
AcDbLayerTableRecord
  2
43000460A0
 70
0
 62
7
  6
CONTINUOUS
370
-3
390
F
  0
LAYER
  5
204
100
AcDbSymbolTableRecord
100
AcDbLayerTableRecord
  2
43000460A0_
 70
0
 62
7
  6
CONTINUOUS
370
-3
390
F
  0
LAYER
  5
205
100
AcDbSymbolTableRecord
100
AcDbLayerTableRecord
  2
ASM0001
 70
0
 62
7
  6
CONTINUOUS
370
-3
390
F
  0
LAYER
  5
206
100
AcDbSymbolTableRecord
100
AcDbLayerTableRecord
  2
ASSI
 70
0
 62
7
  6
CONTINUOUS
370
-3
390
F
  0
LAYER
  5
207
100
AcDbSymbolTableRecord
100
AcDbLayerTableRecord
  2
CN-MSB02001-VIMAR_1000000
 70
0
 62
7
  6
CONTINUOUS
370
-3
390
F
  0
LAYER
  5
208
100
AcDbSymbolTableRecord
100
AcDbLayerTableRecord
  2
CN-MSB02001-VIMAR_1000000_1
 70
0
 62
7
  6
CONTINUOUS
370
-3
390
F
  0
LAYER
  5
209
100
AcDbSymbolTableRecord
100
AcDbLayerTableRecord
  2
CN-MSB02001-VIMAR_1000000_2
 70
0
 62
7
  6
CONTINUOUS
370
-3
390
F
  0
LAYER
  5
20A
100
AcDbSymbolTableRecord
100
AcDbLayerTableRecord
  2
CN1-REF_SQUAREHOLE12_SPEA-VIMAR
 70
0
 62
7
  6
CONTINUOUS
370
-3
390
F
  0
LAYER
  5
20B
100
AcDbSymbolTableRecord
100
AcDbLayerTableRecord
  2
CN1-REF_SQUAREHOLE12_SPEA-VIM_1
 70
0
 62
7
  6
CONTINUOUS
370
-3
390
F
  0
LAYER
  5
20C
100
AcDbSymbolTableRecord
100
AcDbLayerTableRecord
  2
CN1-REF_SQUAREHOLE12_SPEA-VIM_2
 70
0
 62
7
  6
CONTINUOUS
370
-3
390
F
  0
LAYER
  5
20D
100
AcDbSymbolTableRecord
100
AcDbLayerTableRecord
  2
CN1-REF_SQUAREHOLE12_SPEA-VIM_3
 70
0
 62
7
  6
CONTINUOUS
370
-3
390
F
  0
LAYER
  5
20E
100
AcDbSymbolTableRecord
100
AcDbLayerTableRecord
  2
CN1-TP10_SMD-VIMAR_10000
 70
0
 62
7
  6
CONTINUOUS
370
-3
390
F
  0
LAYER
  5
20F
100
AcDbSymbolTableRecord
100
AcDbLayerTableRecord
  2
CN1-TP10_SMD-VIMAR_10000_1
 70
0
 62
7
  6
CONTINUOUS
370
-3
390
F
  0
LAYER
  5
210
100
AcDbSymbolTableRecord
100
AcDbLayerTableRecord
  2
CN1-TP10_SMD-VIMAR_10000_2
 70
0
 62
7
  6
CONTINUOUS
370
-3
390
F
  0
LAYER
  5
211
100
AcDbSymbolTableRecord
100
AcDbLayerTableRecord
  2
CN1-TP10_SMD-VIMAR_10000_3
 70
0
 62
7
  6
CONTINUOUS
370
-3
390
F
  0
LAYER
  5
212
100
AcDbSymbolTableRecord
100
AcDbLayerTableRecord
  2
COLOR5
 70
0
 62
7
  6
CONTINUOUS
370
-3
390
F
  0
LAYER
  5
213
100
AcDbSymbolTableRecord
100
AcDbLayerTableRecord
  2
COORDINATE
 70
0
 62
7
  6
CONTINUOUS
370
-3
390
F
  0
LAYER
  5
214
100
AcDbSymbolTableRecord
100
AcDbLayerTableRecord
  2
COPY_PUBLISH
 70
0
 62
7
  6
CONTINUOUS
370
-3
390
F
  0
LAYER
  5
215
100
AcDbSymbolTableRecord
100
AcDbLayerTableRecord
  2
COSMETIC
 70
0
 62
7
  6
CONTINUOUS
370
-3
390
F
  0
LAYER
  5
216
100
AcDbSymbolTableRecord
100
AcDbLayerTableRecord
  2
CURVE
 70
0
 62
7
  6
CONTINUOUS
370
-3
390
F
  0
LAYER
  5
217
100
AcDbSymbolTableRecord
100
AcDbLayerTableRecord
  2
DRAFT
 70
0
 62
7
  6
CONTINUOUS
370
-3
390
F
  0
LAYER
  5
218
100
AcDbSymbolTableRecord
100
AcDbLayerTableRecord
  2
E2_MARK_10000
 70
0
 62
7
  6
CONTINUOUS
370
-3
390
F
  0
LAYER
  5
219
100
AcDbSymbolTableRecord
100
AcDbLayerTableRecord
  2
IMPORT_IGES
 70
0
 62
7
  6
CONTINUOUS
370
-3
390
F
  0
LAYER
  5
21A
100
AcDbSymbolTableRecord
100
AcDbLayerTableRecord
  2
LOGO_RESIST-RESTYLING_10000
 70
0
 62
7
  6
CONTINUOUS
370
-3
390
F
  0
LAYER
  5
21B
100
AcDbSymbolTableRecord
100
AcDbLayerTableRecord
  2
L_SRR0604-RF-VIMAR_480000
 70
0
 62
7
  6
CONTINUOUS
370
-3
390
F
  0
LAYER
  5
21C
100
AcDbSymbolTableRecord
100
AcDbLayerTableRecord
  2
L_SRR0604-RF-VIMAR_480000_1
 70
0
 62
7
  6
CONTINUOUS
370
-3
390
F
  0
LAYER
  5
21D
100
AcDbSymbolTableRecord
100
AcDbLayerTableRecord
  2
L_SRR0604-RF-VIMAR_480000_10
 70
0
 62
7
  6
CONTINUOUS
370
-3
390
F
  0
LAYER
  5
21E
100
AcDbSymbolTableRecord
100
AcDbLayerTableRecord
  2
L_SRR0604-RF-VIMAR_480000_11
 70
0
 62
7
  6
CONTINUOUS
370
-3
390
F
  0
LAYER
  5
21F
100
AcDbSymbolTableRecord
100
AcDbLayerTableRecord
  2
L_SRR0604-RF-VIMAR_480000_2
 70
0
 62
7
  6
CONTINUOUS
370
-3
390
F
  0
LAYER
  5
220
100
AcDbSymbolTableRecord
100
AcDbLayerTableRecord
  2
L_SRR0604-RF-VIMAR_480000_3
 70
0
 62
7
  6
CONTINUOUS
370
-3
390
F
  0
LAYER
  5
221
100
AcDbSymbolTableRecord
100
AcDbLayerTableRecord
  2
L_SRR0604-RF-VIMAR_480000_4
 70
0
 62
7
  6
CONTINUOUS
370
-3
390
F
  0
LAYER
  5
222
100
AcDbSymbolTableRecord
100
AcDbLayerTableRecord
  2
L_SRR0604-RF-VIMAR_480000_5
 70
0
 62
7
  6
CONTINUOUS
370
-3
390
F
  0
LAYER
  5
223
100
AcDbSymbolTableRecord
100
AcDbLayerTableRecord
  2
L_SRR0604-RF-VIMAR_480000_6
 70
0
 62
7
  6
CONTINUOUS
370
-3
390
F
  0
LAYER
  5
224
100
AcDbSymbolTableRecord
100
AcDbLayerTableRecord
  2
L_SRR0604-RF-VIMAR_480000_7
 70
0
 62
7
  6
CONTINUOUS
370
-3
390
F
  0
LAYER
  5
225
100
AcDbSymbolTableRecord
100
AcDbLayerTableRecord
  2
L_SRR0604-RF-VIMAR_480000_8
 70
0
 62
7
  6
CONTINUOUS
370
-3
390
F
  0
LAYER
  5
226
100
AcDbSymbolTableRecord
100
AcDbLayerTableRecord
  2
L_SRR0604-RF-VIMAR_480000_9
 70
0
 62
7
  6
CONTINUOUS
370
-3
390
F
  0
LAYER
  5
227
100
AcDbSymbolTableRecord
100
AcDbLayerTableRecord
  2
NO-PB_MARK_10000
 70
0
 62
7
  6
CONTINUOUS
370
-3
390
F
  0
LAYER
  5
228
100
AcDbSymbolTableRecord
100
AcDbLayerTableRecord
  2
PIANI
 70
0
 62
7
  6
CONTINUOUS
370
-3
390
F
  0
LAYER
  5
229
100
AcDbSymbolTableRecord
100
AcDbLayerTableRecord
  2
PUNTI
 70
0
 62
7
  6
CONTINUOUS
370
-3
390
F
  0
LAYER
  5
22A
100
AcDbSymbolTableRecord
100
AcDbLayerTableRecord
  2
RACCORDO
 70
0
 62
7
  6
CONTINUOUS
370
-3
390
F
  0
LAYER
  5
22B
100
AcDbSymbolTableRecord
100
AcDbLayerTableRecord
  2
SMUSSO
 70
0
 62
7
  6
CONTINUOUS
370
-3
390
F
  0
LAYER
  5
22C
100
AcDbSymbolTableRecord
100
AcDbLayerTableRecord
  2
SNAPLINE
 70
0
 62
7
  6
CONTINUOUS
370
-3
390
F
  0
LAYER
  5
22D
100
AcDbSymbolTableRecord
100
AcDbLayerTableRecord
  2
TRASH
 70
0
 62
7
  6
CONTINUOUS
370
-3
390
F
  0
LAYER
  5
22E
100
AcDbSymbolTableRecord
100
AcDbLayerTableRecord
  2
___SHELL
 70
0
 62
7
  6
CONTINUOUS
370
-3
390
F
  0
ENDTAB
  0
TABLE
  2
STYLE
  5
3
100
AcDbSymbolTable
 70
1
  0
STYLE
  5
11
100
AcDbSymbolTableRecord
100
AcDbTextStyleTableRecord
  2
STANDARD
 70
0
 40
0.0
 41
0.8
 50
0.0
 71
0
 42
0.2
  3
txt
  4

  0
STYLE
  5
22F
100
AcDbSymbolTableRecord
100
AcDbTextStyleTableRecord
  2
TEXTSTYLE_1
 70
0
 40
0.0
 41
0.8
 50
0.0
 71
0
 42
0.2
  3
gdt
  4

  0
ENDTAB
  0
TABLE
  2
VIEW
  5
6
100
AcDbSymbolTable
 70
0
  0
ENDTAB
  0
TABLE
  2
UCS
  5
7
100
AcDbSymbolTable
 70
0
  0
ENDTAB
  0
TABLE
  2
APPID
  5
9
100
AcDbSymbolTable
 70
1
  0
APPID
  5
230
100
AcDbSymbolTableRecord
100
AcDbRegAppTableRecord
  2
ACAD
 70
0
  0
ENDTAB
  0
TABLE
  2
BLOCK_RECORD
  5
1
100
AcDbSymbolTable
 70
0
  0
BLOCK_RECORD
  5
231
100
AcDbSymbolTableRecord
100
AcDbBlockTableRecord
  2
*Model_Space
  0
BLOCK_RECORD
  5
232
100
AcDbSymbolTableRecord
100
AcDbBlockTableRecord
  2
*Paper_Space
  0
ENDTAB
  0
TABLE
  2
DIMSTYLE
  5
A
100
AcDbSymbolTable
 70
1
100
AcDbDimStyleTable
 71
0
  0
DIMSTYLE
105
233
100
AcDbSymbolTableRecord
100
AcDbDimStyleTableRecord
  2
STANDARD
 70
0
  3

  4

 40
1.0
 41
3.0
 42
0.0625
 43
0.38
 44
0.18
 45
0.0
 46
0.0
 47
0.01
 48
0.01
140
3.0
141
0.09
142
0.0
143
25.4
144
1.0
145
0.0
146
1.0
147
0.09
 71
1.0
 72
0.0
 73
0
 74
0
 75
0
 76
0
 77
1
 78
8
170
0
171
2
172
0
173
0
174
0
175
0
176
0
177
0
178
0
270
2
271
2
272
2
273
2
274
2
275
0
280
0
281
0
282
0
283
1
284
8
285
0
286
0
287
3
288
0
340
11
  0
ENDTAB
  0
ENDSEC
  0
SECTION
  2
BLOCKS
  0
BLOCK
  5
20
100
AcDbEntity
  8
0
100
AcDbBlockBegin
  2
*Model_Space
 70
0
 10
0.0
 20
0.0
 30
0.0
  3
*Model_Space
  1

  0
ENDBLK
  5
21
100
AcDbEntity
  8
0
100
AcDbBlockEnd
  0
BLOCK
  5
1C
100
AcDbEntity
  8
0
100
AcDbBlockBegin
  2
*Paper_Space
 70
0
 10
0.0
 20
0.0
 30
0.0
  3
*Paper_Space
  1

  0
ENDBLK
  5
1D
100
AcDbEntity
  8
0
100
AcDbBlockEnd
  0
ENDSEC
  0
SECTION
  2
ENTITIES
  0
LINE
  5
234
100
AcDbEntity
  8
RACCORDO
100
AcDbLine
 62
7
  6
CONTINUOUS
 10
-13.7447035798
 20
27.0193484837
 11
-14.4728056512
 21
26.6830868187
  0
LINE
  5
235
100
AcDbEntity
  8
RACCORDO
100
AcDbLine
 62
253
  6
CONTINUOUS
 10
-12.8737577885
 20
26.9512235001
 11
-13.5995859625
 21
26.616108888
  0
LWPOLYLINE
  5
236
100
AcDbEntity
  8
RACCORDO
100
AcDbPolyline
 62
7
  6
CONTINUOUS
 90
15
 70
0
 10
-18.4592898582
 20
20.991623481
 10
-18.578610285
 20
20.9208740563
 10
-18.6879688379
 20
20.8434696813
 10
-18.7905667768
 20
20.7579279778
 10
-18.8860263434
 20
20.664720893
 10
-18.9744416088
 20
20.5637346741
 10
-19.0551402236
 20
20.4555587171
 10
-19.1274974291
 20
20.3409186558
 10
-19.1914899357
 20
20.2196231542
 10
-19.2465834899
 20
20.0921680176
 10
-19.2921552772
 20
19.9594513206
 10
-19.3279599376
 20
19.8215493994
 10
-19.3535955713
 20
19.6787669316
 10
-19.3685813479
 20
19.5319489749
 10
-19.3727022976
 20
19.4035318201
  0
LINE
  5
237
100
AcDbEntity
  8
RACCORDO
100
AcDbLine
 62
7
  6
CONTINUOUS
 10
-18.4602424506
 20
20.9911198427
 11
-14.2660866262
 21
23.253963131
  0
LINE
  5
238
100
AcDbEntity
  8
RACCORDO
100
AcDbLine
 62
7
  6
CONTINUOUS
 10
-14.2241643162
 20
23.2749252245
 11
-8.0825246806
 21
26.1113379351
  0
LINE
  5
239
100
AcDbEntity
  8
RACCORDO
100
AcDbLine
 62
253
  6
CONTINUOUS
 10
-17.5376297852
 20
20.9490432055
 11
-13.3509446276
 21
23.2079472939
  0
LINE
  5
23A
100
AcDbEntity
  8
RACCORDO
100
AcDbLine
 62
253
  6
CONTINUOUS
 10
-13.3509446276
 20
23.2079472939
 11
-7.2167907475
 21
26.0409028345
  0
LINE
  5
23B
100
AcDbEntity
  8
RACCORDO
100
AcDbLine
 62
7
  6
CONTINUOUS
 10
-10.2607569921
 20
24.294831811
 11
-12.9971758454
 21
23.0310629028
  0
LINE
  5
23C
100
AcDbEntity
  8
RACCORDO
100
AcDbLine
 62
7
  6
CONTINUOUS
 10
-10.2056810601
 20
24.2312906437
 11
-12.9046680556
 21
22.9848090079
  0
LINE
  5
23D
100
AcDbEntity
  8
RACCORDO
100
AcDbLine
 62
253
  6
CONTINUOUS
 10
-10.1193571751
 20
24.2241319025
 11
-12.8557760283
 21
22.9603629942
  0
LWPOLYLINE
  5
23E
100
AcDbEntity
  8
RACCORDO
100
AcDbPolyline
 62
7
  6
CONTINUOUS
 90
11
 70
0
 10
-20.232376726
 20
-2.2130094089
 10
-20.2292724033
 20
-2.2760457349
 10
-20.2171987317
 20
-2.351592463
 10
-20.1959298256
 20
-2.4267766983
 10
-20.1653435621
 20
-2.5012342727
 10
-20.1254687819
 20
-2.5743869957
 10
-20.0765931545
 20
-2.6455456407
 10
-20.0189240985
 20
-2.7143569796
 10
-19.9524538935
 20
-2.7807423864
 10
-19.8772049993
 20
-2.8445632007
 10
-19.7931927205
 20
-2.9056267873
  0
LINE
  5
23F
100
AcDbEntity
  8
RACCORDO
100
AcDbLine
 62
7
  6
CONTINUOUS
 10
-20.2323770086
 20
11.0916597847
 11
-20.2323770086
 21
8.873582653
  0
LINE
  5
240
100
AcDbEntity
  8
RACCORDO
100
AcDbLine
 62
7
  6
CONTINUOUS
 10
-20.2323770086
 20
0.0045535714
 11
-20.2323770086
 21
-2.213546663
  0
LWPOLYLINE
  5
241
100
AcDbEntity
  8
RACCORDO
100
AcDbPolyline
 62
7
  6
CONTINUOUS
 90
15
 70
0
 10
7.1180021821
 20
-26.1972941457
 10
7.1520403637
 20
-26.2138747086
 10
7.2663374379
 20
-26.2635764231
 10
7.3825202623
 20
-26.3051260348
 10
7.4998657866
 20
-26.3383796571
 10
7.6179791108
 20
-26.3633734519
 10
7.7366990166
 20
-26.3801884011
 10
7.8553665428
 20
-26.3888181361
 10
7.9734233209
 20
-26.3893261501
 10
8.0907547439
 20
-26.3817974411
 10
8.2067152741
 20
-26.366339891
 10
8.3207262096
 20
-26.3431149701
 10
8.4327168852
 20
-26.3121807975
 10
8.5422543816
 20
-26.2736512267
 10
8.6361617758
 20
-26.2336336729
  0
LINE
  5
242
100
AcDbEntity
  8
RACCORDO
100
AcDbLine
 62
7
  6
CONTINUOUS
 10
7.1180004648
 20
-26.1972975875
 11
-18.1900270528
 21
-13.5432841516
  0
LINE
  5
243
100
AcDbEntity
  8
RACCORDO
100
AcDbLine
 62
253
  6
CONTINUOUS
 10
6.7276507388
 20
-25.3857322361
 11
-18.5798668058
 21
-12.7319734638
  0
LINE
  5
244
100
AcDbEntity
  8
RACCORDO
100
AcDbLine
 62
7
  6
CONTINUOUS
 10
-18.1900270735
 20
-13.5432841412
 11
-18.1904615779
 21
-13.5430666544
  0
LWPOLYLINE
  5
245
100
AcDbEntity
  8
RACCORDO
100
AcDbPolyline
 62
7
  6
CONTINUOUS
 90
19
 70
0
 10
-19.3727028358
 20
-11.5919974333
 10
-19.3717656085
 20
-11.6535956849
 10
-19.3626719194
 20
-11.7948261452
 10
-19.3440586939
 20
-11.935607057
 10
-19.3157760054
 20
-12.0769103667
 10
-19.277838395
 20
-12.2178404052
 10
-19.2310027939
 20
-12.3557261259
 10
-19.1751884203
 20
-12.4910889794
 10
-19.1102295325
 20
-12.6239351422
 10
-19.037615573
 20
-12.7512287731
 10
-18.957353118
 20
-12.8731937082
 10
-18.8691085147
 20
-12.9901406369
 10
-18.7747187355
 20
-13.0995796412
 10
-18.6745480055
 20
-13.2013411573
 10
-18.5681834877
 20
-13.2957996956
 10
-18.4571393932
 20
-13.3816138498
 10
-18.3422551081
 20
-13.4583222365
 10
-18.2233473281
 20
-13.5262045087
 10
-18.1904596158
 20
-13.5430627301
  0
LINE
  5
246
100
AcDbEntity
  8
RACCORDO
100
AcDbLine
 62
253
  6
CONTINUOUS
 10
-19.64655809
 20
10.3791934871
 11
-19.646590571
 21
8.1754623223
  0
LINE
  5
247
100
AcDbEntity
  8
RACCORDO
100
AcDbLine
 62
253
  6
CONTINUOUS
 10
-19.646590571
 20
-0.7115396603
 11
-19.6465569058
 21
-2.9153042431
  0
LINE
  5
248
100
AcDbEntity
  8
RACCORDO
100
AcDbLine
 62
7
  6
CONTINUOUS
 10
-19.4469233137
 20
-0.4939710054
 11
-19.4469233137
 21
8.0756286937
  0
LINE
  5
249
100
AcDbEntity
  8
RACCORDO
100
AcDbLine
 62
7
  6
CONTINUOUS
 10
-19.3727061733
 20
-11.5919974337
 11
-19.3727061767
 21
-3.1995255625
  0
LINE
  5
24A
100
AcDbEntity
  8
RACCORDO
100
AcDbLine
 62
7
  6
CONTINUOUS
 10
-19.3727061767
 20
10.8982691674
 11
-19.3727061767
 21
19.4033054987
  0
LINE
  5
24B
100
AcDbEntity
  8
RACCORDO
100
AcDbLine
 62
253
  6
CONTINUOUS
 10
-19.0075834855
 20
-1.0310432031
 11
-19.0075834855
 21
7.8559587795
  0
LINE
  5
24C
100
AcDbEntity
  8
RACCORDO
100
AcDbLine
 62
253
  6
CONTINUOUS
 10
-18.93343391
 20
10.3603748007
 11
-18.9333663485
 21
18.87297538
  0
LINE
  5
24D
100
AcDbEntity
  8
RACCORDO
100
AcDbLine
 62
253
  6
CONTINUOUS
 10
-18.9333663485
 20
-12.1222769404
 11
-18.9334120336
 21
-3.6096347046
  0
LWPOLYLINE
  5
24E
100
AcDbEntity
  8
RACCORDO
100
AcDbPolyline
 62
7
  6
CONTINUOUS
 90
15
 70
0
 10
-19.6220740366
 20
11.9116697194
 10
-19.6614447751
 20
11.8898199776
 10
-19.748693476
 20
11.8366531909
 10
-19.8296942133
 20
11.7802827987
 10
-19.9044674164
 20
11.7205354428
 10
-19.9723453318
 20
11.6577933903
 10
-20.0322559081
 20
11.5931217559
 10
-20.0839649013
 20
11.527115894
 10
-20.1278852516
 20
11.4596439655
 10
-20.1641324599
 20
11.3908070115
 10
-20.1926616391
 20
11.3209270406
 10
-20.2134838509
 20
11.2502827492
 10
-20.2266646998
 20
11.1790084021
 10
-20.2321884984
 20
11.1074894245
 10
-20.2323765804
 20
11.0912763524
  0
LINE
  5
24F
100
AcDbEntity
  8
RACCORDO
100
AcDbLine
 62
7
  6
CONTINUOUS
 10
-19.622153413
 20
11.9116327967
 11
-19.3727061767
 21
12.0462153034
  0
LINE
  5
250
100
AcDbEntity
  8
RACCORDO
100
AcDbLine
 62
253
  6
CONTINUOUS
 10
-19.5296567922
 20
11.9075612516
 11
-19.3727061767
 21
11.9922397094
  0
LINE
  5
251
100
AcDbEntity
  8
RACCORDO
100
AcDbLine
 62
7
  6
CONTINUOUS
 10
7.7134756907
 20
-16.7107025254
 11
7.713637001
 21
-16.7107262908
  0
LWPOLYLINE
  5
252
100
AcDbEntity
  8
RACCORDO
100
AcDbPolyline
 62
7
  6
CONTINUOUS
 90
6
 70
0
 10
7.7134766087
 20
-16.7107026612
 10
7.7377483357
 20
-16.7147155067
 10
7.7633373244
 20
-16.7199460387
 10
7.7882961306
 20
-16.7260971618
 10
7.8126380542
 20
-16.7331566559
 10
7.836417816
 20
-16.7411245065
  0
LINE
  5
253
100
AcDbEntity
  8
0
100
AcDbLine
 62
7
  6
CONTINUOUS
 10
-12.0328915829
 20
-11.4596316977
 11
-11.5696357599
 21
-11.6912596092
  0
LINE
  5
254
100
AcDbEntity
  8
0
100
AcDbLine
 62
7
  6
CONTINUOUS
 10
-8.4973576769
 20
-13.2273986506
 11
-8.034101854
 21
-13.4590265621
  0
LINE
  5
255
100
AcDbEntity
  8
0
100
AcDbLine
 62
7
  6
CONTINUOUS
 10
-4.961823771
 20
-14.9951656036
 11
-4.498567948
 21
-15.2267935151
  0
LINE
  5
256
100
AcDbEntity
  8
0
100
AcDbLine
 62
7
  6
CONTINUOUS
 10
-1.4262898651
 20
-16.7629325566
 11
-0.9630340421
 21
-16.9945604681
  0
LWPOLYLINE
  5
257
100
AcDbEntity
  8
RACCORDO
100
AcDbPolyline
 62
7
  6
CONTINUOUS
 90
4
 70
0
 10
-19.4218488148
 20
-3.1549462262
 10
-19.3717356098
 20
-3.2004060043
 10
-19.320574712
 20
-3.2496450993
 10
-19.2634731364
 20
-3.3075785017
  0
LINE
  5
258
100
AcDbEntity
  8
RACCORDO
100
AcDbLine
 62
7
  6
CONTINUOUS
 10
-19.2638613497
 20
-3.307175019
 11
-19.2634676997
 21
-3.3075841666
  0
LINE
  5
259
100
AcDbEntity
  8
RACCORDO
100
AcDbLine
 62
7
  6
CONTINUOUS
 10
-15.0135841333
 20
25.5913209656
 11
-15.0135841333
 21
22.850671077
  0
LINE
  5
25A
100
AcDbEntity
  8
0
100
AcDbLine
 62
7
  6
CONTINUOUS
 10
17.4554596114
 20
-10.4197493901
 11
15.2052678104
 21
-10.7517150244
  0
LINE
  5
25B
100
AcDbEntity
  8
RACCORDO
100
AcDbLine
 62
7
  6
CONTINUOUS
 10
7.836417816
 20
-16.7411245065
 11
7.8603916205
 21
-16.7502947979
  0
LINE
  5
25C
100
AcDbEntity
  8
RACCORDO
100
AcDbLine
 62
7
  6
CONTINUOUS
 10
-19.7931927205
 20
-2.9056267873
 11
-19.700491671
 21
-2.9636910266
  0
LINE
  5
25D
100
AcDbEntity
  8
RACCORDO
100
AcDbLine
 62
7
  6
CONTINUOUS
 10
-19.6069147351
 20
-3.0167571474
 11
-19.5640259814
 21
-3.0439326173
  0
LWPOLYLINE
  5
25E
100
AcDbEntity
  8
RACCORDO
100
AcDbPolyline
 62
7
  6
CONTINUOUS
 90
4
 70
0
 10
-19.5640259814
 20
-3.0439326173
 10
-19.5182826677
 20
-3.0764110646
 10
-19.4707816983
 20
-3.1135129433
 10
-19.4218488148
 20
-3.1549462262
  0
LINE
  5
25F
100
AcDbEntity
  8
RACCORDO
100
AcDbLine
 62
7
  6
CONTINUOUS
 10
7.8603916205
 20
-16.7502947979
 11
7.8603604754
 21
-16.7502821208
  0
LWPOLYLINE
  5
260
100
AcDbEntity
  8
RACCORDO
100
AcDbPolyline
 62
7
  6
CONTINUOUS
 90
5
 70
0
 10
7.8603609443
 20
-16.7502809585
 10
7.8742496359
 20
-16.7560460168
 10
7.8905488422
 20
-16.7630726363
 10
7.9077634619
 20
-16.7707737651
 10
7.9107983135
 20
-16.7721595244
  0
LWPOLYLINE
  5
261
100
AcDbEntity
  8
RACCORDO
100
AcDbPolyline
 62
7
  6
CONTINUOUS
 90
22
 70
0
 10
7.9107444207
 20
-16.7721219161
 10
7.9672532465
 20
-16.7970561556
 10
8.084699991
 20
-16.8433479943
 10
8.2075294414
 20
-16.8847780741
 10
8.3350054914
 20
-16.9212513879
 10
8.4665459346
 20
-16.9527243706
 10
8.6016630748
 20
-16.9791585825
 10
8.7396573724
 20
-17.0004900151
 10
8.8798221066
 20
-17.0166482908
 10
9.0215764113
 20
-17.0275972798
 10
9.164204408
 20
-17.0333113949
 10
9.3069941607
 20
-17.0337618633
 10
9.4493530326
 20
-17.0289506525
 10
9.5905699716
 20
-17.0188890804
 10
9.7299305305
 20
-17.0035914805
 10
9.8668617718
 20
-16.9830959562
 10
10.0006487514
 20
-16.957452703
 10
10.1306181702
 20
-16.9267148562
 10
10.2563256679
 20
-16.8909006509
 10
10.3771934078
 20
-16.8500229832
 10
10.4924668082
 20
-16.8041838948
 10
10.5429056558
 20
-16.7817033212
  0
LINE
  5
262
100
AcDbEntity
  8
RACCORDO
100
AcDbLine
 62
7
  6
CONTINUOUS
 10
-19.6567341836
 20
-2.9883787955
 11
-19.6566534807
 21
-2.9884227981
  0
LWPOLYLINE
  5
263
100
AcDbEntity
  8
RACCORDO
100
AcDbPolyline
 62
7
  6
CONTINUOUS
 90
4
 70
0
 10
-19.6567341836
 20
-2.9883787955
 10
-19.6398955956
 20
-2.9977084122
 10
-19.6235249526
 20
-3.0070357393
 10
-19.6071493438
 20
-3.0166168868
  0
LINE
  5
264
100
AcDbEntity
  8
RACCORDO
100
AcDbLine
 62
7
  6
CONTINUOUS
 10
-19.700491671
 20
-2.9636910266
 11
-19.6566473174
 21
-2.9884115373
  0
LINE
  5
265
100
AcDbEntity
  8
RACCORDO
100
AcDbLine
 62
253
  6
CONTINUOUS
 10
-10.2607569921
 20
24.2058547531
 11
-10.2607569921
 21
24.294831811
  0
LINE
  5
266
100
AcDbEntity
  8
RACCORDO
100
AcDbLine
 62
253
  6
CONTINUOUS
 10
-9.9804039618
 20
24.2026152498
 11
-9.9804039618
 21
24.2906379671
  0
LINE
  5
267
100
AcDbEntity
  8
RACCORDO
100
AcDbLine
 62
7
  6
CONTINUOUS
 10
-19.4469233137
 20
0.840855966
 11
-19.6710566093
 21
0.719930911
  0
LINE
  5
268
100
AcDbEntity
  8
RACCORDO
100
AcDbLine
 62
7
  6
CONTINUOUS
 10
7.794374504
 20
-14.4320221978
 11
7.1553674184
 21
-14.112518655
  0
LINE
  5
269
100
AcDbEntity
  8
RACCORDO
100
AcDbLine
 62
7
  6
CONTINUOUS
 10
-19.0075834855
 20
-1.0310432031
 11
-19.646590571
 21
-0.7115396603
  0
LINE
  5
26A
100
AcDbEntity
  8
RACCORDO
100
AcDbLine
 62
7
  6
CONTINUOUS
 10
11.8873739393
 20
15.0943096573
 11
11.1679248011
 21
14.7620442035
  0
LINE
  5
26B
100
AcDbEntity
  8
RACCORDO
100
AcDbLine
 62
253
  6
CONTINUOUS
 10
11.9746940099
 20
15.0876109875
 11
11.255244634
 21
14.755345424
  0
LINE
  5
26C
100
AcDbEntity
  8
RACCORDO
100
AcDbLine
 62
7
  6
CONTINUOUS
 10
15.5381261679
 20
16.5955783875
 11
12.0749497024
 21
15.0374831413
  0
LINE
  5
26D
100
AcDbEntity
  8
RACCORDO
100
AcDbLine
 62
253
  6
CONTINUOUS
 10
15.6226526108
 20
16.5876002735
 11
12.1233828926
 21
15.0132665462
  0
LINE
  5
26E
100
AcDbEntity
  8
RACCORDO
100
AcDbLine
 62
253
  6
CONTINUOUS
 10
17.5020588916
 20
15.6478971331
 11
14.2081672245
 21
13.9708743803
  0
LINE
  5
26F
100
AcDbEntity
  8
RACCORDO
100
AcDbLine
 62
253
  6
CONTINUOUS
 10
17.6245147253
 20
15.326901165
 11
14.4860635093
 21
13.7290179832
  0
LINE
  5
270
100
AcDbEntity
  8
RACCORDO
100
AcDbLine
 62
253
  6
CONTINUOUS
 10
14.4982559242
 20
13.4400519516
 11
16.4832265183
 21
14.4506622528
  0
LINE
  5
271
100
AcDbEntity
  8
RACCORDO
100
AcDbLine
 62
253
  6
CONTINUOUS
 10
14.4982559242
 20
13.0567099079
 11
16.6056823519
 21
14.1296662848
  0
LINE
  5
272
100
AcDbEntity
  8
RACCORDO
100
AcDbLine
 62
253
  6
CONTINUOUS
 10
13.6620919207
 20
13.5519217806
 11
14.3568561071
 21
13.8965299389
  0
LINE
  5
273
100
AcDbEntity
  8
RACCORDO
100
AcDbLine
 62
253
  6
CONTINUOUS
 10
13.8034917378
 20
13.3080431713
 11
14.4982559242
 21
13.6526513296
  0
LINE
  5
274
100
AcDbEntity
  8
DRAFT
100
AcDbLine
 62
7
  6
CONTINUOUS
 10
14.4982559242
 20
12.7432982757
 11
13.8034917378
 21
12.3986901173
  0
LINE
  5
275
100
AcDbEntity
  8
RACCORDO
100
AcDbLine
 62
253
  6
CONTINUOUS
 10
7.7697100698
 20
8.295373278
 11
12.1053302783
 21
10.4798098409
  0
LINE
  5
276
100
AcDbEntity
  8
RACCORDO
100
AcDbLine
 62
253
  6
CONTINUOUS
 10
11.6101616791
 20
10.7273941405
 11
14.2526906488
 21
12.0381079905
  0
LINE
  5
277
100
AcDbEntity
  8
RACCORDO
100
AcDbLine
 62
7
  6
CONTINUOUS
 10
14.3940904659
 20
11.967408082
 11
11.7515614961
 21
10.656694232
  0
LINE
  5
278
100
AcDbEntity
  8
RACCORDO
100
AcDbLine
 62
253
  6
CONTINUOUS
 10
12.1053302783
 20
10.4798098409
 11
18.0289226074
 21
13.4180461571
  0
LINE
  5
279
100
AcDbEntity
  8
0
100
AcDbLine
 62
7
  6
CONTINUOUS
 10
-15.518005027
 20
-8.7336639743
 11
-15.8679748864
 21
-8.987302835
  0
LINE
  5
27A
100
AcDbEntity
  8
0
100
AcDbLine
 62
7
  6
CONTINUOUS
 10
-15.5144214958
 20
-8.8105261397
 11
-15.4850399352
 21
-8.7892320043
  0
LINE
  5
27B
100
AcDbEntity
  8
0
100
AcDbLine
 62
7
  6
CONTINUOUS
 10
-15.5179748864
 20
-9.59096354
 11
-15.2234303182
 21
-9.3774938748
  0
LINE
  5
27C
100
AcDbEntity
  8
RACCORDO
100
AcDbLine
 62
253
  6
CONTINUOUS
 10
9.183798009
 20
5.8564346195
 11
13.5193284491
 21
8.0410237477
  0
LINE
  5
27D
100
AcDbEntity
  8
0
100
AcDbLine
 62
253
  6
CONTINUOUS
 10
-16.7801971247
 20
-8.4026424783
 11
-16.0869355843
 21
-8.0560117081
  0
LINE
  5
27E
100
AcDbEntity
  8
RACCORDO
100
AcDbLine
 62
253
  6
CONTINUOUS
 10
13.5193284491
 20
8.0410237477
 11
19.443011994
 21
10.9792144559
  0
LINE
  5
27F
100
AcDbEntity
  8
RACCORDO
100
AcDbLine
 62
7
  6
CONTINUOUS
 10
-19.646590571
 20
8.1754623223
 11
-19.0075834855
 21
7.8559587795
  0
LINE
  5
280
100
AcDbEntity
  8
RACCORDO
100
AcDbLine
 62
7
  6
CONTINUOUS
 10
7.1553674184
 20
-5.2255166724
 11
7.794374504
 21
-5.5450202152
  0
LINE
  5
281
100
AcDbEntity
  8
RACCORDO
100
AcDbLine
 62
253
  6
CONTINUOUS
 10
18.0598722064
 20
-10.5306773962
 11
17.6394654508
 21
-10.3204740183
  0
LINE
  5
282
100
AcDbEntity
  8
RACCORDO
100
AcDbLine
 62
253
  6
CONTINUOUS
 10
18.4011916461
 20
-9.9210073309
 11
18.0684660079
 21
-9.7546445118
  0
LINE
  5
283
100
AcDbEntity
  8
0
100
AcDbLine
 62
7
  6
CONTINUOUS
 10
-11.9824711211
 20
-10.5014309272
 11
-12.3324409805
 21
-10.755069788
  0
LINE
  5
284
100
AcDbEntity
  8
0
100
AcDbLine
 62
7
  6
CONTINUOUS
 10
-11.9788875899
 20
-10.5782930927
 11
-11.9495060293
 21
-10.5569989573
  0
LINE
  5
285
100
AcDbEntity
  8
0
100
AcDbLine
 62
7
  6
CONTINUOUS
 10
-11.9824409805
 20
-11.358730493
 11
-11.6878964122
 21
-11.1452608277
  0
LINE
  5
286
100
AcDbEntity
  8
0
100
AcDbLine
 62
7
  6
CONTINUOUS
 10
-15.8679748864
 20
-8.987302835
 11
-15.5144214958
 21
-8.8105261397
  0
LINE
  5
287
100
AcDbEntity
  8
0
100
AcDbLine
 62
253
  6
CONTINUOUS
 10
-12.5514217163
 20
-9.8237614227
 11
-13.2446632187
 21
-10.1703821739
  0
LINE
  5
288
100
AcDbEntity
  8
0
100
AcDbLine
 62
7
  6
CONTINUOUS
 10
-11.9788875899
 20
-10.5782930927
 11
-12.3324409805
 21
-10.755069788
  0
LINE
  5
289
100
AcDbEntity
  8
RACCORDO
100
AcDbLine
 62
253
  6
CONTINUOUS
 10
7.0811502815
 20
5.865717065
 11
7.0811959666
 21
-2.646925364
  0
LINE
  5
28A
100
AcDbEntity
  8
RACCORDO
100
AcDbLine
 62
253
  6
CONTINUOUS
 10
7.081217843
 20
-16.6169349619
 11
7.0811502815
 21
-25.1295352554
  0
LINE
  5
28B
100
AcDbEntity
  8
0
100
AcDbLine
 62
7
  6
CONTINUOUS
 10
-8.4469372151
 20
-12.2691978802
 11
-8.7969070746
 21
-12.522836741
  0
LINE
  5
28C
100
AcDbEntity
  8
0
100
AcDbLine
 62
7
  6
CONTINUOUS
 10
-8.443353684
 20
-12.3460600457
 11
-8.4139721233
 21
-12.3247659103
  0
LINE
  5
28D
100
AcDbEntity
  8
0
100
AcDbLine
 62
7
  6
CONTINUOUS
 10
-8.4469070746
 20
-13.126497446
 11
-8.1523625063
 21
-12.9130277807
  0
LINE
  5
28E
100
AcDbEntity
  8
RACCORDO
100
AcDbLine
 62
253
  6
CONTINUOUS
 10
13.5193284491
 20
-0.4463153891
 11
9.1838984193
 21
-2.6307462439
  0
LINE
  5
28F
100
AcDbEntity
  8
0
100
AcDbLine
 62
253
  6
CONTINUOUS
 10
-9.7091293128
 20
-11.9381763842
 11
-9.0158677724
 21
-11.591545614
  0
LINE
  5
290
100
AcDbEntity
  8
RACCORDO
100
AcDbLine
 62
7
  6
CONTINUOUS
 10
17.5690443177
 20
1.1618218434
 11
13.6196905903
 21
-0.6621205851
  0
LINE
  5
291
100
AcDbEntity
  8
RACCORDO
100
AcDbLine
 62
253
  6
CONTINUOUS
 10
17.6553682028
 20
1.1546631021
 11
13.6607282662
 21
-0.6901939984
  0
LINE
  5
292
100
AcDbEntity
  8
RACCORDO
100
AcDbLine
 62
7
  6
CONTINUOUS
 10
17.6636831881
 20
1.2030720966
 11
17.5690364858
 21
1.1618174246
  0
LINE
  5
293
100
AcDbEntity
  8
RACCORDO
100
AcDbLine
 62
7
  6
CONTINUOUS
 10
14.4385888038
 20
-1.0791242672
 11
13.6607282662
 21
-0.6901939984
  0
LINE
  5
294
100
AcDbEntity
  8
RACCORDO
100
AcDbLine
 62
253
  6
CONTINUOUS
 10
18.0684660079
 20
-2.1117130942
 11
18.4011916461
 21
-2.2780759134
  0
LINE
  5
295
100
AcDbEntity
  8
RACCORDO
100
AcDbLine
 62
253
  6
CONTINUOUS
 10
7.1553674184
 20
-5.2255166724
 11
7.1553674184
 21
-14.112518655
  0
LINE
  5
296
100
AcDbEntity
  8
RACCORDO
100
AcDbLine
 62
253
  6
CONTINUOUS
 10
7.7943935143
 20
-16.6357714185
 11
7.794374504
 21
-14.4320221978
  0
LINE
  5
297
100
AcDbEntity
  8
RACCORDO
100
AcDbLine
 62
253
  6
CONTINUOUS
 10
7.794374504
 20
-5.5450202152
 11
7.7943920697
 21
-3.3412888951
  0
LINE
  5
298
100
AcDbEntity
  8
RACCORDO
100
AcDbLine
 62
253
  6
CONTINUOUS
 10
9.183798009
 20
5.8564346195
 11
9.1838984193
 21
-2.6307462439
  0
LINE
  5
299
100
AcDbEntity
  8
RACCORDO
100
AcDbLine
 62
253
  6
CONTINUOUS
 10
9.1839083904
 20
-17.0333735564
 11
9.183798009
 21
-25.1386000765
  0
LINE
  5
29A
100
AcDbEntity
  8
RACCORDO
100
AcDbLine
 62
253
  6
CONTINUOUS
 10
9.276687762
 20
-5.8466979405
 11
9.276687762
 21
-14.0898438606
  0
LINE
  5
29B
100
AcDbEntity
  8
RACCORDO
100
AcDbLine
 62
7
  6
CONTINUOUS
 10
17.1605156282
 20
14.5426909033
 11
17.1630454586
 21
14.5468675436
  0
LINE
  5
29C
100
AcDbEntity
  8
RACCORDO
100
AcDbLine
 62
253
  6
CONTINUOUS
 10
17.1181378836
 20
14.5059022597
 11
17.6245147253
 21
15.326901165
  0
LINE
  5
29D
100
AcDbEntity
  8
RACCORDO
100
AcDbLine
 62
7
  6
CONTINUOUS
 10
17.1634101563
 20
14.547446056
 11
17.6698162072
 21
15.3684924884
  0
LINE
  5
29E
100
AcDbEntity
  8
RACCORDO
100
AcDbLine
 62
253
  6
CONTINUOUS
 10
17.1634101563
 20
14.547446056
 11
17.163049326
 21
14.5468651107
  0
LINE
  5
29F
100
AcDbEntity
  8
0
100
AcDbLine
 62
7
  6
CONTINUOUS
 10
-4.9114033092
 20
-14.0369648332
 11
-5.2613731686
 21
-14.2906036939
  0
LINE
  5
2A0
100
AcDbEntity
  8
0
100
AcDbLine
 62
7
  6
CONTINUOUS
 10
-4.9078197781
 20
-14.1138269986
 11
-4.8784382174
 21
-14.0925328632
  0
LINE
  5
2A1
100
AcDbEntity
  8
RACCORDO
100
AcDbLine
 62
253
  6
CONTINUOUS
 10
13.6607282662
 20
-0.6901939984
 11
9.325197826
 21
-2.8746754455
  0
LINE
  5
2A2
100
AcDbEntity
  8
RACCORDO
100
AcDbLine
 62
253
  6
CONTINUOUS
 10
10.4565049902
 20
-3.0855196396
 11
14.4385888038
 21
-1.0791242672
  0
LINE
  5
2A3
100
AcDbEntity
  8
RACCORDO
100
AcDbLine
 62
253
  6
CONTINUOUS
 10
10.5979048073
 20
-3.3293982489
 11
14.5799886209
 21
-1.3230028766
  0
LINE
  5
2A4
100
AcDbEntity
  8
0
100
AcDbLine
 62
7
  6
CONTINUOUS
 10
-8.7969070746
 20
-12.522836741
 11
-8.443353684
 21
-12.3460600457
  0
LINE
  5
2A5
100
AcDbEntity
  8
RACCORDO
100
AcDbLine
 62
253
  6
CONTINUOUS
 10
18.2961677499
 20
0.8342633285
 11
14.4385888038
 21
-1.0791242672
  0
LINE
  5
2A6
100
AcDbEntity
  8
RACCORDO
100
AcDbLine
 62
253
  6
CONTINUOUS
 10
18.437567567
 20
0.5903847192
 11
14.5799886209
 21
-1.3230028766
  0
LWPOLYLINE
  5
2A7
100
AcDbEntity
  8
RACCORDO
100
AcDbPolyline
 62
7
  6
CONTINUOUS
 90
10
 70
0
 10
18.9136363677
 20
1.2425151595
 10
18.7910639946
 20
1.2880148983
 10
18.6627619062
 20
1.3215330423
 10
18.5294164199
 20
1.3427040832
 10
18.3919085731
 20
1.3512571874
 10
18.2509128087
 20
1.3470955896
 10
18.1069646449
 20
1.3301604261
 10
17.9607233261
 20
1.3004714519
 10
17.8127811072
 20
1.2580803337
 10
17.6636831881
 20
1.2030720966
  0
LINE
  5
2A8
100
AcDbEntity
  8
RACCORDO
100
AcDbLine
 62
7
  6
CONTINUOUS
 10
18.9835378765
 20
1.2099675557
 11
18.9136363677
 21
1.2425151595
  0
LINE
  5
2A9
100
AcDbEntity
  8
RACCORDO
100
AcDbLine
 62
253
  6
CONTINUOUS
 10
-18.5798668058
 20
19.1291723606
 11
6.7276507388
 21
6.4754135883
  0
LINE
  5
2AA
100
AcDbEntity
  8
RACCORDO
100
AcDbLine
 62
253
  6
CONTINUOUS
 10
17.6553682028
 20
1.1546631021
 11
18.2961677499
 21
0.8342633285
  0
LINE
  5
2AB
100
AcDbEntity
  8
RACCORDO
100
AcDbLine
 62
7
  6
CONTINUOUS
 10
18.9811777605
 20
1.2111576329
 11
19.5795929068
 21
0.9119500597
  0
LINE
  5
2AC
100
AcDbEntity
  8
RACCORDO
100
AcDbLine
 62
253
  6
CONTINUOUS
 10
10.5979048073
 20
-16.6721102024
 11
10.5979048073
 21
-14.4145497973
  0
LINE
  5
2AD
100
AcDbEntity
  8
RACCORDO
100
AcDbLine
 62
253
  6
CONTINUOUS
 10
10.5979048073
 20
-5.586958654
 11
10.5979048073
 21
-3.3293982489
  0
LINE
  5
2AE
100
AcDbEntity
  8
RACCORDO
100
AcDbLine
 62
7
  6
CONTINUOUS
 10
11.1138448169
 20
14.6528666317
 11
11.1138448169
 21
13.7435135778
  0
LWPOLYLINE
  5
2AF
100
AcDbEntity
  8
RACCORDO
100
AcDbPolyline
 62
7
  6
CONTINUOUS
 90
4
 70
0
 10
17.1023509228
 20
14.4096123951
 10
17.1208031161
 20
14.4605526284
 10
17.1402863638
 20
14.5049825902
 10
17.1605156282
 20
14.5426909033
  0
LINE
  5
2B0
100
AcDbEntity
  8
0
100
AcDbLine
 62
7
  6
CONTINUOUS
 10
-4.9113731686
 20
-14.8942643989
 11
-4.6168286004
 21
-14.6807947337
  0
LINE
  5
2B1
100
AcDbEntity
  8
0
100
AcDbLine
 62
253
  6
CONTINUOUS
 10
-5.4803539044
 20
-13.3592953286
 11
-6.1735954069
 21
-13.7059160798
  0
LINE
  5
2B2
100
AcDbEntity
  8
0
100
AcDbLine
 62
7
  6
CONTINUOUS
 10
-4.9078197781
 20
-14.1138269986
 11
-5.2613731686
 21
-14.2906036939
  0
LINE
  5
2B3
100
AcDbEntity
  8
RACCORDO
100
AcDbLine
 62
7
  6
CONTINUOUS
 10
18.0598722064
 20
-2.0218524747
 11
14.5799886209
 21
-3.7479003871
  0
LINE
  5
2B4
100
AcDbEntity
  8
RACCORDO
100
AcDbLine
 62
7
  6
CONTINUOUS
 10
17.984267948
 20
-2.0645740251
 11
17.4554596114
 21
-2.3268668585
  0
LINE
  5
2B5
100
AcDbEntity
  8
RACCORDO
100
AcDbLine
 62
7
  6
CONTINUOUS
 10
14.5799886209
 20
-3.7479003871
 11
10.5979048073
 21
-5.586958654
  0
LINE
  5
2B6
100
AcDbEntity
  8
RACCORDO
100
AcDbLine
 62
253
  6
CONTINUOUS
 10
-17.5376297852
 20
20.9490432055
 11
7.7697100698
 21
8.295373278
  0
LINE
  5
2B7
100
AcDbEntity
  8
DRAFT
100
AcDbLine
 62
7
  6
CONTINUOUS
 10
13.5193284491
 20
-4.2377484035
 11
13.5193284491
 21
-11.8778243391
  0
LINE
  5
2B8
100
AcDbEntity
  8
RACCORDO
100
AcDbLine
 62
7
  6
CONTINUOUS
 10
13.5193284491
 20
-23.136418388
 11
13.5193284491
 21
-15.4071015949
  0
LINE
  5
2B9
100
AcDbEntity
  8
RACCORDO
100
AcDbLine
 62
7
  6
CONTINUOUS
 10
13.5193284491
 20
-11.8778243391
 11
13.5193284491
 21
-11.6613179881
  0
LINE
  5
2BA
100
AcDbEntity
  8
RACCORDO
100
AcDbLine
 62
7
  6
CONTINUOUS
 10
13.5193284491
 20
-0.4463153891
 11
13.5193284491
 21
8.0410237477
  0
LINE
  5
2BB
100
AcDbEntity
  8
RACCORDO
100
AcDbLine
 62
7
  6
CONTINUOUS
 10
13.8034917378
 20
12.3986901173
 11
13.8034917378
 21
13.3080431713
  0
LWPOLYLINE
  5
2BC
100
AcDbEntity
  8
RACCORDO
100
AcDbPolyline
 62
7
  6
CONTINUOUS
 90
3
 70
0
 10
17.0697065277
 20
14.2909866257
 10
17.0852390902
 20
14.3527947031
 10
17.1023509228
 20
14.4096123951
  0
LINE
  5
2BD
100
AcDbEntity
  8
0
100
AcDbLine
 62
7
  6
CONTINUOUS
 10
-1.3758694033
 20
-15.8047317861
 11
-1.7258392627
 21
-16.0583706469
  0
LINE
  5
2BE
100
AcDbEntity
  8
0
100
AcDbLine
 62
7
  6
CONTINUOUS
 10
-1.3722858721
 20
-15.8815939516
 11
-1.3429043115
 21
-15.8602998162
  0
LINE
  5
2BF
100
AcDbEntity
  8
0
100
AcDbLine
 62
7
  6
CONTINUOUS
 10
-1.3758392627
 20
-16.6620313519
 11
-1.0812946944
 21
-16.4485616866
  0
LINE
  5
2C0
100
AcDbEntity
  8
0
100
AcDbLine
 62
253
  6
CONTINUOUS
 10
-2.6380615009
 20
-15.4737102901
 11
-1.9447999606
 21
-15.1270795199
  0
LINE
  5
2C1
100
AcDbEntity
  8
RACCORDO
100
AcDbLine
 62
253
  6
CONTINUOUS
 10
14.3916438621
 20
12.1046140552
 11
14.3916438621
 21
12.0049128246
  0
LINE
  5
2C2
100
AcDbEntity
  8
RACCORDO
100
AcDbLine
 62
7
  6
CONTINUOUS
 10
14.4982559242
 20
12.7432982757
 11
14.4982559242
 21
13.6526513296
  0
LINE
  5
2C3
100
AcDbEntity
  8
RACCORDO
100
AcDbLine
 62
7
  6
CONTINUOUS
 10
14.5799886209
 20
-14.8330519355
 11
14.5799886209
 21
-12.408154425
  0
LINE
  5
2C4
100
AcDbEntity
  8
RACCORDO
100
AcDbLine
 62
7
  6
CONTINUOUS
 10
14.5799886209
 20
-3.7479003871
 11
14.5799886209
 21
-1.3230028766
  0
LINE
  5
2C5
100
AcDbEntity
  8
0
100
AcDbLine
 62
7
  6
CONTINUOUS
 10
15.2052678104
 20
-3.4377572995
 11
15.2052678104
 21
-10.7517150244
  0
LINE
  5
2C6
100
AcDbEntity
  8
RACCORDO
100
AcDbLine
 62
7
  6
CONTINUOUS
 10
17.0651000661
 20
14.2691669452
 11
17.0697065277
 21
14.2909866257
  0
LINE
  5
2C7
100
AcDbEntity
  8
0
100
AcDbLine
 62
7
  6
CONTINUOUS
 10
2.1596645027
 20
-17.5724987391
 11
1.8096946432
 21
-17.8261375999
  0
LINE
  5
2C8
100
AcDbEntity
  8
0
100
AcDbLine
 62
7
  6
CONTINUOUS
 10
2.1632480338
 20
-17.6493609046
 11
2.1926295945
 21
-17.6280667692
  0
LINE
  5
2C9
100
AcDbEntity
  8
0
100
AcDbLine
 62
7
  6
CONTINUOUS
 10
-1.7258392627
 20
-16.0583706469
 11
-1.3722858721
 21
-15.8815939516
  0
LINE
  5
2CA
100
AcDbEntity
  8
RACCORDO
100
AcDbLine
 62
7
  6
CONTINUOUS
 10
12.1053302783
 20
10.4798098409
 11
-13.3509446276
 21
23.2079472939
  0
LINE
  5
2CB
100
AcDbEntity
  8
DRAFT
100
AcDbLine
 62
7
  6
CONTINUOUS
 10
17.4554596114
 20
-10.4197493901
 11
17.4554596114
 21
-2.3268668585
  0
LINE
  5
2CC
100
AcDbEntity
  8
RACCORDO
100
AcDbLine
 62
253
  6
CONTINUOUS
 10
17.984267948
 20
-2.0645740251
 11
17.984267948
 21
-10.1344451608
  0
LINE
  5
2CD
100
AcDbEntity
  8
RACCORDO
100
AcDbLine
 62
7
  6
CONTINUOUS
 10
18.0684660079
 20
-2.0366042997
 11
18.0684660079
 21
-9.954017375
  0
LINE
  5
2CE
100
AcDbEntity
  8
0
100
AcDbLine
 62
7
  6
CONTINUOUS
 10
2.1596946432
 20
-18.4297983049
 11
2.4542392115
 21
-18.2163286396
  0
LINE
  5
2CF
100
AcDbEntity
  8
DRAFT
100
AcDbLine
 62
7
  6
CONTINUOUS
 10
13.5193284491
 20
-11.6613179881
 11
15.2052678104
 21
-10.7517150244
  0
LINE
  5
2D0
100
AcDbEntity
  8
RACCORDO
100
AcDbLine
 62
7
  6
CONTINUOUS
 10
17.984267948
 20
-10.1344451608
 11
17.4554596114
 21
-10.4197493901
  0
LINE
  5
2D1
100
AcDbEntity
  8
RACCORDO
100
AcDbLine
 62
7
  6
CONTINUOUS
 10
18.0598722064
 20
-10.5306773962
 11
14.5799886209
 21
-12.408154425
  0
LINE
  5
2D2
100
AcDbEntity
  8
RACCORDO
100
AcDbLine
 62
7
  6
CONTINUOUS
 10
9.276687762
 20
-14.0898438606
 11
13.5193284491
 21
-11.8778243391
  0
LINE
  5
2D3
100
AcDbEntity
  8
RACCORDO
100
AcDbLine
 62
7
  6
CONTINUOUS
 10
15.9816292526
 20
-10.6371802019
 11
13.5193284491
 21
-11.8778243391
  0
LINE
  5
2D4
100
AcDbEntity
  8
RACCORDO
100
AcDbLine
 62
7
  6
CONTINUOUS
 10
14.5799886209
 20
-12.408154425
 11
10.5979048073
 21
-14.4145497973
  0
LINE
  5
2D5
100
AcDbEntity
  8
0
100
AcDbLine
 62
253
  6
CONTINUOUS
 10
1.5907139075
 20
-16.8948292345
 11
0.897472405
 21
-17.2414499858
  0
LINE
  5
2D6
100
AcDbEntity
  8
0
100
AcDbLine
 62
7
  6
CONTINUOUS
 10
2.1632480338
 20
-17.6493609046
 11
1.8096946432
 21
-17.8261375999
  0
LINE
  5
2D7
100
AcDbEntity
  8
DRAFT
100
AcDbLine
 62
7
  6
CONTINUOUS
 10
13.5193284491
 20
-11.5726228365
 11
15.2052678104
 21
-10.7517150244
  0
LINE
  5
2D8
100
AcDbEntity
  8
RACCORDO
100
AcDbLine
 62
253
  6
CONTINUOUS
 10
14.3396414868
 20
12.0425925203
 11
14.3395176958
 21
12.0426542184
  0
LINE
  5
2D9
100
AcDbEntity
  8
RACCORDO
100
AcDbLine
 62
253
  6
CONTINUOUS
 10
-10.1193571751
 20
24.2241319025
 11
14.2526906488
 21
12.0381079905
  0
LINE
  5
2DA
100
AcDbEntity
  8
RACCORDO
100
AcDbLine
 62
7
  6
CONTINUOUS
 10
-10.0323825989
 20
24.2286045684
 11
14.3396652249
 21
12.0425806565
  0
LINE
  5
2DB
100
AcDbEntity
  8
RACCORDO
100
AcDbLine
 62
7
  6
CONTINUOUS
 10
-9.9804039618
 20
24.2906379671
 11
11.1138448169
 21
13.7435135778
  0
LINE
  5
2DC
100
AcDbEntity
  8
RACCORDO
100
AcDbLine
 62
7
  6
CONTINUOUS
 10
13.8034917378
 20
12.3986901173
 11
14.3916438621
 21
12.1046140552
  0
LINE
  5
2DD
100
AcDbEntity
  8
RACCORDO
100
AcDbLine
 62
7
  6
CONTINUOUS
 10
-10.4257166513
 20
25.0291742324
 11
-13.5995859625
 21
26.616108888
  0
LINE
  5
2DE
100
AcDbEntity
  8
RACCORDO
100
AcDbLine
 62
7
  6
CONTINUOUS
 10
13.6620919207
 20
13.5519217806
 11
11.255244634
 21
14.755345424
  0
LINE
  5
2DF
100
AcDbEntity
  8
RACCORDO
100
AcDbLine
 62
253
  6
CONTINUOUS
 10
-9.6999892138
 20
25.3643392128
 11
-12.8737577885
 21
26.9512235001
  0
LINE
  5
2E0
100
AcDbEntity
  8
RACCORDO
100
AcDbLine
 62
7
  6
CONTINUOUS
 10
-9.5753315366
 20
25.4219102591
 11
-12.6564220908
 21
26.9624555362
  0
LWPOLYLINE
  5
2E1
100
AcDbEntity
  8
RACCORDO
100
AcDbPolyline
 62
7
  6
CONTINUOUS
 90
19
 70
0
 10
19.8639962802
 20
11.5002797479
 10
19.863051986
 20
11.5621219319
 10
19.8539262632
 20
11.7035327428
 10
19.8352605958
 20
11.8444320273
 10
19.8069230472
 20
11.9858089275
 10
19.7689278854
 20
12.1267762561
 10
19.7220450265
 20
12.264665298
 10
19.6661946684
 20
12.3999924479
 10
19.6012199747
 20
12.5327749596
 10
19.5286019826
 20
12.6599937108
 10
19.4483537887
 20
12.7818747829
 10
19.3601411478
 20
12.8987272827
 10
19.2657931711
 20
13.0080818177
 10
19.165672133
 20
13.109765877
 10
19.0593644936
 20
13.2041565349
 10
18.9483682556
 20
13.2899234048
 10
18.8335159889
 20
13.3666046156
 10
18.7146299564
 20
13.4344730789
 10
18.6817449606
 20
13.4513297393
  0
LWPOLYLINE
  5
2E2
100
AcDbEntity
  8
RACCORDO
100
AcDbPolyline
 62
7
  6
CONTINUOUS
 90
17
 70
0
 10
20.4050878106
 20
-0.7750278419
 10
20.4039376998
 20
-0.6894852358
 10
20.3959310964
 20
-0.5367565097
 10
20.3802940809
 20
-0.3884008945
 10
20.3570268761
 20
-0.2447813876
 10
20.3261716311
 20
-0.1064533283
 10
20.2878584385
 20
0.0258847068
 10
20.2421875731
 20
0.1518437138
 10
20.1892874246
 20
0.2710325784
 10
20.1294239735
 20
0.3828364146
 10
20.0628646091
 20
0.4868594109
 10
19.9897967726
 20
0.5828609031
 10
19.9104825613
 20
0.6705197039
 10
19.8252570839
 20
0.7495247649
 10
19.7344548784
 20
0.8195915583
 10
19.6384381457
 20
0.8804655109
 10
19.5786017172
 20
0.9124376086
  0
LINE
  5
2E3
100
AcDbEntity
  8
RACCORDO
100
AcDbLine
 62
7
  6
CONTINUOUS
 10
18.4011916461
 20
-9.9210073309
 11
18.4011916461
 21
-2.2780759134
  0
LINE
  5
2E4
100
AcDbEntity
  8
RACCORDO
100
AcDbLine
 62
253
  6
CONTINUOUS
 10
19.443011994
 20
-19.9403435001
 11
19.443011994
 21
-11.9262801178
  0
LINE
  5
2E5
100
AcDbEntity
  8
RACCORDO
100
AcDbLine
 62
253
  6
CONTINUOUS
 10
19.443011994
 20
0.9802405161
 11
19.443011994
 21
10.9792144559
  0
LINE
  5
2E6
100
AcDbEntity
  8
RACCORDO
100
AcDbLine
 62
7
  6
CONTINUOUS
 10
19.8640022935
 20
11.5002082331
 11
19.8640022935
 21
0.7136074812
  0
LINE
  5
2E7
100
AcDbEntity
  8
RACCORDO
100
AcDbLine
 62
7
  6
CONTINUOUS
 10
19.8640022935
 20
-11.2751614193
 11
19.8640022935
 21
-19.4194614726
  0
LINE
  5
2E8
100
AcDbEntity
  8
RACCORDO
100
AcDbLine
 62
253
  6
CONTINUOUS
 10
20.3489564295
 20
-9.3376472295
 11
20.3489564295
 21
-0.8444665375
  0
LINE
  5
2E9
100
AcDbEntity
  8
RACCORDO
100
AcDbLine
 62
7
  6
CONTINUOUS
 10
20.4050884694
 20
-9.2681813924
 11
20.4050884694
 21
-0.7750007005
  0
LINE
  5
2EA
100
AcDbEntity
  8
RACCORDO
100
AcDbLine
 62
253
  6
CONTINUOUS
 10
14.5799886209
 20
-14.8330519355
 11
18.437567567
 21
-12.7517995947
  0
LINE
  5
2EB
100
AcDbEntity
  8
RACCORDO
100
AcDbLine
 62
7
  6
CONTINUOUS
 10
14.5301356806
 20
-14.9401146815
 11
18.388664371
 21
-12.8583499319
  0
LINE
  5
2EC
100
AcDbEntity
  8
RACCORDO
100
AcDbLine
 62
7
  6
CONTINUOUS
 10
14.5300933473
 20
-14.9401375213
 11
14.5259278438
 21
-14.9422205592
  0
LINE
  5
2ED
100
AcDbEntity
  8
RACCORDO
100
AcDbLine
 62
253
  6
CONTINUOUS
 10
14.5799886209
 20
-14.8330519355
 11
10.5979048073
 21
-16.6721102024
  0
LINE
  5
2EE
100
AcDbEntity
  8
RACCORDO
100
AcDbLine
 62
7
  6
CONTINUOUS
 10
14.525870004
 20
-14.9422473492
 11
10.5428288747
 21
-16.7817477362
  0
LWPOLYLINE
  5
2EF
100
AcDbEntity
  8
RACCORDO
100
AcDbPolyline
 62
7
  6
CONTINUOUS
 90
3
 70
0
 10
-12.656487014
 20
26.9624807072
 10
-12.7035579123
 20
26.9851057077
 10
-12.8158193879
 20
27.031894047
  0
LWPOLYLINE
  5
2F0
100
AcDbEntity
  8
RACCORDO
100
AcDbPolyline
 62
7
  6
CONTINUOUS
 90
15
 70
0
 10
-6.5650326619
 20
26.0747153032
 10
-6.5986350166
 20
26.091088189
 10
-6.7124482321
 20
26.1406337758
 10
-6.8280885435
 20
26.1820776409
 10
-6.9448399806
 20
26.2152842133
 10
-7.0623230307
 20
26.2403088029
 10
-7.1803891668
 20
26.2572374456
 10
-7.2983867153
 20
26.2660655417
 10
-7.4157677061
 20
26.2668613571
 10
-7.5324382768
 20
26.2597162891
 10
-7.647764398
 20
26.2447351651
 10
-7.7611767633
 20
26.2220753706
 10
-7.8726226273
 20
26.1917899024
 10
-7.981682969
 20
26.1539892806
 10
-8.0831549004
 20
26.1110366165
  0
LINE
  5
2F1
100
AcDbEntity
  8
RACCORDO
100
AcDbLine
 62
7
  6
CONTINUOUS
 10
17.0860910223
 20
14.2491591319
 11
17.0864459797
 21
14.2489836596
  0
LINE
  5
2F2
100
AcDbEntity
  8
RACCORDO
100
AcDbLine
 62
7
  6
CONTINUOUS
 10
14.3568561071
 20
13.8965299389
 11
14.2081672245
 21
13.9708743803
  0
LINE
  5
2F3
100
AcDbEntity
  8
RACCORDO
100
AcDbLine
 62
7
  6
CONTINUOUS
 10
12.1233828926
 20
15.0132665462
 11
11.9746940099
 21
15.0876109875
  0
LINE
  5
2F4
100
AcDbEntity
  8
RACCORDO
100
AcDbLine
 62
253
  6
CONTINUOUS
 10
-7.2167907475
 20
26.0409028345
 11
13.5040942992
 21
15.6804603112
  0
LINE
  5
2F5
100
AcDbEntity
  8
RACCORDO
100
AcDbLine
 62
253
  6
CONTINUOUS
 10
16.6056823519
 20
14.1296662848
 11
18.0289226074
 21
13.4180461571
  0
LINE
  5
2F6
100
AcDbEntity
  8
RACCORDO
100
AcDbLine
 62
7
  6
CONTINUOUS
 10
-6.5650295566
 20
26.0747215209
 11
13.8827639759
 21
15.8508251277
  0
LINE
  5
2F7
100
AcDbEntity
  8
RACCORDO
100
AcDbLine
 62
7
  6
CONTINUOUS
 10
17.0846214979
 20
14.2498963667
 11
18.6813231715
 21
13.4515455299
  0
LINE
  5
2F8
100
AcDbEntity
  8
RACCORDO
100
AcDbLine
 62
7
  6
CONTINUOUS
 10
20.4032819876
 20
-9.3769159902
 11
20.4050877992
 21
-9.2681581221
  0
LWPOLYLINE
  5
2F9
100
AcDbEntity
  8
RACCORDO
100
AcDbPolyline
 62
7
  6
CONTINUOUS
 90
23
 70
0
 10
18.4715433609
 20
-12.8116039813
 10
18.6109930991
 20
-12.7237001943
 10
18.7484906078
 20
-12.6254023981
 10
18.8835302618
 20
-12.5171921286
 10
19.0156429979
 20
-12.3995601249
 10
19.1443733243
 20
-12.2729919448
 10
19.269240568
 20
-12.1380431108
 10
19.3897620652
 20
-11.9952856327
 10
19.5054825265
 20
-11.8453258075
 10
19.6159405314
 20
-11.6887913358
 10
19.7207017867
 20
-11.5263382616
 10
19.8193472474
 20
-11.358651462
 10
19.9114638182
 20
-11.1864241978
 10
19.9966825925
 20
-11.0103829937
 10
20.0746392705
 20
-10.8312630536
 10
20.1450058287
 20
-10.6497999087
 10
20.2074856458
 20
-10.466744997
 10
20.2617948001
 20
-10.2828553345
 10
20.3076961409
 20
-10.0988835009
 10
20.3449667344
 20
-9.915576852
 10
20.3734265344
 20
-9.7336653371
 10
20.3929099353
 20
-9.5538712243
 10
20.4032819876
 20
-9.3769159902
  0
LINE
  5
2FA
100
AcDbEntity
  8
RACCORDO
100
AcDbLine
 62
7
  6
CONTINUOUS
 10
18.3886264161
 20
-12.858369268
 11
18.4715433609
 21
-12.8116039813
  0
LWPOLYLINE
  5
2FB
100
AcDbEntity
  8
RACCORDO
100
AcDbPolyline
 62
7
  6
CONTINUOUS
 90
10
 70
0
 10
-12.8158193879
 20
27.031894047
 10
-12.9281347624
 20
27.0687278501
 10
-13.0401349611
 20
27.0955574977
 10
-13.1513265109
 20
27.1123676287
 10
-13.2609404041
 20
27.1191612861
 10
-13.3684709411
 20
27.1160476539
 10
-13.4733046297
 20
27.1032243622
 10
-13.5743613618
 20
27.0810767498
 10
-13.670889556
 20
27.0501240661
 10
-13.7463351829
 20
27.018583276
  0
LINE
  5
2FC
100
AcDbEntity
  8
RACCORDO
100
AcDbLine
 62
253
  6
CONTINUOUS
 10
15.7093362871
 20
16.5922176026
 11
15.7097111219
 21
16.5920309062
  0
LINE
  5
2FD
100
AcDbEntity
  8
RACCORDO
100
AcDbLine
 62
253
  6
CONTINUOUS
 10
15.6226526108
 20
16.5876002735
 11
17.5020588916
 21
15.6478971331
  0
LINE
  5
2FE
100
AcDbEntity
  8
RACCORDO
100
AcDbLine
 62
7
  6
CONTINUOUS
 10
15.7096271869
 20
16.5920729394
 11
17.5890334677
 21
15.652369799
  0
LWPOLYLINE
  5
2FF
100
AcDbEntity
  8
RACCORDO
100
AcDbPolyline
 62
7
  6
CONTINUOUS
 90
4
 70
0
 10
17.0861359826
 20
14.2491310893
 10
17.0818733938
 20
14.2516843276
 10
17.0752723272
 20
14.256896396
 10
17.0683190636
 20
14.2643446003
  0
LINE
  5
300
100
AcDbEntity
  8
RACCORDO
100
AcDbLine
 62
7
  6
CONTINUOUS
 10
17.0683190636
 20
14.2643446003
 11
17.063096174
 21
14.272168954
  0
LINE
  5
301
100
AcDbEntity
  8
RACCORDO
100
AcDbLine
 62
253
  6
CONTINUOUS
 10
13.5193284491
 20
-23.136418388
 11
19.443011994
 21
-19.9403435001
  0
LINE
  5
302
100
AcDbEntity
  8
RACCORDO
100
AcDbLine
 62
253
  6
CONTINUOUS
 10
9.183798009
 20
-25.1386000765
 11
13.5193284491
 21
-23.136418388
  0
LWPOLYLINE
  5
303
100
AcDbEntity
  8
RACCORDO
100
AcDbPolyline
 62
7
  6
CONTINUOUS
 90
18
 70
0
 10
18.9510285794
 20
-21.0075418259
 10
19.0395514166
 20
-20.9563022648
 10
19.1319931453
 20
-20.8946884551
 10
19.2199605967
 20
-20.827321286
 10
19.3032247232
 20
-20.7544660182
 10
19.3818410145
 20
-20.6760883407
 10
19.4554113813
 20
-20.5925371833
 10
19.5235696181
 20
-20.5041975579
 10
19.5863306999
 20
-20.4109564667
 10
19.6433579272
 20
-20.3131596409
 10
19.6943057073
 20
-20.2112605311
 10
19.7390962993
 20
-20.1051736185
 10
19.7774431652
 20
-19.9951698217
 10
19.8090332522
 20
-19.8817715032
 10
19.8337018815
 20
-19.7650708025
 10
19.8512193319
 20
-19.6452432277
 10
19.8613443115
 20
-19.5227576514
 10
19.8639986269
 20
-19.4196224914
  0
LINE
  5
304
100
AcDbEntity
  8
RACCORDO
100
AcDbLine
 62
7
  6
CONTINUOUS
 10
13.020530514
 20
-24.2071907273
 11
18.9515386259
 21
-21.0072757836
  0
LINE
  5
305
100
AcDbEntity
  8
RACCORDO
100
AcDbLine
 62
7
  6
CONTINUOUS
 10
8.6355740425
 20
-26.2339144443
 11
12.9786836106
 21
-24.2281225201
  0
ARC
  5
306
100
AcDbEntity
  8
RACCORDO
100
AcDbCircle
 62
253
  6
CONTINUOUS
 10
-22.5679113957
 20
-6.4113420432
 40
4.582274369
100
AcDbArc
 50
42.6315831416
 51
43.2538191715
  0
ARC
  5
307
100
AcDbEntity
  8
RACCORDO
100
AcDbCircle
 62
253
  6
CONTINUOUS
 10
-16.3628312607
 20
-0.5173873493
 40
4.0247856077
100
AcDbArc
 50
223.8882365848
 51
225.0370057777
  0
ARC
  5
308
100
AcDbEntity
  8
RACCORDO
100
AcDbCircle
 62
253
  6
CONTINUOUS
 10
-22.146342397
 20
-6.014721685
 40
4.0034582244
100
AcDbArc
 50
43.2538726162
 51
43.9457696403
  0
ARC
  5
309
100
AcDbEntity
  8
0
100
AcDbCircle
 62
7
  6
CONTINUOUS
 10
-12.8794153623
 20
-7.6878521007
 40
2.8642022138
100
AcDbArc
 50
203.076975422
 51
214.0145251476
  0
ARC
  5
30A
100
AcDbEntity
  8
0
100
AcDbCircle
 62
7
  6
CONTINUOUS
 10
-5.8083475504
 20
-11.2233860066
 40
2.8642022139
100
AcDbArc
 50
203.0769754221
 51
214.0145251475
  0
ARC
  5
30B
100
AcDbEntity
  8
0
100
AcDbCircle
 62
7
  6
CONTINUOUS
 10
-2.2728610959
 20
-12.9911796514
 40
2.8641480973
100
AcDbArc
 50
203.0768562642
 51
214.0146496044
  0
ARC
  5
30C
100
AcDbEntity
  8
0
100
AcDbCircle
 62
7
  6
CONTINUOUS
 10
-9.3439289078
 20
-9.4556457455
 40
2.8641480972
100
AcDbArc
 50
203.0768562642
 51
214.0146496046
  0
ARC
  5
30D
100
AcDbEntity
  8
RACCORDO
100
AcDbCircle
 62
253
  6
CONTINUOUS
 10
-20.9186796709
 20
-5.095269516
 40
2.5239964894
100
AcDbArc
 50
59.7342574162
 51
61.3494726777
  0
ARC
  5
30E
100
AcDbEntity
  8
RACCORDO
100
AcDbCircle
 62
253
  6
CONTINUOUS
 10
-11.9377787628
 20
-10.4932683019
 40
1.9433878585
100
AcDbArc
 50
180.0425292104
 51
183.418205916
  0
ARC
  5
30F
100
AcDbEntity
  8
RACCORDO
100
AcDbCircle
 62
253
  6
CONTINUOUS
 10
-19.7506288886
 20
-2.2134726793
 40
0.4817476722
100
AcDbArc
 50
180.0059517717
 51
183.3350543452
  0
ARC
  5
310
100
AcDbEntity
  8
RACCORDO
100
AcDbCircle
 62
253
  6
CONTINUOUS
 10
-18.9482570027
 20
-3.0694935553
 40
0.4269488701
100
AcDbArc
 50
201.5006506726
 51
202.2514857161
  0
ARC
  5
311
100
AcDbEntity
  8
RACCORDO
100
AcDbCircle
 62
253
  6
CONTINUOUS
 10
-13.4299438901
 20
26.3378910627
 40
0.7506322487
100
AcDbArc
 50
112.7516314622
 51
114.791915548
  0
ARC
  5
312
100
AcDbEntity
  8
RACCORDO
100
AcDbCircle
 62
253
  6
CONTINUOUS
 10
-7.7691955604
 20
25.4328816217
 40
0.7473078281
100
AcDbArc
 50
113.0697335951
 51
114.7921666227
  0
ARC
  5
313
100
AcDbEntity
  8
RACCORDO
100
AcDbCircle
 62
253
  6
CONTINUOUS
 10
-19.3975585036
 20
10.9761549297
 40
0.6468131936
100
AcDbArc
 50
241.2657463676
 51
247.3585146173
  0
ARC
  5
314
100
AcDbEntity
  8
RACCORDO
100
AcDbCircle
 62
253
  6
CONTINUOUS
 10
-19.2248568287
 20
10.9747119847
 40
0.4701737946
100
AcDbArc
 50
223.9481625702
 51
229.2175024449
  0
ARC
  5
315
100
AcDbEntity
  8
RACCORDO
100
AcDbCircle
 62
7
  6
CONTINUOUS
 10
-10.1218164568
 20
24.0495863721
 40
0.2001242464
100
AcDbArc
 50
63.3929025158
 51
114.7754247587
  0
ARC
  5
316
100
AcDbEntity
  8
RACCORDO
100
AcDbCircle
 62
253
  6
CONTINUOUS
 10
8.1781342364
 20
-13.7940286406
 40
3.0503229211
100
AcDbArc
 50
265.25342209
 51
268.2046327708
  0
ARC
  5
317
100
AcDbEntity
  8
RACCORDO
100
AcDbCircle
 62
253
  6
CONTINUOUS
 10
8.9352057391
 20
-0.3104455983
 40
2.9826847752
100
AcDbArc
 50
231.5664745217
 51
239.0435139801
  0
ARC
  5
318
100
AcDbEntity
  8
RACCORDO
100
AcDbCircle
 62
253
  6
CONTINUOUS
 10
8.1717782005
 20
-13.8708464805
 40
2.9732425785
100
AcDbArc
 50
263.4318663688
 51
265.2529916314
  0
ARC
  5
319
100
AcDbEntity
  8
0
100
AcDbCircle
 62
7
  6
CONTINUOUS
 10
1.2627202615
 20
-14.7589199125
 40
2.8642022139
100
AcDbArc
 50
203.0769754221
 51
214.0145251475
  0
ARC
  5
31A
100
AcDbEntity
  8
0
100
AcDbCircle
 62
7
  6
CONTINUOUS
 10
4.7982067155
 20
-16.5267135577
 40
2.8641480966
100
AcDbArc
 50
203.0768562628
 51
214.0146496052
  0
ARC
  5
31B
100
AcDbEntity
  8
RACCORDO
100
AcDbCircle
 62
253
  6
CONTINUOUS
 10
8.1577972305
 20
-13.9875154574
 40
2.8557401977
100
AcDbArc
 50
260.7264119674
 51
263.4427821841
  0
ARC
  5
31C
100
AcDbEntity
  8
RACCORDO
100
AcDbCircle
 62
253
  6
CONTINUOUS
 10
8.8571764925
 20
-14.4722811459
 40
2.4084465187
100
AcDbArc
 50
247.6587922641
 51
247.9888262271
  0
ARC
  5
31D
100
AcDbEntity
  8
RACCORDO
100
AcDbCircle
 62
253
  6
CONTINUOUS
 10
8.8155532605
 20
-14.5726680278
 40
2.2997731609
100
AcDbArc
 50
245.4255622197
 51
247.6672539203
  0
ARC
  5
31E
100
AcDbEntity
  8
RACCORDO
100
AcDbCircle
 62
253
  6
CONTINUOUS
 10
9.7026211595
 20
-14.7408666105
 40
2.1286696834
100
AcDbArc
 50
292.1376293678
 51
294.8714407188
  0
ARC
  5
31F
100
AcDbEntity
  8
RACCORDO
100
AcDbCircle
 62
253
  6
CONTINUOUS
 10
6.9894918539
 20
-18.5613922713
 40
2.08707367
100
AcDbArc
 50
65.3748063388
 51
67.3152553532
  0
ARC
  5
320
100
AcDbEntity
  8
RACCORDO
100
AcDbCircle
 62
253
  6
CONTINUOUS
 10
18.4571239423
 20
0.1614479743
 40
1.1732744333
100
AcDbArc
 50
68.1417535679
 51
69.8390777854
  0
ARC
  5
321
100
AcDbEntity
  8
RACCORDO
100
AcDbCircle
 62
253
  6
CONTINUOUS
 10
18.4588405384
 20
0.1657846468
 40
1.1686104253
100
AcDbArc
 50
67.7594731506
 51
68.1407040068
  0
ARC
  5
322
100
AcDbEntity
  8
RACCORDO
100
AcDbCircle
 62
253
  6
CONTINUOUS
 10
18.460125243
 20
0.1688801187
 40
1.1652589921
100
AcDbArc
 50
63.9540388437
 51
67.7603338268
  0
ARC
  5
323
100
AcDbEntity
  8
RACCORDO
100
AcDbCircle
 62
253
  6
CONTINUOUS
 10
18.4611262776
 20
0.1710177639
 40
1.162898896
100
AcDbArc
 50
63.5118250678
 51
63.9521049414
  0
ARC
  5
324
100
AcDbEntity
  8
RACCORDO
100
AcDbCircle
 62
253
  6
CONTINUOUS
 10
8.2253654576
 20
-2.1477931262
 40
1.0087447241
100
AcDbArc
 50
252.9867863641
 51
256.6011394925
  0
ARC
  5
325
100
AcDbEntity
  8
RACCORDO
100
AcDbCircle
 62
253
  6
CONTINUOUS
 10
18.5931013128
 20
-20.3429655374
 40
0.7548346403
100
AcDbArc
 50
298.3462211265
 51
300.3974008756
  0
ARC
  5
326
100
AcDbEntity
  8
RACCORDO
100
AcDbCircle
 62
253
  6
CONTINUOUS
 10
8.162103781
 20
-2.7108438374
 40
0.7298432058
100
AcDbArc
 50
239.746755869
 51
245.4731351057
  0
ARC
  5
327
100
AcDbEntity
  8
RACCORDO
100
AcDbCircle
 62
253
  6
CONTINUOUS
 10
8.0614031878
 20
-16.6645270359
 40
0.2022692143
100
AcDbArc
 50
179.8878363175
 51
186.0531167759
  0
ARC
  5
328
100
AcDbEntity
  8
RACCORDO
100
AcDbCircle
 62
253
  6
CONTINUOUS
 10
14.0882457608
 20
11.7841484143
 40
0.3067446894
100
AcDbArc
 50
31.6803128695
 51
34.9256478893
  0
ARC
  5
329
100
AcDbEntity
  8
RACCORDO
100
AcDbCircle
 62
7
  6
CONTINUOUS
 10
14.2498492403
 20
11.8628202417
 40
0.2009239397
100
AcDbArc
 50
35.264049602
 51
63.4983579905
  0
ARC
  5
32A
100
AcDbEntity
  8
RACCORDO
100
AcDbCircle
 62
7
  6
CONTINUOUS
 10
17.4995912821
 20
15.4734892122
 40
0.1999904436
100
AcDbArc
 50
328.3893693208
 51
63.489009595
  0
ARC
  5
32B
100
AcDbEntity
  8
RACCORDO
100
AcDbCircle
 62
7
  6
CONTINUOUS
 10
15.6201754403
 20
16.4132506935
 40
0.1999406671
100
AcDbArc
 50
63.4237354857
 51
114.2237254616
  0
ARC
  5
32C
100
AcDbEntity
  8
RACCORDO
100
AcDbCircle
 62
253
  6
CONTINUOUS
 10
16.9804492222
 20
14.4420348301
 40
0.151780157
100
AcDbArc
 50
24.8844141411
 51
29.3006197578
  0
SPLINE
  5
32D
100
AcDbEntity
  8
0
100
AcDbSpline
 62
7
  6
CONTINUOUS
 70
0
 71
3
 72
10
 73
6
 74
4
 42
0.0000001
 43
0.0000001
 44
0.0000000001
 12
-0.3702134565
 22
0.871106805
 32
0.0
 13
-0.0104221517
 23
0.9464546728
 33
0.0
 40
0.0
 40
0.0
 40
0.0
 40
0.0
 40
0.5163482203
 40
0.7636956784
 40
1.0
 40
1.0
 40
1.0
 40
1.0
 10
-12.3324409805
 20
-10.755069788
 30
0.0
 10
-12.396160667
 20
-10.6051383052
 30
0.0
 10
-12.4705200343
 20
-10.3740704031
 30
0.0
 10
-12.5253516475
 20
-10.0630885307
 30
0.0
 10
-12.5366297497
 20
-9.9105075875
 30
0.0
 10
-12.5374506829
 20
-9.8359571444
 30
0.0
 11
-12.3324409805
 21
-10.755069788
 31
0.0
 11
-12.4818621447
 21
-10.2897417881
 31
0.0
 11
-12.5219708467
 21
-10.0590857109
 31
0.0
 11
-12.5374506829
 21
-9.8359571444
 31
0.0
  0
SPLINE
  5
32E
100
AcDbEntity
  8
0
100
AcDbSpline
 62
7
  6
CONTINUOUS
 70
0
 71
3
 72
10
 73
6
 74
4
 42
0.0000001
 43
0.0000001
 44
0.0000000001
 12
-0.3702134565
 22
0.871106805
 32
0.0
 13
-0.0104221517
 23
0.9464546728
 33
0.0
 40
0.0
 40
0.0
 40
0.0
 40
0.0
 40
0.5163482203
 40
0.7636956784
 40
1.0
 40
1.0
 40
1.0
 40
1.0
 10
-5.2613731686
 20
-14.2906036939
 30
0.0
 10
-5.3250928551
 20
-14.1406722111
 30
0.0
 10
-5.3994522224
 20
-13.9096043091
 30
0.0
 10
-5.4542838356
 20
-13.5986224366
 30
0.0
 10
-5.4655619379
 20
-13.4460414935
 30
0.0
 10
-5.466382871
 20
-13.3714910504
 30
0.0
 11
-5.2613731686
 21
-14.2906036939
 31
0.0
 11
-5.4107943328
 21
-13.825275694
 31
0.0
 11
-5.4509030348
 21
-13.5946196168
 31
0.0
 11
-5.466382871
 21
-13.3714910504
 31
0.0
  0
SPLINE
  5
32F
100
AcDbEntity
  8
0
100
AcDbSpline
 62
7
  6
CONTINUOUS
 70
0
 71
3
 72
10
 73
6
 74
4
 42
0.0000001
 43
0.0000001
 44
0.0000000001
 12
-0.3702134565
 22
0.871106805
 32
0.0
 13
-0.0104221517
 23
0.9464546728
 33
0.0
 40
0.0
 40
0.0
 40
0.0
 40
0.0
 40
0.5163482203
 40
0.7636956784
 40
1.0
 40
1.0
 40
1.0
 40
1.0
 10
-15.8679748864
 20
-8.987302835
 30
0.0
 10
-15.9316945729
 20
-8.8373713522
 30
0.0
 10
-16.0060539402
 20
-8.6063034502
 30
0.0
 10
-16.0608855534
 20
-8.2953215777
 30
0.0
 10
-16.0721636557
 20
-8.1427406346
 30
0.0
 10
-16.0729845888
 20
-8.0681901915
 30
0.0
 11
-15.8679748864
 21
-8.987302835
 31
0.0
 11
-16.0173960506
 21
-8.5219748351
 31
0.0
 11
-16.0575047526
 21
-8.2913187579
 31
0.0
 11
-16.0729845888
 21
-8.0681901915
 31
0.0
  0
SPLINE
  5
330
100
AcDbEntity
  8
0
100
AcDbSpline
 62
7
  6
CONTINUOUS
 70
0
 71
3
 72
10
 73
6
 74
4
 42
0.0000001
 43
0.0000001
 44
0.0000000001
 12
-0.3702134565
 22
0.871106805
 32
0.0
 13
-0.0104221517
 23
0.9464546728
 33
0.0
 40
0.0
 40
0.0
 40
0.0
 40
0.0
 40
0.5163482203
 40
0.7636956784
 40
1.0
 40
1.0
 40
1.0
 40
1.0
 10
-8.7969070746
 20
-12.522836741
 30
0.0
 10
-8.860626761
 20
-12.3729052582
 30
0.0
 10
-8.9349861283
 20
-12.1418373561
 30
0.0
 10
-8.9898177415
 20
-11.8308554836
 30
0.0
 10
-9.0010958438
 20
-11.6782745405
 30
0.0
 10
-9.0019167769
 20
-11.6037240974
 30
0.0
 11
-8.7969070746
 21
-12.522836741
 31
0.0
 11
-8.9463282387
 21
-12.057508741
 31
0.0
 11
-8.9864369408
 21
-11.8268526639
 31
0.0
 11
-9.0019167769
 21
-11.6037240974
 31
0.0
  0
SPLINE
  5
331
100
AcDbEntity
  8
0
100
AcDbSpline
 62
7
  6
CONTINUOUS
 70
0
 71
3
 72
9
 73
5
 74
3
 42
0.0000001
 43
0.0000001
 44
0.0000000001
 12
-0.4681802267
 22
0.3604975396
 32
0.0
 13
-0.3586222954
 23
0.4696181959
 33
0.0
 40
0.0
 40
0.0
 40
0.0
 40
0.0
 40
0.2418823762
 40
1.0
 40
1.0
 40
1.0
 40
1.0
 10
-8.0322766013
 20
-13.5461565566
 30
0.0
 10
-8.0700247832
 20
-13.5170905561
 30
0.0
 10
-8.2217232711
 20
-13.3913299872
 30
0.0
 10
-8.3562811138
 20
-13.2451727229
 30
0.0
 10
-8.4469070746
 20
-13.126497446
 30
0.0
 11
-8.0322766013
 21
-13.5461565566
 31
0.0
 11
-8.1424083155
 21
-13.4550586744
 31
0.0
 11
-8.4469070746
 21
-13.126497446
 31
0.0
  0
SPLINE
  5
332
100
AcDbEntity
  8
0
100
AcDbSpline
 62
7
  6
CONTINUOUS
 70
0
 71
3
 72
9
 73
5
 74
3
 42
0.0000001
 43
0.0000001
 44
0.0000000001
 12
-0.3256658415
 22
-0.5806067231
 32
0.0
 13
-0.0000048879
 23
-0.6657044443
 33
0.0
 40
0.0
 40
0.0
 40
0.0
 40
0.0
 40
0.4715473172
 40
1.0
 40
1.0
 40
1.0
 40
1.0
 10
-9.5616270629
 20
-11.2943484196
 30
0.0
 10
-9.6128160142
 20
-11.3856096005
 30
0.0
 10
-9.6877102748
 20
-11.5982632374
 30
0.0
 10
-9.7091284519
 20
-11.8208983223
 30
0.0
 10
-9.7091293129
 20
-11.9381627555
 30
0.0
 11
-9.5616270629
 21
-11.2943484196
 31
0.0
 11
-9.6715576149
 21
-11.588381548
 31
0.0
 11
-9.7091293129
 21
-11.9381627555
 31
0.0
  0
SPLINE
  5
333
100
AcDbEntity
  8
0
100
AcDbSpline
 62
7
  6
CONTINUOUS
 70
0
 71
3
 72
9
 73
5
 74
3
 42
0.0000001
 43
0.0000001
 44
0.0000000001
 12
-0.4681802267
 22
0.3604975396
 32
0.0
 13
-0.3586222954
 23
0.4696181959
 33
0.0
 40
0.0
 40
0.0
 40
0.0
 40
0.0
 40
0.2418823762
 40
1.0
 40
1.0
 40
1.0
 40
1.0
 10
-15.1033444131
 20
-10.0106226506
 30
0.0
 10
-15.141092595
 20
-9.9815566501
 30
0.0
 10
-15.292791083
 20
-9.8557960813
 30
0.0
 10
-15.4273489256
 20
-9.709638817
 30
0.0
 10
-15.5179748864
 20
-9.59096354
 30
0.0
 11
-15.1033444131
 21
-10.0106226506
 31
0.0
 11
-15.2134761273
 21
-9.9195247685
 31
0.0
 11
-15.5179748864
 21
-9.59096354
 31
0.0
  0
SPLINE
  5
334
100
AcDbEntity
  8
0
100
AcDbSpline
 62
7
  6
CONTINUOUS
 70
0
 71
3
 72
9
 73
5
 74
3
 42
0.0000001
 43
0.0000001
 44
0.0000000001
 12
-0.4681802267
 22
0.3604975396
 32
0.0
 13
-0.3586222954
 23
0.4696181959
 33
0.0
 40
0.0
 40
0.0
 40
0.0
 40
0.0
 40
0.2418823762
 40
1.0
 40
1.0
 40
1.0
 40
1.0
 10
2.5743251165
 20
-18.8494574155
 30
0.0
 10
2.5365769346
 20
-18.820391415
 30
0.0
 10
2.3848784467
 20
-18.6946308461
 30
0.0
 10
2.250320604
 20
-18.5484735818
 30
0.0
 10
2.1596946432
 20
-18.4297983049
 30
0.0
 11
2.5743251165
 21
-18.8494574155
 31
0.0
 11
2.4641934023
 21
-18.7583595333
 31
0.0
 11
2.1596946432
 21
-18.4297983049
 31
0.0
  0
SPLINE
  5
335
100
AcDbEntity
  8
0
100
AcDbSpline
 62
7
  6
CONTINUOUS
 70
0
 71
3
 72
9
 73
5
 74
3
 42
0.0000001
 43
0.0000001
 44
0.0000000001
 12
-0.3256658415
 22
-0.5806067231
 32
0.0
 13
-0.0000048879
 23
-0.6657044443
 33
0.0
 40
0.0
 40
0.0
 40
0.0
 40
0.0
 40
0.4715473172
 40
1.0
 40
1.0
 40
1.0
 40
1.0
 10
1.0449746549
 20
-16.5976492785
 30
0.0
 10
0.9937857036
 20
-16.6889104594
 30
0.0
 10
0.918891443
 20
-16.9015640963
 30
0.0
 10
0.8974732659
 20
-17.1241991812
 30
0.0
 10
0.8974724049
 20
-17.2414636144
 30
0.0
 11
1.0449746549
 21
-16.5976492785
 31
0.0
 11
0.9350441029
 21
-16.8916824069
 31
0.0
 11
0.8974724049
 21
-17.2414636144
 31
0.0
  0
SPLINE
  5
336
100
AcDbEntity
  8
0
100
AcDbSpline
 62
7
  6
CONTINUOUS
 70
0
 71
3
 72
9
 73
5
 74
3
 42
0.0000001
 43
0.0000001
 44
0.0000000001
 12
-0.3256658415
 22
-0.5806067231
 32
0.0
 13
-0.0000048879
 23
-0.6657044443
 33
0.0
 40
0.0
 40
0.0
 40
0.0
 40
0.0
 40
0.4715473172
 40
1.0
 40
1.0
 40
1.0
 40
1.0
 10
-16.6326948748
 20
-7.7588145137
 30
0.0
 10
-16.6838838261
 20
-7.8500756946
 30
0.0
 10
-16.7587780867
 20
-8.0627293314
 30
0.0
 10
-16.7801962637
 20
-8.2853644164
 30
0.0
 10
-16.7801971247
 20
-8.4026288496
 30
0.0
 11
-16.6326948748
 21
-7.7588145137
 31
0.0
 11
-16.7426254267
 21
-8.0528476421
 31
0.0
 11
-16.7801971247
 21
-8.4026288496
 31
0.0
  0
SPLINE
  5
337
100
AcDbEntity
  8
0
100
AcDbSpline
 62
7
  6
CONTINUOUS
 70
0
 71
3
 72
9
 73
5
 74
3
 42
0.0000001
 43
0.0000001
 44
0.0000000001
 12
-0.4681802267
 22
0.3604975396
 32
0.0
 13
-0.3586222954
 23
0.4696181959
 33
0.0
 40
0.0
 40
0.0
 40
0.0
 40
0.0
 40
0.2418823762
 40
1.0
 40
1.0
 40
1.0
 40
1.0
 10
-0.9612087894
 20
-17.0816904625
 30
0.0
 10
-0.9989569713
 20
-17.052624462
 30
0.0
 10
-1.1506554593
 20
-16.9268638931
 30
0.0
 10
-1.2852133019
 20
-16.7807066288
 30
0.0
 10
-1.3758392627
 20
-16.6620313519
 30
0.0
 11
-0.9612087894
 21
-17.0816904625
 31
0.0
 11
-1.0713405036
 21
-16.9905925804
 31
0.0
 11
-1.3758392627
 21
-16.6620313519
 31
0.0
  0
SPLINE
  5
338
100
AcDbEntity
  8
0
100
AcDbSpline
 62
7
  6
CONTINUOUS
 70
0
 71
3
 72
9
 73
5
 74
3
 42
0.0000001
 43
0.0000001
 44
0.0000000001
 12
-0.3256658415
 22
-0.5806067231
 32
0.0
 13
-0.0000048879
 23
-0.6657044443
 33
0.0
 40
0.0
 40
0.0
 40
0.0
 40
0.0
 40
0.4715473172
 40
1.0
 40
1.0
 40
1.0
 40
1.0
 10
-2.490559251
 20
-14.8298823256
 30
0.0
 10
-2.5417482023
 20
-14.9211435064
 30
0.0
 10
-2.616642463
 20
-15.1337971433
 30
0.0
 10
-2.63806064
 20
-15.3564322283
 30
0.0
 10
-2.638061501
 20
-15.4736966614
 30
0.0
 11
-2.490559251
 21
-14.8298823256
 31
0.0
 11
-2.600489803
 21
-15.1239154539
 31
0.0
 11
-2.638061501
 21
-15.4736966614
 31
0.0
  0
SPLINE
  5
339
100
AcDbEntity
  8
0
100
AcDbSpline
 62
7
  6
CONTINUOUS
 70
0
 71
3
 72
10
 73
6
 74
4
 42
0.0000001
 43
0.0000001
 44
0.0000000001
 12
-0.3702134565
 22
0.871106805
 32
0.0
 13
-0.0104221517
 23
0.9464546728
 33
0.0
 40
0.0
 40
0.0
 40
0.0
 40
0.0
 40
0.5163482203
 40
0.7636956784
 40
1.0
 40
1.0
 40
1.0
 40
1.0
 10
1.8096946432
 20
-17.8261375999
 30
0.0
 10
1.7459749568
 20
-17.6762061171
 30
0.0
 10
1.6716155895
 20
-17.445138215
 30
0.0
 10
1.6167839763
 20
-17.1341563425
 30
0.0
 10
1.605505874
 20
-16.9815753994
 30
0.0
 10
1.6046849408
 20
-16.9070249563
 30
0.0
 11
1.8096946432
 21
-17.8261375999
 31
0.0
 11
1.6602734791
 21
-17.3608095999
 31
0.0
 11
1.620164777
 21
-17.1301535228
 31
0.0
 11
1.6046849408
 21
-16.9070249563
 31
0.0
  0
SPLINE
  5
33A
100
AcDbEntity
  8
0
100
AcDbSpline
 62
7
  6
CONTINUOUS
 70
0
 71
3
 72
9
 73
5
 74
3
 42
0.0000001
 43
0.0000001
 44
0.0000000001
 12
-0.3256658415
 22
-0.5806067231
 32
0.0
 13
-0.0000048879
 23
-0.6657044443
 33
0.0
 40
0.0
 40
0.0
 40
0.0
 40
0.0
 40
0.4715473172
 40
1.0
 40
1.0
 40
1.0
 40
1.0
 10
-13.0971609688
 20
-9.5265814667
 30
0.0
 10
-13.1483499201
 20
-9.6178426475
 30
0.0
 10
-13.2232441808
 20
-9.8304962844
 30
0.0
 10
-13.2446623578
 20
-10.0531313694
 30
0.0
 10
-13.2446632188
 20
-10.1703958025
 30
0.0
 11
-13.0971609688
 21
-9.5265814667
 31
0.0
 11
-13.2070915208
 21
-9.820614595
 31
0.0
 11
-13.2446632188
 21
-10.1703958025
 31
0.0
  0
SPLINE
  5
33B
100
AcDbEntity
  8
0
100
AcDbSpline
 62
7
  6
CONTINUOUS
 70
0
 71
3
 72
9
 73
5
 74
3
 42
0.0000001
 43
0.0000001
 44
0.0000000001
 12
-0.4681802267
 22
0.3604975396
 32
0.0
 13
-0.3586222954
 23
0.4696181959
 33
0.0
 40
0.0
 40
0.0
 40
0.0
 40
0.0
 40
0.2418823762
 40
1.0
 40
1.0
 40
1.0
 40
1.0
 10
-4.4967426953
 20
-15.3139235095
 30
0.0
 10
-4.5344908772
 20
-15.284857509
 30
0.0
 10
-4.6861893652
 20
-15.1590969402
 30
0.0
 10
-4.8207472078
 20
-15.0129396759
 30
0.0
 10
-4.9113731686
 20
-14.8942643989
 30
0.0
 11
-4.4967426953
 21
-15.3139235095
 31
0.0
 11
-4.6068744095
 21
-15.2228256274
 31
0.0
 11
-4.9113731686
 21
-14.8942643989
 31
0.0
  0
SPLINE
  5
33C
100
AcDbEntity
  8
0
100
AcDbSpline
 62
7
  6
CONTINUOUS
 70
0
 71
3
 72
10
 73
6
 74
4
 42
0.0000001
 43
0.0000001
 44
0.0000000001
 12
-0.3702134565
 22
0.871106805
 32
0.0
 13
-0.0104221517
 23
0.9464546728
 33
0.0
 40
0.0
 40
0.0
 40
0.0
 40
0.0
 40
0.5163482203
 40
0.7636956784
 40
1.0
 40
1.0
 40
1.0
 40
1.0
 10
-1.7258392627
 20
-16.0583706469
 30
0.0
 10
-1.7895589492
 20
-15.9084391641
 30
0.0
 10
-1.8639183165
 20
-15.677371262
 30
0.0
 10
-1.9187499297
 20
-15.3663893896
 30
0.0
 10
-1.9300280319
 20
-15.2138084464
 30
0.0
 10
-1.9308489651
 20
-15.1392580033
 30
0.0
 11
-1.7258392627
 21
-16.0583706469
 31
0.0
 11
-1.8752604269
 21
-15.593042647
 31
0.0
 11
-1.9153691289
 21
-15.3623865698
 31
0.0
 11
-1.9308489651
 21
-15.1392580033
 31
0.0
  0
SPLINE
  5
33D
100
AcDbEntity
  8
0
100
AcDbSpline
 62
7
  6
CONTINUOUS
 70
0
 71
3
 72
9
 73
5
 74
3
 42
0.0000001
 43
0.0000001
 44
0.0000000001
 12
-0.3256658415
 22
-0.5806067231
 32
0.0
 13
-0.0000048879
 23
-0.6657044443
 33
0.0
 40
0.0
 40
0.0
 40
0.0
 40
0.0
 40
0.4715473172
 40
1.0
 40
1.0
 40
1.0
 40
1.0
 10
-6.026093157
 20
-13.0621153726
 30
0.0
 10
-6.0772821083
 20
-13.1533765535
 30
0.0
 10
-6.1521763689
 20
-13.3660301903
 30
0.0
 10
-6.1735945459
 20
-13.5886652753
 30
0.0
 10
-6.1735954069
 20
-13.7059297085
 30
0.0
 11
-6.026093157
 21
-13.0621153726
 31
0.0
 11
-6.1360237089
 21
-13.356148501
 31
0.0
 11
-6.1735954069
 21
-13.7059297085
 31
0.0
  0
SPLINE
  5
33E
100
AcDbEntity
  8
0
100
AcDbSpline
 62
7
  6
CONTINUOUS
 70
0
 71
3
 72
9
 73
5
 74
3
 42
0.0000001
 43
0.0000001
 44
0.0000000001
 12
-0.4681802267
 22
0.3604975396
 32
0.0
 13
-0.3586222954
 23
0.4696181959
 33
0.0
 40
0.0
 40
0.0
 40
0.0
 40
0.0
 40
0.2418823762
 40
1.0
 40
1.0
 40
1.0
 40
1.0
 10
-11.5678105072
 20
-11.7783896036
 30
0.0
 10
-11.6055586891
 20
-11.7493236031
 30
0.0
 10
-11.7572571771
 20
-11.6235630342
 30
0.0
 10
-11.8918150197
 20
-11.4774057699
 30
0.0
 10
-11.9824409805
 20
-11.358730493
 30
0.0
 11
-11.5678105072
 21
-11.7783896036
 31
0.0
 11
-11.6779422214
 21
-11.6872917215
 31
0.0
 11
-11.9824409805
 21
-11.358730493
 31
0.0
  0
SPLINE
  5
33F
100
AcDbEntity
  8
0
100
AcDbSpline
 62
7
  6
CONTINUOUS
 70
0
 71
3
 72
15
 73
11
 74
9
 42
0.0000001
 43
0.0000001
 44
0.0000000001
 12
0.00002163
 22
-2.9459059962
 32
0.0
 13
2.9206863509
 23
-0.3846470831
 33
0.0
 40
0.0
 40
0.0
 40
0.0
 40
0.0
 40
0.1242868735
 40
0.2577559864
 40
0.3954479275
 40
0.5327644753
 40
0.6651485683
 40
0.7886668193
 40
0.9004959981
 40
1.0
 40
1.0
 40
1.0
 40
1.0
 10
-13.2446632188
 20
-10.1703958025
 30
0.0
 10
-13.2446623227
 20
-10.2924416179
 30
0.0
 10
-13.2192526306
 20
-10.5457756846
 30
0.0
 10
-13.1212891489
 20
-10.9229030915
 30
0.0
 10
-12.9633333442
 20
-11.2931931637
 30
0.0
 10
-12.7556457243
 20
-11.6366215849
 30
0.0
 10
-12.5096835641
 20
-11.9361736441
 30
0.0
 10
-12.2374016076
 20
-12.1761230688
 30
0.0
 10
-11.9523604449
 20
-12.3446023152
 30
0.0
 10
-11.7504086989
 20
-12.4044880404
 30
0.0
 10
-11.6535353722
 20
-12.4172460151
 30
0.0
 11
-13.2446632188
 21
-10.1703958025
 31
0.0
 11
-13.2112194629
 21
-10.5350026381
 31
0.0
 11
-13.1132058479
 21
-10.9157777816
 31
0.0
 11
-12.9547014444
 21
-11.2891543141
 31
0.0
 11
-12.7450412721
 21
-11.6351028226
 31
0.0
 11
-12.4962670657
 21
-11.9354433747
 31
0.0
 11
-12.2215631699
 21
-12.1740674376
 31
0.0
 11
-11.9356930165
 21
-12.33779836
 31
0.0
 11
-11.6535353722
 21
-12.4172460151
 31
0.0
  0
SPLINE
  5
340
100
AcDbEntity
  8
0
100
AcDbSpline
 62
7
  6
CONTINUOUS
 70
0
 71
3
 72
15
 73
11
 74
9
 42
0.0000001
 43
0.0000001
 44
0.0000000001
 12
0.00002163
 22
-2.9459059962
 32
0.0
 13
2.9206863509
 23
-0.3846470831
 33
0.0
 40
0.0
 40
0.0
 40
0.0
 40
0.0
 40
0.1242868735
 40
0.2577559864
 40
0.3954479275
 40
0.5327644753
 40
0.6651485683
 40
0.7886668193
 40
0.9004959981
 40
1.0
 40
1.0
 40
1.0
 40
1.0
 10
-16.7801971247
 20
-8.4026288496
 30
0.0
 10
-16.7801962286
 20
-8.5246746649
 30
0.0
 10
-16.7547865366
 20
-8.7780087316
 30
0.0
 10
-16.6568230549
 20
-9.1551361385
 30
0.0
 10
-16.4988672501
 20
-9.5254262107
 30
0.0
 10
-16.2911796302
 20
-9.8688546319
 30
0.0
 10
-16.04521747
 20
-10.1684066911
 30
0.0
 10
-15.7729355135
 20
-10.4083561159
 30
0.0
 10
-15.4878943508
 20
-10.5768353622
 30
0.0
 10
-15.2859426048
 20
-10.6367210874
 30
0.0
 10
-15.1890692781
 20
-10.6494790621
 30
0.0
 11
-16.7801971247
 21
-8.4026288496
 31
0.0
 11
-16.7467533689
 21
-8.7672356852
 31
0.0
 11
-16.6487397538
 21
-9.1480108286
 31
0.0
 11
-16.4902353504
 21
-9.5213873612
 31
0.0
 11
-16.2805751781
 21
-9.8673358696
 31
0.0
 11
-16.0318009716
 21
-10.1676764217
 31
0.0
 11
-15.7570970758
 21
-10.4063004846
 31
0.0
 11
-15.4712269224
 21
-10.5700314071
 31
0.0
 11
-15.1890692781
 21
-10.6494790621
 31
0.0
  0
SPLINE
  5
341
100
AcDbEntity
  8
0
100
AcDbSpline
 62
7
  6
CONTINUOUS
 70
0
 71
3
 72
15
 73
11
 74
9
 42
0.0000001
 43
0.0000001
 44
0.0000000001
 12
0.00002163
 22
-2.9459059962
 32
0.0
 13
2.9206863509
 23
-0.3846470831
 33
0.0
 40
0.0
 40
0.0
 40
0.0
 40
0.0
 40
0.1242868735
 40
0.2577559864
 40
0.3954479275
 40
0.5327644753
 40
0.6651485683
 40
0.7886668193
 40
0.9004959981
 40
1.0
 40
1.0
 40
1.0
 40
1.0
 10
-6.1735954069
 20
-13.7059297085
 30
0.0
 10
-6.1735945108
 20
-13.8279755238
 30
0.0
 10
-6.1481848188
 20
-14.0813095905
 30
0.0
 10
-6.0502213371
 20
-14.4584369974
 30
0.0
 10
-5.8922655323
 20
-14.8287270696
 30
0.0
 10
-5.6845779124
 20
-15.1721554908
 30
0.0
 10
-5.4386157522
 20
-15.47170755
 30
0.0
 10
-5.1663337958
 20
-15.7116569748
 30
0.0
 10
-4.881292633
 20
-15.8801362211
 30
0.0
 10
-4.679340887
 20
-15.9400219463
 30
0.0
 10
-4.5824675603
 20
-15.952779921
 30
0.0
 11
-6.1735954069
 21
-13.7059297085
 31
0.0
 11
-6.1401516511
 21
-14.0705365441
 31
0.0
 11
-6.042138036
 21
-14.4513116875
 31
0.0
 11
-5.8836336326
 21
-14.8246882201
 31
0.0
 11
-5.6739734603
 21
-15.1706367285
 31
0.0
 11
-5.4251992538
 21
-15.4709772806
 31
0.0
 11
-5.150495358
 21
-15.7096013435
 31
0.0
 11
-4.8646252046
 21
-15.873332266
 31
0.0
 11
-4.5824675603
 21
-15.952779921
 31
0.0
  0
SPLINE
  5
342
100
AcDbEntity
  8
0
100
AcDbSpline
 62
7
  6
CONTINUOUS
 70
0
 71
3
 72
15
 73
11
 74
9
 42
0.0000001
 43
0.0000001
 44
0.0000000001
 12
0.00002163
 22
-2.9459059962
 32
0.0
 13
2.9206863509
 23
-0.3846470831
 33
0.0
 40
0.0
 40
0.0
 40
0.0
 40
0.0
 40
0.1242868735
 40
0.2577559864
 40
0.3954479275
 40
0.5327644753
 40
0.6651485683
 40
0.7886668193
 40
0.9004959981
 40
1.0
 40
1.0
 40
1.0
 40
1.0
 10
-9.7091293129
 20
-11.9381627555
 30
0.0
 10
-9.7091284168
 20
-12.0602085708
 30
0.0
 10
-9.6837187247
 20
-12.3135426375
 30
0.0
 10
-9.585755243
 20
-12.6906700445
 30
0.0
 10
-9.4277994383
 20
-13.0609601166
 30
0.0
 10
-9.2201118183
 20
-13.4043885379
 30
0.0
 10
-8.9741496582
 20
-13.7039405971
 30
0.0
 10
-8.7018677017
 20
-13.9438900218
 30
0.0
 10
-8.4168265389
 20
-14.1123692682
 30
0.0
 10
-8.214874793
 20
-14.1722549933
 30
0.0
 10
-8.1180014662
 20
-14.185012968
 30
0.0
 11
-9.7091293129
 21
-11.9381627555
 31
0.0
 11
-9.675685557
 21
-12.3027695911
 31
0.0
 11
-9.5776719419
 21
-12.6835447346
 31
0.0
 11
-9.4191675385
 21
-13.0569212671
 31
0.0
 11
-9.2095073662
 21
-13.4028697756
 31
0.0
 11
-8.9607331598
 21
-13.7032103277
 31
0.0
 11
-8.6860292639
 21
-13.9418343906
 31
0.0
 11
-8.4001591106
 21
-14.105565313
 31
0.0
 11
-8.1180014662
 21
-14.185012968
 31
0.0
  0
SPLINE
  5
343
100
AcDbEntity
  8
0
100
AcDbSpline
 62
7
  6
CONTINUOUS
 70
0
 71
3
 72
15
 73
11
 74
9
 42
0.0000001
 43
0.0000001
 44
0.0000000001
 12
0.00002163
 22
-2.9459059962
 32
0.0
 13
2.9206863509
 23
-0.3846470831
 33
0.0
 40
0.0
 40
0.0
 40
0.0
 40
0.0
 40
0.1242868735
 40
0.2577559864
 40
0.3954479275
 40
0.5327644753
 40
0.6651485683
 40
0.7886668193
 40
0.9004959981
 40
1.0
 40
1.0
 40
1.0
 40
1.0
 10
-2.638061501
 20
-15.4736966614
 30
0.0
 10
-2.6380606049
 20
-15.5957424768
 30
0.0
 10
-2.6126509128
 20
-15.8490765435
 30
0.0
 10
-2.5146874311
 20
-16.2262039504
 30
0.0
 10
-2.3567316264
 20
-16.5964940226
 30
0.0
 10
-2.1490440065
 20
-16.9399224438
 30
0.0
 10
-1.9030818463
 20
-17.239474503
 30
0.0
 10
-1.6307998898
 20
-17.4794239277
 30
0.0
 10
-1.3457587271
 20
-17.6479031741
 30
0.0
 10
-1.1438069811
 20
-17.7077888993
 30
0.0
 10
-1.0469336544
 20
-17.720546874
 30
0.0
 11
-2.638061501
 21
-15.4736966614
 31
0.0
 11
-2.6046177452
 21
-15.838303497
 31
0.0
 11
-2.5066041301
 21
-16.2190786405
 31
0.0
 11
-2.3480997266
 21
-16.592455173
 31
0.0
 11
-2.1384395543
 21
-16.9384036815
 31
0.0
 11
-1.8896653479
 21
-17.2387442336
 31
0.0
 11
-1.6149614521
 21
-17.4773682965
 31
0.0
 11
-1.3290912987
 21
-17.6410992189
 31
0.0
 11
-1.0469336544
 21
-17.720546874
 31
0.0
  0
SPLINE
  5
344
100
AcDbEntity
  8
0
100
AcDbSpline
 62
7
  6
CONTINUOUS
 70
0
 71
3
 72
15
 73
11
 74
9
 42
0.0000001
 43
0.0000001
 44
0.0000000001
 12
0.00002163
 22
-2.9459059962
 32
0.0
 13
2.9206863509
 23
-0.3846470831
 33
0.0
 40
0.0
 40
0.0
 40
0.0
 40
0.0
 40
0.1242868735
 40
0.2577559864
 40
0.3954479275
 40
0.5327644753
 40
0.6651485683
 40
0.7886668193
 40
0.9004959981
 40
1.0
 40
1.0
 40
1.0
 40
1.0
 10
0.8974724049
 20
-17.2414636144
 30
0.0
 10
0.897473301
 20
-17.3635094297
 30
0.0
 10
0.9228829931
 20
-17.6168434964
 30
0.0
 10
1.0208464748
 20
-17.9939709034
 30
0.0
 10
1.1788022795
 20
-18.3642609755
 30
0.0
 10
1.3864898995
 20
-18.7076893968
 30
0.0
 10
1.6324520596
 20
-19.007241456
 30
0.0
 10
1.9047340161
 20
-19.2471908807
 30
0.0
 10
2.1897751789
 20
-19.4156701271
 30
0.0
 10
2.3917269248
 20
-19.4755558522
 30
0.0
 10
2.4886002515
 20
-19.4883138269
 30
0.0
 11
0.8974724049
 21
-17.2414636144
 31
0.0
 11
0.9309161608
 21
-17.60607045
 31
0.0
 11
1.0289297759
 21
-17.9868455935
 31
0.0
 11
1.1874341793
 21
-18.360222126
 31
0.0
 11
1.3970943516
 21
-18.7061706345
 31
0.0
 11
1.645868558
 21
-19.0065111866
 31
0.0
 11
1.9205724539
 21
-19.2451352495
 31
0.0
 11
2.2064426072
 21
-19.4088661719
 31
0.0
 11
2.4886002515
 21
-19.4883138269
 31
0.0
  0
SPLINE
  5
345
100
AcDbEntity
  8
RACCORDO
100
AcDbSpline
 62
7
  6
CONTINUOUS
 70
0
 71
3
 72
8
 73
4
 74
2
 42
0.0000001
 43
0.0000001
 44
0.0000000001
 12
0.0025118989
 22
-0.0013177461
 32
0.0
 13
-0.0000031722
 23
-0.0028365614
 33
0.0
 40
0.0
 40
0.0
 40
0.0
 40
0.0
 40
1.0
 40
1.0
 40
1.0
 40
1.0
 10
18.0670101601
 20
-2.0340068927
 30
0.0
 10
18.0678474598
 20
-2.0344461414
 30
0.0
 10
18.0684675122
 20
-2.0354955654
 30
0.0
 10
18.0684664548
 20
-2.0364410859
 30
0.0
 11
18.0670101601
 21
-2.0340068927
 31
0.0
 11
18.0684664548
 21
-2.0364410859
 31
0.0
  0
SPLINE
  5
346
100
AcDbEntity
  8
RACCORDO
100
AcDbSpline
 62
7
  6
CONTINUOUS
 70
0
 71
3
 72
11
 73
7
 74
5
 42
0.0000001
 43
0.0000001
 44
0.0000000001
 12
0.1834285018
 22
0.0989638849
 32
0.0
 13
-0.0000235609
 23
0.2084223242
 33
0.0
 40
0.0
 40
0.0
 40
0.0
 40
0.0
 40
0.2359516721
 40
0.4787606406
 40
0.7333683262
 40
1.0
 40
1.0
 40
1.0
 40
1.0
 10
17.984267948
 20
-10.1344451608
 30
0.0
 10
17.9986947019
 20
-10.1266615961
 30
0.0
 10
18.0250785947
 20
-10.1049651996
 30
0.0
 10
18.0515525397
 20
-10.060540822
 30
0.0
 10
18.0657853027
 20
-10.0089256006
 30
0.0
 10
18.0684685489
 20
-9.9726176471
 30
0.0
 10
18.0684664548
 20
-9.9540936494
 30
0.0
 11
17.984267948
 21
-10.1344451608
 31
0.0
 11
18.0224901436
 21
-10.1035016682
 31
0.0
 11
18.049055868
 21
-10.0604283413
 31
0.0
 11
18.0638848151
 21
-10.0094764539
 31
0.0
 11
18.0684664548
 21
-9.9540936494
 31
0.0
  0
SPLINE
  5
347
100
AcDbEntity
  8
RACCORDO
100
AcDbSpline
 62
253
  6
CONTINUOUS
 70
0
 71
3
 72
11
 73
7
 74
5
 42
0.0000001
 43
0.0000001
 44
0.0000000001
 12
-0.0002794085
 22
-0.7013083746
 32
0.0
 13
-0.6227813745
 23
-0.3224544524
 33
0.0
 40
0.0
 40
0.0
 40
0.0
 40
0.0
 40
0.2077626899
 40
0.436156561
 40
0.6986445537
 40
1.0
 40
1.0
 40
1.0
 40
1.0
 10
19.863995672
 20
-19.4196224923
 30
0.0
 10
19.8639763218
 20
-19.4681910637
 30
0.0
 10
19.8430460182
 20
-19.5709038855
 30
0.0
 10
19.7554957453
 20
-19.7117301847
 30
0.0
 10
19.6186120177
 20
-19.8388117882
 30
0.0
 10
19.5055715137
 20
-19.9080640804
 30
0.0
 10
19.443011994
 20
-19.9404552155
 30
0.0
 11
19.863995672
 21
-19.4196224923
 31
0.0
 11
19.836383264
 21
-19.5626879091
 31
0.0
 11
19.754724159
 21
-19.700483686
 31
0.0
 11
19.6219426233
 21
-19.827984143
 31
0.0
 11
19.443011994
 21
-19.9404552155
 31
0.0
  0
SPLINE
  5
348
100
AcDbEntity
  8
RACCORDO
100
AcDbSpline
 62
253
  6
CONTINUOUS
 70
0
 71
3
 72
11
 73
7
 74
5
 42
0.0000001
 43
0.0000001
 44
0.0000000001
 12
0.8053535246
 22
0.343010469
 32
0.0
 13
0.7788860386
 23
-0.3994834418
 33
0.0
 40
0.0
 40
0.0
 40
0.0
 40
0.0
 40
0.2276031461
 40
0.4658648222
 40
0.7220048389
 40
1.0
 40
1.0
 40
1.0
 40
1.0
 10
-8.0620290055
 20
26.1204262118
 30
0.0
 10
-8.0009286735
 20
26.1464496324
 30
0.0
 10
-7.8680509591
 20
26.182860348
 30
0.0
 10
-7.6554849106
 20
26.1856993952
 30
0.0
 10
-7.4334904554
 20
26.1386131086
 30
0.0
 10
-7.2889662641
 20
26.0779209891
 30
0.0
 10
-7.2167907475
 20
26.0409028345
 30
0.0
 11
-8.0620290055
 21
26.1204262118
 31
0.0
 11
-7.8700699641
 21
26.1737736329
 31
0.0
 11
-7.6615523625
 21
26.1781778436
 31
0.0
 11
-7.4418395285
 21
26.133476518
 31
0.0
 11
-7.2167907475
 21
26.0409028345
 31
0.0
  0
SPLINE
  5
349
100
AcDbEntity
  8
RACCORDO
100
AcDbSpline
 62
253
  6
CONTINUOUS
 70
0
 71
3
 72
9
 73
5
 74
3
 42
0.0000001
 43
0.0000001
 44
0.0000000001
 12
0.0795186507
 22
0.0357716943
 32
0.0
 13
0.0770265125
 23
-0.0408625293
 33
0.0
 40
0.0
 40
0.0
 40
0.0
 40
0.0
 40
0.4641860453
 40
1.0
 40
1.0
 40
1.0
 40
1.0
 10
15.5381259316
 20
16.5955789129
 30
0.0
 10
15.5504297476
 20
16.60111382
 30
0.0
 10
15.5807850468
 20
16.6050852605
 30
0.0
 10
15.6088953174
 20
16.5948985113
 30
0.0
 10
15.6226526108
 20
16.5876002735
 30
0.0
 11
15.5381259316
 21
16.5955789129
 31
0.0
 11
15.5781270268
 21
16.601750148
 31
0.0
 11
15.6226526108
 21
16.5876002735
 31
0.0
  0
SPLINE
  5
34A
100
AcDbEntity
  8
RACCORDO
100
AcDbSpline
 62
253
  6
CONTINUOUS
 70
0
 71
3
 72
9
 73
5
 74
3
 42
0.0000001
 43
0.0000001
 44
0.0000000001
 12
-0.032474418
 22
-0.0519336016
 32
0.0
 13
-0.0542047414
 23
-0.0285224966
 33
0.0
 40
0.0
 40
0.0
 40
0.0
 40
0.0
 40
0.2460330504
 40
1.0
 40
1.0
 40
1.0
 40
1.0
 10
17.1630502828
 20
14.5468645161
 30
0.0
 10
17.1603870227
 20
14.5426053886
 30
0.0
 10
17.1483810207
 20
14.5260393513
 30
0.0
 10
17.1317314123
 20
14.5130230423
 30
0.0
 10
17.1181085512
 20
14.5058547024
 30
0.0
 11
17.1630502828
 21
14.5468645161
 31
0.0
 11
17.1541981881
 21
14.5346686763
 31
0.0
 11
17.1181085512
 21
14.5058547024
 31
0.0
  0
SPLINE
  5
34B
100
AcDbEntity
  8
RACCORDO
100
AcDbSpline
 62
253
  6
CONTINUOUS
 70
0
 71
3
 72
14
 73
10
 74
8
 42
0.0000001
 43
0.0000001
 44
0.0000000001
 12
0.5638666687
 22
0.2869863117
 32
0.0
 13
0.4838009578
 23
-0.4077295628
 33
0.0
 40
0.0
 40
0.0
 40
0.0
 40
0.0
 40
0.356977839
 40
0.507307348
 40
0.6383418064
 40
0.7507808455
 40
0.8462660581
 40
0.927803763
 40
1.0
 40
1.0
 40
1.0
 40
1.0
 10
16.4832265183
 20
14.4506622528
 30
0.0
 10
16.5503224866
 20
14.484811504
 30
0.0
 10
16.6479609173
 20
14.5294376905
 30
0.0
 10
16.7760118051
 20
14.5714133232
 30
0.0
 10
16.8570984164
 20
14.5900436949
 30
0.0
 10
16.9283687645
 20
14.5978350729
 30
0.0
 10
16.9896819033
 20
14.5949455745
 30
0.0
 10
17.0409842333
 20
14.5814767072
 30
0.0
 10
17.0693841682
 20
14.5646661091
 30
0.0
 10
17.0810270377
 20
14.5548539291
 30
0.0
 11
16.4832265183
 21
14.4506622528
 31
0.0
 11
16.6897768148
 21
14.5420369639
 31
0.0
 11
16.7803086549
 21
14.5712003478
 31
0.0
 11
16.8612345313
 21
14.5892081623
 31
0.0
 11
16.932028069
 21
14.5962201732
 31
0.0
 11
16.9923289913
 21
14.5925369696
 31
0.0
 11
17.0419939259
 21
14.5785801545
 31
0.0
 11
17.0810270377
 21
14.5548539291
 31
0.0
  0
SPLINE
  5
34C
100
AcDbEntity
  8
RACCORDO
100
AcDbSpline
 62
253
  6
CONTINUOUS
 70
0
 71
3
 72
8
 73
4
 74
2
 42
0.0000001
 43
0.0000001
 44
0.0000000001
 12
0.0381987314
 22
-0.0321924788
 32
0.0
 13
0.0244639301
 23
-0.0435547345
 33
0.0
 40
0.0
 40
0.0
 40
0.0
 40
0.0
 40
1.0
 40
1.0
 40
1.0
 40
1.0
 10
17.0810270377
 20
14.5548539291
 30
0.0
 10
17.0937599482
 20
14.5441231028
 30
0.0
 10
17.1046565864
 20
14.5308330521
 30
0.0
 10
17.1128112297
 20
14.5163148072
 30
0.0
 11
17.0810270377
 21
14.5548539291
 31
0.0
 11
17.1128112297
 21
14.5163148072
 31
0.0
  0
SPLINE
  5
34D
100
AcDbEntity
  8
RACCORDO
100
AcDbSpline
 62
253
  6
CONTINUOUS
 70
0
 71
3
 72
11
 73
7
 74
5
 42
0.0000001
 43
0.0000001
 44
0.0000000001
 12
-0.6037021303
 22
0.3009944299
 32
0.0
 13
-0.608473297
 23
-0.2912287002
 33
0.0
 40
0.0
 40
0.0
 40
0.0
 40
0.0
 40
0.2279938303
 40
0.4659542122
 40
0.7218581793
 40
1.0
 40
1.0
 40
1.0
 40
1.0
 10
-6.5650295386
 20
26.0747215569
 30
0.0
 10
-6.610909659
 20
26.0975965145
 30
0.0
 10
-6.7116736761
 20
26.1314260493
 30
0.0
 10
-6.87530165
 20
26.141218632
 30
0.0
 10
-7.0476145553
 20
26.1113059292
 30
0.0
 10
-7.1603767906
 20
26.0679037948
 30
0.0
 10
-7.2167907475
 20
26.0409028345
 30
0.0
 11
-6.5650295386
 21
26.0747215569
 31
0.0
 11
-6.7106811566
 21
26.1241163781
 31
0.0
 11
-6.8708358797
 21
26.1349772024
 31
0.0
 11
-7.0411728833
 21
26.1069531433
 31
0.0
 11
-7.2167907475
 21
26.0409028345
 31
0.0
  0
SPLINE
  5
34E
100
AcDbEntity
  8
RACCORDO
100
AcDbSpline
 62
253
  6
CONTINUOUS
 70
0
 71
3
 72
9
 73
5
 74
3
 42
0.0000001
 43
0.0000001
 44
0.0000000001
 12
-0.0799294681
 22
0.0397154617
 32
0.0
 13
-0.0805065616
 23
-0.0385322114
 33
0.0
 40
0.0
 40
0.0
 40
0.0
 40
0.0
 40
0.4650340926
 40
1.0
 40
1.0
 40
1.0
 40
1.0
 10
17.5888635679
 20
15.6524557486
 30
0.0
 10
17.576473592
 20
15.6586120965
 30
0.0
 10
17.5456146546
 20
15.6639388782
 30
0.0
 10
17.5164149802
 20
15.6547682729
 30
0.0
 10
17.5020588916
 20
15.6478971331
 30
0.0
 11
17.5888635679
 21
15.6524557486
 31
0.0
 11
17.5481315028
 21
15.6604312095
 31
0.0
 11
17.5020588916
 21
15.6478971331
 31
0.0
  0
SPLINE
  5
34F
100
AcDbEntity
  8
RACCORDO
100
AcDbSpline
 62
253
  6
CONTINUOUS
 70
0
 71
3
 72
11
 73
7
 74
5
 42
0.0000001
 43
0.0000001
 44
0.0000000001
 12
0.0000212101
 22
-0.7014672598
 32
0.0
 13
-0.6229224049
 23
-0.3225275097
 33
0.0
 40
0.0
 40
0.0
 40
0.0
 40
0.0
 40
0.2077626652
 40
0.4361483801
 40
0.6986341731
 40
1.0
 40
1.0
 40
1.0
 40
1.0
 10
19.8639957016
 20
11.500208233
 30
0.0
 10
19.8639971705
 20
11.4516286639
 30
0.0
 10
19.8431007981
 20
11.3488844363
 30
0.0
 10
19.7555593824
 20
11.2080082744
 30
0.0
 10
19.6186547544
 20
11.0808852654
 30
0.0
 10
19.5055878359
 20
11.0116140458
 30
0.0
 10
19.443011994
 20
10.9792144559
 30
0.0
 11
19.8639957016
 21
11.500208233
 31
0.0
 11
19.8364293861
 21
11.3571003397
 31
0.0
 11
19.7547844755
 21
11.2192606387
 31
0.0
 11
19.621986519
 21
11.0917193185
 31
0.0
 11
19.443011994
 21
10.9792144559
 31
0.0
  0
SPLINE
  5
350
100
AcDbEntity
  8
RACCORDO
100
AcDbSpline
 62
253
  6
CONTINUOUS
 70
0
 71
3
 72
9
 73
5
 74
3
 42
0.0000001
 43
0.0000001
 44
0.0000000001
 12
-0.0167217505
 22
-0.0505268719
 32
0.0
 13
-0.0132137757
 23
-0.0515555802
 33
0.0
 40
0.0
 40
0.0
 40
0.0
 40
0.0
 40
0.2429221925
 40
1.0
 40
1.0
 40
1.0
 40
1.0
 10
17.1181040606
 20
14.5058598011
 30
0.0
 10
17.1167500325
 20
14.5017684349
 30
0.0
 10
17.1113644158
 20
14.4848637447
 30
0.0
 10
17.1066454547
 20
14.4677521655
 30
0.0
 10
17.1033108359
 20
14.4547416369
 30
0.0
 11
17.1181040606
 21
14.5058598011
 31
0.0
 11
17.114172801
 21
14.4935431773
 31
0.0
 11
17.1033108359
 21
14.4547416369
 31
0.0
  0
SPLINE
  5
351
100
AcDbEntity
  8
RACCORDO
100
AcDbSpline
 62
253
  6
CONTINUOUS
 70
0
 71
3
 72
9
 73
5
 74
3
 42
0.0000001
 43
0.0000001
 44
0.0000000001
 12
-0.0468253712
 22
-0.1826963944
 32
0.0
 13
-0.0356462053
 23
-0.1852024189
 33
0.0
 40
0.0
 40
0.0
 40
0.0
 40
0.0
 40
0.2349840072
 40
1.0
 40
1.0
 40
1.0
 40
1.0
 10
17.1033108359
 20
14.4547416369
 30
0.0
 10
17.0996430982
 20
14.4404313933
 30
0.0
 10
17.0852594752
 20
14.3792190436
 30
0.0
 10
17.0736026593
 20
14.3174226528
 30
0.0
 10
17.064512687
 20
14.2701950487
 30
0.0
 11
17.1033108359
 21
14.4547416369
 31
0.0
 11
17.0930338229
 21
14.4116312976
 31
0.0
 11
17.064512687
 21
14.2701950487
 31
0.0
  0
SPLINE
  5
352
100
AcDbEntity
  8
RACCORDO
100
AcDbSpline
 62
253
  6
CONTINUOUS
 70
0
 71
3
 72
9
 73
5
 74
3
 42
0.0000001
 43
0.0000001
 44
0.0000000001
 12
0.0548590031
 22
-0.0258544996
 32
0.0
 13
0.044748111
 23
-0.0409337506
 33
0.0
 40
0.0
 40
0.0
 40
0.0
 40
0.0
 40
0.2366659947
 40
1.0
 40
1.0
 40
1.0
 40
1.0
 10
17.5020588916
 20
15.6478971331
 30
0.0
 10
17.5063866451
 20
15.6458575061
 30
0.0
 10
17.5242835715
 20
15.6364192676
 30
0.0
 10
17.540583314
 20
15.6240905487
 30
0.0
 10
17.5519692322
 20
15.6136751741
 30
0.0
 11
17.5020588916
 21
15.6478971331
 31
0.0
 11
17.5147683734
 21
15.6412281878
 31
0.0
 11
17.5519692322
 21
15.6136751741
 31
0.0
  0
SPLINE
  5
353
100
AcDbEntity
  8
RACCORDO
100
AcDbSpline
 62
253
  6
CONTINUOUS
 70
0
 71
3
 72
9
 73
5
 74
3
 42
0.0000001
 43
0.0000001
 44
0.0000000001
 12
0.0497596695
 22
-0.0455181203
 32
0.0
 13
0.0372971218
 23
-0.0561858407
 33
0.0
 40
0.0
 40
0.0
 40
0.0
 40
0.0
 40
0.2430789034
 40
1.0
 40
1.0
 40
1.0
 40
1.0
 10
17.5519692322
 20
15.6136751741
 30
0.0
 10
17.5560010742
 20
15.6099870092
 30
0.0
 10
17.572069943
 20
15.5942534983
 30
0.0
 10
17.5861186221
 20
15.57649247
 30
0.0
 10
17.5955289482
 20
15.5623163873
 30
0.0
 11
17.5519692322
 21
15.6136751741
 31
0.0
 11
17.5636937125
 21
15.6022182394
 31
0.0
 11
17.5955289482
 21
15.5623163873
 31
0.0
  0
SPLINE
  5
354
100
AcDbEntity
  8
RACCORDO
100
AcDbSpline
 62
253
  6
CONTINUOUS
 70
0
 71
3
 72
9
 73
5
 74
3
 42
0.0000001
 43
0.0000001
 44
0.0000000001
 12
0.0637024502
 22
-0.0959638586
 32
0.0
 13
0.0232685074
 23
-0.1128079823
 33
0.0
 40
0.0
 40
0.0
 40
0.0
 40
0.0
 40
0.2526075988
 40
1.0
 40
1.0
 40
1.0
 40
1.0
 10
17.5955289482
 20
15.5623163873
 30
0.0
 10
17.6008928559
 20
15.5542359874
 30
0.0
 10
17.6205768742
 20
15.521257402
 30
0.0
 10
17.6342675554
 20
15.4846101093
 30
0.0
 10
17.6400644572
 20
15.4565061664
 30
0.0
 11
17.5955289482
 21
15.5623163873
 31
0.0
 11
17.6104550826
 21
15.5373406024
 31
0.0
 11
17.6400644572
 21
15.4565061664
 31
0.0
  0
SPLINE
  5
355
100
AcDbEntity
  8
RACCORDO
100
AcDbSpline
 62
253
  6
CONTINUOUS
 70
0
 71
3
 72
9
 73
5
 74
3
 42
0.0000001
 43
0.0000001
 44
0.0000000001
 12
0.0235739468
 22
-0.1142887821
 32
0.0
 13
-0.0482164113
 23
-0.1062677484
 33
0.0
 40
0.0
 40
0.0
 40
0.0
 40
0.0
 40
0.2765604492
 40
1.0
 40
1.0
 40
1.0
 40
1.0
 10
17.6400644572
 20
15.4565061664
 30
0.0
 10
17.6422376643
 20
15.4459702474
 30
0.0
 10
17.6478435867
 20
15.407604183
 30
0.0
 10
17.643798331
 20
15.3666778392
 30
0.0
 10
17.6321711114
 20
15.3410517418
 30
0.0
 11
17.6400644572
 21
15.4565061664
 31
0.0
 11
17.6446002402
 21
15.4245533507
 31
0.0
 11
17.6321711114
 21
15.3410517418
 31
0.0
  0
SPLINE
  5
356
100
AcDbEntity
  8
RACCORDO
100
AcDbSpline
 62
253
  6
CONTINUOUS
 70
0
 71
3
 72
8
 73
4
 74
2
 42
0.0000001
 43
0.0000001
 44
0.0000000001
 12
-0.0066477608
 22
-0.0146514964
 32
0.0
 13
-0.0086835815
 23
-0.013544537
 33
0.0
 40
0.0
 40
0.0
 40
0.0
 40
0.0
 40
1.0
 40
1.0
 40
1.0
 40
1.0
 10
17.6321711114
 20
15.3410517418
 30
0.0
 10
17.6299551911
 20
15.3361679096
 30
0.0
 10
17.6274092525
 20
15.3314160107
 30
0.0
 10
17.6245147253
 20
15.326901165
 30
0.0
 11
17.6321711114
 21
15.3410517418
 31
0.0
 11
17.6245147253
 21
15.326901165
 31
0.0
  0
SPLINE
  5
357
100
AcDbEntity
  8
RACCORDO
100
AcDbSpline
 62
253
  6
CONTINUOUS
 70
0
 71
3
 72
9
 73
5
 74
3
 42
0.0000001
 43
0.0000001
 44
0.0000000001
 12
0.0547858067
 22
0.0288283796
 32
0.0
 13
0.0324933704
 23
0.0526947907
 33
0.0
 40
0.0
 40
0.0
 40
0.0
 40
0.0
 40
0.2575713691
 40
1.0
 40
1.0
 40
1.0
 40
1.0
 10
17.6245147253
 20
15.326901165
 30
0.0
 10
17.6292184771
 20
15.3293762868
 30
0.0
 10
17.646880287
 20
15.340068838
 30
0.0
 10
17.6617757677
 20
15.3554512283
 30
0.0
 10
17.6698171039
 20
15.3684919354
 30
0.0
 11
17.6245147253
 21
15.326901165
 31
0.0
 11
17.6381333036
 21
15.3351956149
 31
0.0
 11
17.6698171039
 21
15.3684919354
 31
0.0
  0
SPLINE
  5
358
100
AcDbEntity
  8
RACCORDO
100
AcDbSpline
 62
253
  6
CONTINUOUS
 70
0
 71
3
 72
9
 73
5
 74
3
 42
0.0000001
 43
0.0000001
 44
0.0000000001
 12
0.0803903215
 22
0.0384765763
 32
0.0
 13
0.0798657665
 23
-0.039553888
 33
0.0
 40
0.0
 40
0.0
 40
0.0
 40
0.0
 40
0.5349217046
 40
1.0
 40
1.0
 40
1.0
 40
1.0
 10
15.6226526108
 20
16.5876002735
 30
0.0
 10
15.6369867867
 20
16.5944609254
 30
0.0
 10
15.6661357334
 20
16.6036382295
 30
0.0
 10
15.696951935
 20
16.5983433177
 30
0.0
 10
15.7093332132
 20
16.5922114328
 30
0.0
 11
15.6226526108
 21
16.5876002735
 31
0.0
 11
15.6686486656
 21
16.600138106
 31
0.0
 11
15.7093332132
 21
16.5922114328
 31
0.0
  0
SPLINE
  5
359
100
AcDbEntity
  8
RACCORDO
100
AcDbSpline
 62
253
  6
CONTINUOUS
 70
0
 71
3
 72
12
 73
8
 74
6
 42
0.0000001
 43
0.0000001
 44
0.0000000001
 12
-0.3382059777
 22
0.1593933985
 32
0.0
 13
0.2017920227
 23
0.3147531071
 33
0.0
 40
0.0
 40
0.0
 40
0.0
 40
0.0
 40
0.1187220459
 40
0.2490985024
 40
0.4561014146
 40
0.6615012317
 40
1.0
 40
1.0
 40
1.0
 40
1.0
 10
16.6056823519
 20
14.1296662848
 30
0.0
 10
16.5922981834
 20
14.1359741216
 30
0.0
 10
16.5659776946
 20
14.1530650847
 30
0.0
 10
16.5252992488
 20
14.1931146143
 30
0.0
 10
16.4883997623
 20
14.251076258
 30
0.0
 10
16.457959494
 20
14.3389540414
 30
0.0
 10
16.4604577346
 20
14.4151477398
 30
0.0
 10
16.4832265183
 20
14.4506622528
 30
0.0
 11
16.6056823519
 21
14.1296662848
 31
0.0
 11
16.5681413905
 21
14.1533517058
 31
0.0
 11
16.5332017043
 21
14.1873423481
 31
0.0
 11
16.4911423366
 21
14.252311726
 31
0.0
 11
16.4668558563
 21
14.3251660985
 31
0.0
 11
16.4832265183
 21
14.4506622528
 31
0.0
  0
SPLINE
  5
35A
100
AcDbEntity
  8
RACCORDO
100
AcDbSpline
 62
7
  6
CONTINUOUS
 70
0
 71
3
 72
11
 73
7
 74
5
 42
0.0000001
 43
0.0000001
 44
0.0000000001
 12
0.0775636453
 22
0.0384721399
 32
0.0
 13
0.0862882417
 23
-0.0071108342
 33
0.0
 40
0.0
 40
0.0
 40
0.0
 40
0.0
 40
0.3887656028
 40
0.6860133286
 40
0.886252848
 40
1.0
 40
1.0
 40
1.0
 40
1.0
 10
17.984267948
 20
-2.0645740251
 30
0.0
 10
17.9943193071
 20
-2.0595884769
 30
0.0
 10
18.0121649203
 20
-2.0510511225
 30
0.0
 10
18.0357079926
 20
-2.0408654782
 30
0.0
 10
18.0522946747
 20
-2.035165861
 30
0.0
 10
18.0613453842
 20
-2.033136671
 30
0.0
 10
18.0646170647
 20
-2.0334062833
 30
0.0
 11
17.984267948
 21
-2.0645740251
 31
0.0
 11
18.0146670647
 21
-2.0501219215
 31
0.0
 11
18.0383865149
 21
-2.0401356468
 31
0.0
 11
18.0548574182
 21
-2.0347248283
 31
0.0
 11
18.0646170647
 21
-2.0334062833
 31
0.0
  0
SPLINE
  5
35B
100
AcDbEntity
  8
RACCORDO
100
AcDbSpline
 62
7
  6
CONTINUOUS
 70
0
 71
3
 72
8
 73
4
 74
2
 42
0.0000001
 43
0.0000001
 44
0.0000000001
 12
0.0024589783
 22
-0.0002026393
 32
0.0
 13
0.0021849126
 23
-0.0011462085
 33
0.0
 40
0.0
 40
0.0
 40
0.0
 40
0.0
 40
1.0
 40
1.0
 40
1.0
 40
1.0
 10
18.0646170647
 20
-2.0334062833
 30
0.0
 10
18.0654367242
 20
-2.0334738298
 30
0.0
 10
18.0662818559
 20
-2.0336248232
 30
0.0
 10
18.0670101601
 20
-2.0340068927
 30
0.0
 11
18.0646170647
 21
-2.0334062833
 31
0.0
 11
18.0670101601
 21
-2.0340068927
 31
0.0
  0
SPLINE
  5
35C
100
AcDbEntity
  8
RACCORDO
100
AcDbSpline
 62
253
  6
CONTINUOUS
 70
0
 71
3
 72
10
 73
6
 74
4
 42
0.0000001
 43
0.0000001
 44
0.0000000001
 12
0.2024223234
 22
0.0968837842
 32
0.0
 13
0.2006920257
 23
-0.1004189996
 33
0.0
 40
0.0
 40
0.0
 40
0.0
 40
0.0
 40
0.5328570034
 40
0.7714859994
 40
1.0
 40
1.0
 40
1.0
 40
1.0
 10
-12.8738585251
 20
26.9512738684
 30
0.0
 10
-12.8379044742
 20
26.9684822694
 30
0.0
 10
-12.7807178106
 20
26.9859914748
 30
0.0
 10
-12.7053886161
 20
26.9814326177
 30
0.0
 10
-12.6717745692
 20
26.9701286143
 30
0.0
 10
-12.65648759
 20
26.9624795652
 30
0.0
 11
-12.8738585251
 21
26.9512738684
 31
0.0
 11
-12.7584649948
 21
26.9826384778
 31
0.0
 11
-12.7050377676
 21
26.9789925125
 31
0.0
 11
-12.65648759
 21
26.9624795652
 31
0.0
  0
SPLINE
  5
35D
100
AcDbEntity
  8
RACCORDO
100
AcDbSpline
 62
253
  6
CONTINUOUS
 70
0
 71
3
 72
11
 73
7
 74
5
 42
0.0000001
 43
0.0000001
 44
0.0000000001
 12
-0.7819627057
 22
0.3943011135
 32
0.0
 13
-0.8076068672
 23
-0.3386889269
 33
0.0
 40
0.0
 40
0.0
 40
0.0
 40
0.0
 40
0.2780722645
 40
0.5344334854
 40
0.7727783854
 40
1.0
 40
1.0
 40
1.0
 40
1.0
 10
-12.8737583755
 20
26.9512232247
 30
0.0
 10
-12.9462390889
 20
26.9877712926
 30
0.0
 10
-13.0912323403
 20
27.0476764868
 30
0.0
 10
-13.3135151737
 20
27.0941863527
 30
0.0
 10
-13.5260934266
 20
27.0915481811
 30
0.0
 10
-13.6590727408
 20
27.0557690677
 30
0.0
 10
-13.7202413196
 20
27.0301165861
 30
0.0
 11
-12.8737583755
 21
26.9512232247
 31
0.0
 11
-13.0994865172
 21
27.0426001461
 31
0.0
 11
-13.3196031807
 21
27.0867896603
 31
0.0
 11
-13.5282913277
 21
27.0825761342
 31
0.0
 11
-13.7202413196
 21
27.0301165861
 31
0.0
  0
SPLINE
  5
35E
100
AcDbEntity
  8
RACCORDO
100
AcDbSpline
 62
253
  6
CONTINUOUS
 70
0
 71
3
 72
12
 73
8
 74
6
 42
0.0000001
 43
0.0000001
 44
0.0000000001
 12
0.450821679
 22
0.2314360106
 32
0.0
 13
0.4546728294
 23
-0.2237754043
 33
0.0
 40
0.0
 40
0.0
 40
0.0
 40
0.0
 40
0.3568367476
 40
0.6406804633
 40
0.7548325418
 40
0.8515314869
 40
1.0
 40
1.0
 40
1.0
 40
1.0
 10
16.6056823519
 20
14.1296662848
 30
0.0
 10
16.6593055992
 20
14.1571945759
 30
0.0
 10
16.7573818435
 20
14.2032632232
 30
0.0
 10
16.8782414048
 20
14.2451874736
 30
0.0
 10
16.9604892334
 20
14.2614122643
 30
0.0
 10
17.0208259136
 20
14.2661190061
 30
0.0
 10
17.0636362869
 20
14.2602072243
 30
0.0
 10
17.0861378199
 20
14.2491326905
 30
0.0
 11
16.6056823519
 21
14.1296662848
 31
0.0
 11
16.7699535013
 21
14.2052594366
 31
0.0
 11
16.9066554995
 21
14.2500083071
 31
0.0
 11
16.9634935467
 21
14.2607673055
 31
0.0
 11
17.0123882503
 21
14.2640215981
 31
0.0
 11
17.0861378199
 21
14.2491326905
 31
0.0
  0
SPLINE
  5
35F
100
AcDbEntity
  8
RACCORDO
100
AcDbSpline
 62
253
  6
CONTINUOUS
 70
0
 71
3
 72
14
 73
10
 74
8
 42
0.0000001
 43
0.0000001
 44
0.0000000001
 12
2.6489290234
 22
-1.2910540987
 32
0.0
 13
-0.0305998215
 23
-2.9466437361
 33
0.0
 40
0.0
 40
0.0
 40
0.0
 40
0.0
 40
0.1108281006
 40
0.2305836685
 40
0.3574419028
 40
0.4888618027
 40
0.6218901131
 40
0.7534359458
 40
1.0
 40
1.0
 40
1.0
 40
1.0
 10
18.028921394
 20
13.4180455516
 30
0.0
 10
18.1267799848
 20
13.3703505271
 30
0.0
 10
18.3206682894
 20
13.2505404391
 30
0.0
 10
18.5866676546
 20
13.0195389106
 30
0.0
 10
18.830851064
 20
12.7382618104
 30
0.0
 10
19.044071861
 20
12.4173162899
 30
0.0
 10
19.2185550672
 20
12.0684047569
 30
0.0
 10
19.3867412279
 20
11.5948094298
 30
0.0
 10
19.4455269327
 20
11.2213932646
 30
0.0
 10
19.443011994
 20
10.9792144559
 30
0.0
 11
18.028921394
 21
13.4180455516
 31
0.0
 11
18.308011346
 21
13.2484316634
 31
0.0
 11
18.5756687696
 21
13.0184423051
 31
0.0
 11
18.8216091352
 21
12.7369119392
 31
0.0
 11
19.0363852885
 21
12.414657228
 31
0.0
 11
19.2117451537
 21
12.0640587033
 31
0.0
 11
19.3409518756
 21
11.6985862894
 31
0.0
 11
19.443011994
 21
10.9792144559
 31
0.0
  0
SPLINE
  5
360
100
AcDbEntity
  8
RACCORDO
100
AcDbSpline
 62
253
  6
CONTINUOUS
 70
0
 71
3
 72
11
 73
7
 74
5
 42
0.0000001
 43
0.0000001
 44
0.0000000001
 12
0.0126870254
 22
-1.2038688237
 32
0.0
 13
-1.0384398524
 23
-0.6091828774
 33
0.0
 40
0.0
 40
0.0
 40
0.0
 40
0.0
 40
0.2880359326
 40
0.547690924
 40
0.7819695404
 40
1.0
 40
1.0
 40
1.0
 40
1.0
 10
19.4430107777
 20
-19.9403441533
 30
0.0
 10
19.4442288841
 20
-20.0559299797
 30
0.0
 10
19.4284627757
 20
-20.2766743493
 30
0.0
 10
19.340687291
 20
-20.5808731337
 30
0.0
 10
19.1915013145
 20
-20.8290535952
 30
0.0
 10
19.0505140988
 20
-20.9497645852
 30
0.0
 10
18.9750435927
 20
-20.9940380594
 30
0.0
 11
19.4430107777
 21
-19.9403441533
 31
0.0
 11
19.4150027804
 21
-20.285987981
 31
0.0
 11
19.3245586674
 21
-20.5852262905
 31
0.0
 11
19.1756993259
 21
-20.8248023745
 31
0.0
 11
18.9750435927
 21
-20.9940380594
 31
0.0
  0
SPLINE
  5
361
100
AcDbEntity
  8
RACCORDO
100
AcDbSpline
 62
253
  6
CONTINUOUS
 70
0
 71
3
 72
11
 73
7
 74
5
 42
0.0000001
 43
0.0000001
 44
0.0000000001
 12
-0.6039162474
 22
0.3019263664
 32
0.0
 13
-0.6090215952
 23
-0.2914910996
 33
0.0
 40
0.0
 40
0.0
 40
0.0
 40
0.0
 40
0.2279977272
 40
0.4659452392
 40
0.7218426773
 40
1.0
 40
1.0
 40
1.0
 40
1.0
 10
18.6813232024
 20
13.4515455897
 30
0.0
 10
18.6354260251
 20
13.4744917648
 30
0.0
 10
18.5346019956
 20
13.5084482283
 30
0.0
 10
18.370831762
 20
13.5183494907
 30
0.0
 10
18.1983521578
 20
13.4884616221
 30
0.0
 10
18.0854817615
 20
13.4450273441
 30
0.0
 10
18.0290138227
 20
13.4180005495
 30
0.0
 11
18.6813232024
 21
13.4515455897
 31
0.0
 11
18.5355844538
 21
13.5011229802
 31
0.0
 11
18.3753008347
 21
13.5120920514
 31
0.0
 11
18.2048056951
 21
13.4840981989
 31
0.0
 11
18.0290138227
 21
13.4180005495
 31
0.0
  0
SPLINE
  5
362
100
AcDbEntity
  8
DRAFT
100
AcDbSpline
 62
7
  6
CONTINUOUS
 70
0
 71
3
 72
15
 73
11
 74
9
 42
0.0000001
 43
0.0000001
 44
0.0000000001
 12
0.0
 22
-3.1303216309
 32
0.0
 13
3.1017563234
 23
0.4219256135
 33
0.0
 40
0.0
 40
0.0
 40
0.0
 40
0.0
 40
0.1284993875
 40
0.2659861513
 40
0.4073202836
 40
0.5467671897
 40
0.6788779366
 40
0.7993335859
 40
0.9059651068
 40
1.0
 40
1.0
 40
1.0
 40
1.0
 10
-17.0506972424
 20
-8.5502215032
 30
0.0
 10
-17.0506972424
 20
-8.684302974
 30
0.0
 10
-17.0206689981
 20
-8.9622288301
 30
0.0
 10
-16.9026459548
 20
-9.3723142965
 30
0.0
 10
-16.7171547946
 20
-9.7693468797
 30
0.0
 10
-16.4757122349
 20
-10.128338601
 30
0.0
 10
-16.1932609882
 20
-10.427104993
 30
0.0
 10
-15.886338104
 20
-10.6471263211
 30
0.0
 10
-15.572421772
 20
-10.7746095867
 30
0.0
 10
-15.3582948631
 20
-10.7898881134
 30
0.0
 10
-15.2610704216
 20
-10.77666287
 30
0.0
 11
-17.0506972424
 21
-8.5502215032
 31
0.0
 11
-17.0107043139
 21
-8.9504728403
 31
0.0
 11
-16.8933393474
 21
-9.3645386653
 31
0.0
 11
-16.7062665349
 21
-9.7654630496
 31
0.0
 11
-16.4617013622
 21
-10.127031933
 31
0.0
 11
-16.1756066944
 21
-10.4256499547
 31
0.0
 11
-15.8666608752
 21
-10.6418221964
 31
0.0
 11
-15.5550354692
 21
-10.7614299258
 31
0.0
 11
-15.2610704216
 21
-10.77666287
 31
0.0
  0
SPLINE
  5
363
100
AcDbEntity
  8
DRAFT
100
AcDbSpline
 62
7
  6
CONTINUOUS
 70
0
 71
3
 72
15
 73
11
 74
9
 42
0.0000001
 43
0.0000001
 44
0.0000000001
 12
0.0
 22
-3.1303216309
 32
0.0
 13
3.1017563234
 23
0.4219256135
 33
0.0
 40
0.0
 40
0.0
 40
0.0
 40
0.0
 40
0.1284993875
 40
0.2659861513
 40
0.4073202836
 40
0.5467671897
 40
0.6788779366
 40
0.7993335859
 40
0.9059651068
 40
1.0
 40
1.0
 40
1.0
 40
1.0
 10
-13.5151633365
 20
-10.3179884562
 30
0.0
 10
-13.5151633365
 20
-10.4520699269
 30
0.0
 10
-13.4851350921
 20
-10.729995783
 30
0.0
 10
-13.3671120489
 20
-11.1400812495
 30
0.0
 10
-13.1816208886
 20
-11.5371138327
 30
0.0
 10
-12.9401783289
 20
-11.896105554
 30
0.0
 10
-12.6577270823
 20
-12.1948719459
 30
0.0
 10
-12.3508041981
 20
-12.4148932741
 30
0.0
 10
-12.036887866
 20
-12.5423765397
 30
0.0
 10
-11.8227609572
 20
-12.5576550663
 30
0.0
 10
-11.7255365156
 20
-12.544429823
 30
0.0
 11
-13.5151633365
 21
-10.3179884562
 31
0.0
 11
-13.475170408
 21
-10.7182397933
 31
0.0
 11
-13.3578054415
 21
-11.1323056183
 31
0.0
 11
-13.170732629
 21
-11.5332300025
 31
0.0
 11
-12.9261674562
 21
-11.894798886
 31
0.0
 11
-12.6400727885
 21
-12.1934169076
 31
0.0
 11
-12.3311269693
 21
-12.4095891494
 31
0.0
 11
-12.0195015633
 21
-12.5291968788
 31
0.0
 11
-11.7255365156
 21
-12.544429823
 31
0.0
  0
SPLINE
  5
364
100
AcDbEntity
  8
DRAFT
100
AcDbSpline
 62
7
  6
CONTINUOUS
 70
0
 71
3
 72
15
 73
11
 74
9
 42
0.0000001
 43
0.0000001
 44
0.0000000001
 12
0.0
 22
-3.1303216309
 32
0.0
 13
3.1017563234
 23
0.4219256135
 33
0.0
 40
0.0
 40
0.0
 40
0.0
 40
0.0
 40
0.1284993875
 40
0.2659861513
 40
0.4073202836
 40
0.5467671897
 40
0.6788779366
 40
0.7993335859
 40
0.9059651068
 40
1.0
 40
1.0
 40
1.0
 40
1.0
 10
-9.9796294306
 20
-12.0857554091
 30
0.0
 10
-9.9796294306
 20
-12.2198368799
 30
0.0
 10
-9.9496011862
 20
-12.497762736
 30
0.0
 10
-9.831578143
 20
-12.9078482024
 30
0.0
 10
-9.6460869827
 20
-13.3048807856
 30
0.0
 10
-9.404644423
 20
-13.6638725069
 30
0.0
 10
-9.1221931764
 20
-13.9626388989
 30
0.0
 10
-8.8152702921
 20
-14.182660227
 30
0.0
 10
-8.5013539601
 20
-14.3101434926
 30
0.0
 10
-8.2872270512
 20
-14.3254220193
 30
0.0
 10
-8.1900026097
 20
-14.312196776
 30
0.0
 11
-9.9796294306
 21
-12.0857554091
 31
0.0
 11
-9.939636502
 21
-12.4860067463
 31
0.0
 11
-9.8222715356
 21
-12.9000725712
 31
0.0
 11
-9.6351987231
 21
-13.3009969555
 31
0.0
 11
-9.3906335503
 21
-13.6625658389
 31
0.0
 11
-9.1045388826
 21
-13.9611838606
 31
0.0
 11
-8.7955930634
 21
-14.1773561023
 31
0.0
 11
-8.4839676574
 21
-14.2969638318
 31
0.0
 11
-8.1900026097
 21
-14.312196776
 31
0.0
  0
SPLINE
  5
365
100
AcDbEntity
  8
DRAFT
100
AcDbSpline
 62
7
  6
CONTINUOUS
 70
0
 71
3
 72
15
 73
11
 74
9
 42
0.0000001
 43
0.0000001
 44
0.0000000001
 12
0.0
 22
-3.1303216309
 32
0.0
 13
3.1017563234
 23
0.4219256135
 33
0.0
 40
0.0
 40
0.0
 40
0.0
 40
0.0
 40
0.1284993875
 40
0.2659861513
 40
0.4073202836
 40
0.5467671897
 40
0.6788779366
 40
0.7993335859
 40
0.9059651068
 40
1.0
 40
1.0
 40
1.0
 40
1.0
 10
-6.4440955246
 20
-13.8535223621
 30
0.0
 10
-6.4440955246
 20
-13.9876038329
 30
0.0
 10
-6.4140672803
 20
-14.265529689
 30
0.0
 10
-6.296044237
 20
-14.6756151554
 30
0.0
 10
-6.1105530768
 20
-15.0726477386
 30
0.0
 10
-5.8691105171
 20
-15.4316394599
 30
0.0
 10
-5.5866592704
 20
-15.7304058519
 30
0.0
 10
-5.2797363862
 20
-15.95042718
 30
0.0
 10
-4.9658200542
 20
-16.0779104456
 30
0.0
 10
-4.7516931453
 20
-16.0931889723
 30
0.0
 10
-4.6544687038
 20
-16.0799637289
 30
0.0
 11
-6.4440955246
 21
-13.8535223621
 31
0.0
 11
-6.4041025961
 21
-14.2537736992
 31
0.0
 11
-6.2867376296
 21
-14.6678395242
 31
0.0
 11
-6.0996648171
 21
-15.0687639085
 31
0.0
 11
-5.8550996444
 21
-15.4303327919
 31
0.0
 11
-5.5690049766
 21
-15.7289508136
 31
0.0
 11
-5.2600591574
 21
-15.9451230553
 31
0.0
 11
-4.9484337514
 21
-16.0647307847
 31
0.0
 11
-4.6544687038
 21
-16.0799637289
 31
0.0
  0
SPLINE
  5
366
100
AcDbEntity
  8
DRAFT
100
AcDbSpline
 62
7
  6
CONTINUOUS
 70
0
 71
3
 72
15
 73
11
 74
9
 42
0.0000001
 43
0.0000001
 44
0.0000000001
 12
0.0
 22
-3.1303216309
 32
0.0
 13
3.1017563234
 23
0.4219256135
 33
0.0
 40
0.0
 40
0.0
 40
0.0
 40
0.0
 40
0.1284993875
 40
0.2659861513
 40
0.4073202836
 40
0.5467671897
 40
0.6788779366
 40
0.7993335859
 40
0.9059651068
 40
1.0
 40
1.0
 40
1.0
 40
1.0
 10
0.6269722872
 20
-17.389056268
 30
0.0
 10
0.6269722872
 20
-17.5231377388
 30
0.0
 10
0.6570005316
 20
-17.8010635949
 30
0.0
 10
0.7750235748
 20
-18.2111490613
 30
0.0
 10
0.9605147351
 20
-18.6081816445
 30
0.0
 10
1.2019572948
 20
-18.9671733658
 30
0.0
 10
1.4844085414
 20
-19.2659397578
 30
0.0
 10
1.7913314257
 20
-19.4859610859
 30
0.0
 10
2.1052477577
 20
-19.6134443515
 30
0.0
 10
2.3193746666
 20
-19.6287228782
 30
0.0
 10
2.4165991081
 20
-19.6154976349
 30
0.0
 11
0.6269722872
 21
-17.389056268
 31
0.0
 11
0.6669652158
 21
-17.7893076052
 31
0.0
 11
0.7843301822
 21
-18.2033734301
 31
0.0
 11
0.9714029947
 21
-18.6042978144
 31
0.0
 11
1.2159681675
 21
-18.9658666978
 31
0.0
 11
1.5020628352
 21
-19.2644847195
 31
0.0
 11
1.8110086544
 21
-19.4806569612
 31
0.0
 11
2.1226340604
 21
-19.6002646907
 31
0.0
 11
2.4165991081
 21
-19.6154976349
 31
0.0
  0
SPLINE
  5
367
100
AcDbEntity
  8
DRAFT
100
AcDbSpline
 62
7
  6
CONTINUOUS
 70
0
 71
3
 72
15
 73
11
 74
9
 42
0.0000001
 43
0.0000001
 44
0.0000000001
 12
0.0
 22
-3.1303216309
 32
0.0
 13
3.1017563234
 23
0.4219256135
 33
0.0
 40
0.0
 40
0.0
 40
0.0
 40
0.0
 40
0.1284993875
 40
0.2659861513
 40
0.4073202836
 40
0.5467671897
 40
0.6788779366
 40
0.7993335859
 40
0.9059651068
 40
1.0
 40
1.0
 40
1.0
 40
1.0
 10
-2.9085616187
 20
-15.6212893151
 30
0.0
 10
-2.9085616187
 20
-15.7553707858
 30
0.0
 10
-2.8785333743
 20
-16.0332966419
 30
0.0
 10
-2.7605103311
 20
-16.4433821084
 30
0.0
 10
-2.5750191708
 20
-16.8404146916
 30
0.0
 10
-2.3335766111
 20
-17.1994064129
 30
0.0
 10
-2.0511253645
 20
-17.4981728048
 30
0.0
 10
-1.7442024803
 20
-17.718194133
 30
0.0
 10
-1.4302861482
 20
-17.8456773986
 30
0.0
 10
-1.2161592394
 20
-17.8609559252
 30
0.0
 10
-1.1189347978
 20
-17.8477306819
 30
0.0
 11
-2.9085616187
 21
-15.6212893151
 31
0.0
 11
-2.8685686902
 21
-16.0215406522
 31
0.0
 11
-2.7512037237
 21
-16.4356064772
 31
0.0
 11
-2.5641309112
 21
-16.8365308614
 31
0.0
 11
-2.3195657384
 21
-17.1980997449
 31
0.0
 11
-2.0334710707
 21
-17.4967177665
 31
0.0
 11
-1.7245252515
 21
-17.7128900083
 31
0.0
 11
-1.4128998455
 21
-17.8324977377
 31
0.0
 11
-1.1189347978
 21
-17.8477306819
 31
0.0
  0
SPLINE
  5
368
100
AcDbEntity
  8
RACCORDO
100
AcDbSpline
 62
7
  6
CONTINUOUS
 70
0
 71
3
 72
14
 73
10
 74
8
 42
0.0000001
 43
0.0000001
 44
0.0000000001
 12
0.7551422528
 22
0.3986468
 32
0.0
 13
-0.0000000005
 23
0.8539081292
 33
0.0
 40
0.0
 40
0.0
 40
0.0
 40
0.0
 40
0.0723556463
 40
0.1541907256
 40
0.2500660422
 40
0.3630028441
 40
0.4951250915
 40
0.6463711223
 40
1.0
 40
1.0
 40
1.0
 40
1.0
 10
-15.3937128465
 20
-10.8936177061
 30
0.0
 10
-15.3754999112
 20
-10.8840029238
 30
0.0
 10
-15.3384325245
 20
-10.860001405
 30
0.0
 10
-15.2864540138
 20
-10.8108573748
 30
0.0
 10
-15.2363513112
 20
-10.7446013352
 30
0.0
 10
-15.1897275742
 20
-10.6591218793
 30
0.0
 10
-15.1495998858
 20
-10.553360322
 30
0.0
 10
-15.1055122119
 20
-10.3771629677
 30
0.0
 10
-15.0942835443
 20
-10.2326372661
 30
0.0
 10
-15.0942835443
 20
-10.1319817417
 30
0.0
 11
-15.3937128465
 21
-10.8936177061
 31
0.0
 11
-15.3418162438
 21
-10.8600895378
 31
0.0
 11
-15.2907093076
 21
-10.8124319562
 31
0.0
 11
-15.2408609041
 21
-10.7474887294
 31
0.0
 11
-15.1941988364
 21
-10.663091618
 31
0.0
 11
-15.1535101836
 21
-10.5578640321
 31
0.0
 11
-15.1216476966
 21
-10.4327058921
 31
0.0
 11
-15.0942835443
 21
-10.1319817417
 31
0.0
  0
SPLINE
  5
369
100
AcDbEntity
  8
RACCORDO
100
AcDbSpline
 62
7
  6
CONTINUOUS
 70
0
 71
3
 72
17
 73
13
 74
11
 42
0.0000001
 43
0.0000001
 44
0.0000000001
 12
-0.0000000021
 22
3.3128496909
 32
0.0
 13
-2.9950870853
 23
-1.4157776753
 33
0.0
 40
0.0
 40
0.0
 40
0.0
 40
0.0
 40
0.1403799117
 40
0.295749548
 40
0.4559415875
 40
0.6107274704
 40
0.749941946
 40
0.8638201447
 40
0.9088710944
 40
0.9455509656
 40
0.9751897746
 40
1.0
 40
1.0
 40
1.0
 40
1.0
 10
-15.0942835443
 20
-10.1319817417
 30
0.0
 10
-15.0942835444
 20
-9.9769625593
 30
0.0
 10
-15.1337777252
 20
-9.650010837
 30
0.0
 10
-15.2842785909
 20
-9.1671917433
 30
0.0
 10
-15.5197991629
 20
-8.701558573
 30
0.0
 10
-15.8189416399
 20
-8.2957228041
 30
0.0
 10
-16.1496534692
 20
-7.9860912578
 30
0.0
 10
-16.437215735
 20
-7.8169677543
 30
0.0
 10
-16.6447717008
 20
-7.7537664145
 30
0.0
 10
-16.7676499576
 20
-7.739371898
 30
0.0
 10
-16.8687055627
 20
-7.7478835126
 30
0.0
 10
-16.9263785542
 20
-7.7670385126
 30
0.0
 10
-16.9511481494
 20
-7.7787471004
 30
0.0
 11
-15.0942835443
 21
-10.1319817417
 31
0.0
 11
-15.1448725357
 21
-9.6696839199
 31
0.0
 11
-15.29574104
 21
-9.1775746696
 31
0.0
 11
-15.5353694581
 21
-8.7040639755
 31
0.0
 11
-15.8415991762
 21
-8.2927622454
 31
0.0
 11
-16.1819659745
 21
-7.9815504584
 31
0.0
 11
-16.5114798441
 21
-7.7978476005
 31
0.0
 11
-16.6547035126
 21
-7.7558755242
 31
0.0
 11
-16.7755320911
 21
-7.742978799
 31
0.0
 11
-16.8732579667
 21
-7.7525033527
 31
0.0
 11
-16.9511481494
 21
-7.7787471004
 31
0.0
  0
SPLINE
  5
36A
100
AcDbEntity
  8
RACCORDO
100
AcDbSpline
 62
7
  6
CONTINUOUS
 70
0
 71
3
 72
14
 73
10
 74
8
 42
0.0000001
 43
0.0000001
 44
0.0000000001
 12
0.7551422528
 22
0.3986468
 32
0.0
 13
-0.0000000005
 23
0.8539081292
 33
0.0
 40
0.0
 40
0.0
 40
0.0
 40
0.0
 40
0.0723556463
 40
0.1541907256
 40
0.2500660422
 40
0.3630028441
 40
0.4951250915
 40
0.6463711223
 40
1.0
 40
1.0
 40
1.0
 40
1.0
 10
-11.8581789406
 20
-12.6613846591
 30
0.0
 10
-11.8399660053
 20
-12.6517698768
 30
0.0
 10
-11.8028986185
 20
-12.6277683579
 30
0.0
 10
-11.7509201079
 20
-12.5786243278
 30
0.0
 10
-11.7008174053
 20
-12.5123682882
 30
0.0
 10
-11.6541936683
 20
-12.4268888323
 30
0.0
 10
-11.6140659799
 20
-12.3211272749
 30
0.0
 10
-11.569978306
 20
-12.1449299207
 30
0.0
 10
-11.5587496383
 20
-12.0004042191
 30
0.0
 10
-11.5587496384
 20
-11.8997486946
 30
0.0
 11
-11.8581789406
 21
-12.6613846591
 31
0.0
 11
-11.8062823379
 21
-12.6278564908
 31
0.0
 11
-11.7551754016
 21
-12.5801989092
 31
0.0
 11
-11.7053269982
 21
-12.5152556823
 31
0.0
 11
-11.6586649305
 21
-12.430858571
 31
0.0
 11
-11.6179762777
 21
-12.3256309851
 31
0.0
 11
-11.5861137907
 21
-12.200472845
 31
0.0
 11
-11.5587496384
 21
-11.8997486946
 31
0.0
  0
SPLINE
  5
36B
100
AcDbEntity
  8
RACCORDO
100
AcDbSpline
 62
7
  6
CONTINUOUS
 70
0
 71
3
 72
17
 73
13
 74
11
 42
0.0000001
 43
0.0000001
 44
0.0000000001
 12
-0.0000000021
 22
3.3128496909
 32
0.0
 13
-2.9950870853
 23
-1.4157776753
 33
0.0
 40
0.0
 40
0.0
 40
0.0
 40
0.0
 40
0.1403799117
 40
0.295749548
 40
0.4559415875
 40
0.6107274704
 40
0.749941946
 40
0.8638201447
 40
0.9088710944
 40
0.9455509656
 40
0.9751897746
 40
1.0
 40
1.0
 40
1.0
 40
1.0
 10
-11.5587496384
 20
-11.8997486946
 30
0.0
 10
-11.5587496385
 20
-11.7447295123
 30
0.0
 10
-11.5982438192
 20
-11.4177777899
 30
0.0
 10
-11.748744685
 20
-10.9349586962
 30
0.0
 10
-11.984265257
 20
-10.4693255259
 30
0.0
 10
-12.283407734
 20
-10.0634897571
 30
0.0
 10
-12.6141195633
 20
-9.7538582107
 30
0.0
 10
-12.9016818291
 20
-9.5847347073
 30
0.0
 10
-13.1092377949
 20
-9.5215333674
 30
0.0
 10
-13.2321160517
 20
-9.5071388509
 30
0.0
 10
-13.3331716567
 20
-9.5156504656
 30
0.0
 10
-13.3908446482
 20
-9.5348054656
 30
0.0
 10
-13.4156142434
 20
-9.5465140533
 30
0.0
 11
-11.5587496384
 21
-11.8997486946
 31
0.0
 11
-11.6093386298
 21
-11.4374508729
 31
0.0
 11
-11.760207134
 21
-10.9453416225
 31
0.0
 11
-11.9998355522
 21
-10.4718309285
 31
0.0
 11
-12.3060652702
 21
-10.0605291984
 31
0.0
 11
-12.6464320686
 21
-9.7493174113
 31
0.0
 11
-12.9759459381
 21
-9.5656145535
 31
0.0
 11
-13.1191696066
 21
-9.5236424771
 31
0.0
 11
-13.2399981852
 21
-9.5107457519
 31
0.0
 11
-13.3377240608
 21
-9.5202703057
 31
0.0
 11
-13.4156142434
 21
-9.5465140533
 31
0.0
  0
SPLINE
  5
36C
100
AcDbEntity
  8
RACCORDO
100
AcDbSpline
 62
7
  6
CONTINUOUS
 70
0
 71
3
 72
14
 73
10
 74
8
 42
0.0000001
 43
0.0000001
 44
0.0000000001
 12
0.7551422528
 22
0.3986468
 32
0.0
 13
-0.0000000005
 23
0.8539081292
 33
0.0
 40
0.0
 40
0.0
 40
0.0
 40
0.0
 40
0.0723556463
 40
0.1541907256
 40
0.2500660422
 40
0.3630028441
 40
0.4951250915
 40
0.6463711223
 40
1.0
 40
1.0
 40
1.0
 40
1.0
 10
-8.3226450346
 20
-14.429151612
 30
0.0
 10
-8.3044320994
 20
-14.4195368298
 30
0.0
 10
-8.2673647126
 20
-14.3955353109
 30
0.0
 10
-8.215386202
 20
-14.3463912808
 30
0.0
 10
-8.1652834993
 20
-14.2801352411
 30
0.0
 10
-8.1186597623
 20
-14.1946557852
 30
0.0
 10
-8.0785320739
 20
-14.0888942279
 30
0.0
 10
-8.0344444
 20
-13.9126968737
 30
0.0
 10
-8.0232157324
 20
-13.7681711721
 30
0.0
 10
-8.0232157325
 20
-13.6675156476
 30
0.0
 11
-8.3226450346
 21
-14.429151612
 31
0.0
 11
-8.2707484319
 21
-14.3956234438
 31
0.0
 11
-8.2196414957
 21
-14.3479658621
 31
0.0
 11
-8.1697930923
 21
-14.2830226353
 31
0.0
 11
-8.1231310246
 21
-14.198625524
 31
0.0
 11
-8.0824423717
 21
-14.093397938
 31
0.0
 11
-8.0505798848
 21
-13.968239798
 31
0.0
 11
-8.0232157325
 21
-13.6675156476
 31
0.0
  0
SPLINE
  5
36D
100
AcDbEntity
  8
RACCORDO
100
AcDbSpline
 62
7
  6
CONTINUOUS
 70
0
 71
3
 72
17
 73
13
 74
11
 42
0.0000001
 43
0.0000001
 44
0.0000000001
 12
-0.0000000021
 22
3.3128496909
 32
0.0
 13
-2.9950870853
 23
-1.4157776753
 33
0.0
 40
0.0
 40
0.0
 40
0.0
 40
0.0
 40
0.1403799117
 40
0.295749548
 40
0.4559415875
 40
0.6107274704
 40
0.749941946
 40
0.8638201447
 40
0.9088710944
 40
0.9455509656
 40
0.9751897746
 40
1.0
 40
1.0
 40
1.0
 40
1.0
 10
-8.0232157325
 20
-13.6675156476
 30
0.0
 10
-8.0232157326
 20
-13.5124964653
 30
0.0
 10
-8.0627099133
 20
-13.1855447429
 30
0.0
 10
-8.2132107791
 20
-12.7027256492
 30
0.0
 10
-8.4487313511
 20
-12.2370924789
 30
0.0
 10
-8.7478738281
 20
-11.83125671
 30
0.0
 10
-9.0785856573
 20
-11.5216251637
 30
0.0
 10
-9.3661479232
 20
-11.3525016603
 30
0.0
 10
-9.5737038889
 20
-11.2893003204
 30
0.0
 10
-9.6965821458
 20
-11.2749058039
 30
0.0
 10
-9.7976377508
 20
-11.2834174185
 30
0.0
 10
-9.8553107423
 20
-11.3025724186
 30
0.0
 10
-9.8800803375
 20
-11.3142810063
 30
0.0
 11
-8.0232157325
 21
-13.6675156476
 31
0.0
 11
-8.0738047238
 21
-13.2052178258
 31
0.0
 11
-8.2246732281
 21
-12.7131085755
 31
0.0
 11
-8.4643016463
 21
-12.2395978814
 31
0.0
 11
-8.7705313643
 21
-11.8282961513
 31
0.0
 11
-9.1108981626
 21
-11.5170843643
 31
0.0
 11
-9.4404120322
 21
-11.3333815064
 31
0.0
 11
-9.5836357007
 21
-11.2914094301
 31
0.0
 11
-9.7044642793
 21
-11.2785127049
 31
0.0
 11
-9.8021901548
 21
-11.2880372586
 31
0.0
 11
-9.8800803375
 21
-11.3142810063
 31
0.0
  0
SPLINE
  5
36E
100
AcDbEntity
  8
RACCORDO
100
AcDbSpline
 62
7
  6
CONTINUOUS
 70
0
 71
3
 72
14
 73
10
 74
8
 42
0.0000001
 43
0.0000001
 44
0.0000000001
 12
0.7551422528
 22
0.3986468
 32
0.0
 13
-0.0000000005
 23
0.8539081292
 33
0.0
 40
0.0
 40
0.0
 40
0.0
 40
0.0
 40
0.0723556463
 40
0.1541907256
 40
0.2500660422
 40
0.3630028441
 40
0.4951250915
 40
0.6463711223
 40
1.0
 40
1.0
 40
1.0
 40
1.0
 10
-4.7871111287
 20
-16.196918565
 30
0.0
 10
-4.7688981934
 20
-16.1873037827
 30
0.0
 10
-4.7318308067
 20
-16.1633022639
 30
0.0
 10
-4.679852296
 20
-16.1141582337
 30
0.0
 10
-4.6297495934
 20
-16.0479021941
 30
0.0
 10
-4.5831258564
 20
-15.9624227382
 30
0.0
 10
-4.542998168
 20
-15.8566611809
 30
0.0
 10
-4.4989104941
 20
-15.6804638266
 30
0.0
 10
-4.4876818265
 20
-15.535938125
 30
0.0
 10
-4.4876818265
 20
-15.4352826006
 30
0.0
 11
-4.7871111287
 21
-16.196918565
 31
0.0
 11
-4.735214526
 21
-16.1633903967
 31
0.0
 11
-4.6841075898
 21
-16.1157328151
 31
0.0
 11
-4.6342591863
 21
-16.0507895883
 31
0.0
 11
-4.5875971186
 21
-15.9663924769
 31
0.0
 11
-4.5469084658
 21
-15.861164891
 31
0.0
 11
-4.5150459788
 21
-15.736006751
 31
0.0
 11
-4.4876818265
 21
-15.4352826006
 31
0.0
  0
SPLINE
  5
36F
100
AcDbEntity
  8
RACCORDO
100
AcDbSpline
 62
7
  6
CONTINUOUS
 70
0
 71
3
 72
17
 73
13
 74
11
 42
0.0000001
 43
0.0000001
 44
0.0000000001
 12
-0.0000000021
 22
3.3128496909
 32
0.0
 13
-2.9950870853
 23
-1.4157776753
 33
0.0
 40
0.0
 40
0.0
 40
0.0
 40
0.0
 40
0.1403799117
 40
0.295749548
 40
0.4559415875
 40
0.6107274704
 40
0.749941946
 40
0.8638201447
 40
0.9088710944
 40
0.9455509656
 40
0.9751897746
 40
1.0
 40
1.0
 40
1.0
 40
1.0
 10
-4.4876818265
 20
-15.4352826006
 30
0.0
 10
-4.4876818266
 20
-15.2802634182
 30
0.0
 10
-4.5271760074
 20
-14.9533116959
 30
0.0
 10
-4.6776768731
 20
-14.4704926022
 30
0.0
 10
-4.9131974451
 20
-14.0048594319
 30
0.0
 10
-5.2123399221
 20
-13.599023663
 30
0.0
 10
-5.5430517514
 20
-13.2893921167
 30
0.0
 10
-5.8306140172
 20
-13.1202686132
 30
0.0
 10
-6.038169983
 20
-13.0570672734
 30
0.0
 10
-6.1610482398
 20
-13.0426727569
 30
0.0
 10
-6.2621038449
 20
-13.0511843715
 30
0.0
 10
-6.3197768364
 20
-13.0703393715
 30
0.0
 10
-6.3445464316
 20
-13.0820479593
 30
0.0
 11
-4.4876818265
 21
-15.4352826006
 31
0.0
 11
-4.5382708179
 21
-14.9729847788
 31
0.0
 11
-4.6891393222
 21
-14.4808755285
 31
0.0
 11
-4.9287677403
 21
-14.0073648344
 31
0.0
 11
-5.2349974584
 21
-13.5960631043
 31
0.0
 11
-5.5753642567
 21
-13.2848513173
 31
0.0
 11
-5.9048781263
 21
-13.1011484594
 31
0.0
 11
-6.0481017948
 21
-13.0591763831
 31
0.0
 11
-6.1689303733
 21
-13.0462796578
 31
0.0
 11
-6.2666562489
 21
-13.0558042116
 31
0.0
 11
-6.3445464316
 21
-13.0820479593
 31
0.0
  0
SPLINE
  5
370
100
AcDbEntity
  8
RACCORDO
100
AcDbSpline
 62
7
  6
CONTINUOUS
 70
0
 71
3
 72
14
 73
10
 74
8
 42
0.0000001
 43
0.0000001
 44
0.0000000001
 12
0.7551422528
 22
0.3986468
 32
0.0
 13
-0.0000000005
 23
0.8539081292
 33
0.0
 40
0.0
 40
0.0
 40
0.0
 40
0.0
 40
0.0723556463
 40
0.1541907256
 40
0.2500660422
 40
0.3630028441
 40
0.4951250915
 40
0.6463711223
 40
1.0
 40
1.0
 40
1.0
 40
1.0
 10
-1.2515772228
 20
-17.964685518
 30
0.0
 10
-1.2333642875
 20
-17.9550707357
 30
0.0
 10
-1.1962969007
 20
-17.9310692168
 30
0.0
 10
-1.1443183901
 20
-17.8819251867
 30
0.0
 10
-1.0942156875
 20
-17.8156691471
 30
0.0
 10
-1.0475919505
 20
-17.7301896912
 30
0.0
 10
-1.0074642621
 20
-17.6244281338
 30
0.0
 10
-0.9633765882
 20
-17.4482307796
 30
0.0
 10
-0.9521479206
 20
-17.303705078
 30
0.0
 10
-0.9521479206
 20
-17.2030495535
 30
0.0
 11
-1.2515772228
 21
-17.964685518
 31
0.0
 11
-1.1996806201
 21
-17.9311573497
 31
0.0
 11
-1.1485736838
 21
-17.8834997681
 31
0.0
 11
-1.0987252804
 21
-17.8185565412
 31
0.0
 11
-1.0520632127
 21
-17.7341594299
 31
0.0
 11
-1.0113745599
 21
-17.628931844
 31
0.0
 11
-0.9795120729
 21
-17.5037737039
 31
0.0
 11
-0.9521479206
 21
-17.2030495535
 31
0.0
  0
SPLINE
  5
371
100
AcDbEntity
  8
RACCORDO
100
AcDbSpline
 62
7
  6
CONTINUOUS
 70
0
 71
3
 72
17
 73
13
 74
11
 42
0.0000001
 43
0.0000001
 44
0.0000000001
 12
-0.0000000021
 22
3.3128496909
 32
0.0
 13
-2.9950870853
 23
-1.4157776753
 33
0.0
 40
0.0
 40
0.0
 40
0.0
 40
0.0
 40
0.1403799117
 40
0.295749548
 40
0.4559415875
 40
0.6107274704
 40
0.749941946
 40
0.8638201447
 40
0.9088710944
 40
0.9455509656
 40
0.9751897746
 40
1.0
 40
1.0
 40
1.0
 40
1.0
 10
-0.9521479206
 20
-17.2030495535
 30
0.0
 10
-0.9521479207
 20
-17.0480303712
 30
0.0
 10
-0.9916421014
 20
-16.7210786488
 30
0.0
 10
-1.1421429672
 20
-16.2382595551
 30
0.0
 10
-1.3776635392
 20
-15.7726263848
 30
0.0
 10
-1.6768060162
 20
-15.366790616
 30
0.0
 10
-2.0075178455
 20
-15.0571590696
 30
0.0
 10
-2.2950801113
 20
-14.8880355662
 30
0.0
 10
-2.5026360771
 20
-14.8248342263
 30
0.0
 10
-2.6255143339
 20
-14.8104397098
 30
0.0
 10
-2.7265699389
 20
-14.8189513245
 30
0.0
 10
-2.7842429304
 20
-14.8381063245
 30
0.0
 10
-2.8090125256
 20
-14.8498149122
 30
0.0
 11
-0.9521479206
 21
-17.2030495535
 31
0.0
 11
-1.002736912
 21
-16.7407517318
 31
0.0
 11
-1.1536054162
 21
-16.2486424814
 31
0.0
 11
-1.3932338344
 21
-15.7751317873
 31
0.0
 11
-1.6994635524
 21
-15.3638300573
 31
0.0
 11
-2.0398303508
 21
-15.0526182702
 31
0.0
 11
-2.3693442203
 21
-14.8689154124
 31
0.0
 11
-2.5125678888
 21
-14.826943336
 31
0.0
 11
-2.6333964674
 21
-14.8140466108
 31
0.0
 11
-2.731122343
 21
-14.8235711646
 31
0.0
 11
-2.8090125256
 21
-14.8498149122
 31
0.0
  0
SPLINE
  5
372
100
AcDbEntity
  8
RACCORDO
100
AcDbSpline
 62
7
  6
CONTINUOUS
 70
0
 71
3
 72
14
 73
10
 74
8
 42
0.0000001
 43
0.0000001
 44
0.0000000001
 12
0.7551422528
 22
0.3986468
 32
0.0
 13
-0.0000000005
 23
0.8539081292
 33
0.0
 40
0.0
 40
0.0
 40
0.0
 40
0.0
 40
0.0723556463
 40
0.1541907256
 40
0.2500660422
 40
0.3630028441
 40
0.4951250915
 40
0.6463711223
 40
1.0
 40
1.0
 40
1.0
 40
1.0
 10
2.2839566832
 20
-19.7324524709
 30
0.0
 10
2.3021696184
 20
-19.7228376887
 30
0.0
 10
2.3392370052
 20
-19.6988361698
 30
0.0
 10
2.3912155158
 20
-19.6496921397
 30
0.0
 10
2.4413182185
 20
-19.5834361
 30
0.0
 10
2.4879419555
 20
-19.4979566441
 30
0.0
 10
2.5280696439
 20
-19.3921950868
 30
0.0
 10
2.5721573178
 20
-19.2159977326
 30
0.0
 10
2.5833859854
 20
-19.071472031
 30
0.0
 10
2.5833859853
 20
-18.9708165065
 30
0.0
 11
2.2839566832
 21
-19.7324524709
 31
0.0
 11
2.3358532859
 21
-19.6989243027
 31
0.0
 11
2.3869602221
 21
-19.651266721
 31
0.0
 11
2.4368086255
 21
-19.5863234942
 31
0.0
 11
2.4834706932
 21
-19.5019263829
 31
0.0
 11
2.5241593461
 21
-19.3966987969
 31
0.0
 11
2.556021833
 21
-19.2715406569
 31
0.0
 11
2.5833859853
 21
-18.9708165065
 31
0.0
  0
SPLINE
  5
373
100
AcDbEntity
  8
RACCORDO
100
AcDbSpline
 62
7
  6
CONTINUOUS
 70
0
 71
3
 72
17
 73
13
 74
11
 42
0.0000001
 43
0.0000001
 44
0.0000000001
 12
-0.0000000021
 22
3.3128496909
 32
0.0
 13
-2.9950870853
 23
-1.4157776753
 33
0.0
 40
0.0
 40
0.0
 40
0.0
 40
0.0
 40
0.1403799117
 40
0.295749548
 40
0.4559415875
 40
0.6107274704
 40
0.749941946
 40
0.8638201447
 40
0.9088710944
 40
0.9455509656
 40
0.9751897746
 40
1.0
 40
1.0
 40
1.0
 40
1.0
 10
2.5833859853
 20
-18.9708165065
 30
0.0
 10
2.5833859852
 20
-18.8157973241
 30
0.0
 10
2.5438918045
 20
-18.4888456018
 30
0.0
 10
2.3933909387
 20
-18.0060265081
 30
0.0
 10
2.1578703667
 20
-17.5403933378
 30
0.0
 10
1.8587278897
 20
-17.1345575689
 30
0.0
 10
1.5280160605
 20
-16.8249260226
 30
0.0
 10
1.2404537946
 20
-16.6558025192
 30
0.0
 10
1.0328978289
 20
-16.5926011793
 30
0.0
 10
0.910019572
 20
-16.5782066628
 30
0.0
 10
0.808963967
 20
-16.5867182774
 30
0.0
 10
0.7512909755
 20
-16.6058732775
 30
0.0
 10
0.7265213803
 20
-16.6175818652
 30
0.0
 11
2.5833859853
 21
-18.9708165065
 31
0.0
 11
2.532796994
 21
-18.5085186847
 31
0.0
 11
2.3819284897
 21
-18.0164094344
 31
0.0
 11
2.1423000715
 21
-17.5428987403
 31
0.0
 11
1.8360703535
 21
-17.1315970102
 31
0.0
 11
1.4957035552
 21
-16.8203852232
 31
0.0
 11
1.1661896856
 21
-16.6366823653
 31
0.0
 11
1.0229660171
 21
-16.594710289
 31
0.0
 11
0.9021374385
 21
-16.5818135638
 31
0.0
 11
0.804411563
 21
-16.5913381175
 31
0.0
 11
0.7265213803
 21
-16.6175818652
 31
0.0
  0
SPLINE
  5
374
100
AcDbEntity
  8
DRAFT
100
AcDbSpline
 62
7
  6
CONTINUOUS
 70
0
 71
3
 72
9
 73
5
 74
3
 42
0.0000001
 43
0.0000001
 44
0.0000000001
 12
-0.0893590989
 22
-0.0907815454
 32
0.0
 13
-0.0730392195
 23
-0.1043628763
 33
0.0
 40
0.0
 40
0.0
 40
0.0
 40
0.0
 40
0.246213364
 40
1.0
 40
1.0
 40
1.0
 40
1.0
 10
-2.6364227955
 20
-14.8144388998
 30
0.0
 10
-2.643756597
 20
-14.821889443
 30
0.0
 10
-2.6728785414
 20
-14.8527996052
 30
0.0
 10
-2.6993147881
 20
-14.886218043
 30
0.0
 10
-2.7176667839
 20
-14.9124404901
 30
0.0
 11
-2.6364227955
 21
-14.8144388998
 31
0.0
 11
-2.6579342111
 21
-14.8372624873
 31
0.0
 11
-2.7176667839
 21
-14.9124404901
 31
0.0
  0
SPLINE
  5
375
100
AcDbEntity
  8
DRAFT
100
AcDbSpline
 62
7
  6
CONTINUOUS
 70
0
 71
3
 72
9
 73
5
 74
3
 42
0.0000001
 43
0.0000001
 44
0.0000000001
 12
-0.4257426227
 22
-0.6083269372
 32
0.0
 13
0.0
 23
-0.742508211
 33
0.0
 40
0.0
 40
0.0
 40
0.0
 40
0.0
 40
0.4646890961
 40
1.0
 40
1.0
 40
1.0
 40
1.0
 10
-2.7176667839
 20
-14.9124404901
 30
0.0
 10
-2.7836127688
 20
-15.0066681217
 30
0.0
 10
-2.882653039
 20
-15.2398979102
 30
0.0
 10
-2.9085616187
 20
-15.4887984012
 30
0.0
 10
-2.9085616187
 20
-15.6212893151
 30
0.0
 11
-2.7176667839
 21
-14.9124404901
 31
0.0
 11
-2.8598668745
 21
-15.226810669
 31
0.0
 11
-2.9085616187
 21
-15.6212893151
 31
0.0
  0
SPLINE
  5
376
100
AcDbEntity
  8
DRAFT
100
AcDbSpline
 62
7
  6
CONTINUOUS
 70
0
 71
3
 72
9
 73
5
 74
3
 42
0.0000001
 43
0.0000001
 44
0.0000000001
 12
-0.0893590989
 22
-0.0907815454
 32
0.0
 13
-0.0730392195
 23
-0.1043628763
 33
0.0
 40
0.0
 40
0.0
 40
0.0
 40
0.0
 40
0.246213364
 40
1.0
 40
1.0
 40
1.0
 40
1.0
 10
0.8991111104
 20
-16.5822058528
 30
0.0
 10
0.8917773089
 20
-16.589656396
 30
0.0
 10
0.8626553645
 20
-16.6205665581
 30
0.0
 10
0.8362191178
 20
-16.6539849959
 30
0.0
 10
0.817867122
 20
-16.6802074431
 30
0.0
 11
0.8991111104
 21
-16.5822058528
 31
0.0
 11
0.8775996949
 21
-16.6050294402
 31
0.0
 11
0.817867122
 21
-16.6802074431
 31
0.0
  0
SPLINE
  5
377
100
AcDbEntity
  8
DRAFT
100
AcDbSpline
 62
7
  6
CONTINUOUS
 70
0
 71
3
 72
9
 73
5
 74
3
 42
0.0000001
 43
0.0000001
 44
0.0000000001
 12
-0.4257426227
 22
-0.6083269372
 32
0.0
 13
0.0
 23
-0.742508211
 33
0.0
 40
0.0
 40
0.0
 40
0.0
 40
0.0
 40
0.4646890961
 40
1.0
 40
1.0
 40
1.0
 40
1.0
 10
0.817867122
 20
-16.6802074431
 30
0.0
 10
0.7519211372
 20
-16.7744350746
 30
0.0
 10
0.652880867
 20
-17.0076648632
 30
0.0
 10
0.6269722872
 20
-17.2565653542
 30
0.0
 10
0.6269722872
 20
-17.389056268
 30
0.0
 11
0.817867122
 21
-16.6802074431
 31
0.0
 11
0.6756670314
 21
-16.994577622
 31
0.0
 11
0.6269722872
 21
-17.389056268
 31
0.0
  0
SPLINE
  5
378
100
AcDbEntity
  8
DRAFT
100
AcDbSpline
 62
7
  6
CONTINUOUS
 70
0
 71
3
 72
9
 73
5
 74
3
 42
0.0000001
 43
0.0000001
 44
0.0000000001
 12
-0.0893590989
 22
-0.0907815454
 32
0.0
 13
-0.0730392195
 23
-0.1043628763
 33
0.0
 40
0.0
 40
0.0
 40
0.0
 40
0.0
 40
0.246213364
 40
1.0
 40
1.0
 40
1.0
 40
1.0
 10
-6.1719567015
 20
-13.0466719468
 30
0.0
 10
-6.1792905029
 20
-13.0541224901
 30
0.0
 10
-6.2084124473
 20
-13.0850326522
 30
0.0
 10
-6.234848694
 20
-13.11845109
 30
0.0
 10
-6.2532006899
 20
-13.1446735372
 30
0.0
 11
-6.1719567015
 21
-13.0466719468
 31
0.0
 11
-6.193468117
 21
-13.0694955343
 31
0.0
 11
-6.2532006899
 21
-13.1446735372
 31
0.0
  0
SPLINE
  5
379
100
AcDbEntity
  8
DRAFT
100
AcDbSpline
 62
7
  6
CONTINUOUS
 70
0
 71
3
 72
9
 73
5
 74
3
 42
0.0000001
 43
0.0000001
 44
0.0000000001
 12
-0.4257426227
 22
-0.6083269372
 32
0.0
 13
0.0
 23
-0.742508211
 33
0.0
 40
0.0
 40
0.0
 40
0.0
 40
0.0
 40
0.4646890961
 40
1.0
 40
1.0
 40
1.0
 40
1.0
 10
-6.2532006899
 20
-13.1446735372
 30
0.0
 10
-6.3191466747
 20
-13.2389011687
 30
0.0
 10
-6.4181869449
 20
-13.4721309572
 30
0.0
 10
-6.4440955246
 20
-13.7210314482
 30
0.0
 10
-6.4440955246
 20
-13.8535223621
 30
0.0
 11
-6.2532006899
 21
-13.1446735372
 31
0.0
 11
-6.3954007805
 21
-13.4590437161
 31
0.0
 11
-6.4440955246
 21
-13.8535223621
 31
0.0
  0
SPLINE
  5
37A
100
AcDbEntity
  8
DRAFT
100
AcDbSpline
 62
7
  6
CONTINUOUS
 70
0
 71
3
 72
9
 73
5
 74
3
 42
0.0000001
 43
0.0000001
 44
0.0000000001
 12
-0.0893590989
 22
-0.0907815454
 32
0.0
 13
-0.0730392195
 23
-0.1043628763
 33
0.0
 40
0.0
 40
0.0
 40
0.0
 40
0.0
 40
0.246213364
 40
1.0
 40
1.0
 40
1.0
 40
1.0
 10
-9.7074906074
 20
-11.2789049939
 30
0.0
 10
-9.7148244088
 20
-11.2863555371
 30
0.0
 10
-9.7439463533
 20
-11.3172656992
 30
0.0
 10
-9.7703826
 20
-11.350684137
 30
0.0
 10
-9.7887345958
 20
-11.3769065842
 30
0.0
 11
-9.7074906074
 21
-11.2789049939
 31
0.0
 11
-9.7290020229
 21
-11.3017285813
 31
0.0
 11
-9.7887345958
 21
-11.3769065842
 31
0.0
  0
SPLINE
  5
37B
100
AcDbEntity
  8
DRAFT
100
AcDbSpline
 62
7
  6
CONTINUOUS
 70
0
 71
3
 72
9
 73
5
 74
3
 42
0.0000001
 43
0.0000001
 44
0.0000000001
 12
-0.4257426227
 22
-0.6083269372
 32
0.0
 13
0.0
 23
-0.742508211
 33
0.0
 40
0.0
 40
0.0
 40
0.0
 40
0.0
 40
0.4646890961
 40
1.0
 40
1.0
 40
1.0
 40
1.0
 10
-9.7887345958
 20
-11.3769065842
 30
0.0
 10
-9.8546805806
 20
-11.4711342157
 30
0.0
 10
-9.9537208508
 20
-11.7043640043
 30
0.0
 10
-9.9796294306
 20
-11.9532644953
 30
0.0
 10
-9.9796294306
 20
-12.0857554091
 30
0.0
 11
-9.7887345958
 21
-11.3769065842
 31
0.0
 11
-9.9309346864
 21
-11.6912767631
 31
0.0
 11
-9.9796294306
 21
-12.0857554091
 31
0.0
  0
SPLINE
  5
37C
100
AcDbEntity
  8
DRAFT
100
AcDbSpline
 62
7
  6
CONTINUOUS
 70
0
 71
3
 72
9
 73
5
 74
3
 42
0.0000001
 43
0.0000001
 44
0.0000000001
 12
-0.0893590989
 22
-0.0907815454
 32
0.0
 13
-0.0730392195
 23
-0.1043628763
 33
0.0
 40
0.0
 40
0.0
 40
0.0
 40
0.0
 40
0.246213364
 40
1.0
 40
1.0
 40
1.0
 40
1.0
 10
-13.2430245133
 20
-9.5111380409
 30
0.0
 10
-13.2503583148
 20
-9.5185885841
 30
0.0
 10
-13.2794802592
 20
-9.5494987463
 30
0.0
 10
-13.3059165059
 20
-9.5829171841
 30
0.0
 10
-13.3242685017
 20
-9.6091396312
 30
0.0
 11
-13.2430245133
 21
-9.5111380409
 31
0.0
 11
-13.2645359289
 21
-9.5339616284
 31
0.0
 11
-13.3242685017
 21
-9.6091396312
 31
0.0
  0
SPLINE
  5
37D
100
AcDbEntity
  8
DRAFT
100
AcDbSpline
 62
7
  6
CONTINUOUS
 70
0
 71
3
 72
9
 73
5
 74
3
 42
0.0000001
 43
0.0000001
 44
0.0000000001
 12
-0.4257426227
 22
-0.6083269372
 32
0.0
 13
0.0
 23
-0.742508211
 33
0.0
 40
0.0
 40
0.0
 40
0.0
 40
0.0
 40
0.4646890961
 40
1.0
 40
1.0
 40
1.0
 40
1.0
 10
-13.3242685017
 20
-9.6091396312
 30
0.0
 10
-13.3902144866
 20
-9.7033672628
 30
0.0
 10
-13.4892547568
 20
-9.9365970513
 30
0.0
 10
-13.5151633365
 20
-10.1854975423
 30
0.0
 10
-13.5151633365
 20
-10.3179884562
 30
0.0
 11
-13.3242685017
 21
-9.6091396312
 31
0.0
 11
-13.4664685923
 21
-9.9235098101
 31
0.0
 11
-13.5151633365
 21
-10.3179884562
 31
0.0
  0
SPLINE
  5
37E
100
AcDbEntity
  8
DRAFT
100
AcDbSpline
 62
7
  6
CONTINUOUS
 70
0
 71
3
 72
9
 73
5
 74
3
 42
0.0000001
 43
0.0000001
 44
0.0000000001
 12
-0.0893590989
 22
-0.0907815454
 32
0.0
 13
-0.0730392195
 23
-0.1043628763
 33
0.0
 40
0.0
 40
0.0
 40
0.0
 40
0.0
 40
0.246213364
 40
1.0
 40
1.0
 40
1.0
 40
1.0
 10
-16.7785584193
 20
-7.7433710879
 30
0.0
 10
-16.7858922207
 20
-7.7508216312
 30
0.0
 10
-16.8150141651
 20
-7.7817317933
 30
0.0
 10
-16.8414504118
 20
-7.8151502311
 30
0.0
 10
-16.8598024077
 20
-7.8413726783
 30
0.0
 11
-16.7785584193
 21
-7.7433710879
 31
0.0
 11
-16.8000698348
 21
-7.7661946754
 31
0.0
 11
-16.8598024077
 21
-7.8413726783
 31
0.0
  0
SPLINE
  5
37F
100
AcDbEntity
  8
DRAFT
100
AcDbSpline
 62
7
  6
CONTINUOUS
 70
0
 71
3
 72
9
 73
5
 74
3
 42
0.0000001
 43
0.0000001
 44
0.0000000001
 12
-0.4257426227
 22
-0.6083269372
 32
0.0
 13
0.0
 23
-0.742508211
 33
0.0
 40
0.0
 40
0.0
 40
0.0
 40
0.0
 40
0.4646890961
 40
1.0
 40
1.0
 40
1.0
 40
1.0
 10
-16.8598024077
 20
-7.8413726783
 30
0.0
 10
-16.9257483925
 20
-7.9356003098
 30
0.0
 10
-17.0247886627
 20
-8.1688300983
 30
0.0
 10
-17.0506972424
 20
-8.4177305893
 30
0.0
 10
-17.0506972424
 20
-8.5502215032
 30
0.0
 11
-16.8598024077
 21
-7.8413726783
 31
0.0
 11
-17.0020024983
 21
-8.1557428572
 31
0.0
 11
-17.0506972424
 21
-8.5502215032
 31
0.0
  0
SPLINE
  5
380
100
AcDbEntity
  8
RACCORDO
100
AcDbSpline
 62
253
  6
CONTINUOUS
 70
0
 71
3
 72
9
 73
5
 74
3
 42
0.0000001
 43
0.0000001
 44
0.0000000001
 12
-0.0800019886
 22
0.0399210705
 32
0.0
 13
-0.0806477848
 23
-0.0385998039
 33
0.0
 40
0.0
 40
0.0
 40
0.0
 40
0.0
 40
0.4653191518
 40
1.0
 40
1.0
 40
1.0
 40
1.0
 10
-10.0324087838
 20
24.2286115354
 30
0.0
 10
-10.044817603
 20
24.2348035483
 30
0.0
 10
-10.0757264896
 20
24.2402021698
 30
0.0
 10
-10.1049835664
 20
24.2310114278
 30
0.0
 10
-10.1193571751
 20
24.2241319025
 30
0.0
 11
-10.0324087838
 21
24.2286115354
 31
0.0
 11
-10.0732249438
 21
24.2366687954
 31
0.0
 11
-10.1193571751
 21
24.2241319025
 31
0.0
  0
SPLINE
  5
381
100
AcDbEntity
  8
RACCORDO
100
AcDbSpline
 62
253
  6
CONTINUOUS
 70
0
 71
3
 72
9
 73
5
 74
3
 42
0.0000001
 43
0.0000001
 44
0.0000000001
 12
0.0
 22
-0.4113480881
 32
0.0
 13
-0.0820944688
 23
-0.4030728815
 33
0.0
 40
0.0
 40
0.0
 40
0.0
 40
0.0
 40
0.2593490725
 40
1.0
 40
1.0
 40
1.0
 40
1.0
 10
-14.9478369349
 20
-10.3087584381
 30
0.0
 10
-14.9478369349
 20
-10.3443193532
 30
0.0
 10
-14.9509370759
 20
-10.4813966215
 30
0.0
 10
-14.9666989089
 20
-10.6183511772
 30
0.0
 10
-14.9869666904
 20
-10.7178632784
 30
0.0
 11
-14.9478369349
 21
-10.3087584381
 31
0.0
 11
-14.9502966223
 21
-10.4154128241
 31
0.0
 11
-14.9869666904
 21
-10.7178632784
 31
0.0
  0
SPLINE
  5
382
100
AcDbEntity
  8
RACCORDO
100
AcDbSpline
 62
253
  6
CONTINUOUS
 70
0
 71
3
 72
20
 73
16
 74
14
 42
0.0000001
 43
0.0000001
 44
0.0000000001
 12
-1.0648408532
 22
-5.228226425
 32
0.0
 13
0.0
 23
5.3355634748
 33
0.0
 40
0.0
 40
0.0
 40
0.0
 40
0.0
 40
0.0571785184
 40
0.1093764453
 40
0.1578679009
 40
0.2047563121
 40
0.2525723478
 40
0.303594848
 40
0.3593407188
 40
0.4204383308
 40
0.4867475355
 40
0.5575437024
 40
0.707524605
 40
0.8590478365
 40
1.0
 40
1.0
 40
1.0
 40
1.0
 10
-14.9869666904
 20
-10.7178632784
 30
0.0
 10
-15.0072620311
 20
-10.817510692
 30
0.0
 10
-15.0627626586
 20
-11.0055015044
 30
0.0
 10
-15.2000454116
 20
-11.2534137834
 30
0.0
 10
-15.3847830586
 20
-11.44476325
 30
0.0
 10
-15.6110593047
 20
-11.5699802104
 30
0.0
 10
-15.8685114197
 20
-11.6229628849
 30
0.0
 10
-16.1456599442
 20
-11.6033398305
 30
0.0
 10
-16.4328688308
 20
-11.5142197794
 30
0.0
 10
-16.7215646425
 20
-11.3598919633
 30
0.0
 10
-17.0032326896
 20
-11.1457825216
 30
0.0
 10
-17.3644593399
 20
-10.783159605
 30
0.0
 10
-17.7411479309
 20
-10.2306116783
 30
0.0
 10
-18.0370776491
 20
-9.495724738
 30
0.0
 10
-18.1175825677
 20
-8.9745720269
 30
0.0
 10
-18.1175825677
 20
-8.7238856217
 30
0.0
 11
-14.9869666904
 21
-10.7178632784
 31
0.0
 11
-15.0761158384
 21
-11.0096268823
 31
0.0
 11
-15.2136106075
 21
-11.2518260144
 31
0.0
 11
-15.3948855748
 21
-11.4364342633
 31
0.0
 11
-15.6139227269
 21
-11.5573094226
 31
0.0
 11
-15.8634524169
 21
-11.6104502854
 31
0.0
 11
-16.1351941522
 21
-11.5940898215
 31
0.0
 11
-16.4201302214
 21
-11.5087704699
 31
0.0
 11
-16.7088041007
 21
-11.3573208303
 31
0.0
 11
-16.991633447
 21
-11.1447652903
 31
0.0
 11
-17.2592298015
 21
-10.8781611528
 31
0.0
 11
-17.7140007688
 21
-10.2197117452
 31
0.0
 11
-18.0132519346
 21
-9.4686729622
 31
0.0
 11
-18.1175825677
 21
-8.7238856217
 31
0.0
  0
SPLINE
  5
383
100
AcDbEntity
  8
RACCORDO
100
AcDbSpline
 62
253
  6
CONTINUOUS
 70
0
 71
3
 72
15
 73
11
 74
9
 42
0.0000001
 43
0.0000001
 44
0.0000000001
 12
0.0
 22
2.4160984944
 32
0.0
 13
2.1819688705
 23
-1.0375662786
 33
0.0
 40
0.0
 40
0.0
 40
0.0
 40
0.0
 40
0.1491146908
 40
0.2848603945
 40
0.4080027149
 40
0.5217788575
 40
0.63174424
 40
0.74459354
 40
0.8661534094
 40
1.0
 40
1.0
 40
1.0
 40
1.0
 10
-18.1175825677
 20
-8.7238856217
 30
0.0
 10
-18.1175825677
 20
-8.6037936951
 30
0.0
 10
-18.1003219527
 20
-8.3737373914
 30
0.0
 10
-18.0149036687
 20
-8.0541312033
 30
0.0
 10
-17.8724552495
 20
-7.7863488475
 30
0.0
 10
-17.6758132662
 20
-7.5820304091
 30
0.0
 10
-17.4320252563
 20
-7.4529723038
 30
0.0
 10
-17.1541953143
 20
-7.4064298479
 30
0.0
 10
-16.8564829868
 20
-7.4417958119
 30
0.0
 10
-16.6617899059
 20
-7.51349859
 30
0.0
 10
-16.5644402078
 20
-7.5597901597
 30
0.0
 11
-18.1175825677
 21
-8.7238856217
 31
0.0
 11
-18.0878999003
 21
-8.3648346827
 31
0.0
 11
-17.9999595198
 21
-8.0488693622
 31
0.0
 11
-17.8570572873
 21
-7.7879106151
 31
0.0
 11
-17.6645460608
 21
-7.59168029
 31
0.0
 11
-17.4296377182
 21
-7.4675523065
 31
0.0
 11
-17.1611318616
 21
-7.4201670035
 31
0.0
 11
-16.8690862115
 21
-7.4513020466
 31
0.0
 11
-16.5644402078
 21
-7.5597901597
 31
0.0
  0
SPLINE
  5
384
100
AcDbEntity
  8
RACCORDO
100
AcDbSpline
 62
253
  6
CONTINUOUS
 70
0
 71
3
 72
15
 73
11
 74
9
 42
0.0000001
 43
0.0000001
 44
0.0000000001
 12
3.010688499
 22
-1.4316376848
 32
0.0
 13
0.0
 23
-3.3337413965
 33
0.0
 40
0.0
 40
0.0
 40
0.0
 40
0.0
 40
0.1095943673
 40
0.2286894927
 40
0.3553948083
 40
0.4870403613
 40
0.6205089504
 40
0.7525210408
 40
0.8799360628
 40
1.0
 40
1.0
 40
1.0
 40
1.0
 10
-16.5644402078
 20
-7.5597901597
 30
0.0
 10
-16.4544553741
 20
-7.6120899684
 30
0.0
 10
-16.2359442428
 20
-7.7450630809
 30
0.0
 10
-15.9354319531
 20
-8.0034026622
 30
0.0
 10
-15.658095848
 20
-8.3197727828
 30
0.0
 10
-15.4145527761
 20
-8.682033456
 30
0.0
 10
-15.2140251544
 20
-9.0763460865
 30
0.0
 10
-15.0641919988
 20
-9.4876412761
 30
0.0
 10
-14.9708325394
 20
-9.9000443128
 30
0.0
 10
-14.9478369349
 20
-10.1753377323
 30
0.0
 10
-14.9478369349
 20
-10.3087584381
 30
0.0
 11
-16.5644402078
 21
-7.5597901597
 31
0.0
 11
-16.2507951963
 21
-7.7471780181
 31
0.0
 11
-15.9482606813
 21
-8.0042919109
 31
0.0
 11
-15.6687602153
 21
-8.3209993116
 31
0.0
 11
-15.4233095712
 21
-8.6848163198
 31
0.0
 11
-15.2215826906
 21
-9.0814100099
 31
0.0
 11
-15.0715306886
 21
-9.4951336805
 31
0.0
 11
-14.9790669535
 21
-9.9097165246
 31
0.0
 11
-14.9478369349
 21
-10.3087584381
 31
0.0
  0
SPLINE
  5
385
100
AcDbEntity
  8
RACCORDO
100
AcDbSpline
 62
253
  6
CONTINUOUS
 70
0
 71
3
 72
9
 73
5
 74
3
 42
0.0000001
 43
0.0000001
 44
0.0000000001
 12
0.0
 22
-0.4113480881
 32
0.0
 13
-0.0820944688
 23
-0.4030728815
 33
0.0
 40
0.0
 40
0.0
 40
0.0
 40
0.0
 40
0.2593490725
 40
1.0
 40
1.0
 40
1.0
 40
1.0
 10
-11.412303029
 20
-12.0765253911
 30
0.0
 10
-11.412303029
 20
-12.1120863061
 30
0.0
 10
-11.4154031699
 20
-12.2491635745
 30
0.0
 10
-11.4311650029
 20
-12.3861181302
 30
0.0
 10
-11.4514327844
 20
-12.4856302314
 30
0.0
 11
-11.412303029
 21
-12.0765253911
 31
0.0
 11
-11.4147627163
 21
-12.1831797771
 31
0.0
 11
-11.4514327844
 21
-12.4856302314
 31
0.0
  0
SPLINE
  5
386
100
AcDbEntity
  8
RACCORDO
100
AcDbSpline
 62
253
  6
CONTINUOUS
 70
0
 71
3
 72
20
 73
16
 74
14
 42
0.0000001
 43
0.0000001
 44
0.0000000001
 12
-1.0648408532
 22
-5.228226425
 32
0.0
 13
0.0
 23
5.3355634748
 33
0.0
 40
0.0
 40
0.0
 40
0.0
 40
0.0
 40
0.0571785184
 40
0.1093764453
 40
0.1578679009
 40
0.2047563121
 40
0.2525723478
 40
0.303594848
 40
0.3593407188
 40
0.4204383308
 40
0.4867475355
 40
0.5575437024
 40
0.707524605
 40
0.8590478365
 40
1.0
 40
1.0
 40
1.0
 40
1.0
 10
-11.4514327844
 20
-12.4856302314
 30
0.0
 10
-11.4717281252
 20
-12.585277645
 30
0.0
 10
-11.5272287527
 20
-12.7732684574
 30
0.0
 10
-11.6645115056
 20
-13.0211807364
 30
0.0
 10
-11.8492491527
 20
-13.212530203
 30
0.0
 10
-12.0755253988
 20
-13.3377471634
 30
0.0
 10
-12.3329775137
 20
-13.3907298378
 30
0.0
 10
-12.6101260382
 20
-13.3711067834
 30
0.0
 10
-12.8973349248
 20
-13.2819867323
 30
0.0
 10
-13.1860307366
 20
-13.1276589162
 30
0.0
 10
-13.4676987837
 20
-12.9135494745
 30
0.0
 10
-13.8289254339
 20
-12.5509265579
 30
0.0
 10
-14.205614025
 20
-11.9983786313
 30
0.0
 10
-14.5015437431
 20
-11.2634916909
 30
0.0
 10
-14.5820486618
 20
-10.7423389799
 30
0.0
 10
-14.5820486618
 20
-10.4916525747
 30
0.0
 11
-11.4514327844
 21
-12.4856302314
 31
0.0
 11
-11.5405819324
 21
-12.7773938352
 31
0.0
 11
-11.6780767016
 21
-13.0195929674
 31
0.0
 11
-11.8593516689
 21
-13.2042012162
 31
0.0
 11
-12.0783888209
 21
-13.3250763756
 31
0.0
 11
-12.327918511
 21
-13.3782172384
 31
0.0
 11
-12.5996602463
 21
-13.3618567745
 31
0.0
 11
-12.8845963154
 21
-13.2765374229
 31
0.0
 11
-13.1732701947
 21
-13.1250877833
 31
0.0
 11
-13.456099541
 21
-12.9125322433
 31
0.0
 11
-13.7236958956
 21
-12.6459281058
 31
0.0
 11
-14.1784668629
 21
-11.9874786982
 31
0.0
 11
-14.4777180287
 21
-11.2364399152
 31
0.0
 11
-14.5820486618
 21
-10.4916525747
 31
0.0
  0
SPLINE
  5
387
100
AcDbEntity
  8
RACCORDO
100
AcDbSpline
 62
253
  6
CONTINUOUS
 70
0
 71
3
 72
15
 73
11
 74
9
 42
0.0000001
 43
0.0000001
 44
0.0000000001
 12
0.0
 22
2.156759391
 32
0.0
 13
2.0747837201
 23
-0.5889682383
 33
0.0
 40
0.0
 40
0.0
 40
0.0
 40
0.0
 40
0.1510825208
 40
0.2900707283
 40
0.4172594272
 40
0.5348167378
 40
0.6466709811
 40
0.7580965595
 40
0.8744710854
 40
1.0
 40
1.0
 40
1.0
 40
1.0
 10
-14.5820486618
 20
-10.4916525747
 30
0.0
 10
-14.5820486618
 20
-10.3830363595
 30
0.0
 10
-14.5678257742
 20
-10.1740467926
 30
0.0
 10
-14.4982662109
 20
-9.8806397912
 30
0.0
 10
-14.3823585294
 20
-9.6279325098
 30
0.0
 10
-14.2222423643
 20
-9.4241526362
 30
0.0
 10
-14.0217726485
 20
-9.2775282851
 30
0.0
 10
-13.7883859601
 20
-9.1948922917
 30
0.0
 10
-13.5320602895
 20
-9.1788180827
 30
0.0
 10
-13.3593256582
 20
-9.2102365511
 30
0.0
 10
-13.2725105421
 20
-9.2348807323
 30
0.0
 11
-14.5820486618
 21
-10.4916525747
 31
0.0
 11
-14.5579729407
 21
-10.1666945782
 31
0.0
 11
-14.4864764488
 21
-9.8755815756
 31
0.0
 11
-14.3697360421
 21
-9.6273465508
 31
0.0
 11
-14.2112985918
 21
-9.429403269
 31
0.0
 11
-14.0159752727
 21
-9.2878164181
 31
0.0
 11
-13.7896975132
 21
-9.2068769662
 31
0.0
 11
-13.5393393453
 21
-9.1890528992
 31
0.0
 11
-13.2725105421
 21
-9.2348807323
 31
0.0
  0
SPLINE
  5
388
100
AcDbEntity
  8
RACCORDO
100
AcDbSpline
 62
253
  6
CONTINUOUS
 70
0
 71
3
 72
9
 73
5
 74
3
 42
0.0000001
 43
0.0000001
 44
0.0000000001
 12
0.2508987429
 22
-0.0712225516
 32
0.0
 13
0.2355381541
 23
-0.1120027189
 33
0.0
 40
0.0
 40
0.0
 40
0.0
 40
0.0
 40
0.2427750506
 40
1.0
 40
1.0
 40
1.0
 40
1.0
 10
-13.2725105421
 20
-9.2348807323
 30
0.0
 10
-13.2522065571
 20
-9.2406444185
 30
0.0
 10
-13.1691181551
 20
-9.2662866897
 30
0.0
 10
-13.0883580909
 20
-9.2992866949
 30
0.0
 10
-13.0289063019
 20
-9.3275571126
 30
0.0
 11
-13.2725105421
 21
-9.2348807323
 31
0.0
 11
-13.2120002067
 21
-9.2535286887
 31
0.0
 11
-13.0289063019
 21
-9.3275571126
 31
0.0
  0
SPLINE
  5
389
100
AcDbEntity
  8
RACCORDO
100
AcDbSpline
 62
253
  6
CONTINUOUS
 70
0
 71
3
 72
15
 73
11
 74
9
 42
0.0000001
 43
0.0000001
 44
0.0000000001
 12
3.010688499
 22
-1.4316376848
 32
0.0
 13
0.0
 23
-3.3337413965
 33
0.0
 40
0.0
 40
0.0
 40
0.0
 40
0.0
 40
0.1095943673
 40
0.2286894927
 40
0.3553948083
 40
0.4870403613
 40
0.6205089504
 40
0.7525210408
 40
0.8799360628
 40
1.0
 40
1.0
 40
1.0
 40
1.0
 10
-13.0289063019
 20
-9.3275571126
 30
0.0
 10
-12.9189214682
 20
-9.3798569214
 30
0.0
 10
-12.7004103369
 20
-9.5128300339
 30
0.0
 10
-12.3998980471
 20
-9.7711696152
 30
0.0
 10
-12.1225619421
 20
-10.0875397358
 30
0.0
 10
-11.8790188702
 20
-10.449800409
 30
0.0
 10
-11.6784912484
 20
-10.8441130395
 30
0.0
 10
-11.5286580928
 20
-11.255408229
 30
0.0
 10
-11.4352986334
 20
-11.6678112657
 30
0.0
 10
-11.412303029
 20
-11.9431046852
 30
0.0
 10
-11.412303029
 20
-12.0765253911
 30
0.0
 11
-13.0289063019
 21
-9.3275571126
 31
0.0
 11
-12.7152612904
 21
-9.5149449711
 31
0.0
 11
-12.4127267753
 21
-9.7720588639
 31
0.0
 11
-12.1332263094
 21
-10.0887662646
 31
0.0
 11
-11.8877756653
 21
-10.4525832727
 31
0.0
 11
-11.6860487847
 21
-10.8491769629
 31
0.0
 11
-11.5359967827
 21
-11.2629006335
 31
0.0
 11
-11.4435330475
 21
-11.6774834776
 31
0.0
 11
-11.412303029
 21
-12.0765253911
 31
0.0
  0
SPLINE
  5
38A
100
AcDbEntity
  8
RACCORDO
100
AcDbSpline
 62
253
  6
CONTINUOUS
 70
0
 71
3
 72
9
 73
5
 74
3
 42
0.0000001
 43
0.0000001
 44
0.0000000001
 12
0.0
 22
-0.4113480881
 32
0.0
 13
-0.0820944688
 23
-0.4030728815
 33
0.0
 40
0.0
 40
0.0
 40
0.0
 40
0.0
 40
0.2593490725
 40
1.0
 40
1.0
 40
1.0
 40
1.0
 10
-7.8767691231
 20
-13.8442923441
 30
0.0
 10
-7.8767691231
 20
-13.8798532591
 30
0.0
 10
-7.879869264
 20
-14.0169305274
 30
0.0
 10
-7.895631097
 20
-14.1538850832
 30
0.0
 10
-7.9158988785
 20
-14.2533971843
 30
0.0
 11
-7.8767691231
 21
-13.8442923441
 31
0.0
 11
-7.8792288104
 21
-13.95094673
 31
0.0
 11
-7.9158988785
 21
-14.2533971843
 31
0.0
  0
SPLINE
  5
38B
100
AcDbEntity
  8
RACCORDO
100
AcDbSpline
 62
253
  6
CONTINUOUS
 70
0
 71
3
 72
20
 73
16
 74
14
 42
0.0000001
 43
0.0000001
 44
0.0000000001
 12
-1.0648408532
 22
-5.228226425
 32
0.0
 13
-0.0
 23
5.3355634748
 33
0.0
 40
0.0
 40
0.0
 40
0.0
 40
0.0
 40
0.0571785184
 40
0.1093764453
 40
0.1578679009
 40
0.2047563121
 40
0.2525723478
 40
0.303594848
 40
0.3593407188
 40
0.4204383308
 40
0.4867475355
 40
0.5575437024
 40
0.707524605
 40
0.8590478365
 40
1.0
 40
1.0
 40
1.0
 40
1.0
 10
-7.9158988785
 20
-14.2533971843
 30
0.0
 10
-7.9361942193
 20
-14.353044598
 30
0.0
 10
-7.9916948468
 20
-14.5410354103
 30
0.0
 10
-8.1289775997
 20
-14.7889476893
 30
0.0
 10
-8.3137152467
 20
-14.980297156
 30
0.0
 10
-8.5399914928
 20
-15.1055141164
 30
0.0
 10
-8.7974436078
 20
-15.1584967908
 30
0.0
 10
-9.0745921323
 20
-15.1388737364
 30
0.0
 10
-9.3618010189
 20
-15.0497536853
 30
0.0
 10
-9.6504968307
 20
-14.8954258692
 30
0.0
 10
-9.9321648778
 20
-14.6813164275
 30
0.0
 10
-10.293391528
 20
-14.3186935109
 30
0.0
 10
-10.6700801191
 20
-13.7661455842
 30
0.0
 10
-10.9660098372
 20
-13.0312586439
 30
0.0
 10
-11.0465147558
 20
-12.5101059328
 30
0.0
 10
-11.0465147558
 20
-12.2594195277
 30
0.0
 11
-7.9158988785
 21
-14.2533971843
 31
0.0
 11
-8.0050480265
 21
-14.5451607882
 31
0.0
 11
-8.1425427956
 21
-14.7873599203
 31
0.0
 11
-8.323817763
 21
-14.9719681692
 31
0.0
 11
-8.542854915
 21
-15.0928433285
 31
0.0
 11
-8.792384605
 21
-15.1459841913
 31
0.0
 11
-9.0641263404
 21
-15.1296237275
 31
0.0
 11
-9.3490624095
 21
-15.0443043759
 31
0.0
 11
-9.6377362888
 21
-14.8928547363
 31
0.0
 11
-9.9205656351
 21
-14.6802991963
 31
0.0
 11
-10.1881619897
 21
-14.4136950587
 31
0.0
 11
-10.642932957
 21
-13.7552456511
 31
0.0
 11
-10.9421841227
 21
-13.0042068682
 31
0.0
 11
-11.0465147558
 21
-12.2594195277
 31
0.0
  0
SPLINE
  5
38C
100
AcDbEntity
  8
RACCORDO
100
AcDbSpline
 62
253
  6
CONTINUOUS
 70
0
 71
3
 72
11
 73
7
 74
5
 42
0.0000001
 43
0.0000001
 44
0.0000000001
 12
-1.1894225329
 22
0.5928268278
 32
0.0
 13
-1.1911255814
 23
-0.5893975389
 33
0.0
 40
0.0
 40
0.0
 40
0.0
 40
0.0
 40
0.2275226847
 40
0.4650771274
 40
0.7209422661
 40
1.0
 40
1.0
 40
1.0
 40
1.0
 10
19.5782417016
 20
0.9126199708
 30
0.0
 10
19.4880348323
 20
0.9575804879
 30
0.0
 10
19.2896222911
 20
1.0236550719
 30
0.0
 10
18.9674152971
 20
1.0403984819
 30
0.0
 10
18.6283497405
 20
0.977673966
 30
0.0
 10
18.4069653518
 20
0.8890886423
 30
0.0
 10
18.2961677499
 20
0.8342633285
 30
0.0
 11
19.5782417016
 21
0.9126199708
 31
0.0
 11
19.2916423096
 21
1.0090011662
 31
0.0
 11
18.9765128556
 21
1.0280303712
 31
0.0
 11
18.6415979956
 21
0.9692272418
 31
0.0
 11
18.2961677499
 21
0.8342633285
 31
0.0
  0
SPLINE
  5
38D
100
AcDbEntity
  8
RACCORDO
100
AcDbSpline
 62
253
  6
CONTINUOUS
 70
0
 71
3
 72
11
 73
7
 74
5
 42
0.0000001
 43
0.0000001
 44
0.0000000001
 12
-1.1648209432
 22
0.4276915271
 32
0.0
 13
-1.1260530654
 23
-0.5212795468
 33
0.0
 40
0.0
 40
0.0
 40
0.0
 40
0.0
 40
0.2286692432
 40
0.4684377463
 40
0.724542068
 40
1.0
 40
1.0
 40
1.0
 40
1.0
 10
18.8615024003
 20
1.2628339005
 30
0.0
 10
18.7727161591
 20
1.2954338665
 30
0.0
 10
18.5820655466
 20
1.3401861136
 30
0.0
 10
18.2802620124
 20
1.3419960707
 30
0.0
 10
17.9653228385
 20
1.2809013618
 30
0.0
 10
17.758761619
 20
1.2025266307
 30
0.0
 10
17.6553682028
 20
1.1546631021
 30
0.0
 11
18.8615024003
 21
1.2628339005
 31
0.0
 11
18.585516679
 21
1.3287404347
 31
0.0
 11
18.2880216198
 21
1.3324828117
 31
0.0
 11
17.975657491
 21
1.2740147461
 31
0.0
 11
17.6553682028
 21
1.1546631021
 31
0.0
  0
SPLINE
  5
38E
100
AcDbEntity
  8
RACCORDO
100
AcDbSpline
 62
253
  6
CONTINUOUS
 70
0
 71
3
 72
15
 73
11
 74
9
 42
0.0000001
 43
0.0000001
 44
0.0000000001
 12
0.0
 22
2.4160984944
 32
0.0
 13
2.1819688705
 23
-1.0375662786
 33
0.0
 40
0.0
 40
0.0
 40
0.0
 40
0.0
 40
0.1491146908
 40
0.2848603945
 40
0.4080027149
 40
0.5217788575
 40
0.63174424
 40
0.74459354
 40
0.8661534094
 40
1.0
 40
1.0
 40
1.0
 40
1.0
 10
-11.0465147558
 20
-12.2594195277
 30
0.0
 10
-11.0465147558
 20
-12.1393276011
 30
0.0
 10
-11.0292541408
 20
-11.9092712974
 30
0.0
 10
-10.9438358569
 20
-11.5896651092
 30
0.0
 10
-10.8013874376
 20
-11.3218827535
 30
0.0
 10
-10.6047454543
 20
-11.117564315
 30
0.0
 10
-10.3609574444
 20
-10.9885062097
 30
0.0
 10
-10.0831275025
 20
-10.9419637539
 30
0.0
 10
-9.785415175
 20
-10.9773297178
 30
0.0
 10
-9.590722094
 20
-11.049032496
 30
0.0
 10
-9.493372396
 20
-11.0953240656
 30
0.0
 11
-11.0465147558
 21
-12.2594195277
 31
0.0
 11
-11.0168320884
 21
-11.9003685886
 31
0.0
 11
-10.9288917079
 21
-11.5844032681
 31
0.0
 11
-10.7859894754
 21
-11.323444521
 31
0.0
 11
-10.5934782489
 21
-11.1272141959
 31
0.0
 11
-10.3585699063
 21
-11.0030862125
 31
0.0
 11
-10.0900640498
 21
-10.9557009095
 31
0.0
 11
-9.7980183996
 21
-10.9868359526
 31
0.0
 11
-9.493372396
 21
-11.0953240656
 31
0.0
  0
SPLINE
  5
38F
100
AcDbEntity
  8
RACCORDO
100
AcDbSpline
 62
253
  6
CONTINUOUS
 70
0
 71
3
 72
15
 73
11
 74
9
 42
0.0000001
 43
0.0000001
 44
0.0000000001
 12
3.010688499
 22
-1.4316376848
 32
0.0
 13
-0.0
 23
-3.3337413965
 33
0.0
 40
0.0
 40
0.0
 40
0.0
 40
0.0
 40
0.1095943673
 40
0.2286894927
 40
0.3553948083
 40
0.4870403613
 40
0.6205089504
 40
0.7525210408
 40
0.8799360628
 40
1.0
 40
1.0
 40
1.0
 40
1.0
 10
-9.493372396
 20
-11.0953240656
 30
0.0
 10
-9.3833875623
 20
-11.1476238744
 30
0.0
 10
-9.164876431
 20
-11.2805969868
 30
0.0
 10
-8.8643641412
 20
-11.5389365682
 30
0.0
 10
-8.5870280361
 20
-11.8553066888
 30
0.0
 10
-8.3434849643
 20
-12.217567362
 30
0.0
 10
-8.1429573425
 20
-12.6118799925
 30
0.0
 10
-7.9931241869
 20
-13.023175182
 30
0.0
 10
-7.8997647275
 20
-13.4355782187
 30
0.0
 10
-7.8767691231
 20
-13.7108716382
 30
0.0
 10
-7.8767691231
 20
-13.8442923441
 30
0.0
 11
-9.493372396
 21
-11.0953240656
 31
0.0
 11
-9.1797273844
 21
-11.282711924
 31
0.0
 11
-8.8771928694
 21
-11.5398258168
 31
0.0
 11
-8.5976924034
 21
-11.8565332176
 31
0.0
 11
-8.3522417593
 21
-12.2203502257
 31
0.0
 11
-8.1505148787
 21
-12.6169439159
 31
0.0
 11
-8.0004628768
 21
-13.0306675864
 31
0.0
 11
-7.9079991416
 21
-13.4452504306
 31
0.0
 11
-7.8767691231
 21
-13.8442923441
 31
0.0
  0
SPLINE
  5
390
100
AcDbEntity
  8
RACCORDO
100
AcDbSpline
 62
253
  6
CONTINUOUS
 70
0
 71
3
 72
9
 73
5
 74
3
 42
0.0000001
 43
0.0000001
 44
0.0000000001
 12
0.0
 22
-0.4113480881
 32
0.0
 13
-0.0820944688
 23
-0.4030728815
 33
0.0
 40
0.0
 40
0.0
 40
0.0
 40
0.0
 40
0.2593490725
 40
1.0
 40
1.0
 40
1.0
 40
1.0
 10
-4.3412352171
 20
-15.612059297
 30
0.0
 10
-4.3412352171
 20
-15.6476202121
 30
0.0
 10
-4.3443353581
 20
-15.7846974804
 30
0.0
 10
-4.3600971911
 20
-15.9216520361
 30
0.0
 10
-4.3803649726
 20
-16.0211641373
 30
0.0
 11
-4.3412352171
 21
-15.612059297
 31
0.0
 11
-4.3436949045
 21
-15.718713683
 31
0.0
 11
-4.3803649726
 21
-16.0211641373
 31
0.0
  0
SPLINE
  5
391
100
AcDbEntity
  8
RACCORDO
100
AcDbSpline
 62
253
  6
CONTINUOUS
 70
0
 71
3
 72
20
 73
16
 74
14
 42
0.0000001
 43
0.0000001
 44
0.0000000001
 12
-1.0648408532
 22
-5.228226425
 32
0.0
 13
0.0
 23
5.3355634748
 33
0.0
 40
0.0
 40
0.0
 40
0.0
 40
0.0
 40
0.0571785184
 40
0.1093764453
 40
0.1578679009
 40
0.2047563121
 40
0.2525723478
 40
0.303594848
 40
0.3593407188
 40
0.4204383308
 40
0.4867475355
 40
0.5575437024
 40
0.707524605
 40
0.8590478365
 40
1.0
 40
1.0
 40
1.0
 40
1.0
 10
-4.3803649726
 20
-16.0211641373
 30
0.0
 10
-4.4006603133
 20
-16.1208115509
 30
0.0
 10
-4.4561609408
 20
-16.3088023633
 30
0.0
 10
-4.5934436938
 20
-16.5567146423
 30
0.0
 10
-4.7781813408
 20
-16.7480641089
 30
0.0
 10
-5.0044575869
 20
-16.8732810693
 30
0.0
 10
-5.2619097019
 20
-16.9262637438
 30
0.0
 10
-5.5390582264
 20
-16.9066406894
 30
0.0
 10
-5.826267113
 20
-16.8175206383
 30
0.0
 10
-6.1149629247
 20
-16.6631928222
 30
0.0
 10
-6.3966309718
 20
-16.4490833805
 30
0.0
 10
-6.7578576221
 20
-16.0864604639
 30
0.0
 10
-7.1345462131
 20
-15.5339125372
 30
0.0
 10
-7.4304759313
 20
-14.7990255969
 30
0.0
 10
-7.5109808499
 20
-14.2778728858
 30
0.0
 10
-7.5109808499
 20
-14.0271864806
 30
0.0
 11
-4.3803649726
 21
-16.0211641373
 31
0.0
 11
-4.4695141206
 21
-16.3129277412
 31
0.0
 11
-4.6070088897
 21
-16.5551268733
 31
0.0
 11
-4.788283857
 21
-16.7397351222
 31
0.0
 11
-5.0073210091
 21
-16.8606102815
 31
0.0
 11
-5.2568506991
 21
-16.9137511443
 31
0.0
 11
-5.5285924344
 21
-16.8973906804
 31
0.0
 11
-5.8135285036
 21
-16.8120713288
 31
0.0
 11
-6.1022023829
 21
-16.6606216892
 31
0.0
 11
-6.3850317292
 21
-16.4480661492
 31
0.0
 11
-6.6526280837
 21
-16.1814620117
 31
0.0
 11
-7.107399051
 21
-15.5230126041
 31
0.0
 11
-7.4066502168
 21
-14.7719738211
 31
0.0
 11
-7.5109808499
 21
-14.0271864806
 31
0.0
  0
SPLINE
  5
392
100
AcDbEntity
  8
RACCORDO
100
AcDbSpline
 62
253
  6
CONTINUOUS
 70
0
 71
3
 72
15
 73
11
 74
9
 42
0.0000001
 43
0.0000001
 44
0.0000000001
 12
0.0
 22
2.4160984944
 32
0.0
 13
2.1819688705
 23
-1.0375662786
 33
0.0
 40
0.0
 40
0.0
 40
0.0
 40
0.0
 40
0.1491146908
 40
0.2848603945
 40
0.4080027149
 40
0.5217788575
 40
0.63174424
 40
0.74459354
 40
0.8661534094
 40
1.0
 40
1.0
 40
1.0
 40
1.0
 10
-7.5109808499
 20
-14.0271864806
 30
0.0
 10
-7.5109808499
 20
-13.907094554
 30
0.0
 10
-7.4937202349
 20
-13.6770382503
 30
0.0
 10
-7.4083019509
 20
-13.3574320622
 30
0.0
 10
-7.2658535317
 20
-13.0896497064
 30
0.0
 10
-7.0692115484
 20
-12.885331268
 30
0.0
 10
-6.8254235385
 20
-12.7562731627
 30
0.0
 10
-6.5475935965
 20
-12.7097307068
 30
0.0
 10
-6.249881269
 20
-12.7450966708
 30
0.0
 10
-6.0551881881
 20
-12.8167994489
 30
0.0
 10
-5.95783849
 20
-12.8630910186
 30
0.0
 11
-7.5109808499
 21
-14.0271864806
 31
0.0
 11
-7.4812981825
 21
-13.6681355416
 31
0.0
 11
-7.393357802
 21
-13.3521702211
 31
0.0
 11
-7.2504555695
 21
-13.091211474
 31
0.0
 11
-7.057944343
 21
-12.8949811489
 31
0.0
 11
-6.8230360004
 21
-12.7708531654
 31
0.0
 11
-6.5545301438
 21
-12.7234678624
 31
0.0
 11
-6.2624844937
 21
-12.7546029055
 31
0.0
 11
-5.95783849
 21
-12.8630910186
 31
0.0
  0
SPLINE
  5
393
100
AcDbEntity
  8
RACCORDO
100
AcDbSpline
 62
253
  6
CONTINUOUS
 70
0
 71
3
 72
15
 73
11
 74
9
 42
0.0000001
 43
0.0000001
 44
0.0000000001
 12
3.010688499
 22
-1.4316376848
 32
0.0
 13
0.0
 23
-3.3337413965
 33
0.0
 40
0.0
 40
0.0
 40
0.0
 40
0.0
 40
0.1095943673
 40
0.2286894927
 40
0.3553948083
 40
0.4870403613
 40
0.6205089504
 40
0.7525210408
 40
0.8799360628
 40
1.0
 40
1.0
 40
1.0
 40
1.0
 10
-5.95783849
 20
-12.8630910186
 30
0.0
 10
-5.8478536563
 20
-12.9153908273
 30
0.0
 10
-5.629342525
 20
-13.0483639398
 30
0.0
 10
-5.3288302353
 20
-13.3067035211
 30
0.0
 10
-5.0514941302
 20
-13.6230736417
 30
0.0
 10
-4.8079510583
 20
-13.9853343149
 30
0.0
 10
-4.6074234366
 20
-14.3796469454
 30
0.0
 10
-4.457590281
 20
-14.790942135
 30
0.0
 10
-4.3642308216
 20
-15.2033451717
 30
0.0
 10
-4.3412352171
 20
-15.4786385912
 30
0.0
 10
-4.3412352171
 20
-15.612059297
 30
0.0
 11
-5.95783849
 21
-12.8630910186
 31
0.0
 11
-5.6441934785
 21
-13.050478877
 31
0.0
 11
-5.3416589635
 21
-13.3075927698
 31
0.0
 11
-5.0621584975
 21
-13.6243001705
 31
0.0
 11
-4.8167078534
 21
-13.9881171787
 31
0.0
 11
-4.6149809728
 21
-14.3847108688
 31
0.0
 11
-4.4649289708
 21
-14.7984345394
 31
0.0
 11
-4.3724652357
 21
-15.2130173835
 31
0.0
 11
-4.3412352171
 21
-15.612059297
 31
0.0
  0
SPLINE
  5
394
100
AcDbEntity
  8
RACCORDO
100
AcDbSpline
 62
253
  6
CONTINUOUS
 70
0
 71
3
 72
11
 73
7
 74
5
 42
0.0000001
 43
0.0000001
 44
0.0000000001
 12
-0.0000742306
 22
-0.7219302424
 32
0.0
 13
0.6457140201
 23
-0.3228570655
 33
0.0
 40
0.0
 40
0.0
 40
0.0
 40
0.0
 40
0.2065820078
 40
0.4344785722
 40
0.6975252429
 40
1.0
 40
1.0
 40
1.0
 40
1.0
 10
-19.3727058288
 20
19.4033054935
 30
0.0
 10
-19.3727109403
 20
19.3535928938
 30
0.0
 10
-19.3507192747
 20
19.2482435739
 30
0.0
 10
-19.2590786561
 20
19.104472394
 30
0.0
 10
-19.1161644482
 20
18.9753979663
 30
0.0
 10
-18.9984704123
 20
18.9055274174
 30
0.0
 10
-18.9333663485
 20
18.87297538
 30
0.0
 11
-19.3727058288
 21
19.4033054935
 31
0.0
 11
-19.3438652492
 21
19.25698289
 31
0.0
 11
-19.2585399252
 21
19.1163123392
 31
0.0
 11
-19.1198415965
 21
18.9865999825
 31
0.0
 11
-18.9333663485
 21
18.87297538
 31
0.0
  0
SPLINE
  5
395
100
AcDbEntity
  8
RACCORDO
100
AcDbSpline
 62
253
  6
CONTINUOUS
 70
0
 71
3
 72
9
 73
5
 74
3
 42
0.0000001
 43
0.0000001
 44
0.0000000001
 12
0.0
 22
-0.4113480881
 32
0.0
 13
-0.0820944688
 23
-0.4030728815
 33
0.0
 40
0.0
 40
0.0
 40
0.0
 40
0.0
 40
0.2593490725
 40
1.0
 40
1.0
 40
1.0
 40
1.0
 10
-0.8057013112
 20
-17.37982625
 30
0.0
 10
-0.8057013112
 20
-17.415387165
 30
0.0
 10
-0.8088014521
 20
-17.5524644334
 30
0.0
 10
-0.8245632851
 20
-17.6894189891
 30
0.0
 10
-0.8448310666
 20
-17.7889310903
 30
0.0
 11
-0.8057013112
 21
-17.37982625
 31
0.0
 11
-0.8081609985
 21
-17.486480636
 31
0.0
 11
-0.8448310666
 21
-17.7889310903
 31
0.0
  0
SPLINE
  5
396
100
AcDbEntity
  8
RACCORDO
100
AcDbSpline
 62
253
  6
CONTINUOUS
 70
0
 71
3
 72
20
 73
16
 74
14
 42
0.0000001
 43
0.0000001
 44
0.0000000001
 12
-1.0648408532
 22
-5.228226425
 32
0.0
 13
0.0
 23
5.3355634748
 33
0.0
 40
0.0
 40
0.0
 40
0.0
 40
0.0
 40
0.0571785184
 40
0.1093764453
 40
0.1578679009
 40
0.2047563121
 40
0.2525723478
 40
0.303594848
 40
0.3593407188
 40
0.4204383308
 40
0.4867475355
 40
0.5575437024
 40
0.707524605
 40
0.8590478365
 40
1.0
 40
1.0
 40
1.0
 40
1.0
 10
-0.8448310666
 20
-17.7889310903
 30
0.0
 10
-0.8651264074
 20
-17.8885785039
 30
0.0
 10
-0.9206270349
 20
-18.0765693163
 30
0.0
 10
-1.0579097878
 20
-18.3244815953
 30
0.0
 10
-1.2426474349
 20
-18.5158310619
 30
0.0
 10
-1.468923681
 20
-18.6410480223
 30
0.0
 10
-1.7263757959
 20
-18.6940306967
 30
0.0
 10
-2.0035243204
 20
-18.6744076423
 30
0.0
 10
-2.290733207
 20
-18.5852875912
 30
0.0
 10
-2.5794290188
 20
-18.4309597751
 30
0.0
 10
-2.8610970659
 20
-18.2168503334
 30
0.0
 10
-3.2223237161
 20
-17.8542274168
 30
0.0
 10
-3.5990123072
 20
-17.3016794902
 30
0.0
 10
-3.8949420253
 20
-16.5667925498
 30
0.0
 10
-3.975446944
 20
-16.0456398388
 30
0.0
 10
-3.975446944
 20
-15.7949534336
 30
0.0
 11
-0.8448310666
 21
-17.7889310903
 31
0.0
 11
-0.9339802146
 21
-18.0806946941
 31
0.0
 11
-1.0714749838
 21
-18.3228938263
 31
0.0
 11
-1.2527499511
 21
-18.5075020751
 31
0.0
 11
-1.4717871031
 21
-18.6283772345
 31
0.0
 11
-1.7213167932
 21
-18.6815180973
 31
0.0
 11
-1.9930585285
 21
-18.6651576334
 31
0.0
 11
-2.2779945976
 21
-18.5798382818
 31
0.0
 11
-2.5666684769
 21
-18.4283886422
 31
0.0
 11
-2.8494978232
 21
-18.2158331022
 31
0.0
 11
-3.1170941778
 21
-17.9492289647
 31
0.0
 11
-3.5718651451
 21
-17.2907795571
 31
0.0
 11
-3.8711163109
 21
-16.5397407741
 31
0.0
 11
-3.975446944
 21
-15.7949534336
 31
0.0
  0
SPLINE
  5
397
100
AcDbEntity
  8
RACCORDO
100
AcDbSpline
 62
253
  6
CONTINUOUS
 70
0
 71
3
 72
11
 73
7
 74
5
 42
0.0000001
 43
0.0000001
 44
0.0000000001
 12
0.8422645123
 22
0.4528475512
 32
0.0
 13
0.8598333029
 23
-0.4185296939
 33
0.0
 40
0.0
 40
0.0
 40
0.0
 40
0.0
 40
0.2265597879
 40
0.4637653981
 40
0.7200568665
 40
1.0
 40
1.0
 40
1.0
 40
1.0
 10
-18.4592598219
 20
20.9916415396
 30
0.0
 10
-18.3956520655
 20
21.0258405547
 30
0.0
 10
-18.2544213458
 20
21.0769805386
 30
0.0
 10
-18.0229707312
 20
21.0930866797
 30
0.0
 10
-17.7780892465
 20
21.0507535797
 30
0.0
 10
-17.6178634253
 20
20.9880986712
 30
0.0
 10
-17.5376286156
 20
20.9490438332
 30
0.0
 11
-18.4592598219
 21
20.9916415396
 31
0.0
 11
-18.255792477
 21
21.0660775075
 31
0.0
 11
-18.0296551807
 21
21.0838689875
 31
0.0
 11
-17.7877599451
 21
21.0444401828
 31
0.0
 11
-17.5376286156
 21
20.9490438332
 31
0.0
  0
SPLINE
  5
398
100
AcDbEntity
  8
RACCORDO
100
AcDbSpline
 62
253
  6
CONTINUOUS
 70
0
 71
3
 72
15
 73
11
 74
9
 42
0.0000001
 43
0.0000001
 44
0.0000000001
 12
0.0
 22
2.4160984944
 32
0.0
 13
2.1819688705
 23
-1.0375662786
 33
0.0
 40
0.0
 40
0.0
 40
0.0
 40
0.0
 40
0.1491146908
 40
0.2848603945
 40
0.4080027149
 40
0.5217788575
 40
0.63174424
 40
0.74459354
 40
0.8661534094
 40
1.0
 40
1.0
 40
1.0
 40
1.0
 10
-3.975446944
 20
-15.7949534336
 30
0.0
 10
-3.975446944
 20
-15.674861507
 30
0.0
 10
-3.9581863289
 20
-15.4448052033
 30
0.0
 10
-3.872768045
 20
-15.1251990152
 30
0.0
 10
-3.7303196257
 20
-14.8574166594
 30
0.0
 10
-3.5336776424
 20
-14.6530982209
 30
0.0
 10
-3.2898896326
 20
-14.5240401156
 30
0.0
 10
-3.0120596906
 20
-14.4774976598
 30
0.0
 10
-2.7143473631
 20
-14.5128636237
 30
0.0
 10
-2.5196542822
 20
-14.5845664019
 30
0.0
 10
-2.4223045841
 20
-14.6308579715
 30
0.0
 11
-3.975446944
 21
-15.7949534336
 31
0.0
 11
-3.9457642766
 21
-15.4359024946
 31
0.0
 11
-3.8578238961
 21
-15.1199371741
 31
0.0
 11
-3.7149216636
 21
-14.858978427
 31
0.0
 11
-3.5224104371
 21
-14.6627481018
 31
0.0
 11
-3.2875020944
 21
-14.5386201184
 31
0.0
 11
-3.0189962379
 21
-14.4912348154
 31
0.0
 11
-2.7269505878
 21
-14.5223698585
 31
0.0
 11
-2.4223045841
 21
-14.6308579715
 31
0.0
  0
SPLINE
  5
399
100
AcDbEntity
  8
RACCORDO
100
AcDbSpline
 62
253
  6
CONTINUOUS
 70
0
 71
3
 72
15
 73
11
 74
9
 42
0.0000001
 43
0.0000001
 44
0.0000000001
 12
3.010688499
 22
-1.4316376848
 32
0.0
 13
0.0
 23
-3.3337413965
 33
0.0
 40
0.0
 40
0.0
 40
0.0
 40
0.0
 40
0.1095943673
 40
0.2286894927
 40
0.3553948083
 40
0.4870403613
 40
0.6205089504
 40
0.7525210408
 40
0.8799360628
 40
1.0
 40
1.0
 40
1.0
 40
1.0
 10
-2.4223045841
 20
-14.6308579715
 30
0.0
 10
-2.3123197504
 20
-14.6831577803
 30
0.0
 10
-2.0938086191
 20
-14.8161308928
 30
0.0
 10
-1.7932963293
 20
-15.0744704741
 30
0.0
 10
-1.5159602243
 20
-15.3908405947
 30
0.0
 10
-1.2724171524
 20
-15.7531012679
 30
0.0
 10
-1.0718895306
 20
-16.1474138984
 30
0.0
 10
-0.922056375
 20
-16.5587090879
 30
0.0
 10
-0.8286969156
 20
-16.9711121246
 30
0.0
 10
-0.8057013112
 20
-17.2464055441
 30
0.0
 10
-0.8057013112
 20
-17.37982625
 30
0.0
 11
-2.4223045841
 21
-14.6308579715
 31
0.0
 11
-2.1086595726
 21
-14.81824583
 31
0.0
 11
-1.8061250575
 21
-15.0753597228
 31
0.0
 11
-1.5266245916
 21
-15.3920671235
 31
0.0
 11
-1.2811739475
 21
-15.7558841316
 31
0.0
 11
-1.0794470669
 21
-16.1524778218
 31
0.0
 11
-0.9293950649
 21
-16.5662014924
 31
0.0
 11
-0.8369313297
 21
-16.9807843365
 31
0.0
 11
-0.8057013112
 21
-17.37982625
 31
0.0
  0
SPLINE
  5
39A
100
AcDbEntity
  8
RACCORDO
100
AcDbSpline
 62
253
  6
CONTINUOUS
 70
0
 71
3
 72
9
 73
5
 74
3
 42
0.0000001
 43
0.0000001
 44
0.0000000001
 12
0.0
 22
-0.4113480881
 32
0.0
 13
-0.0820944688
 23
-0.4030728815
 33
0.0
 40
0.0
 40
0.0
 40
0.0
 40
0.0
 40
0.2593490725
 40
1.0
 40
1.0
 40
1.0
 40
1.0
 10
2.7298325947
 20
-19.147593203
 30
0.0
 10
2.7298325947
 20
-19.183154118
 30
0.0
 10
2.7267324538
 20
-19.3202313863
 30
0.0
 10
2.7109706208
 20
-19.4571859421
 30
0.0
 10
2.6907028393
 20
-19.5566980432
 30
0.0
 11
2.7298325947
 21
-19.147593203
 31
0.0
 11
2.7273729074
 21
-19.2542475889
 31
0.0
 11
2.6907028393
 21
-19.5566980432
 31
0.0
  0
SPLINE
  5
39B
100
AcDbEntity
  8
RACCORDO
100
AcDbSpline
 62
253
  6
CONTINUOUS
 70
0
 71
3
 72
20
 73
16
 74
14
 42
0.0000001
 43
0.0000001
 44
0.0000000001
 12
-1.0648408532
 22
-5.228226425
 32
0.0
 13
-0.0
 23
5.3355634748
 33
0.0
 40
0.0
 40
0.0
 40
0.0
 40
0.0
 40
0.0571785184
 40
0.1093764453
 40
0.1578679009
 40
0.2047563121
 40
0.2525723478
 40
0.303594848
 40
0.3593407188
 40
0.4204383308
 40
0.4867475355
 40
0.5575437024
 40
0.707524605
 40
0.8590478365
 40
1.0
 40
1.0
 40
1.0
 40
1.0
 10
2.6907028393
 20
-19.5566980432
 30
0.0
 10
2.6704074985
 20
-19.6563454569
 30
0.0
 10
2.614906871
 20
-19.8443362692
 30
0.0
 10
2.4776241181
 20
-20.0922485482
 30
0.0
 10
2.2928864711
 20
-20.2835980149
 30
0.0
 10
2.066610225
 20
-20.4088149753
 30
0.0
 10
1.80915811
 20
-20.4617976497
 30
0.0
 10
1.5320095855
 20
-20.4421745953
 30
0.0
 10
1.2448006989
 20
-20.3530545442
 30
0.0
 10
0.9561048871
 20
-20.1987267281
 30
0.0
 10
0.67443684
 20
-19.9846172864
 30
0.0
 10
0.3132101898
 20
-19.6219943698
 30
0.0
 10
-0.0634784013
 20
-19.0694464431
 30
0.0
 10
-0.3594081194
 20
-18.3345595028
 30
0.0
 10
-0.439913038
 20
-17.8134067917
 30
0.0
 10
-0.439913038
 20
-17.5627203866
 30
0.0
 11
2.6907028393
 21
-19.5566980432
 31
0.0
 11
2.6015536913
 21
-19.8484616471
 31
0.0
 11
2.4640589222
 21
-20.0906607792
 31
0.0
 11
2.2827839548
 21
-20.2752690281
 31
0.0
 11
2.0637468028
 21
-20.3961441874
 31
0.0
 11
1.8142171128
 21
-20.4492850502
 31
0.0
 11
1.5424753774
 21
-20.4329245864
 31
0.0
 11
1.2575393083
 21
-20.3476052348
 31
0.0
 11
0.968865429
 21
-20.1961555952
 31
0.0
 11
0.6860360827
 21
-19.9836000552
 31
0.0
 11
0.4184397281
 21
-19.7169959176
 31
0.0
 11
-0.0363312392
 21
-19.05854651
 31
0.0
 11
-0.3355824049
 21
-18.3075077271
 31
0.0
 11
-0.439913038
 21
-17.5627203866
 31
0.0
  0
SPLINE
  5
39C
100
AcDbEntity
  8
RACCORDO
100
AcDbSpline
 62
253
  6
CONTINUOUS
 70
0
 71
3
 72
15
 73
11
 74
9
 42
0.0000001
 43
0.0000001
 44
0.0000000001
 12
0.0
 22
2.4160984944
 32
0.0
 13
2.1819688705
 23
-1.0375662786
 33
0.0
 40
0.0
 40
0.0
 40
0.0
 40
0.0
 40
0.1491146908
 40
0.2848603945
 40
0.4080027149
 40
0.5217788575
 40
0.63174424
 40
0.74459354
 40
0.8661534094
 40
1.0
 40
1.0
 40
1.0
 40
1.0
 10
-0.439913038
 20
-17.5627203866
 30
0.0
 10
-0.439913038
 20
-17.44262846
 30
0.0
 10
-0.422652423
 20
-17.2125721563
 30
0.0
 10
-0.3372341391
 20
-16.8929659681
 30
0.0
 10
-0.1947857198
 20
-16.6251836124
 30
0.0
 10
0.0018562635
 20
-16.4208651739
 30
0.0
 10
0.2456442734
 20
-16.2918070686
 30
0.0
 10
0.5234742153
 20
-16.2452646128
 30
0.0
 10
0.8211865428
 20
-16.2806305767
 30
0.0
 10
1.0158796237
 20
-16.3523333549
 30
0.0
 10
1.1132293218
 20
-16.3986249245
 30
0.0
 11
-0.439913038
 21
-17.5627203866
 31
0.0
 11
-0.4102303706
 21
-17.2036694475
 31
0.0
 11
-0.3222899901
 21
-16.887704127
 31
0.0
 11
-0.1793877576
 21
-16.6267453799
 31
0.0
 11
0.0131234689
 21
-16.4305150548
 31
0.0
 11
0.2480318115
 21
-16.3063870714
 31
0.0
 11
0.516537668
 21
-16.2590017684
 31
0.0
 11
0.8085833182
 21
-16.2901368115
 31
0.0
 11
1.1132293218
 21
-16.3986249245
 31
0.0
  0
SPLINE
  5
39D
100
AcDbEntity
  8
RACCORDO
100
AcDbSpline
 62
253
  6
CONTINUOUS
 70
0
 71
3
 72
15
 73
11
 74
9
 42
0.0000001
 43
0.0000001
 44
0.0000000001
 12
3.010688499
 22
-1.4316376848
 32
0.0
 13
0.0
 23
-3.3337413965
 33
0.0
 40
0.0
 40
0.0
 40
0.0
 40
0.0
 40
0.1095943673
 40
0.2286894927
 40
0.3553948083
 40
0.4870403613
 40
0.6205089504
 40
0.7525210408
 40
0.8799360628
 40
1.0
 40
1.0
 40
1.0
 40
1.0
 10
1.1132293218
 20
-16.3986249245
 30
0.0
 10
1.2232141555
 20
-16.4509247333
 30
0.0
 10
1.4417252868
 20
-16.5838978457
 30
0.0
 10
1.7422375766
 20
-16.8422374271
 30
0.0
 10
2.0195736817
 20
-17.1586075477
 30
0.0
 10
2.2631167535
 20
-17.5208682209
 30
0.0
 10
2.4636443753
 20
-17.9151808514
 30
0.0
 10
2.6134775309
 20
-18.3264760409
 30
0.0
 10
2.7068369903
 20
-18.7388790776
 30
0.0
 10
2.7298325947
 20
-19.0141724971
 30
0.0
 10
2.7298325947
 20
-19.147593203
 30
0.0
 11
1.1132293218
 21
-16.3986249245
 31
0.0
 11
1.4268743334
 21
-16.5860127829
 31
0.0
 11
1.7294088484
 21
-16.8431266757
 31
0.0
 11
2.0089093144
 21
-17.1598340765
 31
0.0
 11
2.2543599585
 21
-17.5236510846
 31
0.0
 11
2.4560868391
 21
-17.9202447747
 31
0.0
 11
2.606138841
 21
-18.3339684453
 31
0.0
 11
2.6986025762
 21
-18.7485512895
 31
0.0
 11
2.7298325947
 21
-19.147593203
 31
0.0
  0
SPLINE
  5
39E
100
AcDbEntity
  8
RACCORDO
100
AcDbSpline
 62
253
  6
CONTINUOUS
 70
0
 71
3
 72
9
 73
5
 74
3
 42
0.0000001
 43
0.0000001
 44
0.0000000001
 12
0.4231181512
 22
-0.172295772
 32
0.0
 13
0.4551709799
 23
0.0391686347
 33
0.0
 40
0.0
 40
0.0
 40
0.0
 40
0.0
 40
0.5209121625
 40
1.0
 40
1.0
 40
1.0
 40
1.0
 10
-19.64655809
 20
10.3791934871
 30
0.0
 10
-19.5730889597
 20
10.3492764994
 30
0.0
 10
-19.4225042219
 20
10.3133894102
 30
0.0
 10
-19.269316286
 20
10.3155538941
 30
0.0
 10
-19.1966273259
 20
10.3218089663
 30
0.0
 11
-19.64655809
 21
10.3791934871
 31
0.0
 11
-19.4154997404
 21
10.3222137315
 31
0.0
 11
-19.1966273259
 21
10.3218089663
 31
0.0
  0
SPLINE
  5
39F
100
AcDbEntity
  8
RACCORDO
100
AcDbSpline
 62
253
  6
CONTINUOUS
 70
0
 71
3
 72
11
 73
7
 74
5
 42
0.0000001
 43
0.0000001
 44
0.0000000001
 12
-0.8449076862
 22
0.4223082154
 32
0.0
 13
0.0
 23
0.9445703928
 33
0.0
 40
0.0
 40
0.0
 40
0.0
 40
0.0
 40
0.2171654675
 40
0.4503928494
 40
0.7103024452
 40
1.0
 40
1.0
 40
1.0
 40
1.0
 10
7.1174999177
 20
-26.1970241336
 30
0.0
 10
7.0563383268
 20
-26.1664538799
 30
0.0
 10
6.940633829
 20
-26.0784032118
 30
0.0
 10
6.816594431
 20
-25.888222308
 30
0.0
 10
6.7423948628
 20
-25.6506452506
 30
0.0
 10
6.7276507388
 20
-25.4769454804
 30
0.0
 10
6.7276507388
 20
-25.3857322361
 30
0.0
 11
7.1174999177
 21
-26.1970241336
 31
0.0
 11
6.9533743876
 21
-26.0739780613
 31
0.0
 11
6.8300612331
 21
-25.891424467
 31
0.0
 11
6.7535708973
 21
-25.6581415769
 31
0.0
 11
6.7276507388
 21
-25.3857322361
 31
0.0
  0
SPLINE
  5
3A0
100
AcDbEntity
  8
RACCORDO
100
AcDbSpline
 62
253
  6
CONTINUOUS
 70
0
 71
3
 72
11
 73
7
 74
5
 42
0.0000001
 43
0.0000001
 44
0.0000000001
 12
-0.8441147338
 22
0.4228209936
 32
0.0
 13
0.0000000493
 23
0.9440907141
 33
0.0
 40
0.0
 40
0.0
 40
0.0
 40
0.0
 40
0.2171647157
 40
0.450405396
 40
0.7103190175
 40
1.0
 40
1.0
 40
1.0
 40
1.0
 10
-18.1904522016
 20
-13.5430479147
 30
0.0
 10
-18.2515561804
 20
-13.5124406477
 30
0.0
 10
-18.3671337488
 20
-13.424347617
 30
0.0
 10
-18.4910256112
 20
-13.2342098377
 30
0.0
 10
-18.5651385417
 20
-12.9967418008
 30
0.0
 10
-18.5798668106
 20
-12.8231351723
 30
0.0
 10
-18.5798668058
 20
-12.7319734638
 30
0.0
 11
-18.1904522016
 21
-13.5430479147
 31
0.0
 11
-18.3544026081
 21
-13.4199431898
 31
0.0
 11
-18.4775765254
 21
-13.2374154253
 31
0.0
 11
-18.5539774512
 21
-13.0042304292
 31
0.0
 11
-18.5798668058
 21
-12.7319734638
 31
0.0
  0
SPLINE
  5
3A1
100
AcDbEntity
  8
RACCORDO
100
AcDbSpline
 62
253
  6
CONTINUOUS
 70
0
 71
3
 72
11
 73
7
 74
5
 42
0.0000001
 43
0.0000001
 44
0.0000000001
 12
0.0000236612
 22
-0.7218803808
 32
0.0
 13
0.6456694416
 23
-0.3228347208
 33
0.0
 40
0.0
 40
0.0
 40
0.0
 40
0.0
 40
0.20658206
 40
0.4344812416
 40
0.6975285863
 40
1.0
 40
1.0
 40
1.0
 40
1.0
 10
-19.3727058307
 20
-11.5919974337
 30
0.0
 10
-19.3727042014
 20
-11.6417066125
 30
0.0
 10
-19.3507017016
 20
-11.7470459795
 30
0.0
 10
-19.2590582705
 20
-11.8908013859
 30
0.0
 10
-19.1161508061
 20
-12.0198628376
 30
0.0
 10
-18.9984651981
 20
-12.0897275157
 30
0.0
 10
-18.9333663485
 20
-12.1222769404
 30
0.0
 11
-19.3727058307
 21
-11.5919974337
 31
0.0
 11
-19.3438504601
 21
-11.7383066599
 31
0.0
 11
-19.2585205779
 21
-11.8789633638
 31
0.0
 11
-19.1198275272
 21
-12.0086628731
 31
0.0
 11
-18.9333663485
 21
-12.1222769404
 31
0.0
  0
SPLINE
  5
3A2
100
AcDbEntity
  8
RACCORDO
100
AcDbSpline
 62
253
  6
CONTINUOUS
 70
0
 71
3
 72
11
 73
7
 74
5
 42
0.0000001
 43
0.0000001
 44
0.0000000001
 12
-0.1286442074
 22
0.0524376113
 32
0.0
 13
-0.0083182319
 23
0.1386717065
 33
0.0
 40
0.0
 40
0.0
 40
0.0
 40
0.0
 40
0.2195485797
 40
0.4541223699
 40
0.7137624463
 40
1.0
 40
1.0
 40
1.0
 40
1.0
 10
7.8603617899
 20
-16.7502788942
 30
0.0
 10
7.8509472389
 20
-16.7464413598
 30
0.0
 10
7.8328197667
 20
-16.7347764318
 30
0.0
 10
7.8123511777
 20
-16.7081675606
 30
0.0
 10
7.7989862008
 20
-16.6741888958
 30
0.0
 10
7.795167666
 20
-16.64899588
 30
0.0
 10
7.7943740025
 20
-16.6357648633
 30
0.0
 11
7.8603617899
 21
-16.7502788942
 31
0.0
 11
7.8346126356
 21
-16.7339318755
 31
0.0
 11
7.8143562227
 21
-16.7084053304
 31
0.0
 11
7.8006926073
 21
-16.6750240351
 31
0.0
 11
7.7943740025
 21
-16.6357648633
 31
0.0
  0
SPLINE
  5
3A3
100
AcDbEntity
  8
RACCORDO
100
AcDbSpline
 62
253
  6
CONTINUOUS
 70
0
 71
3
 72
13
 73
9
 74
7
 42
0.0000001
 43
0.0000001
 44
0.0000000001
 12
2.3038689555
 22
-1.0508112113
 32
0.0
 13
2.2614905763
 23
1.1391561522
 33
0.0
 40
0.0
 40
0.0
 40
0.0
 40
0.0
 40
0.1141060531
 40
0.2376148099
 40
0.500885223
 40
0.7636766374
 40
0.8866208384
 40
1.0
 40
1.0
 40
1.0
 40
1.0
 10
7.9916150075
 20
-3.1290827886
 30
0.0
 10
8.079243472
 20
-3.1690507619
 30
0.0
 10
8.2681478841
 20
-3.2385361368
 30
0.0
 10
8.6802678526
 20
-3.336086572
 30
0.0
 10
9.2307481157
 20
-3.377032261
 30
0.0
 10
9.7790100125
 20
-3.3167958271
 30
0.0
 10
10.185879259
 20
-3.2047137079
 30
0.0
 10
10.371036355
 20
-3.1285718294
 30
0.0
 10
10.4565049902
 20
-3.0855196396
 30
0.0
 11
7.9916150075
 21
-3.1290827886
 31
0.0
 11
8.2621949553
 21
-3.2304345123
 31
0.0
 11
8.5662472521
 21
-3.303672117
 31
0.0
 11
9.2308008199
 21
-3.3565286416
 31
0.0
 11
9.891851407
 21
-3.2802288431
 31
0.0
 11
10.1916495251
 21
-3.1963212211
 31
0.0
 11
10.4565049902
 21
-3.0855196396
 31
0.0
  0
SPLINE
  5
3A4
100
AcDbEntity
  8
RACCORDO
100
AcDbSpline
 62
253
  6
CONTINUOUS
 70
0
 71
3
 72
11
 73
7
 74
5
 42
0.0000001
 43
0.0000001
 44
0.0000000001
 12
-1.2237038621
 22
-0.6163188142
 32
0.0
 13
-1.3692878389
 23
0.0484854313
 33
0.0
 40
0.0
 40
0.0
 40
0.0
 40
0.0
 40
0.2264585243
 40
0.473693289
 40
0.7343832716
 40
1.0
 40
1.0
 40
1.0
 40
1.0
 10
9.325197826
 20
-2.8746754455
 30
0.0
 10
9.2328251024
 20
-2.9211989952
 30
0.0
 10
9.0309582772
 20
-3.0016956118
 30
0.0
 10
8.7048294127
 20
-3.0833041247
 30
0.0
 10
8.353734968
 20
-3.1286840355
 30
0.0
 10
8.1128502595
 20
-3.1333756358
 30
0.0
 10
7.9916150075
 20
-3.1290827886
 30
0.0
 11
9.325197826
 21
-2.8746754455
 31
0.0
 11
9.0378709971
 21
-2.9917982021
 31
0.0
 11
8.7096260528
 21
-3.0754957205
 31
0.0
 11
8.3554792063
 21
-3.1219709261
 31
0.0
 11
7.9916150075
 21
-3.1290827886
 31
0.0
  0
SPLINE
  5
3A5
100
AcDbEntity
  8
RACCORDO
100
AcDbSpline
 62
253
  6
CONTINUOUS
 70
0
 71
3
 72
15
 73
11
 74
9
 42
0.0000001
 43
0.0000001
 44
0.0000000001
 12
0.0000670326
 22
0.5467428545
 32
0.0
 13
0.489057613
 23
-0.2444389589
 33
0.0
 40
0.0
 40
0.0
 40
0.0
 40
0.0
 40
0.1487962163
 40
0.2840532746
 40
0.4066347252
 40
0.5199166329
 40
0.6296851046
 40
0.7427980199
 40
0.8650882063
 40
1.0
 40
1.0
 40
1.0
 40
1.0
 10
-18.9333663485
 20
18.87297538
 30
0.0
 10
-18.9333630238
 20
18.900093136
 30
0.0
 10
-18.9294292972
 20
18.9520104117
 30
0.0
 10
-18.9098899475
 20
19.0240355026
 30
0.0
 10
-18.8773117775
 20
19.0841573482
 30
0.0
 10
-18.8323328797
 20
19.129653993
 30
0.0
 10
-18.7766642847
 20
19.15778316
 30
0.0
 10
-18.7134221975
 20
19.166946851
 30
0.0
 10
-18.6458734438
 20
19.1574175054
 30
0.0
 10
-18.6018600191
 20
19.1401649267
 30
0.0
 10
-18.5798668058
 20
19.1291723606
 30
0.0
 11
-18.9333663485
 21
18.87297538
 31
0.0
 11
-18.9265758883
 21
18.9540447575
 31
0.0
 11
-18.906461759
 21
19.0252075789
 31
0.0
 11
-18.8737973024
 21
19.0837292423
 31
0.0
 11
-18.8298352692
 21
19.1273574087
 31
0.0
 11
-18.7762656065
 21
19.1544148815
 31
0.0
 11
-18.7151476929
 21
19.1638616389
 31
0.0
 11
-18.6488318982
 21
19.1553383212
 31
0.0
 11
-18.5798668058
 21
19.1291723606
 31
0.0
  0
SPLINE
  5
3A6
100
AcDbEntity
  8
RACCORDO
100
AcDbSpline
 62
253
  6
CONTINUOUS
 70
0
 71
3
 72
11
 73
7
 74
5
 42
0.0000001
 43
0.0000001
 44
0.0000000001
 12
0.6564629285
 22
-0.3283521838
 32
0.0
 13
0.000089893
 23
-0.7340018562
 33
0.0
 40
0.0
 40
0.0
 40
0.0
 40
0.0
 40
0.2296739311
 40
0.4882138249
 40
0.7532077735
 40
1.0
 40
1.0
 40
1.0
 40
1.0
 10
6.7276507388
 20
6.4754135883
 30
0.0
 10
6.7779082126
 20
6.4502756093
 30
0.0
 10
6.8739586577
 20
6.3751543415
 30
0.0
 10
6.9848618007
 20
6.2259783998
 30
0.0
 10
7.0603212116
 20
6.0515322156
 30
0.0
 10
7.0811428865
 20
5.9260990491
 30
0.0
 10
7.0811502815
 20
5.865717065
 30
0.0
 11
6.7276507388
 21
6.4754135883
 31
0.0
 11
6.8629315614
 21
6.3748219189
 31
0.0
 11
6.9776191816
 21
6.2236302084
 31
0.0
 11
7.0542457677
 21
6.0448538945
 31
0.0
 11
7.0811502815
 21
5.865717065
 31
0.0
  0
SPLINE
  5
3A7
100
AcDbEntity
  8
RACCORDO
100
AcDbSpline
 62
253
  6
CONTINUOUS
 70
0
 71
3
 72
16
 73
12
 74
10
 42
0.0000001
 43
0.0000001
 44
0.0000000001
 12
-0.0000322957
 22
2.9922151495
 32
0.0
 13
-2.6805970282
 23
-1.3295680029
 33
0.0
 40
0.0
 40
0.0
 40
0.0
 40
0.0
 40
0.1505008577
 40
0.2206424677
 40
0.2873086263
 40
0.4107482154
 40
0.5242133951
 40
0.6334313047
 40
0.7454216573
 40
0.8663507208
 40
1.0
 40
1.0
 40
1.0
 40
1.0
 10
20.3489564295
 20
-0.8444665375
 30
0.0
 10
20.3489548093
 20
-0.6943562221
 30
0.0
 10
20.3326900146
 20
-0.4734702339
 30
0.0
 10
20.2713550789
 20
-0.1931156443
 30
0.0
 10
20.1900874125
 20
0.0537617971
 30
0.0
 10
20.0476777809
 20
0.3247649925
 30
0.0
 10
19.8055587978
 20
0.5781888628
 30
0.0
 10
19.5048762245
 20
0.7367421214
 30
0.0
 10
19.1623048023
 20
0.7909804305
 30
0.0
 10
18.7958337468
 20
0.7421342683
 30
0.0
 10
18.5569875206
 20
0.6496166543
 30
0.0
 10
18.437567567
 20
0.5903847192
 30
0.0
 11
20.3489564295
 21
-0.8444665375
 31
0.0
 11
20.3124183779
 21
-0.3956203143
 31
0.0
 11
20.2670604811
 21
-0.1907013867
 31
0.0
 11
20.2041493319
 21
-0.0014020097
 31
0.0
 11
20.0281794903
 21
0.3233437457
 31
0.0
 11
19.7910873866
 21
0.5663579188
 31
0.0
 11
19.5018218617
 21
0.7184301816
 31
0.0
 11
19.1713375159
 21
0.7738521179
 31
0.0
 11
18.8120850879
 21
0.7306079467
 31
0.0
 11
18.437567567
 21
0.5903847192
 31
0.0
  0
SPLINE
  5
3A8
100
AcDbEntity
  8
RACCORDO
100
AcDbSpline
 62
253
  6
CONTINUOUS
 70
0
 71
3
 72
15
 73
11
 74
9
 42
0.0000001
 43
0.0000001
 44
0.0000000001
 12
3.5861467888
 22
1.9348468494
 32
0.0
 13
0.0000436315
 23
4.0748105624
 33
0.0
 40
0.0
 40
0.0
 40
0.0
 40
0.0
 40
0.1101806006
 40
0.2296915115
 40
0.3565816834
 40
0.4881982291
 40
0.6214617098
 40
0.7531584709
 40
0.8802270415
 40
1.0
 40
1.0
 40
1.0
 40
1.0
 10
18.437567567
 20
-12.7517995947
 30
0.0
 10
18.5692755027
 20
-12.6807387321
 30
0.0
 10
18.8297245172
 20
-12.5057026475
 30
0.0
 10
19.186425235
 20
-12.1758521807
 30
0.0
 10
19.5143153332
 20
-11.7788778375
 30
0.0
 10
19.8013374469
 20
-11.3293205448
 30
0.0
 10
20.0370418745
 20
-10.8436343461
 30
0.0
 10
20.212761382
 20
-10.3396319892
 30
0.0
 10
20.322080399
 20
-9.8359290353
 30
0.0
 10
20.3489546875
 20
-9.5003312682
 30
0.0
 10
20.3489564295
 20
-9.3376472295
 30
0.0
 11
18.437567567
 21
-12.7517995947
 31
0.0
 11
18.8120850854
 21
-12.5041985706
 31
0.0
 11
19.1713375166
 21
-12.1754259736
 31
0.0
 11
19.5018218611
 21
-11.7777774732
 31
0.0
 11
19.7910873861
 21
-11.3261619915
 31
0.0
 11
20.0281794904
 21
-10.8376317579
 31
0.0
 11
20.204149329
 21
-10.3306638977
 31
0.0
 11
20.3124183823
 21
-9.8243297125
 31
0.0
 11
20.3489564295
 21
-9.3376472295
 31
0.0
  0
SPLINE
  5
3A9
100
AcDbEntity
  8
RACCORDO
100
AcDbSpline
 62
253
  6
CONTINUOUS
 70
0
 71
3
 72
11
 73
7
 74
5
 42
0.0000001
 43
0.0000001
 44
0.0000000001
 12
-0.094507975
 22
0.5338368089
 32
0.0
 13
0.3877147957
 23
0.3789336789
 33
0.0
 40
0.0
 40
0.0
 40
0.0
 40
0.0
 40
0.2303700234
 40
0.4665689346
 40
0.7202463836
 40
1.0
 40
1.0
 40
1.0
 40
1.0
 10
-19.5633670649
 20
10.6484076762
 30
0.0
 10
-19.570624333
 20
10.6894010089
 30
0.0
 10
-19.573668023
 20
10.7750087467
 30
0.0
 10
-19.5410808116
 20
10.9026291283
 30
0.0
 10
-19.473195564
 20
11.0254408047
 30
0.0
 10
-19.40947552
 20
11.0986583947
 30
0.0
 10
-19.3733206479
 20
11.133994417
 30
0.0
 11
-19.5633670649
 21
10.6484076762
 31
0.0
 11
-19.5677415847
 21
10.7732233603
 31
0.0
 11
-19.5369790306
 21
10.8975257229
 31
0.0
 11
-19.4717258884
 21
11.0185877798
 31
0.0
 11
-19.3733206479
 21
11.133994417
 31
0.0
  0
SPLINE
  5
3AA
100
AcDbEntity
  8
RACCORDO
100
AcDbSpline
 62
253
  6
CONTINUOUS
 70
0
 71
3
 72
15
 73
11
 74
9
 42
0.0000001
 43
0.0000001
 44
0.0000000001
 12
-1.3115783581
 22
0.7187597779
 32
0.0
 13
1.2290955685
 23
0.8521604845
 33
0.0
 40
0.0
 40
0.0
 40
0.0
 40
0.0
 40
0.1511500641
 40
0.2849672908
 40
0.4035525779
 40
0.512079834
 40
0.6184685269
 40
0.731342669
 40
0.8573181845
 40
1.0
 40
1.0
 40
1.0
 40
1.0
 10
-19.5633670649
 20
10.6484076762
 30
0.0
 10
-19.6294487825
 20
10.684621205
 30
0.0
 10
-19.7496472717
 20
10.7617246826
 30
0.0
 10
-19.8971555353
 20
10.9006105383
 30
0.0
 10
-19.9964625298
 20
11.053298162
 30
0.0
 10
-20.0419848539
 20
11.2163842141
 30
0.0
 10
-20.029217231
 20
11.3826001733
 30
0.0
 10
-19.9597854397
 20
11.542978145
 30
0.0
 10
-19.8393069803
 20
11.6923891518
 30
0.0
 10
-19.7347292343
 20
11.7774640403
 30
0.0
 10
-19.6762727052
 20
11.8179933087
 30
0.0
 11
-19.5633670649
 21
10.6484076762
 31
0.0
 11
-19.7524466936
 21
10.7723141396
 31
0.0
 11
-19.8963108927
 21
10.9114491043
 31
0.0
 11
-19.990645292
 21
11.0616380046
 31
0.0
 11
-20.0326615388
 21
11.2184202237
 31
0.0
 11
-20.021098887
 21
11.3771156903
 31
0.0
 11
-19.9563039911
 21
11.5330015886
 31
0.0
 11
-19.8402416157
 21
11.6814199482
 31
0.0
 11
-19.6762727052
 21
11.8179933087
 31
0.0
  0
SPLINE
  5
3AB
100
AcDbEntity
  8
RACCORDO
100
AcDbSpline
 62
253
  6
CONTINUOUS
 70
0
 71
3
 72
9
 73
5
 74
3
 42
0.0000001
 43
0.0000001
 44
0.0000000001
 12
0.1412353076
 22
0.0979217168
 32
0.0
 13
0.1512415221
 23
0.0816215458
 33
0.0
 40
0.0
 40
0.0
 40
0.0
 40
0.0
 40
0.2427288442
 40
1.0
 40
1.0
 40
1.0
 40
1.0
 10
-19.6762727052
 20
11.8179933087
 30
0.0
 10
-19.6648454109
 20
11.825916117
 30
0.0
 10
-19.6172706344
 20
11.8578381523
 30
0.0
 10
-19.5678337396
 20
11.8869580375
 30
0.0
 10
-19.5296567922
 20
11.9075612516
 30
0.0
 11
-19.6762727052
 21
11.8179933087
 31
0.0
 11
-19.6416401589
 21
11.8412478194
 31
0.0
 11
-19.5296567922
 21
11.9075612516
 31
0.0
  0
SPLINE
  5
3AC
100
AcDbEntity
  8
RACCORDO
100
AcDbSpline
 62
253
  6
CONTINUOUS
 70
0
 71
3
 72
10
 73
6
 74
4
 42
0.0000001
 43
0.0000001
 44
0.0000000001
 12
0.4057232026
 22
-0.4405850666
 32
0.0
 13
0.5152371522
 23
-0.3053804104
 33
0.0
 40
0.0
 40
0.0
 40
0.0
 40
0.0
 40
0.5163874093
 40
0.7639999663
 40
1.0
 40
1.0
 40
1.0
 40
1.0
 10
7.3444067373
 20
-2.9487080653
 30
0.0
 10
7.4142435218
 20
-3.0245455923
 30
0.0
 10
7.521088334
 20
-3.133887199
 30
0.0
 10
7.6742100152
 20
-3.2622374567
 30
0.0
 10
7.7538600746
 20
-3.3172656327
 30
0.0
 10
7.7943920697
 20
-3.3412888951
 30
0.0
 11
7.3444067373
 21
-2.9487080653
 31
0.0
 11
7.563308722
 21
-3.1671994471
 31
0.0
 11
7.6774557884
 21
-3.2618814397
 31
0.0
 11
7.7943920697
 21
-3.3412888951
 31
0.0
  0
SPLINE
  5
3AD
100
AcDbEntity
  8
RACCORDO
100
AcDbSpline
 62
253
  6
CONTINUOUS
 70
0
 71
3
 72
9
 73
5
 74
3
 42
0.0000001
 43
0.0000001
 44
0.0000000001
 12
-0.423159907
 22
0.1723364437
 32
0.0
 13
-0.4552261934
 23
-0.0391569859
 33
0.0
 40
0.0
 40
0.0
 40
0.0
 40
0.0
 40
0.5209079122
 40
1.0
 40
1.0
 40
1.0
 40
1.0
 10
7.7943935143
 20
-16.6357714185
 30
0.0
 10
7.7209177331
 20
-16.6058476128
 30
0.0
 10
7.5703155195
 20
-16.5699522572
 30
0.0
 10
7.4171096813
 20
-16.5721155744
 30
0.0
 10
7.3444112588
 20
-16.5783688418
 30
0.0
 11
7.7943935143
 21
-16.6357714185
 31
0.0
 11
7.5633114831
 21
-16.5787782959
 31
0.0
 11
7.3444112588
 21
-16.5783688418
 31
0.0
  0
SPLINE
  5
3AE
100
AcDbEntity
  8
RACCORDO
100
AcDbSpline
 62
253
  6
CONTINUOUS
 70
0
 71
3
 72
11
 73
7
 74
5
 42
0.0000001
 43
0.0000001
 44
0.0000000001
 12
0.1169138645
 22
0.0541166648
 32
0.0
 13
0.0018544104
 23
0.1288178026
 33
0.0
 40
0.0
 40
0.0
 40
0.0
 40
0.0
 40
0.2158491049
 40
0.4486679305
 40
0.7095690433
 40
1.0
 40
1.0
 40
1.0
 40
1.0
 10
10.5429068493
 20
-16.7817058835
 30
0.0
 10
10.551318767
 20
-16.7778122056
 30
0.0
 10
10.567348966
 20
-16.7662318388
 30
0.0
 10
10.584743608
 20
-16.7406280266
 30
0.0
 10
10.5953296741
 20
-16.7083087836
 30
0.0
 10
10.5977252825
 20
-16.6845810943
 30
0.0
 10
10.5979048086
 20
-16.6721102018
 30
0.0
 11
10.5429068493
 21
-16.7817058835
 31
0.0
 11
10.5655781686
 21
-16.7656030559
 31
0.0
 11
10.5828459442
 21
-16.741077906
 31
0.0
 11
10.5938007229
 21
-16.7093009936
 31
0.0
 11
10.5979048086
 21
-16.6721102018
 31
0.0
  0
SPLINE
  5
3AF
100
AcDbEntity
  8
RACCORDO
100
AcDbSpline
 62
253
  6
CONTINUOUS
 70
0
 71
3
 72
9
 73
5
 74
3
 42
0.0000001
 43
0.0000001
 44
0.0000000001
 12
-0.075814447
 22
0.034786872
 32
0.0
 13
-0.018793766
 23
0.0812696204
 33
0.0
 40
0.0
 40
0.0
 40
0.0
 40
0.0
 40
0.4618430257
 40
1.0
 40
1.0
 40
1.0
 40
1.0
 10
7.9107417758
 20
-16.7721276355
 30
0.0
 10
7.899070318
 20
-16.7667722774
 30
0.0
 10
7.8771758017
 20
-16.7472856519
 30
0.0
 10
7.8669884341
 20
-16.7205670741
 30
0.0
 10
7.8636171021
 20
-16.7059884698
 30
0.0
 11
7.9107417758
 21
-16.7721276355
 31
0.0
 11
7.8813437816
 21
-16.7472301852
 31
0.0
 11
7.8636171021
 21
-16.7059884698
 31
0.0
  0
SPLINE
  5
3B0
100
AcDbEntity
  8
RACCORDO
100
AcDbSpline
 62
253
  6
CONTINUOUS
 70
0
 71
3
 72
8
 73
4
 74
2
 42
0.0000001
 43
0.0000001
 44
0.0000000001
 12
-0.0045984452
 22
0.0198849927
 32
0.0
 13
-0.0021801071
 23
0.020292998
 33
0.0
 40
0.0
 40
0.0
 40
0.0
 40
0.0
 40
1.0
 40
1.0
 40
1.0
 40
1.0
 10
7.8636171021
 20
-16.7059884698
 30
0.0
 10
7.862084287
 20
-16.6993601388
 30
0.0
 10
7.860988415
 20
-16.6926207385
 30
0.0
 10
7.8602617126
 20
-16.6858564059
 30
0.0
 11
7.8636171021
 21
-16.7059884698
 31
0.0
 11
7.8602617126
 21
-16.6858564059
 31
0.0
  0
SPLINE
  5
3B1
100
AcDbEntity
  8
RACCORDO
100
AcDbSpline
 62
253
  6
CONTINUOUS
 70
0
 71
3
 72
11
 73
7
 74
5
 42
0.0000001
 43
0.0000001
 44
0.0000000001
 12
-0.0000000006
 22
1.1108444582
 32
0.0
 13
1.004306957
 23
0.4747030086
 33
0.0
 40
0.0
 40
0.0
 40
0.0
 40
0.0
 40
0.2901518626
 40
0.5498918858
 40
0.7828089365
 40
1.0
 40
1.0
 40
1.0
 40
1.0
 10
-17.4166999919
 20
-8.7269438765
 30
0.0
 10
-17.4166999919
 20
-8.6195060137
 30
0.0
 10
-17.399132727
 20
-8.4150883993
 30
0.0
 10
-17.3103570398
 20
-8.1360630948
 30
0.0
 10
-17.1619796087
 20
-7.9140153691
 30
0.0
 10
-17.0238569623
 20
-7.813114223
 30
0.0
 10
-16.9511481303
 20
-7.7787471393
 30
0.0
 11
-17.4166999919
 21
-8.7269438765
 31
0.0
 11
-17.3856897194
 21
-8.4061255285
 31
0.0
 11
-17.2942207959
 21
-8.1324771436
 31
0.0
 11
-17.1469002365
 21
-7.9197795795
 31
0.0
 11
-16.9511481303
 21
-7.7787471393
 31
0.0
  0
SPLINE
  5
3B2
100
AcDbEntity
  8
RACCORDO
100
AcDbSpline
 62
253
  6
CONTINUOUS
 70
0
 71
3
 72
15
 73
11
 74
9
 42
0.0000001
 43
0.0000001
 44
0.0000000001
 12
-0.0000670326
 22
-0.5467428545
 32
0.0
 13
-0.489057613
 23
0.2444389589
 33
0.0
 40
0.0
 40
0.0
 40
0.0
 40
0.0
 40
0.1487962163
 40
0.2840532746
 40
0.4066347252
 40
0.5199166329
 40
0.6296851046
 40
0.7427980199
 40
0.8650882063
 40
1.0
 40
1.0
 40
1.0
 40
1.0
 10
7.0811502815
 20
-25.1295352554
 30
0.0
 10
7.0811469568
 20
-25.1566530115
 30
0.0
 10
7.0772132301
 20
-25.2085702872
 30
0.0
 10
7.0576738805
 20
-25.2805953781
 30
0.0
 10
7.0250957104
 20
-25.3407172236
 30
0.0
 10
6.9801168127
 20
-25.3862138685
 30
0.0
 10
6.9244482177
 20
-25.4143430355
 30
0.0
 10
6.8612061305
 20
-25.4235067265
 30
0.0
 10
6.7936573768
 20
-25.4139773809
 30
0.0
 10
6.749643952
 20
-25.3967248022
 30
0.0
 10
6.7276507388
 20
-25.3857322361
 30
0.0
 11
7.0811502815
 21
-25.1295352554
 31
0.0
 11
7.0743598212
 21
-25.210604633
 31
0.0
 11
7.054245692
 21
-25.2817674544
 31
0.0
 11
7.0215812354
 21
-25.3402891178
 31
0.0
 11
6.9776192021
 21
-25.3839172842
 31
0.0
 11
6.9240495395
 21
-25.410974757
 31
0.0
 11
6.8629316259
 21
-25.4204215144
 31
0.0
 11
6.7966158311
 21
-25.4118981967
 31
0.0
 11
6.7276507388
 21
-25.3857322361
 31
0.0
  0
SPLINE
  5
3B3
100
AcDbEntity
  8
RACCORDO
100
AcDbSpline
 62
253
  6
CONTINUOUS
 70
0
 71
3
 72
11
 73
7
 74
5
 42
0.0000001
 43
0.0000001
 44
0.0000000001
 12
-0.6564629285
 22
0.3283521838
 32
0.0
 13
-0.000089893
 23
0.7340018562
 33
0.0
 40
0.0
 40
0.0
 40
0.0
 40
0.0
 40
0.2296739311
 40
0.4882138249
 40
0.7532077735
 40
1.0
 40
1.0
 40
1.0
 40
1.0
 10
-18.5798668058
 20
-12.7319734638
 30
0.0
 10
-18.6301242796
 20
-12.7068354848
 30
0.0
 10
-18.7261747247
 20
-12.631714217
 30
0.0
 10
-18.8370778677
 20
-12.4825382753
 30
0.0
 10
-18.9125372787
 20
-12.3080920911
 30
0.0
 10
-18.9333589536
 20
-12.1826589246
 30
0.0
 10
-18.9333663485
 20
-12.1222769404
 30
0.0
 11
-18.5798668058
 21
-12.7319734638
 31
0.0
 11
-18.7151476285
 21
-12.6313817944
 31
0.0
 11
-18.8298352487
 21
-12.4801900839
 31
0.0
 11
-18.9064618348
 21
-12.30141377
 31
0.0
 11
-18.9333663485
 21
-12.1222769404
 31
0.0
  0
SPLINE
  5
3B4
100
AcDbEntity
  8
RACCORDO
100
AcDbSpline
 62
253
  6
CONTINUOUS
 70
0
 71
3
 72
11
 73
7
 74
5
 42
0.0000001
 43
0.0000001
 44
0.0000000001
 12
-0.0000000006
 22
1.1108444582
 32
0.0
 13
1.004306957
 23
0.4747030086
 33
0.0
 40
0.0
 40
0.0
 40
0.0
 40
0.0
 40
0.2901518626
 40
0.5498918858
 40
0.7828089365
 40
1.0
 40
1.0
 40
1.0
 40
1.0
 10
-13.8811660859
 20
-10.4947108295
 30
0.0
 10
-13.881166086
 20
-10.3872729666
 30
0.0
 10
-13.863598821
 20
-10.1828553522
 30
0.0
 10
-13.7748231338
 20
-9.9038300477
 30
0.0
 10
-13.6264457027
 20
-9.681782322
 30
0.0
 10
-13.4883230564
 20
-9.580881176
 30
0.0
 10
-13.4156142244
 20
-9.5465140922
 30
0.0
 11
-13.8811660859
 21
-10.4947108295
 31
0.0
 11
-13.8501558135
 21
-10.1738924815
 31
0.0
 11
-13.75868689
 21
-9.9002440966
 31
0.0
 11
-13.6113663306
 21
-9.6875465324
 31
0.0
 11
-13.4156142244
 21
-9.5465140922
 31
0.0
  0
SPLINE
  5
3B5
100
AcDbEntity
  8
RACCORDO
100
AcDbSpline
 62
253
  6
CONTINUOUS
 70
0
 71
3
 72
9
 73
5
 74
3
 42
0.0000001
 43
0.0000001
 44
0.0000000001
 12
-0.2327083122
 22
0.2413712555
 32
0.0
 13
-0.2638120312
 23
0.206921371
 33
0.0
 40
0.0
 40
0.0
 40
0.0
 40
0.0
 40
0.2555490042
 40
1.0
 40
1.0
 40
1.0
 40
1.0
 10
-19.2638646018
 20
-3.2364129342
 30
0.0
 10
-19.2836873943
 20
-3.2158522062
 30
0.0
 10
-19.3621655125
 20
-3.136310585
 30
0.0
 10
-19.4450322084
 20
-3.0608284082
 30
0.0
 10
-19.5104972515
 20
-3.0094808013
 30
0.0
 11
-19.2638646018
 21
-3.2364129342
 31
0.0
 11
-19.3240840016
 21
-3.1754637452
 31
0.0
 11
-19.5104972515
 21
-3.0094808013
 31
0.0
  0
SPLINE
  5
3B6
100
AcDbEntity
  8
RACCORDO
100
AcDbSpline
 62
253
  6
CONTINUOUS
 70
0
 71
3
 72
9
 73
5
 74
3
 42
0.0000001
 43
0.0000001
 44
0.0000000001
 12
-0.1302487
 22
0.1021607675
 32
0.0
 13
-0.1423977283
 23
0.0844063579
 33
0.0
 40
0.0
 40
0.0
 40
0.0
 40
0.0
 40
0.2560003128
 40
1.0
 40
1.0
 40
1.0
 40
1.0
 10
-19.5104972515
 20
-3.0094808013
 30
0.0
 10
-19.5216118208
 20
-3.0007630718
 30
0.0
 10
-19.5654654907
 20
-2.9672812295
 30
0.0
 10
-19.611242284
 20
-2.936237011
 30
0.0
 10
-19.6465569058
 20
-2.9153042431
 30
0.0
 11
-19.5104972515
 21
-3.0094808013
 31
0.0
 11
-19.5441909614
 21
-2.9837801001
 31
0.0
 11
-19.6465569058
 21
-2.9153042431
 31
0.0
  0
SPLINE
  5
3B7
100
AcDbEntity
  8
RACCORDO
100
AcDbSpline
 62
253
  6
CONTINUOUS
 70
0
 71
3
 72
11
 73
7
 74
5
 42
0.0000001
 43
0.0000001
 44
0.0000000001
 12
-0.0000000006
 22
1.1108444582
 32
0.0
 13
1.004306957
 23
0.4747030086
 33
0.0
 40
0.0
 40
0.0
 40
0.0
 40
0.0
 40
0.2901518626
 40
0.5498918858
 40
0.7828089365
 40
1.0
 40
1.0
 40
1.0
 40
1.0
 10
-10.34563218
 20
-12.2624777825
 30
0.0
 10
-10.3456321801
 20
-12.1550399196
 30
0.0
 10
-10.3280649151
 20
-11.9506223052
 30
0.0
 10
-10.2392892279
 20
-11.6715970007
 30
0.0
 10
-10.0909117968
 20
-11.449549275
 30
0.0
 10
-9.9527891505
 20
-11.3486481289
 30
0.0
 10
-9.8800803185
 20
-11.3142810452
 30
0.0
 11
-10.34563218
 21
-12.2624777825
 31
0.0
 11
-10.3146219076
 21
-11.9416594345
 31
0.0
 11
-10.2231529841
 21
-11.6680110495
 31
0.0
 11
-10.0758324247
 21
-11.4553134854
 31
0.0
 11
-9.8800803185
 21
-11.3142810452
 31
0.0
  0
SPLINE
  5
3B8
100
AcDbEntity
  8
RACCORDO
100
AcDbSpline
 62
253
  6
CONTINUOUS
 70
0
 71
3
 72
9
 73
5
 74
3
 42
0.0000001
 43
0.0000001
 44
0.0000000001
 12
-0.0799552579
 22
0.0397142822
 32
0.0
 13
-0.0805269216
 23
-0.0385419562
 33
0.0
 40
0.0
 40
0.0
 40
0.0
 40
0.0
 40
0.4653411538
 40
1.0
 40
1.0
 40
1.0
 40
1.0
 10
14.3395152252
 20
12.042649265
 30
0.0
 10
14.3271130679
 20
12.048809495
 30
0.0
 10
14.2962498301
 20
12.0541577614
 30
0.0
 10
14.2670421258
 20
12.0449769231
 30
0.0
 10
14.2526906488
 20
12.0381079905
 30
0.0
 11
14.3395152252
 21
12.042649265
 31
0.0
 11
14.2987476917
 21
12.0506408649
 31
0.0
 11
14.2526906488
 21
12.0381079905
 31
0.0
  0
SPLINE
  5
3B9
100
AcDbEntity
  8
RACCORDO
100
AcDbSpline
 62
253
  6
CONTINUOUS
 70
0
 71
3
 72
11
 73
7
 74
5
 42
0.0000001
 43
0.0000001
 44
0.0000000001
 12
-0.0000000006
 22
1.1108444582
 32
0.0
 13
1.004306957
 23
0.4747030086
 33
0.0
 40
0.0
 40
0.0
 40
0.0
 40
0.0
 40
0.2901518626
 40
0.5498918858
 40
0.7828089365
 40
1.0
 40
1.0
 40
1.0
 40
1.0
 10
-6.8100982741
 20
-14.0302447354
 30
0.0
 10
-6.8100982741
 20
-13.9228068726
 30
0.0
 10
-6.7925310092
 20
-13.7183892582
 30
0.0
 10
-6.703755322
 20
-13.4393639537
 30
0.0
 10
-6.5553778909
 20
-13.217316228
 30
0.0
 10
-6.4172552445
 20
-13.1164150819
 30
0.0
 10
-6.3445464125
 20
-13.0820479982
 30
0.0
 11
-6.8100982741
 21
-14.0302447354
 31
0.0
 11
-6.7790880016
 21
-13.7094263874
 31
0.0
 11
-6.6876190781
 21
-13.4357780025
 31
0.0
 11
-6.5402985187
 21
-13.2230804384
 31
0.0
 11
-6.3445464125
 21
-13.0820479982
 31
0.0
  0
SPLINE
  5
3BA
100
AcDbEntity
  8
RACCORDO
100
AcDbSpline
 62
253
  6
CONTINUOUS
 70
0
 71
3
 72
11
 73
7
 74
5
 42
0.0000001
 43
0.0000001
 44
0.0000000001
 12
-0.0000000006
 22
1.1108444582
 32
0.0
 13
1.004306957
 23
0.4747030086
 33
0.0
 40
0.0
 40
0.0
 40
0.0
 40
0.0
 40
0.2901518626
 40
0.5498918858
 40
0.7828089365
 40
1.0
 40
1.0
 40
1.0
 40
1.0
 10
0.2609695378
 20
-17.5657786414
 30
0.0
 10
0.2609695377
 20
-17.4583407785
 30
0.0
 10
0.2785368027
 20
-17.2539231641
 30
0.0
 10
0.3673124899
 20
-16.9748978596
 30
0.0
 10
0.515689921
 20
-16.7528501339
 30
0.0
 10
0.6538125673
 20
-16.6519489878
 30
0.0
 10
0.7265213993
 20
-16.6175819041
 30
0.0
 11
0.2609695378
 21
-17.5657786414
 31
0.0
 11
0.2919798102
 21
-17.2449602934
 31
0.0
 11
0.3834487337
 21
-16.9713119084
 31
0.0
 11
0.5307692931
 21
-16.7586143443
 31
0.0
 11
0.7265213993
 21
-16.6175819041
 31
0.0
  0
SPLINE
  5
3BB
100
AcDbEntity
  8
RACCORDO
100
AcDbSpline
 62
253
  6
CONTINUOUS
 70
0
 71
3
 72
9
 73
5
 74
3
 42
0.0000001
 43
0.0000001
 44
0.0000000001
 12
-0.0649589703
 22
0.0384823546
 32
0.0
 13
-0.0120590477
 23
0.0745328036
 33
0.0
 40
0.0
 40
0.0
 40
0.0
 40
0.0
 40
0.4642476965
 40
1.0
 40
1.0
 40
1.0
 40
1.0
 10
-19.6071473057
 20
-3.0166134476
 30
0.0
 10
-19.6171996565
 20
-3.0106583327
 30
0.0
 10
-19.6353115803
 20
-2.9914469949
 30
0.0
 10
-19.6428474668
 20
-2.9667307016
 30
0.0
 10
-19.645001021
 20
-2.9534203279
 30
0.0
 11
-19.6071473057
 21
-3.0166134476
 31
0.0
 11
-19.6317370841
 21
-2.9916342334
 31
0.0
 11
-19.645001021
 21
-2.9534203279
 31
0.0
  0
SPLINE
  5
3BC
100
AcDbEntity
  8
RACCORDO
100
AcDbSpline
 62
253
  6
CONTINUOUS
 70
0
 71
3
 72
8
 73
4
 74
2
 42
0.0000001
 43
0.0000001
 44
0.0000000001
 12
-0.0029542925
 22
0.0182594601
 32
0.0
 13
-0.0007758566
 23
0.0184806324
 33
0.0
 40
0.0
 40
0.0
 40
0.0
 40
0.0
 40
1.0
 40
1.0
 40
1.0
 40
1.0
 10
-19.645001021
 20
-2.9534203279
 30
0.0
 10
-19.6459857852
 20
-2.9473338412
 30
0.0
 10
-19.6465745372
 20
-2.9411745883
 30
0.0
 10
-19.6468331561
 20
-2.9350143776
 30
0.0
 11
-19.645001021
 21
-2.9534203279
 31
0.0
 11
-19.6468331561
 21
-2.9350143776
 31
0.0
  0
SPLINE
  5
3BD
100
AcDbEntity
  8
RACCORDO
100
AcDbSpline
 62
253
  6
CONTINUOUS
 70
0
 71
3
 72
8
 73
4
 74
2
 42
0.0000001
 43
0.0000001
 44
0.0000000001
 12
-0.0008277165
 22
0.0197159167
 32
0.0
 13
0.0012562921
 23
0.019693253
 33
0.0
 40
0.0
 40
0.0
 40
0.0
 40
0.0
 40
1.0
 40
1.0
 40
1.0
 40
1.0
 10
-19.6468331561
 20
-2.9350143776
 30
0.0
 10
-19.6471090615
 20
-2.9284424053
 30
0.0
 10
-19.6470099762
 20
-2.9218469948
 30
0.0
 10
-19.6465912122
 20
-2.9152825771
 30
0.0
 11
-19.6468331561
 21
-2.9350143776
 31
0.0
 11
-19.6465912122
 21
-2.9152825771
 31
0.0
  0
SPLINE
  5
3BE
100
AcDbEntity
  8
RACCORDO
100
AcDbSpline
 62
253
  6
CONTINUOUS
 70
0
 71
3
 72
11
 73
7
 74
5
 42
0.0000001
 43
0.0000001
 44
0.0000000001
 12
-0.0000000006
 22
1.1108444582
 32
0.0
 13
1.004306957
 23
0.4747030086
 33
0.0
 40
0.0
 40
0.0
 40
0.0
 40
0.0
 40
0.2901518626
 40
0.5498918858
 40
0.7828089365
 40
1.0
 40
1.0
 40
1.0
 40
1.0
 10
-3.2745643681
 20
-15.7980116884
 30
0.0
 10
-3.2745643682
 20
-15.6905738255
 30
0.0
 10
-3.2569971032
 20
-15.4861562111
 30
0.0
 10
-3.168221416
 20
-15.2071309066
 30
0.0
 10
-3.0198439849
 20
-14.9850831809
 30
0.0
 10
-2.8817213386
 20
-14.8841820349
 30
0.0
 10
-2.8090125066
 20
-14.8498149511
 30
0.0
 11
-3.2745643681
 21
-15.7980116884
 31
0.0
 11
-3.2435540957
 21
-15.4771933404
 31
0.0
 11
-3.1520851722
 21
-15.2035449555
 31
0.0
 11
-3.0047646128
 21
-14.9908473913
 31
0.0
 11
-2.8090125066
 21
-14.8498149511
 31
0.0
  0
SPLINE
  5
3BF
100
AcDbEntity
  8
RACCORDO
100
AcDbSpline
 62
253
  6
CONTINUOUS
 70
0
 71
3
 72
9
 73
5
 74
3
 42
0.0000001
 43
0.0000001
 44
0.0000000001
 12
0.0415894829
 22
-0.1016543078
 32
0.0
 13
0.0631587514
 23
-0.0898568612
 33
0.0
 40
0.0
 40
0.0
 40
0.0
 40
0.0
 40
0.2419325688
 40
1.0
 40
1.0
 40
1.0
 40
1.0
 10
-19.3434112829
 20
-3.2311674013
 30
0.0
 10
-19.3400573328
 20
-3.2393652306
 30
0.0
 10
-19.3251478704
 20
-3.2728189596
 30
0.0
 10
-19.3062330591
 20
-3.3044332451
 30
0.0
 10
-19.2902735283
 20
-3.3271390984
 30
0.0
 11
-19.3434112829
 21
-3.2311674013
 31
0.0
 11
-19.3326087252
 21
-3.2554446586
 31
0.0
 11
-19.2902735283
 21
-3.3271390984
 31
0.0
  0
SPLINE
  5
3C0
100
AcDbEntity
  8
RACCORDO
100
AcDbSpline
 62
253
  6
CONTINUOUS
 70
0
 71
3
 72
9
 73
5
 74
3
 42
0.0000001
 43
0.0000001
 44
0.0000000001
 12
0.2636611172
 22
-0.3751144518
 32
0.0
 13
0.4101003338
 23
-0.2050506106
 33
0.0
 40
0.0
 40
0.0
 40
0.0
 40
0.0
 40
0.4577530166
 40
1.0
 40
1.0
 40
1.0
 40
1.0
 10
-19.2902735283
 20
-3.3271390984
 30
0.0
 10
-19.2500429711
 20
-3.3843756891
 30
0.0
 10
-19.1392712519
 20
-3.4932914341
 30
0.0
 10
-19.0075372555
 20
-3.5726027717
 30
0.0
 10
-18.9334120325
 20
-3.6096654634
 30
0.0
 11
-19.2902735283
 21
-3.3271390984
 31
0.0
 11
-19.1442384039
 21
-3.4778854676
 31
0.0
 11
-18.9334120325
 21
-3.6096654634
 31
0.0
  0
SPLINE
  5
3C1
100
AcDbEntity
  8
RACCORDO
100
AcDbSpline
 62
253
  6
CONTINUOUS
 70
0
 71
3
 72
9
 73
5
 74
3
 42
0.0000001
 43
0.0000001
 44
0.0000000001
 12
0.0807676367
 22
0.037269573
 32
0.0
 13
0.0790041366
 23
-0.0408751589
 33
0.0
 40
0.0
 40
0.0
 40
0.0
 40
0.0
 40
0.4651168182
 40
1.0
 40
1.0
 40
1.0
 40
1.0
 10
-10.2056788471
 20
24.2312858504
 30
0.0
 10
-10.1931567183
 20
24.2370640855
 30
0.0
 10
-10.1622485701
 20
24.2414666513
 30
0.0
 10
-10.1334431697
 20
24.2314197141
 30
0.0
 10
-10.1193571751
 20
24.2241319025
 30
0.0
 11
-10.2056788471
 21
24.2312858504
 31
0.0
 11
-10.1648598143
 21
24.2380335865
 31
0.0
 11
-10.1193571751
 21
24.2241319025
 31
0.0
  0
SPLINE
  5
3C2
100
AcDbEntity
  8
RACCORDO
100
AcDbSpline
 62
253
  6
CONTINUOUS
 70
0
 71
3
 72
17
 73
13
 74
11
 42
0.0000001
 43
0.0000001
 44
0.0000000001
 12
-2.9913471698
 22
-1.5795538403
 32
0.0
 13
-0.0000000026
 23
3.3827722691
 33
0.0
 40
0.0
 40
0.0
 40
0.0
 40
0.0
 40
0.0447909815
 40
0.0908936943
 40
0.139548759
 40
0.1916273671
 40
0.3072817477
 40
0.437894017
 40
0.5791742537
 40
0.7246704903
 40
0.8671606022
 40
1.0
 40
1.0
 40
1.0
 40
1.0
 10
-1.2515778645
 20
-17.9646842613
 30
0.0
 10
-1.2962396564
 20
-17.9882675169
 30
0.0
 10
-1.3928684182
 20
-18.0255682865
 30
0.0
 10
-1.5498586012
 20
-18.0477508967
 30
0.0
 10
-1.7161288012
 20
-18.0364601883
 30
0.0
 10
-1.9535804071
 20
-17.9756367556
 30
0.0
 10
-2.2542028069
 20
-17.81418052
 30
0.0
 10
-2.5826144223
 20
-17.5215272275
 30
0.0
 10
-2.8695045119
 20
-17.1451296683
 30
0.0
 10
-3.0932910575
 20
-16.7132363378
 30
0.0
 10
-3.2373231028
 20
-16.2587324129
 30
0.0
 10
-3.274564368
 20
-15.9478001655
 30
0.0
 10
-3.2745643681
 20
-15.7980116884
 30
0.0
 11
-1.2515778645
 21
-17.9646842613
 31
0.0
 11
-1.3928399315
 21
-18.0194806008
 31
0.0
 11
-1.5471524607
 21
-18.0420548927
 31
0.0
 11
-1.7114294245
 21
-18.0319247765
 31
0.0
 11
-1.8823655073
 21
-17.9893014309
 31
0.0
 11
-2.2304283575
 21
-17.8106535433
 31
0.0
 11
-2.5635311035
 21
-17.5203817907
 31
0.0
 11
-2.8550512623
 21
-17.1416702378
 31
0.0
 11
-3.0816957861
 21
-16.7047789049
 31
0.0
 11
-3.2253615177
 21
-16.2446752869
 31
0.0
 11
-3.2745643681
 21
-15.7980116884
 31
0.0
  0
SPLINE
  5
3C3
100
AcDbEntity
  8
RACCORDO
100
AcDbSpline
 62
253
  6
CONTINUOUS
 70
0
 71
3
 72
17
 73
13
 74
11
 42
0.0000001
 43
0.0000001
 44
0.0000000001
 12
-2.9913471698
 22
-1.5795538403
 32
0.0
 13
-0.0000000026
 23
3.3827722691
 33
0.0
 40
0.0
 40
0.0
 40
0.0
 40
0.0
 40
0.0447909815
 40
0.0908936943
 40
0.139548759
 40
0.1916273671
 40
0.3072817477
 40
0.437894017
 40
0.5791742537
 40
0.7246704903
 40
0.8671606022
 40
1.0
 40
1.0
 40
1.0
 40
1.0
 10
2.2839560414
 20
-19.7324512142
 30
0.0
 10
2.2392942495
 20
-19.7560344698
 30
0.0
 10
2.1426654878
 20
-19.7933352394
 30
0.0
 10
1.9856753048
 20
-19.8155178497
 30
0.0
 10
1.8194051048
 20
-19.8042271413
 30
0.0
 10
1.5819534989
 20
-19.7434037086
 30
0.0
 10
1.281331099
 20
-19.581947473
 30
0.0
 10
0.9529194837
 20
-19.2892941805
 30
0.0
 10
0.6660293941
 20
-18.9128966212
 30
0.0
 10
0.4422428484
 20
-18.4810032908
 30
0.0
 10
0.2982108031
 20
-18.0264993659
 30
0.0
 10
0.2609695379
 20
-17.7155671184
 30
0.0
 10
0.2609695378
 20
-17.5657786414
 30
0.0
 11
2.2839560414
 21
-19.7324512142
 31
0.0
 11
2.1426939744
 21
-19.7872475538
 31
0.0
 11
1.9883814452
 21
-19.8098218456
 31
0.0
 11
1.8241044815
 21
-19.7996917295
 31
0.0
 11
1.6531683987
 21
-19.7570683839
 31
0.0
 11
1.3051055484
 21
-19.5784204963
 31
0.0
 11
0.9720028024
 21
-19.2881487436
 31
0.0
 11
0.6804826437
 21
-18.9094371908
 31
0.0
 11
0.4538381198
 21
-18.4725458579
 31
0.0
 11
0.3101723882
 21
-18.0124422399
 31
0.0
 11
0.2609695378
 21
-17.5657786414
 31
0.0
  0
SPLINE
  5
3C4
100
AcDbEntity
  8
RACCORDO
100
AcDbSpline
 62
253
  6
CONTINUOUS
 70
0
 71
3
 72
17
 73
13
 74
11
 42
0.0000001
 43
0.0000001
 44
0.0000000001
 12
-2.9913471698
 22
-1.5795538403
 32
0.0
 13
-0.0000000026
 23
3.3827722691
 33
0.0
 40
0.0
 40
0.0
 40
0.0
 40
0.0
 40
0.0447909815
 40
0.0908936943
 40
0.139548759
 40
0.1916273671
 40
0.3072817477
 40
0.437894017
 40
0.5791742537
 40
0.7246704903
 40
0.8671606022
 40
1.0
 40
1.0
 40
1.0
 40
1.0
 10
-4.7871117704
 20
-16.1969173083
 30
0.0
 10
-4.8317735623
 20
-16.2205005639
 30
0.0
 10
-4.9284023241
 20
-16.2578013335
 30
0.0
 10
-5.0853925071
 20
-16.2799839438
 30
0.0
 10
-5.2516627071
 20
-16.2686932354
 30
0.0
 10
-5.489114313
 20
-16.2078698027
 30
0.0
 10
-5.7897367129
 20
-16.0464135671
 30
0.0
 10
-6.1181483282
 20
-15.7537602745
 30
0.0
 10
-6.4050384178
 20
-15.3773627153
 30
0.0
 10
-6.6288249634
 20
-14.9454693848
 30
0.0
 10
-6.7728570087
 20
-14.49096546
 30
0.0
 10
-6.810098274
 20
-14.1800332125
 30
0.0
 10
-6.8100982741
 20
-14.0302447354
 30
0.0
 11
-4.7871117704
 21
-16.1969173083
 31
0.0
 11
-4.9283738374
 21
-16.2517136479
 31
0.0
 11
-5.0826863667
 21
-16.2742879397
 31
0.0
 11
-5.2469633304
 21
-16.2641578236
 31
0.0
 11
-5.4178994132
 21
-16.2215344779
 31
0.0
 11
-5.7659622635
 21
-16.0428865903
 31
0.0
 11
-6.0990650095
 21
-15.7526148377
 31
0.0
 11
-6.3905851682
 21
-15.3739032849
 31
0.0
 11
-6.617229692
 21
-14.937011952
 31
0.0
 11
-6.7608954236
 21
-14.476908334
 31
0.0
 11
-6.8100982741
 21
-14.0302447354
 31
0.0
  0
SPLINE
  5
3C5
100
AcDbEntity
  8
RACCORDO
100
AcDbSpline
 62
253
  6
CONTINUOUS
 70
0
 71
3
 72
17
 73
13
 74
11
 42
0.0000001
 43
0.0000001
 44
0.0000000001
 12
-2.9913471698
 22
-1.5795538403
 32
0.0
 13
-0.0000000026
 23
3.3827722691
 33
0.0
 40
0.0
 40
0.0
 40
0.0
 40
0.0
 40
0.0447909815
 40
0.0908936943
 40
0.139548759
 40
0.1916273671
 40
0.3072817477
 40
0.437894017
 40
0.5791742537
 40
0.7246704903
 40
0.8671606022
 40
1.0
 40
1.0
 40
1.0
 40
1.0
 10
-8.3226456764
 20
-14.4291503553
 30
0.0
 10
-8.3673074683
 20
-14.452733611
 30
0.0
 10
-8.46393623
 20
-14.4900343805
 30
0.0
 10
-8.620926413
 20
-14.5122169908
 30
0.0
 10
-8.787196613
 20
-14.5009262824
 30
0.0
 10
-9.0246482189
 20
-14.4401028497
 30
0.0
 10
-9.3252706188
 20
-14.2786466141
 30
0.0
 10
-9.6536822341
 20
-13.9859933216
 30
0.0
 10
-9.9405723237
 20
-13.6095957623
 30
0.0
 10
-10.1643588694
 20
-13.1777024319
 30
0.0
 10
-10.3083909147
 20
-12.723198507
 30
0.0
 10
-10.3456321799
 20
-12.4122662595
 30
0.0
 10
-10.34563218
 20
-12.2624777825
 30
0.0
 11
-8.3226456764
 21
-14.4291503553
 31
0.0
 11
-8.4639077434
 21
-14.4839466949
 31
0.0
 11
-8.6182202726
 21
-14.5065209867
 31
0.0
 11
-8.7824972363
 21
-14.4963908706
 31
0.0
 11
-8.9534333191
 21
-14.453767525
 31
0.0
 11
-9.3014961694
 21
-14.2751196374
 31
0.0
 11
-9.6345989154
 21
-13.9848478847
 31
0.0
 11
-9.9261190741
 21
-13.6061363319
 31
0.0
 11
-10.152763598
 21
-13.169244999
 31
0.0
 11
-10.2964293296
 21
-12.709141381
 31
0.0
 11
-10.34563218
 21
-12.2624777825
 31
0.0
  0
SPLINE
  5
3C6
100
AcDbEntity
  8
RACCORDO
100
AcDbSpline
 62
253
  6
CONTINUOUS
 70
0
 71
3
 72
17
 73
13
 74
11
 42
0.0000001
 43
0.0000001
 44
0.0000000001
 12
-2.8901836038
 22
-1.5261353334
 32
0.0
 13
-0.1941164895
 23
3.2626015858
 33
0.0
 40
0.0
 40
0.0
 40
0.0
 40
0.0
 40
0.0448215823
 40
0.0908690826
 40
0.1906160116
 40
0.2460426417
 40
0.3053397587
 40
0.4345241505
 40
0.5747418645
 40
0.7201573599
 40
0.8640439259
 40
1.0
 40
1.0
 40
1.0
 40
1.0
 10
-11.8581795823
 20
-12.6613834024
 30
0.0
 10
-11.9013604497
 20
-12.6841846692
 30
0.0
 10
-11.994504257
 20
-12.7205482748
 30
0.0
 10
-12.2011669328
 20
-12.7521968514
 30
0.0
 10
-12.4232007058
 20
-12.7163045096
 30
0.0
 10
-12.6399117308
 20
-12.6280964322
 30
0.0
 10
-12.8710553216
 20
-12.4953945965
 30
0.0
 10
-13.1466191606
 20
-12.2620350978
 30
0.0
 10
-13.4315951899
 20
-11.9084365204
 30
0.0
 10
-13.6607164549
 20
-11.4978660323
 30
0.0
 10
-13.8177115424
 20
-11.0598380034
 30
0.0
 10
-13.8689120983
 20
-10.7569968475
 30
0.0
 10
-13.8777092036
 20
-10.6091400131
 30
0.0
 11
-11.8581795823
 21
-12.6613834024
 31
0.0
 11
-11.9945553697
 21
-12.7148811624
 31
0.0
 11
-12.1432268625
 21
-12.7382720738
 31
0.0
 11
-12.4661430414
 21
-12.6934652076
 31
0.0
 11
-12.6343196858
 21
-12.626132612
 31
0.0
 11
-12.8027861062
 21
-12.530323222
 31
0.0
 11
-13.1279934311
 21
-12.2610425617
 31
0.0
 11
-13.4174546807
 21
-11.9057455214
 31
0.0
 11
-13.6495259549
 21
-11.4909850795
 31
0.0
 11
-13.8068627865
 21
-11.0478108213
 31
0.0
 11
-13.8777092036
 21
-10.6091400131
 31
0.0
  0
SPLINE
  5
3C7
100
AcDbEntity
  8
RACCORDO
100
AcDbSpline
 62
253
  6
CONTINUOUS
 70
0
 71
3
 72
17
 73
13
 74
11
 42
0.0000001
 43
0.0000001
 44
0.0000000001
 12
-2.9913471698
 22
-1.5795538403
 32
0.0
 13
-0.0000000026
 23
3.3827722691
 33
0.0
 40
0.0
 40
0.0
 40
0.0
 40
0.0
 40
0.0447909815
 40
0.0908936943
 40
0.139548759
 40
0.1916273671
 40
0.3072817477
 40
0.437894017
 40
0.5791742537
 40
0.7246704903
 40
0.8671606022
 40
1.0
 40
1.0
 40
1.0
 40
1.0
 10
-15.3937134882
 20
-10.8936164494
 30
0.0
 10
-15.4383752801
 20
-10.917199705
 30
0.0
 10
-15.5350040419
 20
-10.9545004746
 30
0.0
 10
-15.6919942249
 20
-10.9766830849
 30
0.0
 10
-15.8582644249
 20
-10.9653923765
 30
0.0
 10
-16.0957160308
 20
-10.9045689438
 30
0.0
 10
-16.3963384307
 20
-10.7431127082
 30
0.0
 10
-16.724750046
 20
-10.4504594156
 30
0.0
 10
-17.0116401356
 20
-10.0740618564
 30
0.0
 10
-17.2354266812
 20
-9.6421685259
 30
0.0
 10
-17.3794587265
 20
-9.1876646011
 30
0.0
 10
-17.4166999918
 20
-8.8767323536
 30
0.0
 10
-17.4166999919
 20
-8.7269438765
 30
0.0
 11
-15.3937134882
 21
-10.8936164494
 31
0.0
 11
-15.5349755552
 21
-10.948412789
 31
0.0
 11
-15.6892880845
 21
-10.9709870808
 31
0.0
 11
-15.8535650482
 21
-10.9608569647
 31
0.0
 11
-16.024501131
 21
-10.918233619
 31
0.0
 11
-16.3725639812
 21
-10.7395857314
 31
0.0
 11
-16.7056667273
 21
-10.4493139788
 31
0.0
 11
-16.997186886
 21
-10.070602426
 31
0.0
 11
-17.2238314098
 21
-9.6337110931
 31
0.0
 11
-17.3674971414
 21
-9.1736074751
 31
0.0
 11
-17.4166999919
 21
-8.7269438765
 31
0.0
  0
SPLINE
  5
3C8
100
AcDbEntity
  8
RACCORDO
100
AcDbSpline
 62
253
  6
CONTINUOUS
 70
0
 71
3
 72
9
 73
5
 74
3
 42
0.0000001
 43
0.0000001
 44
0.0000000001
 12
0.0612199382
 22
-0.0295824638
 32
0.0
 13
0.048282029
 23
-0.0478732563
 33
0.0
 40
0.0
 40
0.0
 40
0.0
 40
0.0
 40
0.2349033915
 40
1.0
 40
1.0
 40
1.0
 40
1.0
 10
14.2526906488
 20
12.0381079905
 30
0.0
 10
14.2574842392
 20
12.0357916502
 30
0.0
 10
14.2773874583
 20
12.0248967711
 30
0.0
 10
14.2952347293
 20
12.0104471681
 30
0.0
 10
14.3075482015
 20
11.9982379461
 30
0.0
 11
14.2526906488
 21
12.0381079905
 31
0.0
 11
14.2667214601
 21
12.0304770138
 31
0.0
 11
14.3075482015
 21
11.9982379461
 31
0.0
  0
SPLINE
  5
3C9
100
AcDbEntity
  8
RACCORDO
100
AcDbSpline
 62
253
  6
CONTINUOUS
 70
0
 71
3
 72
9
 73
5
 74
3
 42
0.0000001
 43
0.0000001
 44
0.0000000001
 12
0.0356522016
 22
-0.0353503575
 32
0.0
 13
0.0287487896
 23
-0.0411610781
 33
0.0
 40
0.0
 40
0.0
 40
0.0
 40
0.0
 40
0.2447027548
 40
1.0
 40
1.0
 40
1.0
 40
1.0
 10
14.3075482015
 20
11.9982379461
 30
0.0
 10
14.3104562655
 20
11.9953545028
 30
0.0
 10
14.3220498152
 20
11.9832800526
 30
0.0
 10
14.3325064455
 20
11.9701266707
 30
0.0
 10
14.339744406
 20
11.9597637211
 30
0.0
 11
14.3075482015
 21
11.9982379461
 31
0.0
 11
14.3160621345
 21
11.9893805945
 31
0.0
 11
14.339744406
 21
11.9597637211
 31
0.0
  0
SPLINE
  5
3CA
100
AcDbEntity
  8
RACCORDO
100
AcDbSpline
 62
253
  6
CONTINUOUS
 70
0
 71
3
 72
11
 73
7
 74
5
 42
0.0000001
 43
0.0000001
 44
0.0000000001
 12
-0.2319314402
 22
-0.1463262115
 32
0.0
 13
-0.0174639213
 23
-0.2736760212
 33
0.0
 40
0.0
 40
0.0
 40
0.0
 40
0.0
 40
0.2388237708
 40
0.4998867508
 40
0.7610107068
 40
1.0
 40
1.0
 40
1.0
 40
1.0
 10
7.9302145778
 20
-3.112392461
 30
0.0
 10
7.9117509975
 20
-3.1240411868
 30
0.0
 10
7.8768363034
 20
-3.1544311978
 30
0.0
 10
7.8352643695
 20
-3.2107621522
 30
0.0
 10
7.80572722
 20
-3.2742529464
 30
0.0
 10
7.7957650929
 20
-3.3194760599
 30
0.0
 10
7.7943738628
 20
-3.3412779395
 30
0.0
 11
7.9302145778
 21
-3.112392461
 31
0.0
 11
7.8801259642
 21
-3.154588436
 31
0.0
 11
7.8373328136
 21
-3.2119832107
 31
0.0
 11
7.8074430669
 21
-3.2770555665
 31
0.0
 11
7.7943738628
 21
-3.3412779395
 31
0.0
  0
SPLINE
  5
3CB
100
AcDbEntity
  8
RACCORDO
100
AcDbSpline
 62
253
  6
CONTINUOUS
 70
0
 71
3
 72
11
 73
7
 74
5
 42
0.0000001
 43
0.0000001
 44
0.0000000001
 12
-0.0001915466
 22
0.2895606419
 32
0.0
 13
0.2516371788
 23
0.1432624594
 33
0.0
 40
0.0
 40
0.0
 40
0.0
 40
0.0
 40
0.2479656542
 40
0.5139391259
 40
0.7723267397
 40
1.0
 40
1.0
 40
1.0
 40
1.0
 10
7.8591308043
 20
-3.374832026
 30
0.0
 10
7.859114972
 20
-3.350898328
 30
0.0
 10
7.8668579165
 20
-3.3012147785
 30
0.0
 10
7.8949497211
 20
-3.2315602889
 30
0.0
 10
7.9363604192
 20
-3.1712707784
 30
0.0
 10
7.9725134794
 20
-3.1399526539
 30
0.0
 10
7.9916104983
 20
-3.1290803102
 30
0.0
 11
7.8591308043
 21
-3.374832026
 31
0.0
 11
7.8691357619
 21
-3.3037313918
 31
0.0
 11
7.8977473839
 21
-3.2322278458
 31
0.0
 11
7.9407047359
 21
-3.1709699185
 31
0.0
 11
7.9916104983
 21
-3.1290803102
 31
0.0
  0
SPLINE
  5
3CC
100
AcDbEntity
  8
RACCORDO
100
AcDbSpline
 62
253
  6
CONTINUOUS
 70
0
 71
3
 72
9
 73
5
 74
3
 42
0.0000001
 43
0.0000001
 44
0.0000000001
 12
-0.5582730195
 22
0.1708847846
 32
0.0
 13
-0.5006549693
 23
0.300358079
 33
0.0
 40
0.0
 40
0.0
 40
0.0
 40
0.0
 40
0.5006223648
 40
1.0
 40
1.0
 40
1.0
 40
1.0
 10
7.9302145534
 20
-3.1123917691
 30
0.0
 10
7.8370532337
 20
-3.0838755208
 30
0.0
 10
7.6560344596
 20
-3.0103600868
 30
0.0
 10
7.4842895076
 20
-2.9182686827
 30
0.0
 10
7.4009508761
 20
-2.8682713136
 30
0.0
 11
7.9302145534
 21
-3.1123917691
 31
0.0
 11
7.658133371
 21
-3.0056130192
 31
0.0
 11
7.4009508761
 21
-2.8682713136
 31
0.0
  0
SPLINE
  5
3CD
100
AcDbEntity
  8
RACCORDO
100
AcDbSpline
 62
253
  6
CONTINUOUS
 70
0
 71
3
 72
9
 73
5
 74
3
 42
0.0000001
 43
0.0000001
 44
0.0000000001
 12
0.2591397452
 22
-0.3052997751
 32
0.0
 13
0.2712494435
 23
-0.2945931086
 33
0.0
 40
0.0
 40
0.0
 40
0.0
 40
0.0
 40
0.2511703825
 40
1.0
 40
1.0
 40
1.0
 40
1.0
 10
7.0811959666
 20
-2.646925364
 30
0.0
 10
7.1028920429
 20
-2.6724861178
 30
0.0
 10
7.1892493974
 20
-2.7742641729
 30
0.0
 10
7.2767001983
 20
-2.875174717
 30
0.0
 10
7.3444067373
 20
-2.9487080653
 30
0.0
 11
7.0811959666
 21
-2.646925364
 31
0.0
 11
7.1463418442
 21
-2.7235586556
 31
0.0
 11
7.3444067373
 21
-2.9487080653
 31
0.0
  0
SPLINE
  5
3CE
100
AcDbEntity
  8
RACCORDO
100
AcDbSpline
 62
253
  6
CONTINUOUS
 70
0
 71
3
 72
9
 73
5
 74
3
 42
0.0000001
 43
0.0000001
 44
0.0000000001
 12
-0.265099762
 22
-0.0227567692
 32
0.0
 13
-0.261900203
 23
-0.0469471834
 33
0.0
 40
0.0
 40
0.0
 40
0.0
 40
0.0
 40
0.2520574695
 40
1.0
 40
1.0
 40
1.0
 40
1.0
 10
7.3444112588
 20
-16.5783688418
 30
0.0
 10
7.3221378004
 20
-16.5802808463
 30
0.0
 10
7.2339267105
 20
-16.5897846301
 30
0.0
 10
7.1465132765
 20
-16.6052303635
 30
0.0
 10
7.081217843
 20
-16.6169349619
 30
0.0
 11
7.3444112588
 21
-16.5783688418
 31
0.0
 11
7.2777199497
 21
-16.5854493554
 31
0.0
 11
7.081217843
 21
-16.6169349619
 31
0.0
  0
SPLINE
  5
3CF
100
AcDbEntity
  8
RACCORDO
100
AcDbSpline
 62
253
  6
CONTINUOUS
 70
0
 71
3
 72
9
 73
5
 74
3
 42
0.0000001
 43
0.0000001
 44
0.0000000001
 12
0.3174399575
 22
-0.0652803173
 32
0.0
 13
0.3211915932
 23
-0.0431926723
 33
0.0
 40
0.0
 40
0.0
 40
0.0
 40
0.0
 40
0.2381964061
 40
1.0
 40
1.0
 40
1.0
 40
1.0
 10
7.0811502815
 20
-16.6169465119
 30
0.0
 10
7.1063546338
 20
-16.6221296909
 30
0.0
 10
7.2124548384
 20
-16.6425079223
 30
0.0
 10
7.3194000093
 20
-16.6581610372
 30
0.0
 10
7.400961646
 20
-16.6691291482
 30
0.0
 11
7.0811502815
 21
-16.6169465119
 31
0.0
 11
7.15694795
 21
-16.6315696424
 31
0.0
 11
7.400961646
 21
-16.6691291482
 31
0.0
  0
SPLINE
  5
3D0
100
AcDbEntity
  8
RACCORDO
100
AcDbSpline
 62
253
  6
CONTINUOUS
 70
0
 71
3
 72
12
 73
8
 74
6
 42
0.0000001
 43
0.0000001
 44
0.0000000001
 12
-0.0139716535
 22
-1.2879755209
 32
0.0
 13
-1.16883636
 23
-0.5412002525
 33
0.0
 40
0.0
 40
0.0
 40
0.0
 40
0.0
 40
0.2905112548
 40
0.5504303289
 40
0.7830267878
 40
0.8925975648
 40
1.0
 40
1.0
 40
1.0
 40
1.0
 10
9.1837992427
 20
-25.138599504
 30
0.0
 10
9.1824462685
 20
-25.2633232989
 30
0.0
 10
9.1596070849
 20
-25.5003652431
 30
0.0
 10
9.054300708
 20
-25.822964327
 30
0.0
 10
8.9062395153
 20
-26.0407149633
 30
0.0
 10
8.7591208477
 20
-26.167086118
 30
0.0
 10
8.6780443326
 20
-26.2142433096
 30
0.0
 10
8.6361990421
 20
-26.233618718
 30
0.0
 11
9.1837992427
 21
-25.138599504
 31
0.0
 11
9.1440792174
 21
-25.5106788229
 31
0.0
 11
9.0353418098
 21
-25.8273172895
 31
0.0
 11
8.8631265355
 21
-26.0724698236
 31
0.0
 11
8.7558423149
 21
-26.1641680139
 31
0.0
 11
8.6361990421
 21
-26.233618718
 31
0.0
  0
SPLINE
  5
3D1
100
AcDbEntity
  8
RACCORDO
100
AcDbSpline
 62
253
  6
CONTINUOUS
 70
0
 71
3
 72
14
 73
10
 74
8
 42
0.0000001
 43
0.0000001
 44
0.0000000001
 12
2.6117707376
 22
-1.3413841758
 32
0.0
 13
0.032190807
 23
-2.9359192163
 33
0.0
 40
0.0
 40
0.0
 40
0.0
 40
0.0
 40
0.1099379949
 40
0.229434755
 40
0.3564806036
 40
0.4883383995
 40
0.753288081
 40
0.8804046513
 40
1.0
 40
1.0
 40
1.0
 40
1.0
 10
7.7697113064
 20
8.2953738976
 30
0.0
 10
7.8654222524
 20
8.2462175354
 30
0.0
 10
8.0552360991
 20
8.1237416516
 30
0.0
 10
8.3161497281
 20
7.8904962458
 30
0.0
 10
8.5572217303
 20
7.6078969661
 30
0.0
 10
8.8400855514
 20
7.1792888114
 30
0.0
 10
9.0471231423
 20
6.7038072975
 30
0.0
 10
9.1602346661
 20
6.2149806864
 30
0.0
 10
9.1825159271
 20
5.9734759919
 30
0.0
 10
9.1837992174
 20
5.8564352311
 30
0.0
 11
7.7697113064
 21
8.2953738976
 31
0.0
 11
8.0423027068
 21
8.1224972752
 31
0.0
 11
8.305131778
 21
7.8900766346
 31
0.0
 11
8.5481018054
 21
7.6070420656
 31
0.0
 11
8.7618756849
 21
7.2842672059
 31
0.0
 11
9.070418138
 21
6.5701542076
 31
0.0
 11
9.1533334955
 21
6.2062544967
 31
0.0
 11
9.1837992174
 21
5.8564352311
 31
0.0
  0
SPLINE
  5
3D2
100
AcDbEntity
  8
RACCORDO
100
AcDbSpline
 62
253
  6
CONTINUOUS
 70
0
 71
3
 72
9
 73
5
 74
3
 42
0.0000001
 43
0.0000001
 44
0.0000000001
 12
0.3124573704
 22
-0.0419992242
 32
0.0
 13
0.3119018419
 23
-0.0459432709
 33
0.0
 40
0.0
 40
0.0
 40
0.0
 40
0.0
 40
0.2422470307
 40
1.0
 40
1.0
 40
1.0
 40
1.0
 10
7.4009614622
 20
-16.669129498
 30
0.0
 10
7.4261920856
 20
-16.6725208938
 30
0.0
 10
7.5303932925
 20
-16.6861441327
 30
0.0
 10
7.6346941949
 20
-16.6990978958
 30
0.0
 10
7.7134757105
 20
-16.7107024458
 30
0.0
 11
7.4009614622
 21
-16.669129498
 31
0.0
 11
7.476682802
 21
-16.6790819848
 31
0.0
 11
7.7134757105
 21
-16.7107024458
 31
0.0
  0
SPLINE
  5
3D3
100
AcDbEntity
  8
RACCORDO
100
AcDbSpline
 62
253
  6
CONTINUOUS
 70
0
 71
3
 72
9
 73
5
 74
3
 42
0.0000001
 43
0.0000001
 44
0.0000000001
 12
-0.0790041367
 22
0.040875159
 32
0.0
 13
-0.0807676369
 23
-0.0372695729
 33
0.0
 40
0.0
 40
0.0
 40
0.0
 40
0.0
 40
0.5348831864
 40
1.0
 40
1.0
 40
1.0
 40
1.0
 10
17.6553682028
 20
1.1546631021
 30
0.0
 10
17.641282208
 20
1.1619509138
 30
0.0
 10
17.6124768076
 20
1.1719978512
 30
0.0
 10
17.5815686593
 20
1.1675952852
 30
0.0
 10
17.5690465307
 20
1.1618170502
 30
0.0
 11
17.6553682028
 21
1.1546631021
 31
0.0
 11
17.609865563
 21
1.1685647863
 31
0.0
 11
17.5690465307
 21
1.1618170502
 31
0.0
  0
SPLINE
  5
3D4
100
AcDbEntity
  8
RACCORDO
100
AcDbSpline
 62
7
  6
CONTINUOUS
 70
0
 71
3
 72
11
 73
7
 74
5
 42
0.0000001
 43
0.0000001
 44
0.0000000001
 12
0.2626045656
 22
-0.1313022828
 32
0.0
 13
-0.0
 23
-0.2936008299
 33
0.0
 40
0.0
 40
0.0
 40
0.0
 40
0.0
 40
0.2296740836
 40
0.4882138821
 40
0.7532075651
 40
1.0
 40
1.0
 40
1.0
 40
1.0
 10
14.4385888038
 20
-1.0791242672
 30
0.0
 10
14.4586932915
 20
-1.0891765111
 30
0.0
 10
14.4971113536
 20
-1.1192292852
 30
0.0
 10
14.5414737138
 20
-1.1788979709
 30
0.0
 10
14.571655709
 20
-1.2486768339
 30
0.0
 10
14.5799886209
 20
-1.2988500553
 30
0.0
 10
14.5799886209
 20
-1.3230028766
 30
0.0
 11
14.4385888038
 21
-1.0791242672
 31
0.0
 11
14.4927012867
 21
-1.119360836
 31
0.0
 11
14.5385761855
 21
-1.1798376259
 31
0.0
 11
14.5692269287
 21
-1.2513480446
 31
0.0
 11
14.5799886209
 21
-1.3230028766
 31
0.0
  0
SPLINE
  5
3D5
100
AcDbEntity
  8
RACCORDO
100
AcDbSpline
 62
253
  6
CONTINUOUS
 70
0
 71
3
 72
11
 73
7
 74
5
 42
0.0000001
 43
0.0000001
 44
0.0000000001
 12
0.0040900125
 22
0.2942829918
 32
0.0
 13
-0.2649951358
 23
0.1280499336
 33
0.0
 40
0.0
 40
0.0
 40
0.0
 40
0.0
 40
0.2470852825
 40
0.5114851658
 40
0.7695777888
 40
1.0
 40
1.0
 40
1.0
 40
1.0
 10
18.437567567
 20
0.5903847192
 30
0.0
 10
18.4379044277
 20
0.6146223846
 30
0.0
 10
18.4301172206
 20
0.6650147117
 30
0.0
 10
18.4001361988
 20
0.7350469597
 30
0.0
 10
18.3554339265
 20
0.7947111626
 30
0.0
 10
18.3165213383
 20
0.8244281455
 30
0.0
 10
18.2961677499
 20
0.8342633285
 30
0.0
 11
18.437567567
 21
0.5903847192
 31
0.0
 11
18.4275480402
 21
0.6624111738
 31
0.0
 11
18.3971591028
 21
0.7340479469
 31
0.0
 11
18.351025424
 21
0.7943931636
 31
0.0
 11
18.2961677499
 21
0.8342633285
 31
0.0
  0
SPLINE
  5
3D6
100
AcDbEntity
  8
RACCORDO
100
AcDbSpline
 62
253
  6
CONTINUOUS
 70
0
 71
3
 72
11
 73
7
 74
5
 42
0.0000001
 43
0.0000001
 44
0.0000000001
 12
0.0830282238
 22
0.0429891214
 32
0.0
 13
0.0000641042
 23
0.0934973069
 33
0.0
 40
0.0
 40
0.0
 40
0.0
 40
0.0
 40
0.3006948433
 40
0.5638012137
 40
0.7923303283
 40
1.0
 40
1.0
 40
1.0
 40
1.0
 10
20.3489564295
 20
-0.8444665375
 30
0.0
 10
20.3572784824
 20
-0.8401576685
 30
0.0
 10
20.3723288606
 20
-0.8309010697
 30
0.0
 10
20.3906155246
 20
-0.8139939096
 30
0.0
 10
20.4022868853
 20
-0.7951914421
 30
0.0
 10
20.4050839585
 20
-0.7815000269
 30
0.0
 10
20.405088396
 20
-0.7750278419
 30
0.0
 11
20.3489564295
 21
-0.8444665375
 31
0.0
 11
20.3727525431
 21
-0.8294948566
 31
0.0
 11
20.3905138552
 21
-0.8124747761
 31
0.0
 11
20.4014045086
 21
-0.7940917281
 31
0.0
 11
20.405088396
 21
-0.7750278419
 31
0.0
  0
SPLINE
  5
3D7
100
AcDbEntity
  8
RACCORDO
100
AcDbSpline
 62
253
  6
CONTINUOUS
 70
0
 71
3
 72
13
 73
9
 74
7
 42
0.0000001
 43
0.0000001
 44
0.0000000001
 12
-1.9462618365
 22
-0.9397417228
 32
0.0
 13
-1.9330906489
 23
0.9665454904
 33
0.0
 40
0.0
 40
0.0
 40
0.0
 40
0.0
 40
0.1133535612
 40
0.2368723615
 40
0.5012470316
 40
0.7649485875
 40
0.8876723302
 40
1.0
 40
1.0
 40
1.0
 40
1.0
 10
9.183798009
 20
-25.1387100198
 30
0.0
 10
9.1102594389
 20
-25.1742177101
 30
0.0
 10
8.9506173819
 20
-25.2363194145
 30
0.0
 10
8.5999812541
 20
-25.3253019867
 30
0.0
 10
8.1291428996
 20
-25.3668024904
 30
0.0
 10
7.6591943505
 20
-25.3213744273
 30
0.0
 10
7.3112096401
 20
-25.2292709527
 30
0.0
 10
7.1535301375
 20
-25.1657251897
 30
0.0
 10
7.0811502815
 20
-25.1295352554
 30
0.0
 11
9.183798009
 21
-25.1387100198
 31
0.0
 11
8.9560813251
 21
-25.2290624855
 31
0.0
 11
8.6976065754
 21
-25.2958196066
 31
0.0
 11
8.1287206359
 21
-25.3491766448
 31
0.0
 11
7.5617837661
 21
-25.2908635188
 31
0.0
 11
7.3056785406
 21
-25.2218610641
 31
0.0
 11
7.0811502815
 21
-25.1295352554
 31
0.0
  0
SPLINE
  5
3D8
100
AcDbEntity
  8
RACCORDO
100
AcDbSpline
 62
253
  6
CONTINUOUS
 70
0
 71
3
 72
9
 73
5
 74
3
 42
0.0000001
 43
0.0000001
 44
0.0000000001
 12
0.57821433
 22
-0.2891062458
 32
0.0
 13
0.6380028134
 23
-0.1042431906
 33
0.0
 40
0.0
 40
0.0
 40
0.0
 40
0.0
 40
0.4747932274
 40
1.0
 40
1.0
 40
1.0
 40
1.0
 10
7.0812178447
 20
-16.61698045
 30
0.0
 10
7.172728594
 20
-16.6627356792
 30
0.0
 10
7.3750740685
 20
-16.7401301606
 30
0.0
 10
7.5859034089
 20
-16.787681693
 30
0.0
 10
7.6975978751
 20
-16.8059314363
 30
0.0
 11
7.0812178447
 21
-16.61698045
 31
0.0
 11
7.3667856218
 21
-16.7295009759
 31
0.0
 11
7.6975978751
 21
-16.8059314363
 31
0.0
  0
SPLINE
  5
3D9
100
AcDbEntity
  8
RACCORDO
100
AcDbSpline
 62
253
  6
CONTINUOUS
 70
0
 71
3
 72
13
 73
9
 74
7
 42
0.0000001
 43
0.0000001
 44
0.0000000001
 12
-1.930550016
 22
-0.9780390394
 32
0.0
 13
-1.9356817865
 23
0.9678428325
 33
0.0
 40
0.0
 40
0.0
 40
0.0
 40
0.0
 40
0.1140886521
 40
0.2379458754
 40
0.5023515664
 40
0.7654888631
 40
0.8878523118
 40
1.0
 40
1.0
 40
1.0
 40
1.0
 10
9.1838984148
 20
-2.6307459798
 30
0.0
 10
9.1104804651
 20
-2.667940365
 30
0.0
 10
8.9511108796
 20
-2.7334650163
 30
0.0
 10
8.6007924927
 20
-2.8287914036
 30
0.0
 10
8.1299925573
 20
-2.8772290925
 30
0.0
 10
7.6594541777
 20
-2.8363938465
 30
0.0
 10
7.3112366398
 20
-2.7462783659
 30
0.0
 10
7.1535567132
 20
-2.6830748565
 30
0.0
 10
7.0811959674
 20
-2.6468944111
 30
0.0
 11
9.1838984148
 21
-2.6307459798
 31
0.0
 11
8.9561446549
 21
-2.7260915803
 31
0.0
 11
8.6978016263
 21
-2.7975612888
 31
0.0
 11
8.1289090138
 21
-2.8591426501
 31
0.0
 11
7.5618942254
 21
-2.806309326
 31
0.0
 11
7.3058345461
 21
-2.7387825409
 31
0.0
 11
7.0811959674
 21
-2.6468944111
 31
0.0
  0
SPLINE
  5
3DA
100
AcDbEntity
  8
RACCORDO
100
AcDbSpline
 62
253
  6
CONTINUOUS
 70
0
 71
3
 72
13
 73
9
 74
7
 42
0.0000001
 43
0.0000001
 44
0.0000000001
 12
-1.9462618651
 22
-0.9397416244
 32
0.0
 13
-1.9330907
 23
0.96654535
 33
0.0
 40
0.0
 40
0.0
 40
0.0
 40
0.0
 40
0.1133535586
 40
0.2368723557
 40
0.5012470254
 40
0.7649485849
 40
0.8876723304
 40
1.0
 40
1.0
 40
1.0
 40
1.0
 10
9.183798009
 20
5.8565423006
 30
0.0
 10
9.1102594395
 20
5.8210346148
 30
0.0
 10
8.9506173855
 20
5.7589329184
 30
0.0
 10
8.5999812613
 20
5.6699503614
 30
0.0
 10
8.129142911
 20
5.628449866
 30
0.0
 10
7.6591943615
 20
5.6738779213
 30
0.0
 10
7.3112096463
 20
5.7659813829
 30
0.0
 10
7.1535301393
 20
5.829527136
 30
0.0
 10
7.0811502815
 20
5.865717065
 30
0.0
 11
9.183798009
 21
5.8565423006
 31
0.0
 11
8.9560813285
 21
5.7661898469
 31
0.0
 11
8.6976065851
 21
5.6994327373
 31
0.0
 11
8.12872065
 21
5.6460757083
 31
0.0
 11
7.5617837762
 21
5.7043888255
 31
0.0
 11
7.3056785442
 21
5.7733912708
 31
0.0
 11
7.0811502815
 21
5.865717065
 31
0.0
  0
SPLINE
  5
3DB
100
AcDbEntity
  8
RACCORDO
100
AcDbSpline
 62
253
  6
CONTINUOUS
 70
0
 71
3
 72
13
 73
9
 74
7
 42
0.0000001
 43
0.0000001
 44
0.0000000001
 12
-1.9370201613
 22
-1.0099198182
 32
0.0
 13
-0.0000001141
 23
-2.1844873871
 33
0.0
 40
0.0
 40
0.0
 40
0.0
 40
0.0
 40
0.1110374546
 40
0.2311721489
 40
0.3583189154
 40
0.4899637707
 40
0.7540634706
 40
1.0
 40
1.0
 40
1.0
 40
1.0
 10
7.7697998382
 20
8.2953283938
 30
0.0
 10
7.6981059087
 20
8.2579487518
 30
0.0
 10
7.5562444001
 20
8.1655234167
 30
0.0
 10
7.3616326018
 20
7.9905099495
 30
0.0
 10
7.1827951777
 20
7.7793302045
 30
0.0
 10
6.9740976012
 20
7.4599128724
 30
0.0
 10
6.7887815329
 20
7.0264347471
 30
0.0
 10
6.7276507481
 20
6.6544953371
 30
0.0
 10
6.7276507388
 20
6.4754135883
 30
0.0
 11
7.7697998382
 21
8.2953283938
 31
0.0
 11
7.5655890544
 21
8.1644342757
 31
0.0
 11
7.3695945793
 21
7.9899146478
 31
0.0
 11
7.1894680389
 21
7.7784914372
 31
0.0
 11
7.0317945899
 21
7.5379933252
 31
0.0
 11
6.8066392652
 21
7.0068204641
 31
0.0
 11
6.7276507388
 21
6.4754135883
 31
0.0
  0
SPLINE
  5
3DC
100
AcDbEntity
  8
RACCORDO
100
AcDbSpline
 62
253
  6
CONTINUOUS
 70
0
 71
3
 72
13
 73
9
 74
7
 42
0.0000001
 43
0.0000001
 44
0.0000000001
 12
-1.9370202266
 22
-1.0099197341
 32
0.0
 13
0.0
 23
-2.1844874062
 33
0.0
 40
0.0
 40
0.0
 40
0.0
 40
0.0
 40
0.1110374557
 40
0.231172149
 40
0.3583189143
 40
0.4899637684
 40
0.7540634668
 40
1.0
 40
1.0
 40
1.0
 40
1.0
 10
-17.5377177064
 20
20.9490871661
 30
0.0
 10
-17.609411639
 20
20.9117075269
 30
0.0
 10
-17.7512731533
 20
20.8192821976
 30
0.0
 10
-17.9458849589
 20
20.6442687358
 30
0.0
 10
-18.1247223883
 20
20.4330889954
 30
0.0
 10
-18.3334199685
 20
20.1136716648
 30
0.0
 10
-18.5187360346
 20
19.6801935322
 30
0.0
 10
-18.5798668058
 20
19.3082541137
 30
0.0
 10
-18.5798668058
 20
19.1291723606
 30
0.0
 11
-17.5377177064
 21
20.9490871661
 31
0.0
 11
-17.7419284999
 21
20.8181930548
 31
0.0
 11
-17.9379229812
 21
20.6436734336
 31
0.0
 11
-18.1180495266
 21
20.4322502273
 31
0.0
 11
-18.275722978
 21
20.1917521174
 31
0.0
 11
-18.5008782979
 21
19.6605792522
 31
0.0
 11
-18.5798668058
 21
19.1291723606
 31
0.0
  0
SPLINE
  5
3DD
100
AcDbEntity
  8
RACCORDO
100
AcDbSpline
 62
253
  6
CONTINUOUS
 70
0
 71
3
 72
11
 73
7
 74
5
 42
0.0000001
 43
0.0000001
 44
0.0000000001
 12
0.0830519927
 22
0.043001428
 32
0.0
 13
0.0000129856
 23
0.0935240939
 33
0.0
 40
0.0
 40
0.0
 40
0.0
 40
0.0
 40
0.300708284
 40
0.5638120708
 40
0.7923304554
 40
1.0
 40
1.0
 40
1.0
 40
1.0
 10
20.3489564295
 20
-9.3376472295
 30
0.0
 10
20.3572812369
 20
-9.3333369343
 30
0.0
 10
20.3723360639
 20
-9.3240771273
 30
0.0
 10
20.3906263018
 20
-9.3071630119
 30
0.0
 10
20.4022960846
 20
-9.288352113
 30
0.0
 10
20.4050875083
 20
-9.2746554278
 30
0.0
 10
20.4050884072
 20
-9.2681813924
 30
0.0
 11
20.3489564295
 21
-9.3376472295
 31
0.0
 11
20.3727599506
 21
-9.3226698482
 31
0.0
 11
20.3905240623
 21
-9.3056428603
 31
0.0
 11
20.4014122757
 21
-9.2872524245
 31
0.0
 11
20.4050884072
 21
-9.2681813924
 31
0.0
  0
SPLINE
  5
3DE
100
AcDbEntity
  8
RACCORDO
100
AcDbSpline
 62
253
  6
CONTINUOUS
 70
0
 71
3
 72
11
 73
7
 74
5
 42
0.0000001
 43
0.0000001
 44
0.0000000001
 12
-0.65136218
 22
0.3256801178
 32
0.0
 13
-0.0000461476
 23
0.72824462
 33
0.0
 40
0.0
 40
0.0
 40
0.0
 40
0.0
 40
0.3002677585
 40
0.5622339032
 40
0.790958703
 40
1.0
 40
1.0
 40
1.0
 40
1.0
 10
-18.9334339075
 20
10.3604205767
 30
0.0
 10
-18.9986282614
 20
10.3930176563
 30
0.0
 10
-19.1165747077
 20
10.4633177728
 30
0.0
 10
-19.2595132445
 20
10.5940530515
 30
0.0
 10
-19.3510068381
 20
10.7403446718
 30
0.0
 10
-19.3727024704
 20
10.8474471751
 30
0.0
 10
-19.372705686
 20
10.898191575
 30
0.0
 11
-18.9334339075
 21
10.3604205767
 31
0.0
 11
-19.1199485775
 21
10.4745614473
 31
0.0
 11
-19.2585331915
 21
10.6056704542
 31
0.0
 11
-19.3438773537
 21
10.7487128993
 31
0.0
 11
-19.372705686
 21
10.898191575
 31
0.0
  0
SPLINE
  5
3DF
100
AcDbEntity
  8
RACCORDO
100
AcDbSpline
 62
253
  6
CONTINUOUS
 70
0
 71
3
 72
11
 73
7
 74
5
 42
0.0000001
 43
0.0000001
 44
0.0000000001
 12
0.001732257
 22
-0.1228448802
 32
0.0
 13
-0.1081510806
 23
-0.058285582
 33
0.0
 40
0.0
 40
0.0
 40
0.0
 40
0.0
 40
0.2880667094
 40
0.5480551424
 40
0.7818193614
 40
1.0
 40
1.0
 40
1.0
 40
1.0
 10
18.437567567
 20
-12.7517995947
 30
0.0
 10
18.4377339022
 20
-12.7635954348
 30
0.0
 10
18.4361110764
 20
-12.7861414863
 30
0.0
 10
18.4270136557
 20
-12.8171623352
 30
0.0
 10
18.411298971
 20
-12.8422318488
 30
0.0
 10
18.3965282576
 20
-12.8541080142
 30
0.0
 10
18.388662767
 20
-12.8583469427
 30
0.0
 11
18.437567567
 21
-12.7517995947
 31
0.0
 11
18.4347144074
 21
-12.7870754375
 31
0.0
 11
18.4252796907
 21
-12.8175916731
 31
0.0
 11
18.4096721952
 21
-12.8417002
 31
0.0
 11
18.388662767
 21
-12.8583469427
 31
0.0
  0
SPLINE
  5
3E0
100
AcDbEntity
  8
RACCORDO
100
AcDbSpline
 62
7
  6
CONTINUOUS
 70
0
 71
3
 72
11
 73
7
 74
5
 42
0.0000001
 43
0.0000001
 44
0.0000000001
 12
0.0
 22
-0.123615902
 32
0.0
 13
-0.1088193585
 23
-0.0586450205
 33
0.0
 40
0.0
 40
0.0
 40
0.0
 40
0.0
 40
0.2886202592
 40
0.5491884334
 40
0.7829680968
 40
1.0
 40
1.0
 40
1.0
 40
1.0
 10
14.5799886209
 20
-14.8330519355
 30
0.0
 10
14.5799886209
 20
-14.8449446201
 30
0.0
 10
14.5780653348
 20
-14.8676483071
 30
0.0
 10
14.5686401824
 20
-14.8988166201
 30
0.0
 10
14.5527737783
 20
-14.9239607994
 30
0.0
 10
14.537963669
 20
-14.9358921663
 30
0.0
 10
14.5300912448
 20
-14.9401347798
 30
0.0
 11
14.5799886209
 21
-14.8330519355
 31
0.0
 11
14.5766723927
 21
-14.8685755354
 31
0.0
 11
14.5669077372
 21
-14.899270151
 31
0.0
 11
14.5511214341
 21
-14.9234763099
 31
0.0
 11
14.5300912448
 21
-14.9401347798
 31
0.0
  0
SPLINE
  5
3E1
100
AcDbEntity
  8
RACCORDO
100
AcDbSpline
 62
253
  6
CONTINUOUS
 70
0
 71
3
 72
13
 73
9
 74
7
 42
0.0000001
 43
0.0000001
 44
0.0000000001
 12
-2.4103025358
 22
-0.9824744969
 32
0.0
 13
-2.4131214768
 23
0.9755302095
 33
0.0
 40
0.0
 40
0.0
 40
0.0
 40
0.0
 40
0.1141458257
 40
0.236797781
 40
0.497399542
 40
0.7593811752
 40
0.8836816917
 40
1.0
 40
1.0
 40
1.0
 40
1.0
 10
10.504773473
 20
-16.7126136245
 30
0.0
 10
10.4130648152
 20
-16.7499954121
 30
0.0
 10
10.2176995329
 20
-16.815320473
 30
0.0
 10
9.7957864091
 20
-16.9087112123
 30
0.0
 10
9.234700213
 20
-16.9526991809
 30
0.0
 10
8.6725620166
 20
-16.9050681974
 30
0.0
 10
8.2465698557
 20
-16.8093523688
 30
0.0
 10
8.0480844746
 20
-16.7430018879
 30
0.0
 10
7.9545210719
 20
-16.70517788
 30
0.0
 11
10.504773473
 21
-16.7126136245
 31
0.0
 11
10.2234403866
 21
-16.8081258124
 31
0.0
 11
9.9119627857
 21
-16.8781160958
 31
0.0
 11
9.235976782
 21
-16.9341765894
 31
0.0
 11
8.5567234603
 21
-16.8741758532
 31
0.0
 11
8.2412606978
 21
-16.80235442
 31
0.0
 11
7.9545210719
 21
-16.70517788
 31
0.0
  0
SPLINE
  5
3E2
100
AcDbEntity
  8
RACCORDO
100
AcDbSpline
 62
253
  6
CONTINUOUS
 70
0
 71
3
 72
13
 73
9
 74
7
 42
0.0000001
 43
0.0000001
 44
0.0000000001
 12
2.5594233573
 22
-1.1676907703
 32
0.0
 13
2.5145117545
 23
1.2614992245
 33
0.0
 40
0.0
 40
0.0
 40
0.0
 40
0.0
 40
0.1141298561
 40
0.2376664777
 40
0.5009860736
 40
0.7637729611
 40
0.8866814907
 40
1.0
 40
1.0
 40
1.0
 40
1.0
 10
7.8591313713
 20
-3.3748309034
 30
0.0
 10
7.9565002444
 20
-3.4192536966
 30
0.0
 10
8.1663940595
 20
-3.496511712
 30
0.0
 10
8.6242780271
 20
-3.6051609766
 30
0.0
 10
9.2358574586
 20
-3.6511919137
 30
0.0
 10
9.8450456848
 20
-3.5850710533
 30
0.0
 10
10.2971599594
 20
-3.4612551266
 30
0.0
 10
10.5029245661
 20
-3.3770486527
 30
0.0
 10
10.5979048073
 20
-3.3293982489
 30
0.0
 11
7.8591313713
 21
-3.3748309034
 31
0.0
 11
8.159775717
 21
-3.4875239179
 31
0.0
 11
8.497603825
 21
-3.5690858999
 31
0.0
 11
9.2359934527
 21
-3.6284644402
 31
0.0
 11
9.9705000104
 21
-3.544636403
 31
0.0
 11
10.303612404
 21
-3.4519472033
 31
0.0
 11
10.5979048073
 21
-3.3293982489
 31
0.0
  0
SPLINE
  5
3E3
100
AcDbEntity
  8
RACCORDO
100
AcDbSpline
 62
253
  6
CONTINUOUS
 70
0
 71
3
 72
11
 73
7
 74
5
 42
0.0000001
 43
0.0000001
 44
0.0000000001
 12
-0.7889182835
 22
0.4322301981
 32
0.0
 13
-0.0006671505
 23
0.899563537
 33
0.0
 40
0.0
 40
0.0
 40
0.0
 40
0.0
 40
0.2976366683
 40
0.5586239251
 40
0.7884317098
 40
1.0
 40
1.0
 40
1.0
 40
1.0
 10
-19.7085125256
 20
10.4089910172
 30
0.0
 10
-19.7867828621
 20
10.4518735359
 30
0.0
 10
-19.9282406879
 20
10.5434259004
 30
0.0
 10
-20.0985453053
 20
10.7103230857
 30
0.0
 10
-20.2068170605
 20
10.8945632626
 30
0.0
 10
-20.232329363
 20
11.0278654207
 30
0.0
 10
-20.2323764123
 20
11.0913051272
 30
0.0
 11
-19.7085125256
 21
10.4089910172
 31
0.0
 11
-19.9316186435
 21
10.5570115024
 31
0.0
 11
-20.0966963238
 21
10.7239501495
 31
0.0
 11
-20.1981000433
 21
10.9040979754
 31
0.0
 11
-20.2323764123
 21
11.0913051272
 31
0.0
  0
SPLINE
  5
3E4
100
AcDbEntity
  8
RACCORDO
100
AcDbSpline
 62
253
  6
CONTINUOUS
 70
0
 71
3
 72
11
 73
7
 74
5
 42
0.0000001
 43
0.0000001
 44
0.0000000001
 12
-0.7536503116
 22
0.4115461469
 32
0.0
 13
-0.049929204
 23
0.857243313
 33
0.0
 40
0.0
 40
0.0
 40
0.0
 40
0.0
 40
0.2998538234
 40
0.5625054662
 40
0.79213155
 40
1.0
 40
1.0
 40
1.0
 40
1.0
 10
-19.7085093293
 20
-2.8803099176
 30
0.0
 10
-19.7838376385
 20
-2.8391753557
 30
0.0
 10
-19.9202773473
 20
-2.7521595831
 30
0.0
 10
-20.0868402846
 20
-2.5958721564
 30
0.0
 10
-20.1967254474
 20
-2.4252423037
 30
0.0
 10
-20.2281011097
 20
-2.3008962075
 30
0.0
 10
-20.2315606784
 20
-2.2414982612
 30
0.0
 11
-19.7085093293
 21
-2.8803099176
 31
0.0
 11
-19.9241404343
 21
-2.7395943049
 31
0.0
 11
-20.086311761
 21
-2.5828530343
 31
0.0
 11
-20.1898681295
 21
-2.4150565888
 31
0.0
 11
-20.2315606784
 21
-2.2414982612
 31
0.0
  0
SPLINE
  5
3E5
100
AcDbEntity
  8
RACCORDO
100
AcDbSpline
 62
253
  6
CONTINUOUS
 70
0
 71
3
 72
9
 73
5
 74
3
 42
0.0000001
 43
0.0000001
 44
0.0000000001
 12
0.0838441174
 22
0.0450607403
 32
0.0
 13
0.0857288379
 23
-0.0413626967
 33
0.0
 40
0.0
 40
0.0
 40
0.0
 40
0.0
 40
0.462679126
 40
1.0
 40
1.0
 40
1.0
 40
1.0
 10
-19.6220748533
 20
11.9116712237
 30
0.0
 10
-19.609143879
 20
11.9186207783
 30
0.0
 10
-19.576172345
 20
11.9248586192
 30
0.0
 10
-19.5450114236
 20
11.9149695984
 30
0.0
 10
-19.5296567922
 20
11.9075612516
 30
0.0
 11
-19.6220748533
 21
11.9116712237
 31
0.0
 11
-19.5790209993
 21
11.9209407067
 31
0.0
 11
-19.5296567922
 21
11.9075612516
 31
0.0
  0
SPLINE
  5
3E6
100
AcDbEntity
  8
RACCORDO
100
AcDbSpline
 62
253
  6
CONTINUOUS
 70
0
 71
3
 72
11
 73
7
 74
5
 42
0.0000001
 43
0.0000001
 44
0.0000000001
 12
0.260047888
 22
-0.1347410343
 32
0.0
 13
0.0042751849
 23
-0.2928511109
 33
0.0
 40
0.0
 40
0.0
 40
0.0
 40
0.0
 40
0.2289445383
 40
0.4879231213
 40
0.7534943073
 40
1.0
 40
1.0
 40
1.0
 40
1.0
 10
10.4565049902
 20
-3.0855196396
 30
0.0
 10
10.4763505047
 20
-3.0958023808
 30
0.0
 10
10.514253178
 20
-3.1262027402
 30
0.0
 10
10.55826725
 20
-3.1858774759
 30
0.0
 10
10.5886567779
 20
-3.2553943925
 30
0.0
 10
10.5975535214
 20
-3.3053350936
 30
0.0
 10
10.5979048073
 20
-3.3293982489
 30
0.0
 11
10.4565049902
 21
-3.0855196396
 31
0.0
 11
10.5098501607
 21
-3.1261460562
 31
0.0
 11
10.5554527303
 21
-3.1867568275
 31
0.0
 11
10.5863727783
 21
-3.2581280453
 31
0.0
 11
10.5979048073
 21
-3.3293982489
 31
0.0
  0
SPLINE
  5
3E7
100
AcDbEntity
  8
RACCORDO
100
AcDbSpline
 62
253
  6
CONTINUOUS
 70
0
 71
3
 72
11
 73
7
 74
5
 42
0.0000001
 43
0.0000001
 44
0.0000000001
 12
0.0042752158
 22
-0.2928511084
 32
0.0
 13
0.2600478853
 23
-0.1347410348
 33
0.0
 40
0.0
 40
0.0
 40
0.0
 40
0.0
 40
0.2465056089
 40
0.5120767274
 40
0.7710553643
 40
1.0
 40
1.0
 40
1.0
 40
1.0
 10
9.183798009
 20
-2.6307968362
 30
0.0
 10
9.1841492972
 20
-2.6548599831
 30
0.0
 10
9.1930460376
 20
-2.7048006681
 30
0.0
 10
9.2234355519
 20
-2.7743175794
 30
0.0
 10
9.2674496217
 20
-2.8339923261
 30
0.0
 10
9.3053523032
 20
-2.8643926998
 30
0.0
 10
9.325197826
 20
-2.8746754455
 30
0.0
 11
9.183798009
 21
-2.6307968362
 31
0.0
 11
9.1953300346
 21
-2.7020670149
 31
0.0
 11
9.2262500659
 21
-2.7734382178
 31
0.0
 11
9.2718526368
 21
-2.8340490072
 31
0.0
 11
9.325197826
 21
-2.8746754455
 31
0.0
  0
SPLINE
  5
3E8
100
AcDbEntity
  8
RACCORDO
100
AcDbSpline
 62
253
  6
CONTINUOUS
 70
0
 71
3
 72
9
 73
5
 74
3
 42
0.0000001
 43
0.0000001
 44
0.0000000001
 12
0.2650935788
 22
0.022826913
 32
0.0
 13
0.2619444576
 23
0.0466987647
 33
0.0
 40
0.0
 40
0.0
 40
0.0
 40
0.0
 40
0.2520628909
 40
1.0
 40
1.0
 40
1.0
 40
1.0
 10
-19.1966273259
 20
10.3218089663
 30
0.0
 10
-19.1743539079
 20
10.3237269055
 30
0.0
 10
-19.0861403394
 20
10.3332110272
 30
0.0
 10
-18.9987399034
 20
10.348732221
 30
0.0
 10
-18.93343391
 20
10.3603748007
 30
0.0
 11
-19.1966273259
 21
10.3218089663
 31
0.0
 11
-19.1299348367
 21
10.3288916654
 31
0.0
 11
-18.93343391
 21
10.3603748007
 31
0.0
  0
SPLINE
  5
3E9
100
AcDbEntity
  8
RACCORDO
100
AcDbSpline
 62
253
  6
CONTINUOUS
 70
0
 71
3
 72
9
 73
5
 74
3
 42
0.0000001
 43
0.0000001
 44
0.0000000001
 12
-0.2780531658
 22
0.0572683569
 32
0.0
 13
-0.2667712923
 23
0.0970891617
 33
0.0
 40
0.0
 40
0.0
 40
0.0
 40
0.0
 40
0.2628323967
 40
1.0
 40
1.0
 40
1.0
 40
1.0
 10
-18.9333663485
 20
10.3603866365
 30
0.0
 10
-18.9577268085
 20
10.365403963
 30
0.0
 10
-19.0501319204
 20
10.3857474493
 30
0.0
 10
-19.1414005375
 20
10.411824626
 30
0.0
 10
-19.2069522555
 20
10.4356816209
 30
0.0
 11
-18.9333663485
 21
10.3603866365
 31
0.0
 11
-19.0062224125
 21
10.3764939058
 31
0.0
 11
-19.2069522555
 21
10.4356816209
 31
0.0
  0
SPLINE
  5
3EA
100
AcDbEntity
  8
RACCORDO
100
AcDbSpline
 62
253
  6
CONTINUOUS
 70
0
 71
3
 72
9
 73
5
 74
3
 42
0.0000001
 43
0.0000001
 44
0.0000000001
 12
-0.3519570287
 22
0.1281298845
 32
0.0
 13
-0.283702766
 23
0.2445480688
 33
0.0
 40
0.0
 40
0.0
 40
0.0
 40
0.0
 40
0.5005397606
 40
1.0
 40
1.0
 40
1.0
 40
1.0
 10
-19.2069534974
 20
10.4356819742
 30
0.0
 10
-19.2656763263
 20
10.4570600081
 30
0.0
 10
-19.3805471085
 20
10.5072464878
 30
0.0
 10
-19.4847366622
 20
10.577985394
 30
0.0
 10
-19.5319694127
 20
10.6186994063
 30
0.0
 11
-19.2069534974
 21
10.4356819742
 31
0.0
 11
-19.3779950384
 21
10.5124498712
 31
0.0
 11
-19.5319694127
 21
10.6186994063
 31
0.0
  0
SPLINE
  5
3EB
100
AcDbEntity
  8
RACCORDO
100
AcDbSpline
 62
253
  6
CONTINUOUS
 70
0
 71
3
 72
11
 73
7
 74
5
 42
0.0000001
 43
0.0000001
 44
0.0000000001
 12
-0.2312138919
 22
-0.1504641415
 32
0.0
 13
0.0165149535
 23
-0.2753662616
 33
0.0
 40
0.0
 40
0.0
 40
0.0
 40
0.0
 40
0.2339380016
 40
0.490773225
 40
0.7526143631
 40
1.0
 40
1.0
 40
1.0
 40
1.0
 10
-19.5319694127
 20
10.6186994063
 30
0.0
 10
-19.549999318
 20
10.6069663128
 30
0.0
 10
-19.5834773878
 20
10.5755289328
 30
0.0
 10
-19.6205208515
 20
10.5163667533
 30
0.0
 10
-19.6435949967
 20
10.4491901949
 30
0.0
 10
-19.6479544934
 20
10.4019109222
 30
0.0
 10
-19.6465926393
 20
10.3792037029
 30
0.0
 11
-19.5319694127
 21
10.6186994063
 31
0.0
 11
-19.579797263
 21
10.5753729312
 31
0.0
 11
-19.6178454538
 21
10.5156052468
 31
0.0
 11
-19.6411277021
 21
10.4472285996
 31
0.0
 11
-19.6465926393
 21
10.3792037029
 31
0.0
  0
SPLINE
  5
3EC
100
AcDbEntity
  8
RACCORDO
100
AcDbSpline
 62
253
  6
CONTINUOUS
 70
0
 71
3
 72
11
 73
7
 74
5
 42
0.0000001
 43
0.0000001
 44
0.0000000001
 12
-0.2636538676
 22
-0.1259033119
 32
0.0
 13
-0.0001782992
 23
-0.2921728496
 33
0.0
 40
0.0
 40
0.0
 40
0.0
 40
0.0
 40
0.2337019729
 40
0.4925432465
 40
0.7554732942
 40
1.0
 40
1.0
 40
1.0
 40
1.0
 10
-19.563366909
 20
10.6484079506
 30
0.0
 10
-19.5839057187
 20
10.6385999998
 30
0.0
 10
-19.6232178081
 20
10.6094595225
 30
0.0
 10
-19.6689251219
 20
10.5509336386
 30
0.0
 10
-19.6999622925
 20
10.4823196433
 30
0.0
 10
-19.7084985448
 20
10.4328045567
 30
0.0
 10
-19.7085130778
 20
10.4089898686
 30
0.0
 11
-19.563366909
 21
10.6484079506
 31
0.0
 11
-19.6190697757
 21
10.6089169636
 31
0.0
 11
-19.6661097671
 21
10.5497004745
 31
0.0
 11
-19.697481537
 21
10.4795771291
 31
0.0
 11
-19.7085130778
 21
10.4089898686
 31
0.0
  0
SPLINE
  5
3ED
100
AcDbEntity
  8
RACCORDO
100
AcDbSpline
 62
253
  6
CONTINUOUS
 70
0
 71
3
 72
10
 73
6
 74
4
 42
0.0000001
 43
0.0000001
 44
0.0000000001
 12
0.000076076
 22
-0.1249836638
 32
0.0
 13
0.1097237913
 23
-0.0598465673
 33
0.0
 40
0.0
 40
0.0
 40
0.0
 40
0.0
 40
0.5416825879
 40
0.7777885142
 40
1.0
 40
1.0
 40
1.0
 40
1.0
 10
-19.7085099471
 20
-2.8803093874
 30
0.0
 10
-19.7084962107
 20
-2.9028765455
 30
0.0
 10
-19.7030784921
 20
-2.9363620474
 30
0.0
 10
-19.6801202664
 20
-2.9717652247
 30
0.0
 10
-19.6648597653
 20
-2.983942797
 30
0.0
 10
-19.6567324697
 20
-2.9883756619
 30
0.0
 11
-19.7085099471
 21
-2.8803093874
 31
0.0
 11
-19.6949167594
 21
-2.9466322084
 31
0.0
 11
-19.6785437751
 21
-2.971182757
 31
0.0
 11
-19.6567324697
 21
-2.9883756619
 31
0.0
  0
SPLINE
  5
3EE
100
AcDbEntity
  8
RACCORDO
100
AcDbSpline
 62
253
  6
CONTINUOUS
 70
0
 71
3
 72
9
 73
5
 74
3
 42
0.0000001
 43
0.0000001
 44
0.0000000001
 12
-0.2590667148
 22
0.3053620606
 32
0.0
 13
-0.2712828569
 23
0.2945626628
 33
0.0
 40
0.0
 40
0.0
 40
0.0
 40
0.0
 40
0.2511661017
 40
1.0
 40
1.0
 40
1.0
 40
1.0
 10
-18.9334120336
 20
-3.6096347046
 30
0.0
 10
-18.9551016259
 20
-3.5840691718
 30
0.0
 10
-19.0414646021
 20
-3.4822958477
 30
0.0
 10
-19.1289075379
 20
-3.3813779792
 30
0.0
 10
-19.1966228044
 20
-3.3078518102
 30
0.0
 11
-18.9334120336
 21
-3.6096347046
 31
0.0
 11
-18.9985526586
 21
-3.5329991196
 31
0.0
 11
-19.1966228044
 21
-3.3078518102
 31
0.0
  0
SPLINE
  5
3EF
100
AcDbEntity
  8
RACCORDO
100
AcDbSpline
 62
253
  6
CONTINUOUS
 70
0
 71
3
 72
9
 73
5
 74
3
 42
0.0000001
 43
0.0000001
 44
0.0000000001
 12
0.2598236673
 22
-0.2592302246
 32
0.0
 13
0.2874184481
 23
-0.2282526739
 33
0.0
 40
0.0
 40
0.0
 40
0.0
 40
0.0
 40
0.2431757793
 40
1.0
 40
1.0
 40
1.0
 40
1.0
 10
-19.2069455337
 20
-3.365177901
 30
0.0
 10
-19.1858845928
 20
-3.3861907383
 30
0.0
 10
-19.0982403587
 20
-3.4715505991
 30
0.0
 10
-19.0058747629
 20
-3.5521058129
 30
0.0
 10
-18.9333663485
 20
-3.6096881969
 30
0.0
 11
-19.2069455337
 21
-3.365177901
 31
0.0
 11
-19.1429794878
 21
-3.4274215194
 31
0.0
 11
-18.9333663485
 21
-3.6096881969
 31
0.0
  0
ELLIPSE
  5
3F0
100
AcDbEntity
  8
RACCORDO
100
AcDbEllipse
 62
7
  6
CONTINUOUS
 10
14.3568130255
 20
13.723320015
 30
0.0
 11
-0.0894323102
 21
0.1788913307
 31
0.0
 40
0.6125552124
 41
-2.255296188
 42
-0.6848044477
  0
ELLIPSE
  5
3F1
100
AcDbEntity
  8
RACCORDO
100
AcDbEllipse
 62
7
  6
CONTINUOUS
 10
11.9747370915
 20
14.914357982
 30
0.0
 11
-0.0894803643
 21
0.1789340454
 31
0.0
 40
0.6121897086
 41
-0.6846338794
 42
-0.019406057
  0
ELLIPSE
  5
3F2
100
AcDbEntity
  8
RACCORDO
100
AcDbEllipse
 62
7
  6
CONTINUOUS
 10
11.2552877156
 20
14.5820924184
 30
0.0
 11
-0.0894803643
 21
0.1789340454
 31
0.0
 40
0.6121897086
 41
-0.6846338794
 42
0.8858578609
  0
ELLIPSE
  5
3F3
100
AcDbEntity
  8
RACCORDO
100
AcDbEllipse
 62
7
  6
CONTINUOUS
 10
-13.5991551466
 20
24.8835788326
 30
0.0
 11
-0.8948036428
 21
1.7893404542
 31
0.0
 40
0.6121897086
 41
-0.6846338794
 42
0.8858578609
  0
ELLIPSE
  5
3F4
100
AcDbEntity
  8
RACCORDO
100
AcDbEllipse
 62
7
  6
CONTINUOUS
 10
-10.121825318
 20
24.2229505949
 30
0.0
 11
0.1999952731
 21
-0.00281057
 31
0.0
 40
0.4892375088
 41
0.7922733988
 42
2.3456164331
  0
ELLIPSE
  5
3F5
100
AcDbEntity
  8
RACCORDO
100
AcDbEllipse
 62
7
  6
CONTINUOUS
 10
14.2502225058
 20
12.036926683
 30
0.0
 11
0.1999952731
 21
-0.00281057
 31
0.0
 40
0.4892375088
 41
5.5221156717
 42
7.075458706
  0
ELLIPSE
  5
3F6
100
AcDbEntity
  8
RACCORDO
100
AcDbEllipse
 62
7
  6
CONTINUOUS
 10
13.6620488391
 20
13.3787118566
 30
0.0
 11
-0.0894323102
 21
0.1788913307
 31
0.0
 40
0.6125552124
 41
-2.255296188
 42
-0.6848044477
  0
ELLIPSE
  5
3F7
100
AcDbEntity
  8
RACCORDO
100
AcDbEllipse
 62
7
  6
CONTINUOUS
 10
12.1048994624
 20
-22.428676255
 30
0.0
 11
-0.8948036428
 21
1.7893404542
 31
0.0
 40
0.6121897086
 41
-3.1605525579
 42
-2.2557347926
  0
ELLIPSE
  5
3F8
100
AcDbEntity
  8
RACCORDO
100
AcDbEllipse
 62
7
  6
CONTINUOUS
 10
13.6607713478
 20
-0.5169840745
 30
0.0
 11
-0.0894323102
 21
0.1788913307
 31
0.0
 40
0.6125552124
 41
0.8862964655
 42
2.4567882057
  0
ELLIPSE
  5
3F9
100
AcDbEntity
  8
RACCORDO
100
AcDbEllipse
 62
7
  6
CONTINUOUS
 10
12.1048994624
 20
8.7477106014
 30
0.0
 11
-0.8943231024
 21
1.7889133072
 31
0.0
 40
0.6125552124
 41
-2.255296188
 42
-0.6848044477
  0
ELLIPSE
  5
3FA
100
AcDbEntity
  8
RACCORDO
100
AcDbEllipse
 62
7
  6
CONTINUOUS
 10
-13.3505138116
 20
21.4754172384
 30
0.0
 11
-0.8948036428
 21
1.7893404542
 31
0.0
 40
0.6121897086
 41
-0.6846338794
 42
0.0188552051
  0
ELLIPSE
  5
3FB
100
AcDbEntity
  8
RACCORDO
100
AcDbEllipse
 62
7
  6
CONTINUOUS
 10
9.2085880663
 20
-4.8681464933
 30
0.0
 11
1.9999527313
 21
-0.0281056996
 31
0.0
 40
0.4892375088
 41
-2.3493192548
 42
-0.7959762205
  0
ELLIPSE
  5
3FC
100
AcDbEntity
  8
RACCORDO
100
AcDbEllipse
 62
7
  6
CONTINUOUS
 10
-18.2323770086
 20
8.8523360442
 30
0.0
 11
1.9999527313
 21
-0.0281056996
 31
0.0
 40
0.4892375088
 41
-3.1347523464
 42
-2.3493192548
  0
ELLIPSE
  5
3FD
100
AcDbEntity
  8
RACCORDO
100
AcDbEllipse
 62
7
  6
CONTINUOUS
 10
18.0538095529
 20
-2.4579382574
 30
0.0
 11
0.2174819613
 21
0.4502570851
 31
0.0
 40
0.6016116119
 41
-0.8943064336
 42
0.6590366007
  0
ELLIPSE
  5
3FE
100
AcDbEntity
  8
RACCORDO
100
AcDbEllipse
 62
7
  6
CONTINUOUS
 10
-18.2323770086
 20
0.0258001802
 30
0.0
 11
1.9999454911
 21
0.0289182187
 31
0.0
 40
0.5106100819
 41
8.6494500558
 42
10.2027930901
  0
ELLIPSE
  5
3FF
100
AcDbEntity
  8
RACCORDO
100
AcDbEllipse
 62
7
  6
CONTINUOUS
 10
9.2085880663
 20
-13.6946823573
 30
0.0
 11
1.9999454911
 21
0.0289182187
 31
0.0
 40
0.5106100819
 41
-2.3635775243
 42
-0.81023449
  0
ELLIPSE
  5
400
100
AcDbEntity
  8
RACCORDO
100
AcDbEllipse
 62
7
  6
CONTINUOUS
 10
8.2160275902
 20
-13.5595137747
 30
0.0
 11
1.4999591183
 21
0.021688664
 31
0.0
 40
0.5106100819
 41
-2.3635775243
 42
-0.7927811975
  0
ELLIPSE
  5
401
100
AcDbEntity
  8
RACCORDO
100
AcDbEllipse
 62
7
  6
CONTINUOUS
 10
-17.9469233137
 20
-0.4780383227
 30
0.0
 11
1.4999591183
 21
0.021688664
 31
0.0
 40
0.5106100819
 41
3.1342104691
 42
3.9196077829
  0
ELLIPSE
  5
402
100
AcDbEntity
  8
RACCORDO
100
AcDbEllipse
 62
7
  6
CONTINUOUS
 10
18.0538095529
 20
-10.1008696749
 30
0.0
 11
0.2174819613
 21
0.4502570851
 31
0.0
 40
0.6016116119
 41
-2.4476494678
 42
-0.8943064336
  0
ENDSEC
  0
SECTION
  2
OBJECTS
  0
DICTIONARY
  5
C
100
AcDbDictionary
280
0
281
1
  3
ACAD_GROUP
350
D
  3
ACAD_MLINESTYLE
350
17
  3
ACAD_LAYOUT
350
1A
  3
ACAD_PLOTSETTINGS
350
19
  3
ACAD_PLOTSTYLENAME
350
E
  0
DICTIONARY
  5
D
102
{ACAD_REACTORS
330
C
102
}
100
AcDbDictionary
280
0
281
1
  0
ACDBDICTIONARYWDFLT
  5
E
102
{ACAD_REACTORS
330
C
102
}
100
AcDbDictionary
281
1
  3
Normal
350
F
100
AcDbDictionaryWithDefault
340
F
  0
DICTIONARY
  5
17
102
{ACAD_REACTORS
330
C
102
}
100
AcDbDictionary
280
0
281
1
  3
Standard
350
18
  0
DICTIONARY
  5
19
102
{ACAD_REACTORS
330
C
102
}
100
AcDbDictionary
281
1
  0
DICTIONARY
  5
1A
102
{ACAD_REACTORS
330
C
102
}
100
AcDbDictionary
281
1
  3
Model
350
403
  3
Layout1
350
404
  0
ACDBPLACEHOLDER
  5
F
102
{ACAD_REACTORS
330
E
102
}
  0
MLINESTYLE
  5
18
102
{ACAD_REACTORS
330
17
102
}
100
AcDbMlineStyle
  2
STANDARD
 70
0
  3

 62
256
 51
90.0
 52
90.0
 71
2
 49
0.5
 62
256
  6
BYLAYER
 49
-0.5
 62
256
  6
BYLAYER
  0
LAYOUT
  5
403
102
{ACAD_REACTORS
330
1A
102
}
100
AcDbPlotSettings
  1

  2
none_device
  4
ISO_A4_(297.00_x_210.00_MM)
  6

 40
0.0
 41
0.0
 42
0.0
 43
0.0
 44
297.0
 45
210.0
 46
0.0
 47
0.0
 48
0.0
 49
0.0
140
0.0
141
0.0
142
1.0
143
1.0
 70
1024
 72
1
 73
0
 74
0
  7

 75
0
147
1.0
148
0.0
149
0.0
100
AcDbLayout
  1
Model
 70
0
 71
0
 10
0.0
 20
0.0
 11
297.0
 21
210.0
 12
0.0
 22
0.0
 32
0.0
 14
0.0
 24
0.0
 34
0.0
 15
0.0
 25
0.0
 35
0.0
146
0.0
 13
0.0
 23
0.0
 33
0.0
 16
1.0
 26
0.0
 36
0.0
 17
0.0
 27
1.0
 37
0.0
 76
0
330
231
345
0
346
0
  0
LAYOUT
  5
404
102
{ACAD_REACTORS
330
1A
102
}
100
AcDbPlotSettings
  1

  2
none_device
  4
ISO_A4_(297.00_x_210.00_MM)
  6

 40
0.0
 41
0.0
 42
0.0
 43
0.0
 44
297.0
 45
210.0
 46
0.0
 47
0.0
 48
0.0
 49
0.0
140
0.0
141
0.0
142
1.0
143
1.0
 70
0
 72
1
 73
0
 74
0
  7

 75
0
147
1.0
148
0.0
149
0.0
100
AcDbLayout
  1
Layout1
 70
0
 71
1
 10
0.0
 20
0.0
 11
297.0
 21
210.0
 12
0.0
 22
0.0
 32
0.0
 14
0.0
 24
0.0
 34
0.0
 15
0.0
 25
0.0
 35
0.0
146
0.0
 13
0.0
 23
0.0
 33
0.0
 16
1.0
 26
0.0
 36
0.0
 17
0.0
 27
1.0
 37
0.0
 76
0
330
232
345
0
346
0
  0
ENDSEC
  0
EOF
