0
SECTION
2
HEADER
9
$ACADVER
1
AC1015
9
$DWGCODEPAGE
3
ANSI_1252
9
$EXTMAX
10
431.8000000000
20
558.8000000000
30
0.0000000000
9
$EXTMIN
10
0.0000000000
20
0.0000000000
30
0.0000000000
9
$LIMMIN
10
0.0000000000
20
0.0000000000
9
$LIMMAX
10
431.8000000000
20
558.8000000000
9
$VIEWCTR
10
215.9000000000
20
279.4000000000
9
$VIEWSIZE
40
558.8000000000
9
$CLAYER
8
0
9
$LTSCALE
40
36.4254814815
9
$CELTYPE
6
BYLAYER
9
$DIMSCALE
40
1
9
$DIMASZ
40
3.0000000000
9
$DIMEXO
40
4.1392592593
9
$DIMDLI
40
25.1666962963
9
$DIMEXE
40
11.9210666667
9
$DIMCEN
40
5.9605333333
9
$DIMLFAC
40
1.0000000000
9
$DIMBLK
1
_FILLED
9
$DIMTXT
40
3.0000000000
9
$DIMTOL
70
1
9
$DIMLIM
70
0
9
$DIMTFAC
40
1.0000000000
9
$DIMTP
40
0.0100000000
9
$DIMTM
40
0.0100000000
9
$PDMODE
70
3
9
$PDSIZE
40
3.0000000000
9
$HANDSEED
5
295
9
$MEASUREMENT
70
1
9
$INSUNITS
70
4
0
ENDSEC
0
SECTION
2
CLASSES
0
CLASS
1
ACDBDICTIONARYWDFLT
2
AcDbDictionaryWithDefault
3
AutoCAD 2000
90
0
280
0
281
0
0
CLASS
1
ACDBPLACEHOLDER
2
AcDbPlaceHolder
3
AutoCAD 2000
90
0
280
0
281
0
0
CLASS
1
LAYOUT
2
AcDbLayout
3
AutoCAD 2000
90
0
280
0
281
0
0
ENDSEC
0
SECTION
2
TABLES
0
TABLE
2
VPORT
5
8
100
AcDbSymbolTable
70
2
0
VPORT
5
1F4
100
AcDbSymbolTableRecord
100
AcDbViewportTableRecord
2
*ACTIVE
70
0
10
0.0
20
0.0
11
1.0
21
1.0
12
215.9000000000
22
279.4000000000
13
0.0
23
0.0
14
1.0
24
1.0
15
0.0
25
0.0
16
0.0
26
0.0
36
1.0
17
0.0
27
0.0
37
0.0
40
558.8000000000
41
0.7727272727
42
50.0
43
0.0
44
0.0
50
0.0
51
0.0
71
0
72
100
73
1
74
1
75
0
76
0
77
0
78
0
0
ENDTAB
0
TABLE
2
LTYPE
5
5
100
AcDbSymbolTable
70
6
0
LTYPE
5
14
100
AcDbSymbolTableRecord
100
AcDbLinetypeTableRecord
2
BYBLOCK
70
0
3

72
65
73
0
40
0.0
0
LTYPE
5
15
100
AcDbSymbolTableRecord
100
AcDbLinetypeTableRecord
2
BYLAYER
70
0
3

72
65
73
0
40
0.0
0
LTYPE
5
16
100
AcDbSymbolTableRecord
100
AcDbLinetypeTableRecord
2
CONTINUOUS
70
64
3
Solid line
72
65
73
0
40
0
0
LTYPE
5
1F5
100
AcDbSymbolTableRecord
100
AcDbLinetypeTableRecord
2
CENTER
70
64
3
____ _ ____ _ ____ _ ____ _ ____ _ ____ _ ____
72
65
73
4
40
0.6
49
0.375
74
0
49
-0.075
74
0
49
0.075
74
0
49
-0.075
74
0
0
LTYPE
5
1F6
100
AcDbSymbolTableRecord
100
AcDbLinetypeTableRecord
2
HIDDEN
70
64
3
- - - - - - - - - - - - - - - - - - - -
72
65
73
2
40
0.2
49
0.1
74
0
49
-0.1
74
0
0
LTYPE
5
1F7
100
AcDbSymbolTableRecord
100
AcDbLinetypeTableRecord
2
PHANTOM
70
64
3
_____ _ _ _____ _ _ _____ _ _ _____
72
65
73
6
40
0.8
49
0.45
74
0
49
-0.05
74
0
49
0.1
74
0
49
-0.05
74
0
49
0.1
74
0
49
-0.05
74
0
0
LTYPE
5
1F8
100
AcDbSymbolTableRecord
100
AcDbLinetypeTableRecord
2
DOT
70
64
3
. . . . . . . . . . . . . . . . . . . .
72
65
73
2
40
0.2
49
0.1
74
0
49
-0.1
74
0
0
LTYPE
5
1F9
100
AcDbSymbolTableRecord
100
AcDbLinetypeTableRecord
2
DASHED
70
64
3
- - - - - - - - - - - - - - - - - - - -
72
65
73
2
40
0.2
49
0.1
74
0
49
-0.1
74
0
0
ENDTAB
0
TABLE
2
LAYER
5
2
100
AcDbSymbolTable
70
36
0
LAYER
5
10
100
AcDbSymbolTableRecord
100
AcDbLayerTableRecord
2
0
70
0
62
7
6
CONTINUOUS
370
-3
390
F
0
LAYER
5
1FA
100
AcDbSymbolTableRecord
100
AcDbLayerTableRecord
2
DEFAULT_1
70
0
62
7
6
CENTER
370
-3
390
F
0
LAYER
5
1FB
100
AcDbSymbolTableRecord
100
AcDbLayerTableRecord
2
DEFAULT_2
70
0
62
9
6
HIDDEN
370
-3
390
F
0
LAYER
5
1FC
100
AcDbSymbolTableRecord
100
AcDbLayerTableRecord
2
DEFAULT_3
70
0
62
7
6
PHANTOM
370
-3
390
F
0
LAYER
5
1FD
100
AcDbSymbolTableRecord
100
AcDbLayerTableRecord
2
_BLACK_HOLE
70
0
62
7
6
CONTINUOUS
370
-3
390
F
0
LAYER
5
1FE
100
AcDbSymbolTableRecord
100
AcDbLayerTableRecord
2
ASSI
70
0
62
7
6
CONTINUOUS
370
-3
390
F
0
LAYER
5
1FF
100
AcDbSymbolTableRecord
100
AcDbLayerTableRecord
2
COORDINATE
70
0
62
7
6
CONTINUOUS
370
-3
390
F
0
LAYER
5
200
100
AcDbSymbolTableRecord
100
AcDbLayerTableRecord
2
COPY_PUBLISH
70
0
62
7
6
CONTINUOUS
370
-3
390
F
0
LAYER
5
201
100
AcDbSymbolTableRecord
100
AcDbLayerTableRecord
2
COSMETIC
70
0
62
7
6
CONTINUOUS
370
-3
390
F
0
LAYER
5
202
100
AcDbSymbolTableRecord
100
AcDbLayerTableRecord
2
CURVE
70
0
62
7
6
CONTINUOUS
370
-3
390
F
0
LAYER
5
203
100
AcDbSymbolTableRecord
100
AcDbLayerTableRecord
2
IMPORT_IGES
70
0
62
7
6
CONTINUOUS
370
-3
390
F
0
LAYER
5
204
100
AcDbSymbolTableRecord
100
AcDbLayerTableRecord
2
PIANI
70
0
62
7
6
CONTINUOUS
370
-3
390
F
0
LAYER
5
205
100
AcDbSymbolTableRecord
100
AcDbLayerTableRecord
2
PUNTI
70
0
62
7
6
CONTINUOUS
370
-3
390
F
0
LAYER
5
206
100
AcDbSymbolTableRecord
100
AcDbLayerTableRecord
2
RACCORDO
70
0
62
7
6
CONTINUOUS
370
-3
390
F
0
LAYER
5
207
100
AcDbSymbolTableRecord
100
AcDbLayerTableRecord
2
SUPERFICI
70
0
62
7
6
CONTINUOUS
370
-3
390
F
0
LAYER
5
208
100
AcDbSymbolTableRecord
100
AcDbLayerTableRecord
2
TRASH
70
0
62
7
6
CONTINUOUS
370
-3
390
F
0
ENDTAB
0
TABLE
2
STYLE
5
3
100
AcDbSymbolTable
70
1
0
STYLE
5
11
100
AcDbSymbolTableRecord
100
AcDbTextStyleTableRecord
2
STANDARD
70
0
40
0.0
41
0.8000000000
50
0.0
71
0
42
0.2
3
txt
4

0
ENDTAB
0
TABLE
2
VIEW
5
6
100
AcDbSymbolTable
70
0
0
ENDTAB
0
TABLE
2
UCS
5
7
100
AcDbSymbolTable
70
0
0
ENDTAB
0
TABLE
2
APPID
5
9
100
AcDbSymbolTable
70
1
0
APPID
5
209
100
AcDbSymbolTableRecord
100
AcDbRegAppTableRecord
2
ACAD
70
0
0
ENDTAB
0
TABLE
2
BLOCK_RECORD
5
1
100
AcDbSymbolTable
70
0
0
BLOCK_RECORD
5
1F
100
AcDbSymbolTableRecord
100
AcDbBlockTableRecord
2
*MODEL_SPACE
0
BLOCK_RECORD
5
1B
100
AcDbSymbolTableRecord
100
AcDbBlockTableRecord
2
*PAPER_SPACE
0
ENDTAB
0
TABLE
2
DIMSTYLE
5
A
100
AcDbSymbolTable
70
1
100
AcDbDimStyleTable
71
0
0
DIMSTYLE
105
20A
100
AcDbSymbolTableRecord
100
AcDbDimStyleTableRecord
2
STANDARD
70
0
3

4

40
1.0
41
3.0000000000
42
0.0625
43
0.38
44
0.18
45
0.0
46
0.0
47
0.0100000000
48
0.0100000000
140
3.0000000000
141
0.09
142
0.0
143
25.4
144
1.0000000000
145
0.0
146
1.0000000000
147
0.09
71
1
72
0
73
0
74
0
75
0
76
0
77
1
78
8
170
0
171
2
172
0
173
0
174
0
175
0
176
0
177
0
178
0
270
2
271
2
272
2
273
2
274
2
275
0
280
0
281
0
282
0
283
1
284
8
285
0
286
0
287
3
288
0
340
11
0
ENDTAB
0
ENDSEC
0
SECTION
2
BLOCKS
0
BLOCK
5
20
100
AcDbEntity
8
0
100
AcDbBlockBegin
2
*MODEL_SPACE
70
0
10
0.0
20
0.0
30
0.0
3
*MODEL_SPACE
1

0
ENDBLK
5
21
100
AcDbEntity
8
0
100
AcDbBlockEnd
0
BLOCK
5
1C
100
AcDbEntity
8
0
100
AcDbBlockBegin
2
*PAPER_SPACE
70
0
10
0.0
20
0.0
30
0.0
3
*PAPER_SPACE
1

0
ENDBLK
5
1D
100
AcDbEntity
8
0
100
AcDbBlockEnd
0
ENDSEC
0
SECTION
2
ENTITIES
0
LINE
5
20B
100
AcDbEntity
8
0
100
AcDbLine
62
0
6
CONTINUOUS
10
2.3109677621
20
35.4773162583
11
-0.4114855115
21
34.6204001272
0
LINE
5
20C
100
AcDbEntity
8
0
100
AcDbLine
62
0
6
CONTINUOUS
10
0.1346259354
20
33.8182388964
11
2.8570792091
21
34.6751550275
0
LINE
5
20D
100
AcDbEntity
8
0
100
AcDbLine
62
0
6
CONTINUOUS
10
6.4257576868
20
34.5621279012
11
5.8189317223
21
34.3711240875
0
LINE
5
20E
100
AcDbEntity
8
0
100
AcDbLine
62
0
6
CONTINUOUS
10
-7.7933346458
20
30.0865434317
11
-8.4001606103
21
29.8955396180
0
LINE
5
20F
100
AcDbEntity
8
0
100
AcDbLine
62
0
6
CONTINUOUS
10
6.4767958981
20
33.5666743727
11
6.3860474556
21
33.5381105017
0
LINE
5
210
100
AcDbEntity
8
0
100
AcDbLine
62
0
6
CONTINUOUS
10
-7.2262189125
20
29.2535298459
11
-7.3169673549
21
29.2249659749
0
LINE
5
211
100
AcDbEntity
8
0
100
AcDbLine
62
0
6
CONTINUOUS
10
3.2518605426
20
32.4766703053
11
0.8016525963
21
31.7054457872
0
LINE
5
212
100
AcDbEntity
8
0
100
AcDbLine
62
0
6
CONTINUOUS
10
-1.5578069075
20
30.9627851402
11
-4.0080148537
21
30.1915606222
0
LINE
5
213
100
AcDbEntity
8
0
100
AcDbLine
62
0
6
CONTINUOUS
10
1.2127580227
20
31.1015894926
11
3.2518605426
21
31.7434149591
0
LINE
5
214
100
AcDbEntity
8
0
100
AcDbLine
62
0
6
CONTINUOUS
10
-3.2518605426
20
29.0808758411
11
-0.8016525963
21
29.8521003591
0
LINE
5
215
100
AcDbEntity
8
0
100
AcDbLine
62
0
6
CONTINUOUS
10
1.5578069075
20
30.5947610061
11
4.0080148537
21
31.3659855242
0
LINE
5
216
100
AcDbEntity
8
0
100
AcDbLine
62
0
6
CONTINUOUS
10
7.3169673549
20
32.3325801715
11
7.2262189125
21
32.3040163005
0
LINE
5
217
100
AcDbEntity
8
0
100
AcDbLine
62
0
6
CONTINUOUS
10
-6.3860474556
20
28.0194356447
11
-6.4767958981
21
27.9908717736
0
LINE
5
218
100
AcDbEntity
8
0
100
AcDbLine
62
0
6
CONTINUOUS
10
-6.4257576868
20
26.9954182452
11
-5.8189317223
21
27.1864220589
0
LINE
5
219
100
AcDbEntity
8
0
100
AcDbLine
62
0
6
CONTINUOUS
10
7.7933346458
20
31.4710027147
11
8.4001606103
21
31.6620065283
0
LINE
5
21A
100
AcDbEntity
8
0
100
AcDbLine
62
0
6
CONTINUOUS
10
-8.4993158075
20
30.7054426780
11
-7.7512488867
21
31.5607472120
0
LINE
5
21B
100
AcDbEntity
8
0
100
AcDbLine
62
0
6
CONTINUOUS
10
-4.7864670978
20
34.9505392695
11
-3.9633709129
21
35.8916287353
0
LINE
5
21C
100
AcDbEntity
8
0
100
AcDbLine
62
0
6
CONTINUOUS
10
-6.8851638891
20
25.6625683153
11
-6.3860474556
21
25.8196696060
0
LINE
5
21D
100
AcDbEntity
8
0
100
AcDbLine
62
0
6
CONTINUOUS
10
-0.1346259354
20
27.7393072500
11
-2.8570792091
21
26.8823911188
0
LINE
5
21E
100
AcDbEntity
8
0
100
AcDbLine
62
0
6
CONTINUOUS
10
-2.3109677621
20
26.0802298880
11
0.4114855115
21
26.9371460192
0
LINE
5
21F
100
AcDbEntity
8
0
100
AcDbLine
62
0
6
CONTINUOUS
10
-7.7933346458
20
23.4139197811
11
-8.4001606103
21
23.2229159674
0
LINE
5
220
100
AcDbEntity
8
0
100
AcDbLine
62
0
6
CONTINUOUS
10
-7.3169673549
20
29.2249659749
11
-7.7253353460
21
27.2632901896
0
LINE
5
221
100
AcDbEntity
8
0
100
AcDbLine
62
0
6
CONTINUOUS
10
8.4993158075
20
30.8521034684
11
7.7512488867
21
29.9967989343
0
LINE
5
222
100
AcDbEntity
8
0
100
AcDbLine
62
0
6
CONTINUOUS
10
4.7864670978
20
26.6070068768
11
3.9633709129
21
25.6659174110
0
LINE
5
223
100
AcDbEntity
8
0
100
AcDbLine
62
0
6
CONTINUOUS
10
8.4993158075
20
28.2857097566
11
7.7512488867
21
27.4304052226
0
LINE
5
224
100
AcDbEntity
8
0
100
AcDbLine
62
0
6
CONTINUOUS
10
4.7864670978
20
24.0406131651
11
3.9633709129
21
23.0995236993
0
LINE
5
225
100
AcDbEntity
8
0
100
AcDbLine
62
0
6
CONTINUOUS
10
-6.4767958981
20
27.9908717736
11
-6.8851638891
21
26.0291959884
0
LINE
5
226
100
AcDbEntity
8
0
100
AcDbLine
62
0
6
CONTINUOUS
10
-8.5000086692
20
28.2124640600
11
-8.4993158075
21
28.1390489662
0
LINE
5
227
100
AcDbEntity
8
0
100
AcDbLine
62
0
6
CONTINUOUS
10
-8.5000000000
20
24.1061494226
11
-8.4993158075
21
30.7054426780
0
LINE
5
228
100
AcDbEntity
8
0
100
AcDbLine
62
0
6
CONTINUOUS
10
-8.4001606103
20
23.2229159674
11
-8.4001606103
21
29.8955396180
0
LINE
5
229
100
AcDbEntity
8
0
100
AcDbLine
62
0
6
CONTINUOUS
10
-7.7933346458
20
30.0865434317
11
-7.7933346458
21
23.4139197811
0
LINE
5
22A
100
AcDbEntity
8
0
100
AcDbLine
62
0
6
CONTINUOUS
10
-7.7253353460
20
27.2632901896
11
-7.7253353460
21
26.8966625165
0
LINE
5
22B
100
AcDbEntity
8
0
100
AcDbLine
62
0
6
CONTINUOUS
10
-6.8851638891
20
26.0291959884
11
-6.8851638891
21
25.6625683153
0
LINE
5
22C
100
AcDbEntity
8
0
100
AcDbLine
62
0
6
CONTINUOUS
10
-6.4257576868
20
20.3227945946
11
-6.4257576868
21
26.9954182452
0
LINE
5
22D
100
AcDbEntity
8
0
100
AcDbLine
62
0
6
CONTINUOUS
10
-6.3860474556
20
28.0194356447
11
-6.3860474556
21
26.9954182452
0
LINE
5
22E
100
AcDbEntity
8
0
100
AcDbLine
62
0
6
CONTINUOUS
10
-5.4513467608
20
32.2802165459
11
-5.4513467608
21
32.6468442190
0
LINE
5
22F
100
AcDbEntity
8
0
100
AcDbLine
62
0
6
CONTINUOUS
10
-4.7864670978
20
34.9505392695
11
-4.7864670978
21
32.3841455577
0
LWPOLYLINE
5
230
100
AcDbEntity
8
0
100
AcDbPolyline
62
0
6
CONTINUOUS
90
21
70
0
10
-5.1522183609
20
19.5156723809
10
-5.2871201595
20
17.6030879199
10
-5.3434317067
20
14.9676074132
10
-5.2909840673
20
12.0360043028
10
-5.1355362950
20
8.8369418160
10
-4.8946689681
20
5.4605332698
10
-4.5875746553
20
1.9351377814
10
-4.2354899877
20
-1.7077533898
10
-3.8706448318
20
-5.3558740321
10
-3.5181458184
20
-8.9802516349
10
-3.2023708439
20
-12.5357301550
10
-2.9525083703
20
-15.8904756449
10
-2.7852339268
20
-18.9923882542
10
-2.7096674674
20
-21.8548847847
10
-2.7337520497
20
-24.4594791050
10
-2.8600157875
20
-26.7981712341
10
-3.0873791239
20
-28.8719874424
10
-3.4117484181
20
-30.6819051925
10
-3.8269575426
20
-32.2329544943
10
-4.3240334283
20
-33.5355228696
10
-4.7732431112
20
-34.4083842556
0
LWPOLYLINE
5
231
100
AcDbEntity
8
0
100
AcDbPolyline
62
0
6
CONTINUOUS
90
8
70
0
10
-2.7558038531
20
-0.4095270322
10
-3.0878569704
20
3.1087479518
10
-3.3667288192
20
6.4452377737
10
-3.5748761786
20
9.5552227636
10
-3.7027626171
20
12.4436898547
10
-3.7425778931
20
15.1200712169
10
-3.6864976809
20
17.5785758052
10
-3.5946851789
20
18.8739029031
0
LINE
5
232
100
AcDbEntity
8
0
100
AcDbLine
62
9
6
CONTINUOUS
10
-3.5145904568
20
34.4480118055
11
-3.5145904568
21
31.5149904206
0
LINE
5
233
100
AcDbEntity
8
0
100
AcDbLine
62
0
6
CONTINUOUS
10
-1.6899335050
20
35.4085554763
11
-1.6899335050
21
36.4429979544
0
LINE
5
234
100
AcDbEntity
8
0
100
AcDbLine
62
0
6
CONTINUOUS
10
-1.5578069075
20
30.9627851402
11
-1.5578069075
21
29.6140941340
0
LINE
5
235
100
AcDbEntity
8
0
100
AcDbLine
62
9
6
CONTINUOUS
10
-1.4375825835
20
35.7953987055
11
-1.4375825835
21
35.7053676361
0
LINE
5
236
100
AcDbEntity
8
0
100
AcDbLine
62
0
6
CONTINUOUS
10
-0.1346259354
20
27.7393072500
11
-0.1346259354
21
26.7652526344
0
LWPOLYLINE
5
237
100
AcDbEntity
8
0
100
AcDbPolyline
62
0
6
CONTINUOUS
90
18
70
0
10
7.6111043808
20
-36.1366883438
10
6.9599903638
20
-33.2726657578
10
6.2670947804
20
-29.8117605169
10
5.6876485059
20
-26.3661238391
10
5.2300716937
20
-22.9507699802
10
4.8975905517
20
-19.5661157242
10
4.6893868723
20
-16.1989338579
10
4.6011920061
20
-12.8174638957
10
4.6245248797
20
-9.4330752073
10
4.7388669615
20
-6.0775350635
10
4.9174919747
20
-2.6871275608
10
5.1261412943
20
0.7607755642
10
5.3193513441
20
4.1899087506
10
5.4604849189
20
7.6401365342
10
5.5170365620
20
11.1625413612
10
5.4627051806
20
14.6784461265
10
5.2874027413
20
18.1625974967
10
5.1698591318
20
19.5266330279
0
LINE
5
238
100
AcDbEntity
8
0
100
AcDbLine
62
0
6
CONTINUOUS
10
1.6899335050
20
18.4419245414
11
1.6899335050
21
25.1145481920
0
LINE
5
239
100
AcDbEntity
8
0
100
AcDbLine
62
0
6
CONTINUOUS
10
2.3109677621
20
35.4773162583
11
2.3109677621
21
34.5032616427
0
LINE
5
23A
100
AcDbEntity
8
0
100
AcDbLine
62
9
6
CONTINUOUS
10
2.4042274018
20
25.9362975528
11
2.4042274018
21
19.2636739022
0
LINE
5
23B
100
AcDbEntity
8
0
100
AcDbLine
62
0
6
CONTINUOUS
10
2.6565783232
20
18.6160746534
11
2.6565783232
21
25.2886983040
0
LWPOLYLINE
5
23C
100
AcDbEntity
8
0
100
AcDbPolyline
62
0
6
CONTINUOUS
90
18
70
0
10
3.6403156292
20
18.8904907772
10
3.7181875343
20
17.9853673331
10
3.8901950915
20
14.5575959527
10
3.9432309987
20
11.1163638048
10
3.8880796191
20
7.6738147995
10
3.7490583476
20
4.2759070401
10
3.5560870390
20
0.8565813054
10
3.3460159237
20
-2.6107324426
10
3.1657358783
20
-6.0380031896
10
3.0503905725
20
-9.4481623656
10
3.0278059091
20
-12.9020485247
10
3.1190361479
20
-16.3487753628
10
3.3313673734
20
-19.7655695777
10
3.6681449309
20
-23.1892592245
10
4.1305226873
20
-26.6412654400
10
4.7160796093
20
-30.1255729801
10
5.4162729077
20
-33.6248094127
10
6.0748674216
20
-36.5223005177
0
LINE
5
23D
100
AcDbEntity
8
0
100
AcDbLine
62
0
6
CONTINUOUS
10
3.2518605426
20
32.4766703053
11
3.2518605426
21
31.7434149591
0
LINE
5
23E
100
AcDbEntity
8
0
100
AcDbLine
62
0
6
CONTINUOUS
10
3.9633709129
20
23.0995236993
11
3.9633709129
21
25.6659174110
0
LINE
5
23F
100
AcDbEntity
8
0
100
AcDbLine
62
0
6
CONTINUOUS
10
4.7864670978
20
26.6070068768
11
4.7864670978
21
24.0406131651
0
LINE
5
240
100
AcDbEntity
8
0
100
AcDbLine
62
0
6
CONTINUOUS
10
5.4513467608
20
23.4112868307
11
5.4513467608
21
23.7779145038
0
LINE
5
241
100
AcDbEntity
8
0
100
AcDbLine
62
0
6
CONTINUOUS
10
6.4257576868
20
33.5381105017
11
6.4257576868
21
34.5621279012
0
LINE
5
242
100
AcDbEntity
8
0
100
AcDbLine
62
9
6
CONTINUOUS
10
6.4286058462
20
30.5193845621
11
6.4286058462
21
27.5863631772
0
LINE
5
243
100
AcDbEntity
8
0
100
AcDbLine
62
0
6
CONTINUOUS
10
7.7512488867
20
29.9967989343
11
7.7512488867
21
27.4304052226
0
LINE
5
244
100
AcDbEntity
8
0
100
AcDbLine
62
0
6
CONTINUOUS
10
-6.4257576868
20
21.4051407620
11
-7.7933346458
21
23.4139197811
0
LINE
5
245
100
AcDbEntity
8
0
100
AcDbLine
62
0
6
CONTINUOUS
10
8.5000086692
20
28.2122946628
11
8.4993158075
21
28.2857097566
0
LINE
5
246
100
AcDbEntity
8
0
100
AcDbLine
62
0
6
CONTINUOUS
10
8.3653621502
20
26.8211370520
11
8.3653621502
21
27.1877647251
0
LINE
5
247
100
AcDbEntity
8
0
100
AcDbLine
62
0
6
CONTINUOUS
10
8.4993158075
20
28.2857097566
11
8.4993158075
21
30.8521034684
0
LINE
5
248
100
AcDbEntity
8
0
100
AcDbLine
62
0
6
CONTINUOUS
10
8.5000000000
20
24.1061494226
11
8.5000000000
21
27.8457516883
0
LINE
5
249
100
AcDbEntity
8
0
100
AcDbLine
62
0
6
CONTINUOUS
10
-7.7253353460
20
26.8966625165
11
-6.8851638891
21
25.6625683153
0
LINE
5
24A
100
AcDbEntity
8
0
100
AcDbLine
62
0
6
CONTINUOUS
10
-7.7253353460
20
27.2632901896
11
-6.8851638891
21
26.0291959884
0
LINE
5
24B
100
AcDbEntity
8
0
100
AcDbLine
62
0
6
CONTINUOUS
10
2.6565783232
20
18.6160746534
11
2.4042274018
21
19.2636739022
0
LINE
5
24C
100
AcDbEntity
8
0
100
AcDbLine
62
0
6
CONTINUOUS
10
-7.3169673549
20
29.2249659749
11
-6.4767958981
21
27.9908717736
0
LINE
5
24D
100
AcDbEntity
8
0
100
AcDbLine
62
0
6
CONTINUOUS
10
-5.8189317223
20
27.1864220589
11
-6.3860474556
21
28.0194356447
0
LINE
5
24E
100
AcDbEntity
8
0
100
AcDbLine
62
0
6
CONTINUOUS
10
-7.2262189125
20
29.2535298459
11
-7.7933346458
21
30.0865434317
0
LINE
5
24F
100
AcDbEntity
8
0
100
AcDbLine
62
0
6
CONTINUOUS
10
-2.8570792091
20
26.8823911188
11
-2.3109677621
21
26.0802298880
0
LINE
5
250
100
AcDbEntity
8
0
100
AcDbLine
62
0
6
CONTINUOUS
10
1.6899335050
20
25.1145481920
11
1.4375825835
21
25.7621474408
0
LINE
5
251
100
AcDbEntity
8
0
100
AcDbLine
62
0
6
CONTINUOUS
10
-2.6565783232
20
36.2688478424
11
-2.4042274018
21
35.6212485935
0
LINE
5
252
100
AcDbEntity
8
0
100
AcDbLine
62
0
6
CONTINUOUS
10
2.6565783232
20
25.2886983040
11
2.4042274018
21
25.9362975528
0
LINE
5
253
100
AcDbEntity
8
0
100
AcDbLine
62
0
6
CONTINUOUS
10
-1.6899335050
20
36.4429979544
11
-1.4375825835
21
35.7953987055
0
LWPOLYLINE
5
254
100
AcDbEntity
8
0
100
AcDbPolyline
62
0
6
CONTINUOUS
90
13
70
0
10
-3.3942512342
20
-35.2197908094
10
-2.8568515266
20
-34.1732406939
10
-2.2872392093
20
-32.6679587757
10
-1.8287328015
20
-30.9293395295
10
-1.4841353296
20
-28.9607278668
10
-1.2516402852
20
-26.7504884175
10
-1.1283012337
20
-24.2674181650
10
-1.1135461068
20
-21.4963810701
10
-1.2044615769
20
-18.4540973835
10
-1.3935003022
20
-15.1629169476
10
-1.6734894248
20
-11.5805283726
10
-2.0225532586
20
-7.7929545335
10
-2.7558038531
20
-0.4095270322
0
LINE
5
255
100
AcDbEntity
8
0
100
AcDbLine
62
0
6
CONTINUOUS
10
-4.0080148537
20
30.1915606222
11
-3.2518605426
21
29.0808758411
0
LINE
5
256
100
AcDbEntity
8
0
100
AcDbLine
62
0
6
CONTINUOUS
10
7.3767978746
20
32.0828368942
11
7.3169673549
21
32.3325801715
0
LINE
5
257
100
AcDbEntity
8
0
100
AcDbLine
62
0
6
CONTINUOUS
10
0.4114855115
20
26.9371460192
11
-0.1346259354
21
27.7393072500
0
LINE
5
258
100
AcDbEntity
8
0
100
AcDbLine
62
0
6
CONTINUOUS
10
-0.8016525963
20
29.8521003591
11
-1.5578069075
21
30.9627851402
0
LINE
5
259
100
AcDbEntity
8
0
100
AcDbLine
62
0
6
CONTINUOUS
10
0.8016525963
20
31.7054457872
11
1.5578069075
21
30.5947610061
0
LINE
5
25A
100
AcDbEntity
8
0
100
AcDbLine
62
0
6
CONTINUOUS
10
-0.4114855115
20
34.6204001272
11
0.1346259354
21
33.8182388964
0
LINE
5
25B
100
AcDbEntity
8
0
100
AcDbLine
62
0
6
CONTINUOUS
10
4.0080148537
20
31.3659855242
11
3.2518605426
21
32.4766703053
0
LINE
5
25C
100
AcDbEntity
8
0
100
AcDbLine
62
0
6
CONTINUOUS
10
2.8570792091
20
34.6751550275
11
2.3109677621
21
35.4773162583
0
LINE
5
25D
100
AcDbEntity
8
0
100
AcDbLine
62
0
6
CONTINUOUS
10
4.7864670978
20
24.0406131651
11
5.4513467608
21
23.7779145038
0
LINE
5
25E
100
AcDbEntity
8
0
100
AcDbLine
62
0
6
CONTINUOUS
10
5.8189317223
20
34.3711240875
11
6.3860474556
21
33.5381105017
0
LINE
5
25F
100
AcDbEntity
8
0
100
AcDbLine
62
0
6
CONTINUOUS
10
7.2262189125
20
32.3040163005
11
7.7933346458
21
31.4710027147
0
LINE
5
260
100
AcDbEntity
8
0
100
AcDbLine
62
0
6
CONTINUOUS
10
6.4767958981
20
33.5666743727
11
7.3169673549
21
32.3325801715
0
LINE
5
261
100
AcDbEntity
8
0
100
AcDbLine
62
0
6
CONTINUOUS
10
-7.7512488867
20
31.5607472120
11
-6.4286058462
21
31.0381615842
0
LINE
5
262
100
AcDbEntity
8
0
100
AcDbLine
62
0
6
CONTINUOUS
10
3.5145904568
20
27.1095343408
11
4.7864670978
21
26.6070068768
0
LINE
5
263
100
AcDbEntity
8
0
100
AcDbLine
62
0
6
CONTINUOUS
10
8.3653621502
20
26.8211370520
11
6.4286058462
21
27.5863631772
0
LINE
5
264
100
AcDbEntity
8
0
100
AcDbLine
62
0
6
CONTINUOUS
10
-3.5145904568
20
31.5149904206
11
-5.4513467608
21
32.2802165459
0
LINE
5
265
100
AcDbEntity
8
0
100
AcDbLine
62
0
6
CONTINUOUS
10
8.3653621502
20
27.1877647251
11
7.7512488867
21
27.4304052226
0
LINE
5
266
100
AcDbEntity
8
0
100
AcDbLine
62
0
6
CONTINUOUS
10
-4.7864670978
20
32.3841455577
11
-5.4513467608
21
32.6468442190
0
LINE
5
267
100
AcDbEntity
8
0
100
AcDbLine
62
0
6
CONTINUOUS
10
7.7512488867
20
29.9967989343
11
6.4286058462
21
30.5193845621
0
LINE
5
268
100
AcDbEntity
8
0
100
AcDbLine
62
0
6
CONTINUOUS
10
-3.5145904568
20
34.4480118055
11
-4.7864670978
21
34.9505392695
0
SPLINE
5
269
100
AcDbEntity
8
0
100
AcDbSpline
62
0
6
CONTINUOUS
70
0
71
3
72
11
73
7
74
5
42
0.0000001000
43
0.0000001000
44
0.0000000001
12
6.7088030528
22
-5.2680584538
32
0.0000000000
13
8.4499645141
23
1.1655805358
33
0.0000000000
40
0.0000000000
40
0.0000000000
40
0.0000000000
40
0.0000000000
40
0.2297301081
40
0.4780633706
40
0.7379177127
40
1.0000000000
40
1.0000000000
40
1.0000000000
40
1.0000000000
10
-6.4257576868
20
20.3227945946
30
0.0000000000
10
-5.9120196700
20
19.9193840486
30
0.0000000000
10
-4.7272537085
20
19.2228279522
30
0.0000000000
10
-2.7227582970
20
18.5615751503
30
0.0000000000
10
-0.5400952087
20
18.2720121976
30
0.0000000000
10
0.9517381624
20
18.3400985371
30
0.0000000000
10
1.6899335050
20
18.4419245414
30
0.0000000000
11
-6.4257576868
21
20.3227945946
31
0.0000000000
11
-4.7470654550
21
19.3118575254
31
0.0000000000
11
-2.7398304295
21
18.6350242618
31
0.0000000000
11
-0.5432217951
21
18.3383605671
31
0.0000000000
11
1.6899335050
21
18.4419245414
31
0.0000000000
0
SPLINE
5
26A
100
AcDbEntity
8
0
100
AcDbSpline
62
0
6
CONTINUOUS
70
0
71
3
72
11
73
7
74
5
42
0.0000001000
43
0.0000001000
44
0.0000000001
12
-0.2925542842
22
0.7507717173
32
0.0000000000
13
-0.7631677239
23
-0.2705823058
33
0.0000000000
40
0.0000000000
40
0.0000000000
40
0.0000000000
40
0.0000000000
40
0.2478653015
40
0.5464855183
40
0.8676966728
40
1.0000000000
40
1.0000000000
40
1.0000000000
40
1.0000000000
10
2.4042274018
20
19.2636739022
30
0.0000000000
10
2.3800560498
20
19.3257039882
30
0.0000000000
10
2.2723404804
20
19.4401736357
30
0.0000000000
10
2.0480547346
20
19.5199235084
30
0.0000000000
10
1.8419740981
20
19.5205500108
30
0.0000000000
10
1.7229568932
20
19.4900857896
30
0.0000000000
10
1.6893003502
20
19.4781528098
30
0.0000000000
11
2.4042274018
21
19.2636739022
31
0.0000000000
11
2.2754443107
21
19.4163264093
31
0.0000000000
11
2.0516626958
21
19.5047441094
31
0.0000000000
11
1.7928446598
21
19.5052355513
31
0.0000000000
11
1.6893003502
21
19.4781528098
31
0.0000000000
0
SPLINE
5
26B
100
AcDbEntity
8
0
100
AcDbSpline
62
0
6
CONTINUOUS
70
0
71
3
72
12
73
8
74
6
42
0.0000001000
43
0.0000001000
44
0.0000000001
12
8.3901689423
22
1.8770392045
32
0.0000000000
13
0.0148134572
23
8.6748781631
33
0.0000000000
40
0.0000000000
40
0.0000000000
40
0.0000000000
40
0.0000000000
40
0.2620658607
40
0.5029490946
40
0.7192734426
40
0.9153647849
40
1.0000000000
40
1.0000000000
40
1.0000000000
40
1.0000000000
10
2.6565783232
20
18.6160746534
30
0.0000000000
10
3.3895039382
20
18.7800439516
30
0.0000000000
10
4.7711790331
20
19.2325920984
30
0.0000000000
10
6.5536977581
20
20.3075998990
30
0.0000000000
10
7.8532302204
20
21.6976891323
30
0.0000000000
10
8.4231592326
20
23.0412651992
30
0.0000000000
10
8.4982248762
20
23.8537500828
30
0.0000000000
10
8.4986427896
20
24.0984834758
30
0.0000000000
11
2.6565783232
21
18.6160746534
31
0.0000000000
11
4.7926485744
21
19.3328709097
31
0.0000000000
11
6.5524959751
21
20.4246682993
31
0.0000000000
11
7.7978728648
21
21.8060189175
31
0.0000000000
11
8.4305277709
21
23.3687207810
31
0.0000000000
11
8.4986427896
21
24.0984834758
31
0.0000000000
0
SPLINE
5
26C
100
AcDbEntity
8
0
100
AcDbSpline
62
0
6
CONTINUOUS
70
0
71
3
72
14
73
10
74
8
42
0.0000001000
43
0.0000001000
44
0.0000000001
12
0.1445654744
22
-0.5718255003
32
0.0000000000
13
-0.5587133242
23
-0.1758599366
33
0.0000000000
40
0.0000000000
40
0.0000000000
40
0.0000000000
40
0.0000000000
40
0.0050178799
40
0.0342778253
40
0.1124751937
40
0.2263782118
40
0.3757701345
40
0.5573487718
40
1.0000000000
40
1.0000000000
40
1.0000000000
40
1.0000000000
10
7.6110673212
20
-36.1366464271
30
0.0000000000
10
7.6113091253
20
-36.1376028776
30
0.0000000000
10
7.6126678546
20
-36.1441986376
30
0.0000000000
10
7.6100171385
20
-36.1667371131
30
0.0000000000
10
7.5830962977
20
-36.2027733331
30
0.0000000000
10
7.5319732666
20
-36.2452507217
30
0.0000000000
10
7.4579261222
20
-36.2913735413
30
0.0000000000
10
7.3228879829
20
-36.3591224686
30
0.0000000000
10
7.2081280650
20
-36.4016152680
30
0.0000000000
10
7.1256896853
20
-36.4275634736
30
0.0000000000
11
7.6110673212
21
-36.1366464271
31
0.0000000000
11
7.6116605015
21
-36.1395398159
31
0.0000000000
11
7.6103892721
21
-36.1566312243
31
0.0000000000
11
7.5865445344
21
-36.1957381091
31
0.0000000000
11
7.5364612305
21
-36.2398157916
31
0.0000000000
11
7.4627367271
21
-36.2869507207
31
0.0000000000
11
7.3679683907
21
-36.3352293449
31
0.0000000000
11
7.1256896853
21
-36.4275634736
31
0.0000000000
0
SPLINE
5
26D
100
AcDbEntity
8
0
100
AcDbSpline
62
0
6
CONTINUOUS
70
0
71
3
72
13
73
9
74
7
42
0.0000001000
43
0.0000001000
44
0.0000000001
12
4.9548280042
22
-1.9576876178
32
0.0000000000
13
-0.0016378562
23
5.3619989607
33
0.0000000000
40
0.0000000000
40
0.0000000000
40
0.0000000000
40
0.0000000000
40
0.1829110087
40
0.3719577629
40
0.5550572448
40
0.7219472649
40
0.8681449964
40
1.0000000000
40
1.0000000000
40
1.0000000000
40
1.0000000000
10
-6.4286058462
20
31.0381615842
30
0.0000000000
10
-6.1265083169
20
30.9188007119
30
0.0000000000
10
-5.4762298347
20
30.7618621466
30
0.0000000000
10
-4.4823624044
20
30.7602628627
30
0.0000000000
10
-3.5412179284
20
30.9831423743
30
0.0000000000
10
-2.7562150930
20
31.4100613220
30
0.0000000000
10
-2.2113605705
20
32.0105505980
30
0.0000000000
10
-2.0715275587
20
32.5073093427
30
0.0000000000
10
-2.0715995453
20
32.7429781401
30
0.0000000000
11
-6.4286058462
21
31.0381615842
31
0.0000000000
11
-5.4831511888
21
30.8021427152
31
0.0000000000
11
-4.4759956853
21
30.8002303354
31
0.0000000000
11
-3.5286171536
21
31.0326551061
31
0.0000000000
11
-2.7552834264
21
31.4713831696
31
0.0000000000
11
-2.2492699643
21
32.0634974467
31
0.0000000000
11
-2.0715995453
21
32.7429781401
31
0.0000000000
0
SPLINE
5
26E
100
AcDbEntity
8
0
100
AcDbSpline
62
0
6
CONTINUOUS
70
0
71
3
72
9
73
5
74
3
42
0.0000001000
43
0.0000001000
44
0.0000000001
12
-1.3279734147
22
-0.2970927259
32
0.0000000000
13
-1.2810146697
23
-0.4591066259
33
0.0000000000
40
0.0000000000
40
0.0000000000
40
0.0000000000
40
0.0000000000
40
0.5053948344
40
1.0000000000
40
1.0000000000
40
1.0000000000
40
1.0000000000
10
-2.6565783232
20
36.2688478424
30
0.0000000000
10
-2.8802952912
20
36.2187981327
30
0.0000000000
10
-3.3201103095
20
36.1065491222
30
0.0000000000
10
-3.7521720887
20
35.9673209049
30
0.0000000000
10
-3.9633709129
20
35.8916287353
30
0.0000000000
11
-2.6565783232
21
36.2688478424
31
0.0000000000
11
-3.3228754051
21
36.0984468573
31
0.0000000000
11
-3.9633709129
21
35.8916287353
31
0.0000000000
0
SPLINE
5
26F
100
AcDbEntity
8
0
100
AcDbSpline
62
0
6
CONTINUOUS
70
0
71
3
72
13
73
9
74
7
42
0.0000001000
43
0.0000001000
44
0.0000000001
12
0.4451020051
22
-1.1422495408
32
0.0000000000
13
0.0209009095
23
1.2622672643
33
0.0000000000
40
0.0000000000
40
0.0000000000
40
0.0000000000
40
0.0000000000
40
0.1629155902
40
0.3591911018
40
0.5703150650
40
0.7668856436
40
0.9301566008
40
1.0000000000
40
1.0000000000
40
1.0000000000
40
1.0000000000
10
-2.4042274018
20
35.6212485935
30
0.0000000000
10
-2.3800560498
20
35.5592185075
30
0.0000000000
10
-2.2723404804
20
35.4447488601
30
0.0000000000
10
-2.0480547346
20
35.3649989874
30
0.0000000000
10
-1.7962812119
20
35.3642335748
30
0.0000000000
10
-1.5720022269
20
35.4443099063
30
0.0000000000
10
-1.4409069116
20
35.5776931281
30
0.0000000000
10
-1.4225886533
20
35.6759859910
30
0.0000000000
10
-1.4221020564
20
35.7053730032
30
0.0000000000
11
-2.4042274018
21
35.6212485935
31
0.0000000000
11
-2.2754443107
21
35.4685960865
31
0.0000000000
11
-2.0516626958
21
35.3801783863
31
0.0000000000
11
-1.7928446598
21
35.3796869444
31
0.0000000000
11
-1.5683402866
21
35.4672534423
31
0.0000000000
11
-1.4383053417
21
35.6194145075
31
0.0000000000
11
-1.4221020564
21
35.7053730032
31
0.0000000000
0
SPLINE
5
270
100
AcDbEntity
8
0
100
AcDbSpline
62
0
6
CONTINUOUS
70
0
71
3
72
12
73
8
74
6
42
0.0000001000
43
0.0000001000
44
0.0000000001
12
-6.7128314837
22
5.2712217616
32
0.0000000000
13
-8.4550384591
23
-1.1662804313
33
0.0000000000
40
0.0000000000
40
0.0000000000
40
0.0000000000
40
0.0000000000
40
0.1826687973
40
0.3771787908
40
0.5811396725
40
0.7902876773
40
1.0000000000
40
1.0000000000
40
1.0000000000
40
1.0000000000
10
6.4257576868
20
34.5621279012
30
0.0000000000
10
6.0170160688
20
34.8830904810
30
0.0000000000
10
5.1001853854
20
35.4558685742
30
0.0000000000
10
3.5592626953
20
36.0739805653
30
0.0000000000
10
1.8674122255
20
36.4606705109
30
0.0000000000
10
0.0952620025
20
36.6005367037
30
0.0000000000
10
-1.0988915870
20
36.5245257471
30
0.0000000000
10
-1.6899335050
20
36.4429979544
30
0.0000000000
11
6.4257576868
21
34.5621279012
31
0.0000000000
11
5.1094354663
21
35.3976373285
31
0.0000000000
11
3.5717091897
21
36.0233647564
31
0.0000000000
11
1.8757160191
21
36.4158978196
31
0.0000000000
11
0.0962829210
21
36.5580059898
31
0.0000000000
11
-1.6899335050
21
36.4429979544
31
0.0000000000
0
SPLINE
5
271
100
AcDbEntity
8
0
100
AcDbSpline
62
0
6
CONTINUOUS
70
0
71
3
72
9
73
5
74
3
42
0.0000001000
43
0.0000001000
44
0.0000000001
12
-0.0152440981
22
0.8168831697
32
0.0000000000
13
-0.1811820289
23
0.7966828527
33
0.0000000000
40
0.0000000000
40
0.0000000000
40
0.0000000000
40
0.0000000000
40
0.4990837810
40
1.0000000000
40
1.0000000000
40
1.0000000000
40
1.0000000000
10
8.4993158075
20
30.8521034684
30
0.0000000000
10
8.4967797801
20
30.9880011820
30
0.0000000000
10
8.4775320277
20
31.2602133127
30
0.0000000000
10
8.4304129493
20
31.5289827409
30
0.0000000000
10
8.4001606103
20
31.6620065283
30
0.0000000000
11
8.4993158075
21
30.8521034684
31
0.0000000000
11
8.4706249793
21
31.2588569766
31
0.0000000000
11
8.4001606103
21
31.6620065283
31
0.0000000000
0
SPLINE
5
272
100
AcDbEntity
8
0
100
AcDbSpline
62
0
6
CONTINUOUS
70
0
71
3
72
8
73
4
74
2
42
0.0000001000
43
0.0000001000
44
0.0000000001
12
-0.2489771391
22
-0.1153682440
32
0.0000000000
13
-0.2454457641
23
-0.1226624063
33
0.0000000000
40
0.0000000000
40
0.0000000000
40
0.0000000000
40
0.0000000000
40
1.0000000000
40
1.0000000000
40
1.0000000000
40
1.0000000000
10
-4.7867318361
20
32.9884020691
30
0.0000000000
10
-4.8697242158
20
32.9499459877
30
0.0000000000
10
-4.9521601348
20
32.9102843355
30
0.0000000000
10
-5.0339753895
20
32.8693968668
30
0.0000000000
11
-4.7867318361
21
32.9884020691
31
0.0000000000
11
-5.0339753895
21
32.8693968668
31
0.0000000000
0
SPLINE
5
273
100
AcDbEntity
8
0
100
AcDbSpline
62
0
6
CONTINUOUS
70
0
71
3
72
8
73
4
74
2
42
0.0000001000
43
0.0000001000
44
0.0000000001
12
-0.4232370446
22
-0.2115142403
32
0.0000000000
13
-0.4111765109
23
-0.2336948599
33
0.0000000000
40
0.0000000000
40
0.0000000000
40
0.0000000000
40
0.0000000000
40
1.0000000000
40
1.0000000000
40
1.0000000000
40
1.0000000000
10
-5.0339753895
20
32.8693968668
30
0.0000000000
10
-5.1750544043
20
32.7988921200
30
0.0000000000
10
-5.3142879238
20
32.7247425056
30
0.0000000000
10
-5.4513467608
20
32.6468442190
30
0.0000000000
11
-5.0339753895
21
32.8693968668
31
0.0000000000
11
-5.4513467608
21
32.6468442190
31
0.0000000000
0
SPLINE
5
274
100
AcDbEntity
8
0
100
AcDbSpline
62
0
6
CONTINUOUS
70
0
71
3
72
8
73
4
74
2
42
0.0000001000
43
0.0000001000
44
0.0000000001
12
-0.9820170355
22
-0.5581358064
32
0.0000000000
13
-0.8945291292
23
-0.6942610225
33
0.0000000000
40
0.0000000000
40
0.0000000000
40
0.0000000000
40
0.0000000000
40
1.0000000000
40
1.0000000000
40
1.0000000000
40
1.0000000000
10
-5.4513467608
20
32.2802165459
30
0.0000000000
10
-5.7786857726
20
32.0941712771
30
0.0000000000
10
-6.0948739420
20
31.8860537488
30
0.0000000000
10
-6.3930503184
20
31.6546334080
30
0.0000000000
11
-5.4513467608
21
32.2802165459
31
0.0000000000
11
-6.3930503184
21
31.6546334080
31
0.0000000000
0
SPLINE
5
275
100
AcDbEntity
8
0
100
AcDbSpline
62
0
6
CONTINUOUS
70
0
71
3
72
9
73
5
74
3
42
0.0000001000
43
0.0000001000
44
0.0000000001
12
-0.5228509787
22
-0.4057945608
32
0.0000000000
13
-0.4817459080
23
-0.4542784929
33
0.0000000000
40
0.0000000000
40
0.0000000000
40
0.0000000000
40
0.0000000000
40
0.8093698147
40
1.0000000000
40
1.0000000000
40
1.0000000000
40
1.0000000000
10
-6.3930503184
20
31.6546334080
30
0.0000000000
10
-6.5341102517
20
31.5451541185
30
0.0000000000
10
-6.7034134355
20
31.4034457592
30
0.0000000000
10
-6.8654542239
20
31.2535773776
30
0.0000000000
10
-6.8960659945
20
31.2247109799
30
0.0000000000
11
-6.3930503184
21
31.6546334080
31
0.0000000000
11
-6.8034105784
21
31.3104197182
31
0.0000000000
11
-6.8960659945
21
31.2247109799
31
0.0000000000
0
SPLINE
5
276
100
AcDbEntity
8
0
100
AcDbSpline
62
0
6
CONTINUOUS
70
0
71
3
72
9
73
5
74
3
42
0.0000001000
43
0.0000001000
44
0.0000000001
12
-0.0614742018
22
-0.3636306052
32
0.0000000000
13
-0.0275157941
23
-0.3677804803
33
0.0000000000
40
0.0000000000
40
0.0000000000
40
0.0000000000
40
0.0000000000
40
0.5010193131
40
1.0000000000
40
1.0000000000
40
1.0000000000
40
1.0000000000
10
-8.4444163965
20
28.8722143863
30
0.0000000000
10
-8.4546829840
20
28.8114857342
30
0.0000000000
10
-8.4723945652
20
28.6897911875
30
0.0000000000
10
-8.4844198006
20
28.5673958925
30
0.0000000000
10
-8.4889964173
20
28.5062241069
30
0.0000000000
11
-8.4444163965
21
28.8722143863
31
0.0000000000
11
-8.4710032840
21
28.6893671957
31
0.0000000000
11
-8.4889964173
21
28.5062241069
31
0.0000000000
0
SPLINE
5
277
100
AcDbEntity
8
0
100
AcDbSpline
62
0
6
CONTINUOUS
70
0
71
3
72
8
73
4
74
2
42
0.0000001000
43
0.0000001000
44
0.0000000001
12
-0.0182340163
22
-0.2437187617
32
0.0000000000
13
-0.0031115392
23
-0.2442342560
33
0.0000000000
40
0.0000000000
40
0.0000000000
40
0.0000000000
40
0.0000000000
40
1.0000000000
40
1.0000000000
40
1.0000000000
40
1.0000000000
10
-8.4889964173
20
28.5062241069
30
0.0000000000
10
-8.4950744227
20
28.4249845197
30
0.0000000000
10
-8.4986413230
20
28.3435705041
30
0.0000000000
10
-8.4996785027
20
28.2621590854
30
0.0000000000
11
-8.4889964173
21
28.5062241069
31
0.0000000000
11
-8.4996785027
21
28.2621590854
31
0.0000000000
0
SPLINE
5
278
100
AcDbEntity
8
0
100
AcDbSpline
62
0
6
CONTINUOUS
70
0
71
3
72
8
73
4
74
2
42
0.0000001000
43
0.0000001000
44
0.0000000001
12
-0.0006331367
22
-0.0496968404
32
0.0000000000
13
-0.0000042198
23
-0.0496917209
33
0.0000000000
40
0.0000000000
40
0.0000000000
40
0.0000000000
40
0.0000000000
40
1.0000000000
40
1.0000000000
40
1.0000000000
40
1.0000000000
10
-8.4996785027
20
28.2621590854
30
0.0000000000
10
-8.4998895483
20
28.2455934719
30
0.0000000000
10
-8.4999958528
20
28.2290279660
30
0.0000000000
10
-8.4999972594
20
28.2124640590
30
0.0000000000
11
-8.4996785027
21
28.2621590854
31
0.0000000000
11
-8.4999972594
21
28.2124640590
31
0.0000000000
0
SPLINE
5
279
100
AcDbEntity
8
0
100
AcDbSpline
62
0
6
CONTINUOUS
70
0
71
3
72
8
73
4
74
2
42
0.0000001000
43
0.0000001000
44
0.0000000001
12
-0.2653463288
22
-0.4378665823
32
0.0000000000
13
-0.4750264327
23
-0.1495187509
33
0.0000000000
40
0.0000000000
40
0.0000000000
40
0.0000000000
40
0.0000000000
40
1.0000000000
40
1.0000000000
40
1.0000000000
40
1.0000000000
10
-3.3948230423
20
-35.2194432679
30
0.0000000000
10
-3.4832718185
20
-35.3653987954
30
0.0000000000
10
-3.6308799922
20
-35.4793810042
30
0.0000000000
10
-3.7892221365
20
-35.5292205878
30
0.0000000000
11
-3.3948230423
21
-35.2194432679
31
0.0000000000
11
-3.7892221365
21
-35.5292205878
31
0.0000000000
0
SPLINE
5
27A
100
AcDbEntity
8
0
100
AcDbSpline
62
0
6
CONTINUOUS
70
0
71
3
72
12
73
8
74
6
42
0.0000001000
43
0.0000001000
44
0.0000000001
12
2.3684992583
22
-0.1820530858
32
0.0000000000
13
0.0084565246
23
2.3911647459
33
0.0000000000
40
0.0000000000
40
0.0000000000
40
0.0000000000
40
0.0000000000
40
0.1064127173
40
0.3741953814
40
0.6193773277
40
0.8314134549
40
1.0000000000
40
1.0000000000
40
1.0000000000
40
1.0000000000
10
4.7863194249
20
24.7666048502
30
0.0000000000
10
4.8703322389
20
24.7601472624
30
0.0000000000
10
5.1670283447
20
24.7530458015
30
0.0000000000
10
5.6558140795
20
24.8301667280
30
0.0000000000
10
6.1817430352
20
25.0777384208
30
0.0000000000
10
6.5367126140
20
25.4442913737
30
0.0000000000
10
6.6209806184
20
25.7479017693
30
0.0000000000
10
6.6214558372
20
25.8822745037
30
0.0000000000
11
4.7863194249
21
24.7666048502
31
0.0000000000
11
5.0389665823
21
24.7604505248
31
0.0000000000
11
5.6647396034
21
24.8633103506
31
0.0000000000
11
6.1849881218
21
25.1211708918
31
0.0000000000
11
6.5205090166
21
25.4947752185
31
0.0000000000
11
6.6214558372
21
25.8822745037
31
0.0000000000
0
SPLINE
5
27B
100
AcDbEntity
8
0
100
AcDbSpline
62
0
6
CONTINUOUS
70
0
71
3
72
8
73
4
74
2
42
0.0000001000
43
0.0000001000
44
0.0000000001
12
-0.0015406479
22
-0.0930442506
32
0.0000000000
13
0.0328093611
23
-0.0841975036
33
0.0000000000
40
0.0000000000
40
0.0000000000
40
0.0000000000
40
0.0000000000
40
1.0000000000
40
1.0000000000
40
1.0000000000
40
1.0000000000
10
1.4221020564
20
25.8521731432
30
0.0000000000
10
1.4215885071
20
25.8211583930
30
0.0000000000
10
1.4266461298
20
25.7902132754
30
0.0000000000
10
1.4375825835
20
25.7621474408
30
0.0000000000
11
1.4221020564
21
25.8521731432
31
0.0000000000
11
1.4375825835
21
25.7621474408
31
0.0000000000
0
SPLINE
5
27C
100
AcDbEntity
8
0
100
AcDbSpline
62
0
6
CONTINUOUS
70
0
71
3
72
10
73
6
74
4
42
0.0000001000
43
0.0000001000
44
0.0000000001
12
0.0007241845
22
-2.3708285519
32
0.0000000000
13
2.1907963408
23
-0.8655991420
33
0.0000000000
40
0.0000000000
40
0.0000000000
40
0.0000000000
40
0.0000000000
40
0.2933396496
40
0.6232689742
40
1.0000000000
40
1.0000000000
40
1.0000000000
40
1.0000000000
10
2.0715995453
20
28.8145680062
30
0.0000000000
10
2.0716703559
20
28.5827486673
30
0.0000000000
10
2.2076423596
20
28.0899932022
30
0.0000000000
10
2.7450151657
20
27.4898783934
30
0.0000000000
10
3.2394768058
20
27.2182336918
30
0.0000000000
10
3.5145904568
20
27.1095343408
30
0.0000000000
11
2.0715995453
21
28.8145680062
31
0.0000000000
11
2.2437303891
21
28.1452189971
31
0.0000000000
11
2.7448724305
21
27.5511923402
31
0.0000000000
11
3.5145904568
21
27.1095343408
31
0.0000000000
0
SPLINE
5
27D
100
AcDbEntity
8
0
100
AcDbSpline
62
0
6
CONTINUOUS
70
0
71
3
72
8
73
4
74
2
42
0.0000001000
43
0.0000001000
44
0.0000000001
12
-0.0015391214
22
-0.9013217104
32
0.0000000000
13
0.1980941887
23
-0.8710479972
33
0.0000000000
40
0.0000000000
40
0.0000000000
40
0.0000000000
40
0.0000000000
40
1.0000000000
40
1.0000000000
40
1.0000000000
40
1.0000000000
10
-8.4986427896
20
24.1138153694
30
0.0000000000
10
-8.4991558301
20
23.8133747992
30
0.0000000000
10
-8.4661920065
20
23.5132652998
30
0.0000000000
10
-8.4001606103
20
23.2229159674
30
0.0000000000
11
-8.4986427896
21
24.1138153694
31
0.0000000000
11
-8.4001606103
21
23.2229159674
31
0.0000000000
0
SPLINE
5
27E
100
AcDbEntity
8
0
100
AcDbSpline
62
0
6
CONTINUOUS
70
0
71
3
72
14
73
10
74
8
42
0.0000001000
43
0.0000001000
44
0.0000000001
12
-0.9776542288
22
-0.3077252739
32
0.0000000000
13
-1.0009667178
23
0.3462983385
33
0.0000000000
40
0.0000000000
40
0.0000000000
40
0.0000000000
40
0.0000000000
40
0.2931897437
40
0.4427509493
40
0.5868675533
40
0.7199761189
40
0.8365847331
40
0.9314299375
40
1.0000000000
40
1.0000000000
40
1.0000000000
40
1.0000000000
10
7.1256896853
20
-36.4275634736
30
0.0000000000
10
7.0301436210
20
-36.4576374384
30
0.0000000000
10
6.8831938979
20
-36.4947411997
30
0.0000000000
10
6.6862894605
20
-36.5326306027
30
0.0000000000
10
6.5421007474
20
-36.5545426387
30
0.0000000000
10
6.4082388860
20
-36.5690359100
30
0.0000000000
10
6.2907856234
20
-36.5757148045
30
0.0000000000
10
6.1945756993
20
-36.5734837200
30
0.0000000000
10
6.1398772868
20
-36.5659212227
30
0.0000000000
10
6.1169985033
20
-36.5580059898
30
0.0000000000
11
7.1256896853
21
-36.4275634736
31
0.0000000000
11
6.8348212913
21
-36.5030420872
31
0.0000000000
11
6.6842852442
21
-36.5319751769
31
0.0000000000
11
6.5382283636
21
-36.5540183731
31
0.0000000000
11
6.4025609492
21
-36.5684073640
31
0.0000000000
11
6.2831933012
21
-36.5743778382
31
0.0000000000
11
6.1860357192
21
-36.5711654840
31
0.0000000000
11
6.1169985033
21
-36.5580059898
31
0.0000000000
0
SPLINE
5
27F
100
AcDbEntity
8
0
100
AcDbSpline
62
0
6
CONTINUOUS
70
0
71
3
72
9
73
5
74
3
42
0.0000001000
43
0.0000001000
44
0.0000000001
12
-0.0554173299
22
0.0191723950
32
0.0000000000
13
-0.0140028556
23
0.0553974142
33
0.0000000000
40
0.0000000000
40
0.0000000000
40
0.0000000000
40
0.0000000000
40
0.7631836570
40
1.0000000000
40
1.0000000000
40
1.0000000000
40
1.0000000000
10
6.1169985033
20
-36.5580059898
30
0.0000000000
10
6.1029006365
20
-36.5531286370
30
0.0000000000
10
6.0844645176
20
-36.5443786104
30
0.0000000000
10
6.0760098027
20
-36.5267153136
30
0.0000000000
10
6.0749044343
20
-36.5223423092
30
0.0000000000
11
6.1169985033
21
-36.5580059898
31
0.0000000000
11
6.0805740089
21
-36.5345813544
31
0.0000000000
11
6.0749044343
21
-36.5223423092
31
0.0000000000
0
SPLINE
5
280
100
AcDbEntity
8
0
100
AcDbSpline
62
0
6
CONTINUOUS
70
0
71
3
72
11
73
7
74
5
42
0.0000001000
43
0.0000001000
44
0.0000000001
12
-1.7644131165
22
-0.5553645589
32
0.0000000000
13
0.9849061617
23
1.6267570794
33
0.0000000000
40
0.0000000000
40
0.0000000000
40
0.0000000000
40
0.0000000000
40
0.3251821424
40
0.6538835681
40
0.9634940120
40
1.0000000000
40
1.0000000000
40
1.0000000000
40
1.0000000000
10
-3.7892221365
20
-35.5292205878
30
0.0000000000
10
-3.9804740156
20
-35.5894188002
30
0.0000000000
10
-4.4253357094
20
-35.5482410773
30
0.0000000000
10
-4.8775291175
20
-35.0874811017
30
0.0000000000
10
-4.8879726045
20
-34.6217785015
30
0.0000000000
10
-4.7846590000
20
-34.4285253091
30
0.0000000000
10
-4.7726740092
20
-34.4087298509
30
0.0000000000
11
-3.7892221365
21
-35.5292205878
31
0.0000000000
11
-4.3888175340
21
-35.4813111570
31
0.0000000000
11
-4.8096674501
21
-35.0424842488
31
0.0000000000
11
-4.8052437115
21
-34.4697987145
31
0.0000000000
11
-4.7726740092
21
-34.4087298509
31
0.0000000000
0
SPLINE
5
281
100
AcDbEntity
8
0
100
AcDbSpline
62
0
6
CONTINUOUS
70
0
71
3
72
9
73
5
74
3
42
0.0000001000
43
0.0000001000
44
0.0000000001
12
0.0152440981
22
-0.8168831697
32
0.0000000000
13
0.1811820289
23
-0.7966828527
33
0.0000000000
40
0.0000000000
40
0.0000000000
40
0.0000000000
40
0.0000000000
40
0.4990837810
40
1.0000000000
40
1.0000000000
40
1.0000000000
40
1.0000000000
10
-8.4993158075
20
30.7054426780
30
0.0000000000
10
-8.4967797801
20
30.5695449644
30
0.0000000000
10
-8.4775320277
20
30.2973328337
30
0.0000000000
10
-8.4304129493
20
30.0285634055
30
0.0000000000
10
-8.4001606103
20
29.8955396180
30
0.0000000000
11
-8.4993158075
21
30.7054426780
31
0.0000000000
11
-8.4706249793
21
30.2986891698
31
0.0000000000
11
-8.4001606103
21
29.8955396180
31
0.0000000000
0
SPLINE
5
282
100
AcDbEntity
8
0
100
AcDbSpline
62
0
6
CONTINUOUS
70
0
71
3
72
10
73
6
74
4
42
0.0000001000
43
0.0000001000
44
0.0000000001
12
-3.0696055246
22
1.2128228713
32
0.0000000000
13
-2.9471708999
23
-1.5254857000
33
0.0000000000
40
0.0000000000
40
0.0000000000
40
0.0000000000
40
0.0000000000
40
0.3330116181
40
0.6754823024
40
1.0000000000
40
1.0000000000
40
1.0000000000
40
1.0000000000
10
6.4286058462
20
27.5863631772
30
0.0000000000
10
6.0878677453
20
27.7209912129
30
0.0000000000
10
5.3511289872
20
27.8854959921
30
0.0000000000
10
4.2403782901
20
27.8397945757
30
0.0000000000
10
3.5314247562
20
27.6141853251
30
0.0000000000
10
3.2126217179
20
27.4491696227
30
0.0000000000
11
6.4286058462
21
27.5863631772
31
0.0000000000
11
5.3581516680
21
27.8357069258
31
0.0000000000
11
4.2288482210
21
27.7875309561
31
0.0000000000
11
3.2126217179
21
27.4491696227
31
0.0000000000
0
SPLINE
5
283
100
AcDbEntity
8
0
100
AcDbSpline
62
0
6
CONTINUOUS
70
0
71
3
72
8
73
4
74
2
42
0.0000001000
43
0.0000001000
44
0.0000000001
12
-0.1771058585
22
-0.0916717977
32
0.0000000000
13
-0.1707750772
23
-0.1033492595
33
0.0000000000
40
0.0000000000
40
0.0000000000
40
0.0000000000
40
0.0000000000
40
1.0000000000
40
1.0000000000
40
1.0000000000
40
1.0000000000
10
3.2126217179
20
27.4491696227
30
0.0000000000
10
3.1535864317
20
27.4186123568
30
0.0000000000
10
3.0954472501
20
27.3861606104
30
0.0000000000
10
3.0385222244
20
27.3517108573
30
0.0000000000
11
3.2126217179
21
27.4491696227
31
0.0000000000
11
3.0385222244
21
27.3517108573
31
0.0000000000
0
SPLINE
5
284
100
AcDbEntity
8
0
100
AcDbSpline
62
0
6
CONTINUOUS
70
0
71
3
72
10
73
6
74
4
42
0.0000001000
43
0.0000001000
44
0.0000000001
12
-1.3326664213
22
0.4074245111
32
0.0000000000
13
-1.3298845163
23
-0.4183366717
33
0.0000000000
40
0.0000000000
40
0.0000000000
40
0.0000000000
40
0.0000000000
40
0.0828486500
40
0.5433908345
40
1.0000000000
40
1.0000000000
40
1.0000000000
40
1.0000000000
10
-4.2916793782
20
30.8324734568
30
0.0000000000
10
-4.3284825829
20
30.8437249804
30
0.0000000000
10
-4.5719058456
20
30.9108988935
30
0.0000000000
10
-5.0378619452
20
30.9588375323
30
0.0000000000
10
-5.4623271170
20
30.8918651455
30
0.0000000000
10
-5.6647396034
20
30.8281930260
30
0.0000000000
11
-4.2916793782
21
30.8324734568
31
0.0000000000
11
-4.4029373283
21
30.8632524861
31
0.0000000000
11
-5.0389665823
21
30.9310528518
31
0.0000000000
11
-5.6647396034
21
30.8281930260
31
0.0000000000
0
SPLINE
5
285
100
AcDbEntity
8
0
100
AcDbSpline
62
0
6
CONTINUOUS
70
0
71
3
72
11
73
7
74
5
42
0.0000001000
43
0.0000001000
44
0.0000000001
12
-1.2273009995
22
1.8027332806
32
0.0000000000
13
-2.1391308961
23
-0.4562158959
33
0.0000000000
40
0.0000000000
40
0.0000000000
40
0.0000000000
40
0.0000000000
40
0.2377999897
40
0.5105998204
40
0.8038947413
40
1.0000000000
40
1.0000000000
40
1.0000000000
40
1.0000000000
10
6.4689474520
20
26.3527419387
30
0.0000000000
10
6.3716633970
20
26.4956385906
30
0.0000000000
10
6.0833237107
20
26.7489185233
30
0.0000000000
10
5.5322836065
20
26.9657083034
30
0.0000000000
10
4.9746116240
20
27.0230828839
30
0.0000000000
10
4.6185635458
20
26.9820360556
30
0.0000000000
10
4.4787319399
20
26.9522139435
30
0.0000000000
11
6.4689474520
21
26.3527419387
31
0.0000000000
11
6.0897147733
21
26.7064866766
31
0.0000000000
11
5.5402589747
21
26.9346252427
31
0.0000000000
11
4.9042297207
21
27.0024256084
31
0.0000000000
11
4.4787319399
21
26.9522139435
31
0.0000000000
0
SPLINE
5
286
100
AcDbEntity
8
0
100
AcDbSpline
62
0
6
CONTINUOUS
70
0
71
3
72
8
73
4
74
2
42
0.0000001000
43
0.0000001000
44
0.0000000001
12
-0.2025434607
22
-0.0431967705
32
0.0000000000
13
-0.1977241285
23
-0.0621973207
33
0.0000000000
40
0.0000000000
40
0.0000000000
40
0.0000000000
40
0.0000000000
40
1.0000000000
40
1.0000000000
40
1.0000000000
40
1.0000000000
10
4.4787319399
20
26.9522139435
30
0.0000000000
10
4.4112174530
20
26.9378150200
30
0.0000000000
10
4.3443647424
20
26.9202982228
30
0.0000000000
10
4.2784566996
20
26.8995657826
30
0.0000000000
11
4.4787319399
21
26.9522139435
31
0.0000000000
11
4.2784566996
21
26.8995657826
31
0.0000000000
0
SPLINE
5
287
100
AcDbEntity
8
0
100
AcDbSpline
62
0
6
CONTINUOUS
70
0
71
3
72
8
73
4
74
2
42
0.0000001000
43
0.0000001000
44
0.0000000001
12
-0.1217475751
22
-0.0382976677
32
0.0000000000
13
-0.1191787042
23
-0.0458234386
33
0.0000000000
40
0.0000000000
40
0.0000000000
40
0.0000000000
40
0.0000000000
40
1.0000000000
40
1.0000000000
40
1.0000000000
40
1.0000000000
10
4.2784566996
20
26.8995657826
30
0.0000000000
10
4.2378741746
20
26.8867998933
30
0.0000000000
10
4.1976498123
20
26.8728148204
30
0.0000000000
10
4.1579235776
20
26.8575403409
30
0.0000000000
11
4.2784566996
21
26.8995657826
31
0.0000000000
11
4.1579235776
21
26.8575403409
31
0.0000000000
0
SPLINE
5
288
100
AcDbEntity
8
0
100
AcDbSpline
62
0
6
CONTINUOUS
70
0
71
3
72
9
73
5
74
3
42
0.0000001000
43
0.0000001000
44
0.0000000001
12
0.2651431498
22
1.0008359004
32
0.0000000000
13
0.0000879500
23
1.0356803529
33
0.0000000000
40
0.0000000000
40
0.0000000000
40
0.0000000000
40
0.0000000000
40
0.5386748572
40
1.0000000000
40
1.0000000000
40
1.0000000000
40
1.0000000000
10
8.3653621502
20
27.1877647251
30
0.0000000000
10
8.4129707997
20
27.3674731036
30
0.0000000000
10
8.4789332286
20
27.7074856595
30
0.0000000000
10
8.4999837349
20
28.0530328682
30
0.0000000000
10
8.4999972594
20
28.2122946638
30
0.0000000000
11
8.3653621502
21
27.1877647251
31
0.0000000000
11
8.4710032840
21
27.7353915271
31
0.0000000000
11
8.4999972594
21
28.2122946638
31
0.0000000000
0
SPLINE
5
289
100
AcDbEntity
8
0
100
AcDbSpline
62
0
6
CONTINUOUS
70
0
71
3
72
8
73
4
74
2
42
0.0000001000
43
0.0000001000
44
0.0000000001
12
0.0015406479
22
0.0930442506
32
0.0000000000
13
-0.0328093611
23
0.0841975036
33
0.0000000000
40
0.0000000000
40
0.0000000000
40
0.0000000000
40
0.0000000000
40
1.0000000000
40
1.0000000000
40
1.0000000000
40
1.0000000000
10
-1.4221020564
20
35.7053730032
30
0.0000000000
10
-1.4215885071
20
35.7363877534
30
0.0000000000
10
-1.4266461298
20
35.7673328710
30
0.0000000000
10
-1.4375825835
20
35.7953987055
30
0.0000000000
11
-1.4221020564
21
35.7053730032
31
0.0000000000
11
-1.4375825835
21
35.7953987055
31
0.0000000000
0
SPLINE
5
28A
100
AcDbEntity
8
0
100
AcDbSpline
62
0
6
CONTINUOUS
70
0
71
3
72
9
73
5
74
3
42
0.0000001000
43
0.0000001000
44
0.0000000001
12
0.0017716747
22
0.5009582908
32
0.0000000000
13
-0.2792160955
23
0.4101293392
33
0.0000000000
40
0.0000000000
40
0.0000000000
40
0.0000000000
40
0.0000000000
40
0.0898217880
40
1.0000000000
40
1.0000000000
40
1.0000000000
40
1.0000000000
10
6.6214558372
20
25.8822745037
30
0.0000000000
10
6.6215088821
20
25.8972734935
30
0.0000000000
10
6.6169879687
20
26.0642452613
30
0.0000000000
10
6.5536595875
20
26.2283116759
30
0.0000000000
10
6.4689474520
20
26.3527419387
30
0.0000000000
11
6.6214558372
21
25.8822745037
31
0.0000000000
11
6.6202222732
21
25.9272454587
31
0.0000000000
11
6.4689474520
21
26.3527419387
31
0.0000000000
0
SPLINE
5
28B
100
AcDbEntity
8
0
100
AcDbSpline
62
0
6
CONTINUOUS
70
0
71
3
72
13
73
9
74
7
42
0.0000001000
43
0.0000001000
44
0.0000000001
12
-4.9548280042
22
1.9576876178
32
0.0000000000
13
0.0016378562
23
-5.3619989607
33
0.0000000000
40
0.0000000000
40
0.0000000000
40
0.0000000000
40
0.0000000000
40
0.1829110087
40
0.3719577629
40
0.5550572448
40
0.7219472649
40
0.8681449964
40
1.0000000000
40
1.0000000000
40
1.0000000000
40
1.0000000000
10
6.4286058462
20
30.5193845621
30
0.0000000000
10
6.1265083169
20
30.6387454344
30
0.0000000000
10
5.4762298347
20
30.7956839997
30
0.0000000000
10
4.4823624044
20
30.7972832837
30
0.0000000000
10
3.5412179284
20
30.5744037721
30
0.0000000000
10
2.7562150930
20
30.1474848244
30
0.0000000000
10
2.2113605705
20
29.5469955483
30
0.0000000000
10
2.0715275587
20
29.0502368036
30
0.0000000000
10
2.0715995453
20
28.8145680062
30
0.0000000000
11
6.4286058462
21
30.5193845621
31
0.0000000000
11
5.4831511888
21
30.7554034311
31
0.0000000000
11
4.4759956853
21
30.7573158109
31
0.0000000000
11
3.5286171536
21
30.5248910403
31
0.0000000000
11
2.7552834264
21
30.0861629767
31
0.0000000000
11
2.2492699643
21
29.4940486997
31
0.0000000000
11
2.0715995453
21
28.8145680062
31
0.0000000000
0
SPLINE
5
28C
100
AcDbEntity
8
0
100
AcDbSpline
62
0
6
CONTINUOUS
70
0
71
3
72
10
73
6
74
4
42
0.0000001000
43
0.0000001000
44
0.0000000001
12
-0.0007241845
22
2.3708285519
32
0.0000000000
13
-2.1907963408
23
0.8655991420
33
0.0000000000
40
0.0000000000
40
0.0000000000
40
0.0000000000
40
0.0000000000
40
0.2933396496
40
0.6232689742
40
1.0000000000
40
1.0000000000
40
1.0000000000
40
1.0000000000
10
-2.0715995453
20
32.7429781401
30
0.0000000000
10
-2.0716703559
20
32.9747974790
30
0.0000000000
10
-2.2076423596
20
33.4675529442
30
0.0000000000
10
-2.7450151657
20
34.0676677529
30
0.0000000000
10
-3.2394768058
20
34.3393124546
30
0.0000000000
10
-3.5145904568
20
34.4480118055
30
0.0000000000
11
-2.0715995453
21
32.7429781401
31
0.0000000000
11
-2.2437303891
21
33.4123271493
31
0.0000000000
11
-2.7448724305
21
34.0063538061
31
0.0000000000
11
-3.5145904568
21
34.4480118055
31
0.0000000000
0
SPLINE
5
28D
100
AcDbEntity
8
0
100
AcDbSpline
62
0
6
CONTINUOUS
70
0
71
3
72
9
73
5
74
3
42
0.0000001000
43
0.0000001000
44
0.0000000001
12
1.3279734147
22
0.2970927259
32
0.0000000000
13
1.2810146697
23
0.4591066259
33
0.0000000000
40
0.0000000000
40
0.0000000000
40
0.0000000000
40
0.0000000000
40
0.5053948344
40
1.0000000000
40
1.0000000000
40
1.0000000000
40
1.0000000000
10
2.6565783232
20
25.2886983040
30
0.0000000000
10
2.8802952912
20
25.3387480137
30
0.0000000000
10
3.3201103095
20
25.4509970242
30
0.0000000000
10
3.7521720887
20
25.5902252415
30
0.0000000000
10
3.9633709129
20
25.6659174110
30
0.0000000000
11
2.6565783232
21
25.2886983040
31
0.0000000000
11
3.3228754051
21
25.4590992891
31
0.0000000000
11
3.9633709129
21
25.6659174110
31
0.0000000000
0
SPLINE
5
28E
100
AcDbEntity
8
0
100
AcDbSpline
62
0
6
CONTINUOUS
70
0
71
3
72
8
73
4
74
2
42
0.0000001000
43
0.0000001000
44
0.0000000001
12
-0.4549642194
22
0.2765781987
32
0.0000000000
13
-0.4925833989
23
0.1946231877
33
0.0000000000
40
0.0000000000
40
0.0000000000
40
0.0000000000
40
0.0000000000
40
1.0000000000
40
1.0000000000
40
1.0000000000
40
1.0000000000
10
-3.0384811588
20
31.2802649755
30
0.0000000000
10
-3.1901358986
20
31.3724577084
30
0.0000000000
10
-3.3503959905
20
31.4501160247
30
0.0000000000
10
-3.5145904568
20
31.5149904206
30
0.0000000000
11
-3.0384811588
21
31.2802649755
31
0.0000000000
11
-3.5145904568
21
31.5149904206
31
0.0000000000
0
SPLINE
5
28F
100
AcDbEntity
8
0
100
AcDbSpline
62
0
6
CONTINUOUS
70
0
71
3
72
13
73
9
74
7
42
0.0000001000
43
0.0000001000
44
0.0000000001
12
-0.4451020051
22
1.1422495408
32
0.0000000000
13
-0.0209009095
23
-1.2622672643
33
0.0000000000
40
0.0000000000
40
0.0000000000
40
0.0000000000
40
0.0000000000
40
0.1629155902
40
0.3591911018
40
0.5703150650
40
0.7668856436
40
0.9301566008
40
1.0000000000
40
1.0000000000
40
1.0000000000
40
1.0000000000
10
2.4042274018
20
25.9362975528
30
0.0000000000
10
2.3800560498
20
25.9983276389
30
0.0000000000
10
2.2723404804
20
26.1127972863
30
0.0000000000
10
2.0480547346
20
26.1925471590
30
0.0000000000
10
1.7962812119
20
26.1933125716
30
0.0000000000
10
1.5720022269
20
26.1132362401
30
0.0000000000
10
1.4409069116
20
25.9798530183
30
0.0000000000
10
1.4225886533
20
25.8815601553
30
0.0000000000
10
1.4221020564
20
25.8521731432
30
0.0000000000
11
2.4042274018
21
25.9362975528
31
0.0000000000
11
2.2754443107
21
26.0889500599
31
0.0000000000
11
2.0516626958
21
26.1773677601
31
0.0000000000
11
1.7928446598
21
26.1778592019
31
0.0000000000
11
1.5683402866
21
26.0902927041
31
0.0000000000
11
1.4383053417
21
25.9381316389
31
0.0000000000
11
1.4221020564
21
25.8521731432
31
0.0000000000
0
SPLINE
5
290
100
AcDbEntity
8
0
100
AcDbSpline
62
0
6
CONTINUOUS
70
0
71
3
72
12
73
8
74
6
42
0.0000001000
43
0.0000001000
44
0.0000000001
12
6.7128314837
22
-5.2712217616
32
0.0000000000
13
8.4550384591
23
1.1662804313
33
0.0000000000
40
0.0000000000
40
0.0000000000
40
0.0000000000
40
0.0000000000
40
0.1826687973
40
0.3771787908
40
0.5811396725
40
0.7902876773
40
1.0000000000
40
1.0000000000
40
1.0000000000
40
1.0000000000
10
-6.4257576868
20
26.9954182452
30
0.0000000000
10
-6.0170160688
20
26.6744556653
30
0.0000000000
10
-5.1001853854
20
26.1016775721
30
0.0000000000
10
-3.5592626953
20
25.4835655811
30
0.0000000000
10
-1.8674122255
20
25.0968756355
30
0.0000000000
10
-0.0952620025
20
24.9570094426
30
0.0000000000
10
1.0988915870
20
25.0330203993
30
0.0000000000
10
1.6899335050
20
25.1145481920
30
0.0000000000
11
-6.4257576868
21
26.9954182452
31
0.0000000000
11
-5.1094354663
21
26.1599088179
31
0.0000000000
11
-3.5717091897
21
25.5341813899
31
0.0000000000
11
-1.8757160191
21
25.1416483268
31
0.0000000000
11
-0.0962829210
21
24.9995401565
31
0.0000000000
11
1.6899335050
21
25.1145481920
31
0.0000000000
0
SPLINE
5
291
100
AcDbEntity
8
0
100
AcDbSpline
62
0
6
CONTINUOUS
70
0
71
3
72
9
73
5
74
3
42
0.0000001000
43
0.0000001000
44
0.0000000001
12
1.5408739456
22
0.5522383583
32
0.0000000000
13
1.4230583227
23
0.8088045072
33
0.0000000000
40
0.0000000000
40
0.0000000000
40
0.0000000000
40
0.0000000000
40
0.5093497298
40
1.0000000000
40
1.0000000000
40
1.0000000000
40
1.0000000000
10
3.9633709129
20
23.0995236993
30
0.0000000000
10
4.2249854889
20
23.1932845188
30
0.0000000000
10
4.7314719090
20
23.3980641600
30
0.0000000000
10
5.2186054439
20
23.6456344538
30
0.0000000000
10
5.4513467608
20
23.7779145038
30
0.0000000000
11
3.9633709129
21
23.0995236993
31
0.0000000000
11
4.7359220740
21
23.4129949134
31
0.0000000000
11
5.4513467608
21
23.7779145038
31
0.0000000000
0
SPLINE
5
292
100
AcDbEntity
8
0
100
AcDbSpline
62
0
6
CONTINUOUS
70
0
71
3
72
8
73
4
74
2
42
0.0000001000
43
0.0000001000
44
0.0000000001
12
0.1670965188
22
0.0949703996
32
0.0000000000
13
0.1650579995
23
0.0988229638
33
0.0000000000
40
0.0000000000
40
0.0000000000
40
0.0000000000
40
0.0000000000
40
1.0000000000
40
1.0000000000
40
1.0000000000
40
1.0000000000
10
5.4513467608
20
23.4112868307
30
0.0000000000
10
5.5070456004
20
23.4429436305
30
0.0000000000
10
5.5624215872
20
23.4752394932
30
0.0000000000
10
5.6174409204
20
23.5081804812
30
0.0000000000
11
5.4513467608
21
23.4112868307
31
0.0000000000
11
5.6174409204
21
23.5081804812
31
0.0000000000
0
SPLINE
5
293
100
AcDbEntity
8
0
100
AcDbSpline
62
0
6
CONTINUOUS
70
0
71
3
72
10
73
6
74
4
42
0.0000001000
43
0.0000001000
44
0.0000000001
12
3.7779035268
22
2.2618935426
32
0.0000000000
13
1.1265612407
23
4.2524309390
33
0.0000000000
40
0.0000000000
40
0.0000000000
40
0.0000000000
40
0.0000000000
40
0.3345451717
40
0.6807343510
40
1.0000000000
40
1.0000000000
40
1.0000000000
40
1.0000000000
10
5.6174409204
20
23.5081804812
30
0.0000000000
10
6.0387340485
20
23.7604156690
30
0.0000000000
10
6.8534328157
20
24.3506322978
30
0.0000000000
10
7.8307361411
20
25.4642811281
30
0.0000000000
10
8.2454713817
20
26.3685853442
30
0.0000000000
10
8.3653621502
20
26.8211370520
30
0.0000000000
11
5.6174409204
21
23.5081804812
31
0.0000000000
11
6.8034105784
21
24.3810836584
31
0.0000000000
11
7.7932818073
21
25.5384384581
31
0.0000000000
11
8.3653621502
21
26.8211370520
31
0.0000000000
0
SPLINE
5
294
100
AcDbEntity
8
0
100
AcDbSpline
62
0
6
CONTINUOUS
70
0
71
3
72
9
73
5
74
3
42
0.0000001000
43
0.0000001000
44
0.0000000001
12
0.3340003481
22
-0.4905997334
32
0.0000000000
13
0.1863240642
23
-0.5636220979
33
0.0000000000
40
0.0000000000
40
0.0000000000
40
0.0000000000
40
0.0000000000
40
0.5053996433
40
1.0000000000
40
1.0000000000
40
1.0000000000
40
1.0000000000
10
3.2518605426
20
31.7434149591
30
0.0000000000
10
3.3081284282
20
31.6607653156
30
0.0000000000
10
3.4009770410
20
31.4848126772
30
0.0000000000
10
3.4725464025
20
31.3000432840
30
0.0000000000
10
3.5032650521
20
31.2071207204
30
0.0000000000
11
3.2518605426
21
31.7434149591
31
0.0000000000
11
3.3965444062
21
31.4806604611
31
0.0000000000
11
3.5032650521
21
31.2071207204
31
0.0000000000
0
ENDSEC
0
SECTION
2
OBJECTS
0
DICTIONARY
5
C
100
AcDbDictionary
280
0
281
1
3
ACAD_GROUP
350
D
3
ACAD_MLINESTYLE
350
17
3
ACAD_LAYOUT
350
1A
3
ACAD_PLOTSETTINGS
350
19
3
ACAD_PLOTSTYLENAME
350
E
0
DICTIONARY
5
D
102
{ACAD_REACTORS
330
C
102
}
100
AcDbDictionary
280
0
281
1
0
ACDBDICTIONARYWDFLT
5
E
102
{ACAD_REACTORS
330
C
102
}
100
AcDbDictionary
281
1
3
Normal
350
F
100
AcDbDictionaryWithDefault
340
F
0
DICTIONARY
5
17
102
{ACAD_REACTORS
330
C
102
}
100
AcDbDictionary
280
0
281
1
3
Standard
350
18
0
DICTIONARY
5
19
102
{ACAD_REACTORS
330
C
102
}
100
AcDbDictionary
281
1
0
DICTIONARY
5
1A
102
{ACAD_REACTORS
330
C
102
}
100
AcDbDictionary
281
1
3
Layout1
350
1E
3
Model
350
22
0
ACDBPLACEHOLDER
5
F
102
{ACAD_REACTORS
330
E
102
}
0
MLINESTYLE
5
18
102
{ACAD_REACTORS
330
17
102
}
100
AcDbMlineStyle
2
STANDARD
70
0
3

62
256
51
90.0
52
90.0
71
2
49
0.5
62
256
6
BYLAYER
49
-0.5
62
256
6
BYLAYER
0
LAYOUT
5
1E
102
{ACAD_REACTORS
330
1A
102
}
100
AcDbPlotSettings
1

2

4

6

40
0.0
41
0.0
42
0.0
43
0.0
44
0.0
45
0.0
46
0.0
47
0.0
48
0.0
49
0.0
140
0.0
141
0.0
142
1.0
143
1.0
70
0
72
0
73
0
74
0
7

75
0
147
1.0
148
0.0
149
0.0
100
AcDbLayout
1
Layout1
70
0
71
0
10
0.0
20
0.0
11
0.0
21
0.0
12
0.0
22
0.0
32
0.0
14
0.0
24
0.0
34
0.0
15
0.0
25
0.0
35
0.0
146
0.0
13
0.0
23
0.0
33
0.0
16
0.0
26
0.0
36
0.0
17
0.0
27
0.0
37
0.0
76
0
330
1B
331
0
345
0
346
0
0
LAYOUT
5
22
102
{ACAD_REACTORS
330
1A
102
}
100
AcDbPlotSettings
1

2

4

6

40
0.0
41
0.0
42
0.0
43
0.0
44
0.0
45
0.0
46
0.0
47
0.0
48
0.0
49
0.0
140
0.0
141
0.0
142
1.0
143
1.0
70
0
72
0
73
0
74
0
7

75
0
147
1.0
148
0.0
149
0.0
100
AcDbLayout
1
Model
70
0
71
0
10
0.0
20
0.0
11
0.0
21
0.0
12
0.0
22
0.0
32
0.0
14
0.0
24
0.0
34
0.0
15
0.0
25
0.0
35
0.0
146
0.0
13
0.0
23
0.0
33
0.0
16
0.0
26
0.0
36
0.0
17
0.0
27
0.0
37
0.0
76
0
330
1F
331
0
345
0
346
0
0
ENDSEC
0
EOF
