  0
SECTION
  2
HEADER
  9
$ACADVER
  1
AC1021
  9
$DWGCODEPAGE
  3
ANSI_1252
  9
$EXTMAX
 10
558.8
 20
431.8
 30
0.0
  9
$EXTMIN
 10
0.0
 20
0.0
 30
0.0
  9
$LIMMIN
 10
0.0
 20
0.0
  9
$LIMMAX
 10
558.8
 20
431.8
  9
$VIEWCTR
 10
279.4
 20
215.9
  9
$VIEWSIZE
 40
431.8
  9
$CLAYER
  8
0
  9
$LTSCALE
 40
30.734
  9
$CELTYPE
  6
BYLAYER
  9
$DIMSCALE
 40
1.0
  9
$DIMASZ
 40
3.0
  9
$DIMEXO
 40
0.5
  9
$DIMDLI
 40
21.2344
  9
$DIMEXE
 40
1.5
  9
$DIMCEN
 40
5.0292
  9
$DIMLFAC
 40
1.0
  9
$DIMBLK
  1
_FILLED
  9
$DIMALT
 70
0
  9
$DIMALTF
 40
25.4
  9
$DIMTXT
 40
3.0
  9
$DIMTOL
 70
1
  9
$DIMLIM
 70
0
  9
$DIMTFAC
 40
1.0
  9
$DIMTP
 40
0.01
  9
$DIMTM
 40
0.01
  9
$DIMGAP
 40
0.625
  9
$DIMDSEP
 70
44
  9
$AUNITS
 70
0
  9
$PDMODE
 70
3
  9
$PDSIZE
 40
3.0
  9
$HANDSEED
  5
380
  9
$TILEMODE
 70
1
  9
$MEASUREMENT
 70
1
  9
$INSUNITS
 70
4
  0
ENDSEC
  0
SECTION
  2
CLASSES
  0
CLASS
  1
ACDBDICTIONARYWDFLT
  2
AcDbDictionaryWithDefault
  3
AutoCAD 2000
 90
0
 91
1
280
0
281
0
  0
CLASS
  1
ACDBPLACEHOLDER
  2
AcDbPlaceHolder
  3
AutoCAD 2000
 90
0
 91
1
280
0
281
0
  0
CLASS
  1
LAYOUT
  2
AcDbLayout
  3
AutoCAD 2000
 90
0
 91
0
280
0
281
0
  0
ENDSEC
  0
SECTION
  2
TABLES
  0
TABLE
  2
VPORT
  5
8
100
AcDbSymbolTable
 70
2
  0
VPORT
  5
1F4
100
AcDbSymbolTableRecord
100
AcDbViewportTableRecord
  2
*ACTIVE
 70
0
 10
0.0
 20
0.0
 11
1.0
 21
1.0
 12
279.4
 22
215.9
 13
0.0
 23
0.0
 14
1.0
 24
1.0
 15
0.0
 25
0.0
 16
0.0
 26
0.0
 36
1.0
 17
0.0
 27
0.0
 37
0.0
 40
431.8
 41
1.2941176471
 42
50.0
 43
0.0
 44
0.0
 50
0.0
 51
0.0
 71
0
 72
100
 73
1
 74
1
 75
0
 76
0
 77
0
 78
0
  0
ENDTAB
  0
TABLE
  2
LTYPE
  5
5
100
AcDbSymbolTable
 70
6
  0
LTYPE
  5
14
100
AcDbSymbolTableRecord
100
AcDbLinetypeTableRecord
  2
BYBLOCK
 70
0
  3

 72
65
 73
0
 40
0.0
  0
LTYPE
  5
15
100
AcDbSymbolTableRecord
100
AcDbLinetypeTableRecord
  2
BYLAYER
 70
0
  3

 72
65
 73
0
 40
0.0
  0
LTYPE
  5
16
100
AcDbSymbolTableRecord
100
AcDbLinetypeTableRecord
  2
CONTINUOUS
 70
64
  3
Solid line
 72
65
 73
0
 40
0.0
  0
LTYPE
  5
1F5
100
AcDbSymbolTableRecord
100
AcDbLinetypeTableRecord
  2
CENTER
 70
64
  3
____ _ ____ _ ____ _ ____ _ ____ _ ____ _ ____
 72
65
 73
4
 40
0.6
 49
0.375
 74
0
 49
-0.075
 74
0
 49
0.075
 74
0
 49
-0.075
 74
0
  0
LTYPE
  5
1F6
100
AcDbSymbolTableRecord
100
AcDbLinetypeTableRecord
  2
HIDDEN
 70
64
  3
- - - - - - - - - - - - - - - - - - - -
 72
65
 73
2
 40
0.2
 49
0.1
 74
0
 49
-0.1
 74
0
  0
LTYPE
  5
1F7
100
AcDbSymbolTableRecord
100
AcDbLinetypeTableRecord
  2
PHANTOM
 70
64
  3
_____ _ _ _____ _ _ _____ _ _ _____
 72
65
 73
6
 40
0.8
 49
0.45
 74
0
 49
-0.05
 74
0
 49
0.1
 74
0
 49
-0.05
 74
0
 49
0.1
 74
0
 49
-0.05
 74
0
  0
LTYPE
  5
1F8
100
AcDbSymbolTableRecord
100
AcDbLinetypeTableRecord
  2
DOT
 70
64
  3
. . . . . . . . . . . . . . . . . . . .
 72
65
 73
2
 40
0.2
 49
0.1
 74
0
 49
-0.1
 74
0
  0
LTYPE
  5
1F9
100
AcDbSymbolTableRecord
100
AcDbLinetypeTableRecord
  2
DASHED
 70
64
  3
- - - - - - - - - - - - - - - - - - - -
 72
65
 73
2
 40
0.2
 49
0.1
 74
0
 49
-0.1
 74
0
  0
ENDTAB
  0
TABLE
  2
LAYER
  5
2
100
AcDbSymbolTable
 70
36
  0
LAYER
  5
10
100
AcDbSymbolTableRecord
100
AcDbLayerTableRecord
  2
0
 70
0
 62
7
  6
CONTINUOUS
370
-3
390
F
  0
LAYER
  5
1FA
100
AcDbSymbolTableRecord
100
AcDbLayerTableRecord
  2
DEFAULT_1
 70
0
 62
7
  6
CENTER
370
-3
390
F
  0
LAYER
  5
1FB
100
AcDbSymbolTableRecord
100
AcDbLayerTableRecord
  2
DEFAULT_2
 70
0
 62
7
  6
HIDDEN
370
-3
390
F
  0
LAYER
  5
1FC
100
AcDbSymbolTableRecord
100
AcDbLayerTableRecord
  2
DEFAULT_3
 70
0
 62
7
  6
PHANTOM
370
-3
390
F
  0
LAYER
  5
1FD
100
AcDbSymbolTableRecord
100
AcDbLayerTableRecord
  2
ASSI
 70
0
 62
7
  6
CONTINUOUS
370
-3
390
F
  0
LAYER
  5
1FE
100
AcDbSymbolTableRecord
100
AcDbLayerTableRecord
  2
COORDINATE
 70
0
 62
7
  6
CONTINUOUS
370
-3
390
F
  0
LAYER
  5
1FF
100
AcDbSymbolTableRecord
100
AcDbLayerTableRecord
  2
COORD_ORIGINE
 70
0
 62
7
  6
CONTINUOUS
370
-3
390
F
  0
LAYER
  5
200
100
AcDbSymbolTableRecord
100
AcDbLayerTableRecord
  2
COPY_PUBLISH
 70
0
 62
7
  6
CONTINUOUS
370
-3
390
F
  0
LAYER
  5
201
100
AcDbSymbolTableRecord
100
AcDbLayerTableRecord
  2
COSMETIC
 70
0
 62
7
  6
CONTINUOUS
370
-3
390
F
  0
LAYER
  5
202
100
AcDbSymbolTableRecord
100
AcDbLayerTableRecord
  2
COSMETICHE
 70
0
 62
7
  6
CONTINUOUS
370
-3
390
F
  0
LAYER
  5
203
100
AcDbSymbolTableRecord
100
AcDbLayerTableRecord
  2
COSMETICI
 70
0
 62
7
  6
CONTINUOUS
370
-3
390
F
  0
LAYER
  5
204
100
AcDbSymbolTableRecord
100
AcDbLayerTableRecord
  2
CURVE
 70
0
 62
7
  6
CONTINUOUS
370
-3
390
F
  0
LAYER
  5
205
100
AcDbSymbolTableRecord
100
AcDbLayerTableRecord
  2
DRAFT
 70
0
 62
7
  6
CONTINUOUS
370
-3
390
F
  0
LAYER
  5
206
100
AcDbSymbolTableRecord
100
AcDbLayerTableRecord
  2
IMPORT_IGES
 70
0
 62
7
  6
CONTINUOUS
370
-3
390
F
  0
LAYER
  5
207
100
AcDbSymbolTableRecord
100
AcDbLayerTableRecord
  2
NOTE
 70
0
 62
7
  6
CONTINUOUS
370
-3
390
F
  0
LAYER
  5
208
100
AcDbSymbolTableRecord
100
AcDbLayerTableRecord
  2
PIANI
 70
0
 62
7
  6
CONTINUOUS
370
-3
390
F
  0
LAYER
  5
209
100
AcDbSymbolTableRecord
100
AcDbLayerTableRecord
  2
PIANI_ORIGINE
 70
0
 62
7
  6
CONTINUOUS
370
-3
390
F
  0
LAYER
  5
20A
100
AcDbSymbolTableRecord
100
AcDbLayerTableRecord
  2
PUNTI
 70
0
 62
7
  6
CONTINUOUS
370
-3
390
F
  0
LAYER
  5
20B
100
AcDbSymbolTableRecord
100
AcDbLayerTableRecord
  2
RACCORDO
 70
0
 62
7
  6
CONTINUOUS
370
-3
390
F
  0
LAYER
  5
20C
100
AcDbSymbolTableRecord
100
AcDbLayerTableRecord
  2
SIMBOLI
 70
0
 62
7
  6
CONTINUOUS
370
-3
390
F
  0
LAYER
  5
20D
100
AcDbSymbolTableRecord
100
AcDbLayerTableRecord
  2
SMUSSO
 70
0
 62
7
  6
CONTINUOUS
370
-3
390
F
  0
LAYER
  5
20E
100
AcDbSymbolTableRecord
100
AcDbLayerTableRecord
  2
SNAPLINE
 70
0
 62
7
  6
CONTINUOUS
370
-3
390
F
  0
LAYER
  5
20F
100
AcDbSymbolTableRecord
100
AcDbLayerTableRecord
  2
SUPERFICI
 70
0
 62
7
  6
CONTINUOUS
370
-3
390
F
  0
LAYER
  5
210
100
AcDbSymbolTableRecord
100
AcDbLayerTableRecord
  2
TRASH
 70
0
 62
7
  6
CONTINUOUS
370
-3
390
F
  0
LAYER
  5
211
100
AcDbSymbolTableRecord
100
AcDbLayerTableRecord
  2
XSEC_DATUMS
 70
0
 62
7
  6
CONTINUOUS
370
-3
390
F
  0
ENDTAB
  0
TABLE
  2
STYLE
  5
3
100
AcDbSymbolTable
 70
1
  0
STYLE
  5
11
100
AcDbSymbolTableRecord
100
AcDbTextStyleTableRecord
  2
STANDARD
 70
0
 40
0.0
 41
0.8
 50
0.0
 71
0
 42
0.2
  3
txt
  4

  0
STYLE
  5
212
100
AcDbSymbolTableRecord
100
AcDbTextStyleTableRecord
  2
TEXTSTYLE_1
 70
0
 40
0.0
 41
0.8
 50
0.0
 71
0
 42
0.2
  3
gdt
  4

  0
ENDTAB
  0
TABLE
  2
VIEW
  5
6
100
AcDbSymbolTable
 70
0
  0
ENDTAB
  0
TABLE
  2
UCS
  5
7
100
AcDbSymbolTable
 70
0
  0
ENDTAB
  0
TABLE
  2
APPID
  5
9
100
AcDbSymbolTable
 70
1
  0
APPID
  5
213
100
AcDbSymbolTableRecord
100
AcDbRegAppTableRecord
  2
ACAD
 70
0
  0
ENDTAB
  0
TABLE
  2
BLOCK_RECORD
  5
1
100
AcDbSymbolTable
 70
0
  0
BLOCK_RECORD
  5
214
100
AcDbSymbolTableRecord
100
AcDbBlockTableRecord
  2
*Model_Space
  0
BLOCK_RECORD
  5
215
100
AcDbSymbolTableRecord
100
AcDbBlockTableRecord
  2
*Paper_Space
  0
BLOCK_RECORD
  5
216
100
AcDbSymbolTableRecord
100
AcDbBlockTableRecord
  2
_FILLED
  0
ENDTAB
  0
TABLE
  2
DIMSTYLE
  5
A
100
AcDbSymbolTable
 70
1
100
AcDbDimStyleTable
 71
0
  0
DIMSTYLE
105
217
100
AcDbSymbolTableRecord
100
AcDbDimStyleTableRecord
  2
STANDARD
 70
0
  3

  4

 40
1.0
 41
3.0
 42
0.5
 43
0.38
 44
1.5
 45
0.0
 46
0.0
 47
0.01
 48
0.01
140
3.0
141
0.09
142
0.0
143
25.4
144
1.0
145
0.0
146
1.0
147
0.625
 71
1.0
 72
0.0
 73
0
 74
0
 75
0
 76
0
 77
1
 78
8
 79
2
170
0
171
1
172
0
173
0
174
0
175
0
176
0
177
0
178
0
270
2
179
2
271
2
272
2
273
2
274
2
275
0
280
0
281
0
282
0
283
1
284
8
285
0
286
0
287
3
288
0
340
11
278
44
341
216
342
216
343
216
344
216
  0
ENDTAB
  0
ENDSEC
  0
SECTION
  2
BLOCKS
  0
BLOCK
  5
20
100
AcDbEntity
  8
0
100
AcDbBlockBegin
  2
*Model_Space
 70
0
 10
0.0
 20
0.0
 30
0.0
  3
*Model_Space
  1

  0
ENDBLK
  5
21
100
AcDbEntity
  8
0
100
AcDbBlockEnd
  0
BLOCK
  5
1C
100
AcDbEntity
  8
0
100
AcDbBlockBegin
  2
*Paper_Space
 70
0
 10
0.0
 20
0.0
 30
0.0
  3
*Paper_Space
  1

  0
ENDBLK
  5
1D
100
AcDbEntity
  8
0
100
AcDbBlockEnd
  0
BLOCK
  5
218
100
AcDbEntity
  8
0
100
AcDbBlockBegin
  2
_FILLED
 70
64
 10
0.0
 20
0.0
  3
_FILLED
  1

  0
SOLID
  5
219
100
AcDbEntity
  8
0
  6
BYBLOCK
 62
0
100
AcDbTrace
 10
0.0
 20
0.0
 11
-1.0
 21
0.3166666667
 12
-1.0
 22
-0.3166666667
 13
-1.0
 23
-0.3166666667
  0
ENDBLK
  5
21A
100
AcDbEntity
  8
0
  6
BYBLOCK
 62
0
100
AcDbBlockEnd
  0
ENDSEC
  0
SECTION
  2
ENTITIES
  0
LINE
  5
21B
100
AcDbEntity
  8
ASSI
100
AcDbLine
 62
7
  6
CONTINUOUS
 10
0.7227263846
 20
38.5136600719
 11
6.3795806341
 21
41.7798568185
  0
LINE
  5
21C
100
AcDbEntity
  8
0
100
AcDbLine
 62
7
  6
CONTINUOUS
 10
6.4959605627
 20
41.8445958577
 11
7.5566207345
 21
42.4570077477
  0
LINE
  5
21D
100
AcDbEntity
  8
0
100
AcDbLine
 62
7
  6
CONTINUOUS
 10
6.3796279497
 20
41.779774898
 11
6.4959605627
 21
41.8445958577
  0
LWPOLYLINE
  5
21E
100
AcDbEntity
  8
0
100
AcDbPolyline
 62
7
  6
CONTINUOUS
 90
34
 70
0
 10
7.5566207345
 20
42.4570077477
 10
7.8601414882
 20
42.6039680764
 10
8.1748581776
 20
42.7266416429
 10
8.5007708029
 20
42.8250284473
 10
8.8386307639
 20
42.8992359523
 10
9.1876866608
 20
42.9491566951
 10
9.5456842933
 20
42.974468288
 10
9.9126815318
 20
42.9750114626
 10
10.288620506
 20
42.9509454874
 10
10.6710734052
 20
42.9024257801
 10
11.060082387
 20
42.8292940782
 10
11.4556052938
 20
42.7317086444
 10
11.8550878419
 20
42.6102996844
 10
12.2585556579
 20
42.4649130144
 10
12.6659831153
 20
42.2957028183
 10
13.074739051
 20
42.1037618542
 10
13.4848320627
 20
41.8889430102
 10
13.8962535527
 20
41.6513933982
 10
14.3063465644
 20
41.3926471116
 10
14.7151025
 20
41.1125669671
 10
15.1225299574
 20
40.8112901479
 10
15.5259977734
 20
40.4907622973
 10
15.9254803216
 20
40.150858824
 10
16.3210032283
 20
39.7917043193
 10
16.7100122101
 20
39.4156181998
 10
17.0924651093
 20
39.0224908856
 10
17.4684040835
 20
38.6124319567
 10
17.835401322
 20
38.1880895702
 10
18.1933989546
 20
37.7493712847
 10
18.5424548514
 20
37.2963695416
 10
18.8803148124
 20
36.8320098225
 10
19.2062274377
 20
36.3572672877
 10
19.5209441272
 20
35.8711667768
 10
19.8244648809
 20
35.3737082898
  0
LWPOLYLINE
  5
21F
100
AcDbEntity
  8
0
100
AcDbPolyline
 62
7
  6
CONTINUOUS
 90
27
 70
0
 10
-12.2787914136
 20
-33.5357726198
 10
-11.6387454788
 20
-33.5308403136
 10
-11.0018599683
 20
-33.5063897182
 10
-10.3681617126
 20
-33.4622551562
 10
-9.7376238813
 20
-33.3986023052
 10
-9.1155834078
 20
-33.3159699602
 10
-8.5021124263
 20
-33.2141970181
 10
-7.8971388026
 20
-33.0934445821
 10
-7.3057830679
 20
-32.9547347568
 10
-6.7281608226
 20
-32.7979151161
 10
-6.1641564663
 20
-32.6231380861
 10
-5.6185437285
 20
-32.4318830486
 10
-5.0914752367
 20
-32.2240076357
 10
-4.5827983634
 20
-31.9996542154
 10
-4.0968289558
 20
-31.7607292727
 10
-3.6337668299
 20
-31.5071121641
 10
-3.1934121696
 20
-31.2389235332
 10
-2.7794813744
 20
-30.9584317953
 10
-2.3921967755
 20
-30.6655322807
 10
-2.0313360416
 20
-30.3603296592
 10
-1.6999485777
 20
-30.0454063563
 10
-1.3982838206
 20
-29.7206793517
 10
-1.1260923336
 20
-29.3862316657
 10
-0.8856752119
 20
-29.0448947846
 10
-0.6777994873
 20
-28.6976125372
 10
-0.501698128
 20
-28.3434410947
 10
-0.357371134
 20
-27.9823804571
  0
LWPOLYLINE
  5
220
100
AcDbEntity
  8
0
100
AcDbPolyline
 62
7
  6
CONTINUOUS
 90
14
 70
0
 10
-11.3460124064
 20
-32.9424716538
 10
-11.4183894035
 20
-32.9158440487
 10
-11.4985161217
 20
-32.880879129
 10
-11.5734244885
 20
-32.8422414999
 10
-11.6432112538
 20
-32.8000019349
 10
-11.7065285908
 20
-32.7549736478
 10
-11.7632504427
 20
-32.70710219
 10
-11.8135028662
 20
-32.65644201
 10
-11.856316205
 20
-32.6039696672
 10
-11.8915455126
 20
-32.5496504157
 10
-11.9193357355
 20
-32.4935190013
 10
-11.9391520563
 20
-32.4366562215
 10
-11.9508399287
 20
-32.3790479248
 10
-11.9545590396
 20
-32.3233898867
  0
LWPOLYLINE
  5
221
100
AcDbEntity
  8
0
100
AcDbPolyline
 62
7
  6
CONTINUOUS
 90
16
 70
0
 10
-15.9969328168
 20
-29.2392729663
 10
-15.8684991358
 20
-29.2870914963
 10
-15.7474801726
 20
-29.3395354676
 10
-15.6338759273
 20
-29.3966048803
 10
-15.5271555011
 20
-29.4586502579
 10
-15.4278497926
 20
-29.525321077
 10
-15.3375514986
 20
-29.5955657664
 10
-15.2564173708
 20
-29.6694351597
 10
-15.1842906575
 20
-29.7468784233
 10
-15.1222937994
 20
-29.8266914854
 10
-15.0705856677
 20
-29.9089109672
 10
-15.0290073913
 20
-29.9935002476
 10
-14.9982047978
 20
-30.0791453913
 10
-14.9783461383
 20
-30.1658628837
 10
-14.9692631616
 20
-30.2536362395
 10
-14.968655043
 20
-30.2820169766
  0
LWPOLYLINE
  5
222
100
AcDbEntity
  8
0
100
AcDbPolyline
 62
7
  6
CONTINUOUS
 90
8
 70
0
 10
-15.2569098913
 20
-30.8936921545
 10
-15.3375514986
 20
-30.8202711815
 10
-15.4278497926
 20
-30.7500264922
 10
-15.5271555011
 20
-30.6833556731
 10
-15.6338759273
 20
-30.6213102955
 10
-15.7474801726
 20
-30.5642408828
 10
-15.8684991358
 20
-30.5117969115
 10
-15.9969328168
 20
-30.4639783815
  0
LWPOLYLINE
  5
223
100
AcDbEntity
  8
RACCORDO
100
AcDbPolyline
 62
7
  6
CONTINUOUS
 90
22
 70
0
 10
5.6295255017
 20
38.5515298072
 10
5.5776018544
 20
38.5194630114
 10
5.5260769528
 20
38.4830533103
 10
5.4749507969
 20
38.4423007037
 10
5.4237640164
 20
38.3968121624
 10
5.3729759816
 20
38.3469807158
 10
5.3239648036
 20
38.2939854518
 10
5.2768789868
 20
38.2377501459
 10
5.2315700268
 20
38.1783510226
 10
5.1889705211
 20
38.1171958433
 10
5.1493573156
 20
38.0547018353
 10
5.1124535644
 20
37.9904517712
 10
5.0783613284
 20
37.9246017304
 10
5.0468605753
 20
37.8567155087
 10
5.0181713373
 20
37.7872293103
 10
4.9930557718
 20
37.7176078264
 10
4.9716388607
 20
37.6477330689
 10
4.9537956221
 20
37.577723026
 10
4.9399132677
 20
37.5093963528
 10
4.9301208679
 20
37.4433592678
 10
4.9242893524
 20
37.3790055525
 10
4.922418721
 20
37.3163352069
  0
LINE
  5
224
100
AcDbEntity
  8
RACCORDO
100
AcDbLine
 62
7
  6
CONTINUOUS
 10
5.6295255017
 20
38.5515298072
 11
10.4378516142
 21
41.3277970421
  0
LWPOLYLINE
  5
225
100
AcDbEntity
  8
0
100
AcDbPolyline
 62
7
  6
CONTINUOUS
 90
5
 70
0
 10
-11.0480425531
 20
-32.8541304903
 10
-11.1446069075
 20
-32.8726247521
 10
-11.2371612287
 20
-32.8951641234
 10
-11.3257055165
 20
-32.9217486042
 10
-11.3642930068
 20
-32.9357461937
  0
LWPOLYLINE
  5
226
100
AcDbEntity
  8
0
100
AcDbPolyline
 62
7
  6
CONTINUOUS
 90
22
 70
0
 10
-11.0480425531
 20
-32.8541304903
 10
-10.8360813094
 20
-32.8152935804
 10
-10.6295543746
 20
-32.7699408246
 10
-10.4284617486
 20
-32.7180722227
 10
-10.2321928992
 20
-32.6594792922
 10
-10.0413583586
 20
-32.5943705157
 10
-9.8577897236
 20
-32.5233713412
 10
-9.6815562757
 20
-32.4464247898
 10
-9.5125887332
 20
-32.3635878405
 10
-9.3525108487
 20
-32.2756568779
 10
-9.201408546
 20
-32.182582883
 10
-9.0591959012
 20
-32.0844148749
 10
-8.9272388946
 20
-31.9820962957
 10
-8.8056364018
 20
-31.875587167
 10
-8.6942895471
 20
-31.7649274673
 10
-8.5942676831
 20
-31.6511805748
 10
-8.5056799798
 20
-31.5343167613
 10
-8.4284172672
 20
-31.414365755
 10
-8.3632213881
 20
-31.2924801179
 10
-8.3103396234
 20
-31.1690440374
 10
-8.2695246922
 20
-31.0436733262
 10
-8.2407765945
 20
-30.9163679841
  0
LWPOLYLINE
  5
227
100
AcDbEntity
  8
ASSI
100
AcDbPolyline
 62
7
  6
CONTINUOUS
 90
36
 70
0
 10
-10.8840399562
 20
-32.9188866467
 10
-11.4165684935
 20
-32.9460737426
 10
-11.9494952329
 20
-32.9583311195
 10
-12.4828229845
 20
-32.9555534805
 10
-13.0165489382
 20
-32.9378461224
 10
-13.5469176358
 20
-32.9053336275
 10
-14.0739054009
 20
-32.8579115775
 10
-14.5975359098
 20
-32.7956843908
 10
-15.114124734
 20
-32.7190899046
 10
-15.6236222111
 20
-32.6280267886
 10
-16.1260780035
 20
-32.5225963731
 10
-16.6179566688
 20
-32.4035404873
 10
-17.0991836099
 20
-32.2707630324
 10
-17.569833424
 20
-32.1243601071
 10
-18.0265944604
 20
-31.9653618367
 10
-18.4693687653
 20
-31.7936793877
 10
-18.8982542924
 20
-31.6094015935
 10
-19.3102332526
 20
-31.4138250806
 10
-19.705186408
 20
-31.2068701599
 10
-20.0832329965
 20
-30.9886165205
 10
-20.4417129433
 20
-30.7605998552
 10
-20.7804882489
 20
-30.5227513062
 10
-21.0996969127
 20
-30.2751397314
 10
-21.3970928581
 20
-30.0195073983
 10
-21.6725222442
 20
-29.7557977366
 10
-21.9261389118
 20
-29.4840673165
 10
-22.1561583075
 20
-29.2062281164
 10
-22.3624140035
 20
-28.9222370508
 10
-22.5450724276
 20
-28.6321372052
 10
-22.7028483087
 20
-28.3379698145
 10
-22.835566154
 20
-28.0397061895
 10
-22.9434014563
 20
-27.7373750195
 10
-23.0255954231
 20
-27.4331036065
 10
-23.0819672095
 20
-27.126878265
 10
-23.1126976604
 20
-26.8187126805
 10
-23.1188383289
 20
-26.6078217972
  0
LWPOLYLINE
  5
228
100
AcDbEntity
  8
SMUSSO
100
AcDbPolyline
 62
7
  6
CONTINUOUS
 90
7
 70
0
 10
-0.357371134
 20
-30.0235561491
 10
-0.0747637299
 20
-30.0448994678
 10
0.2096315065
 20
-30.0730506254
 10
0.4958145752
 20
-30.108009622
 10
0.7837854763
 20
-30.1497764575
 10
1.0735442097
 20
-30.1983511319
 10
1.3650907754
 20
-30.2537336454
  0
LWPOLYLINE
  5
229
100
AcDbEntity
  8
0
100
AcDbPolyline
 62
7
  6
CONTINUOUS
 90
12
 70
0
 10
-12.8734164045
 20
-27.2198947568
 10
-12.9045683275
 20
-27.2084339179
 10
-12.9933001722
 20
-27.1812737629
 10
-13.0855844134
 20
-27.1583971278
 10
-13.1813521796
 20
-27.1397233216
 10
-13.27875878
 20
-27.1256111646
 10
-13.3778357935
 20
-27.1161493121
 10
-13.4785516412
 20
-27.1112491089
 10
-13.5789668962
 20
-27.111003409
 10
-13.6784350828
 20
-27.1154431639
 10
-13.7776026767
 20
-27.1245374221
 10
-13.8764696779
 20
-27.1382861837
  0
LWPOLYLINE
  5
22A
100
AcDbEntity
  8
0
100
AcDbPolyline
 62
7
  6
CONTINUOUS
 90
16
 70
0
 10
-8.2407765945
 20
-29.691662569
 10
-8.3692102755
 20
-29.643844039
 10
-8.4902292387
 20
-29.5914000677
 10
-8.603833484
 20
-29.534330655
 10
-8.7105539102
 20
-29.4722852773
 10
-8.8098596186
 20
-29.4056144583
 10
-8.9001579127
 20
-29.3353697689
 10
-8.9812920404
 20
-29.2615003756
 10
-9.0534187538
 20
-29.184057112
 10
-9.1154156119
 20
-29.1042440498
 10
-9.1671237436
 20
-29.022024568
 10
-9.20870202
 20
-28.9374352877
 10
-9.2395046135
 20
-28.851790144
 10
-9.259363273
 20
-28.7650726516
 10
-9.2684462497
 20
-28.6772992958
 10
-9.2690543683
 20
-28.6489185587
  0
LINE
  5
22B
100
AcDbEntity
  8
0
100
AcDbLine
 62
253
  6
CONTINUOUS
 10
-16.491429204
 20
-28.6476306625
 11
-17.0784986015
 21
-28.4275032355
  0
LINE
  5
22C
100
AcDbEntity
  8
0
100
AcDbLine
 62
7
  6
CONTINUOUS
 10
-15.8785334549
 20
-27.7025564217
 11
-15.7775968835
 21
-27.760835933
  0
LWPOLYLINE
  5
22D
100
AcDbEntity
  8
RACCORDO
100
AcDbPolyline
 62
7
  6
CONTINUOUS
 90
11
 70
0
 10
4.7153231885
 20
34.5545571493
 10
4.7347943959
 20
34.5666803918
 10
4.7725895182
 20
34.5963082529
 10
4.806837337
 20
34.6317667657
 10
4.8368410234
 20
34.6723344678
 10
4.8625136337
 20
34.7181160239
 10
4.8839421117
 20
34.7690067692
 10
4.9006904592
 20
34.8239712469
 10
4.9126133435
 20
34.8826643047
 10
4.9198560975
 20
34.9454310948
 10
4.922418721
 20
35.0122716173
  0
LINE
  5
22E
100
AcDbEntity
  8
0
100
AcDbLine
 62
7
  6
CONTINUOUS
 10
2.7649960168
 20
34.3233969713
 11
3.1068460826
 21
34.5207769149
  0
LINE
  5
22F
100
AcDbEntity
  8
0
100
AcDbLine
 62
7
  6
CONTINUOUS
 10
6.3366322833
 20
36.2207457028
 11
10.4378516142
 21
38.5887383441
  0
LINE
  5
230
100
AcDbEntity
  8
0
100
AcDbLine
 62
7
  6
CONTINUOUS
 10
5.8416575365
 20
35.7693395397
 11
6.3366322833
 21
36.0551317551
  0
LINE
  5
231
100
AcDbEntity
  8
RACCORDO
100
AcDbLine
 62
7
  6
CONTINUOUS
 10
8.3165312701
 20
37.0000863525
 11
13.1248573827
 21
39.7763535875
  0
LINE
  5
232
100
AcDbEntity
  8
RACCORDO
100
AcDbLine
 62
253
  6
CONTINUOUS
 10
5.8416575365
 20
35.5430285886
 11
4.922418721
 21
35.0122716173
  0
LINE
  5
233
100
AcDbEntity
  8
RACCORDO
100
AcDbLine
 62
7
  6
CONTINUOUS
 10
5.6345749154
 20
35.0852917275
 11
4.7153360999
 21
34.5545347561
  0
LINE
  5
234
100
AcDbEntity
  8
RACCORDO
100
AcDbLine
 62
253
  6
CONTINUOUS
 10
5.3445179552
 20
34.8120484234
 11
5.4859395333
 21
34.8937034478
  0
LINE
  5
235
100
AcDbEntity
  8
RACCORDO
100
AcDbLine
 62
253
  6
CONTINUOUS
 10
5.8063021974
 20
34.1567835777
 11
5.9477235537
 21
34.2384384964
  0
LINE
  5
236
100
AcDbEntity
  8
RACCORDO
100
AcDbLine
 62
253
  6
CONTINUOUS
 10
5.9477235537
 20
34.1377850765
 11
6.5134089786
 21
34.4644047511
  0
LWPOLYLINE
  5
237
100
AcDbEntity
  8
ASSI
100
AcDbPolyline
 62
7
  6
CONTINUOUS
 90
3
 70
0
 10
7.0743238115
 20
34.004509908
 10
7.0863597651
 20
34.0110906424
 10
7.1554619359
 20
34.0387056628
  0
LWPOLYLINE
  5
238
100
AcDbEntity
  8
RACCORDO
100
AcDbPolyline
 62
253
  6
CONTINUOUS
 90
4
 70
0
 10
2.7649960168
 20
34.3233969713
 10
2.911374602
 20
34.4018326321
 10
3.1657894353
 20
34.5117411065
 10
3.2903147802
 20
34.5508548815
  0
LWPOLYLINE
  5
239
100
AcDbEntity
  8
RACCORDO
100
AcDbPolyline
 62
7
  6
CONTINUOUS
 90
10
 70
0
 10
2.2657283841
 20
34.2083338295
 10
2.4788203769
 20
34.3188212144
 10
2.697007525
 20
34.4085609683
 10
2.9237671758
 20
34.4798321893
 10
3.1592016789
 20
34.5324859946
 10
3.4032086847
 20
34.5666712671
 10
3.6538059862
 20
34.5821462766
 10
3.9103328478
 20
34.5788304467
 10
4.1734500051
 20
34.5568043538
 10
4.4431574581
 20
34.5160679981
  0
LWPOLYLINE
  5
23A
100
AcDbEntity
  8
0
100
AcDbPolyline
 62
7
  6
CONTINUOUS
 90
22
 70
0
 10
-11.0480425531
 20
-31.6294250751
 10
-10.8360813094
 20
-31.5905881652
 10
-10.6295543746
 20
-31.5452354094
 10
-10.4284617486
 20
-31.4933668075
 10
-10.2321928992
 20
-31.434773877
 10
-10.0413583586
 20
-31.3696651005
 10
-9.8577897236
 20
-31.298665926
 10
-9.6815562757
 20
-31.2217193747
 10
-9.5125887332
 20
-31.1388824253
 10
-9.3525108487
 20
-31.0509514627
 10
-9.201408546
 20
-30.9578774678
 10
-9.0591959012
 20
-30.8597094597
 10
-8.9272388946
 20
-30.7573908805
 10
-8.8056364018
 20
-30.6508817518
 10
-8.6942895471
 20
-30.5402220521
 10
-8.5942676831
 20
-30.4264751596
 10
-8.5056799798
 20
-30.3096113461
 10
-8.4284172672
 20
-30.1896603398
 10
-8.3632213881
 20
-30.0677747027
 10
-8.3103396234
 20
-29.9443386222
 10
-8.2695246922
 20
-29.818967911
 10
-8.2407765945
 20
-29.691662569
  0
LINE
  5
23B
100
AcDbEntity
  8
ASSI
100
AcDbLine
 62
7
  6
CONTINUOUS
 10
-5.6677933067
 20
-29.4955146195
 11
-5.6964330324
 21
-29.475464294
  0
LWPOLYLINE
  5
23C
100
AcDbEntity
  8
ASSI
100
AcDbPolyline
 62
7
  6
CONTINUOUS
 90
8
 70
0
 10
-5.6964330324
 20
-29.475464294
 10
-5.8271673291
 20
-29.3710941514
 10
-5.945973269
 20
-29.2620737121
 10
-6.052994486
 20
-29.1484589721
 10
-6.1469318676
 20
-29.0316290815
 10
-6.2276259461
 20
-28.9115448536
 10
-6.2952361893
 20
-28.7882454752
 10
-6.3034456782
 20
-28.7691351678
  0
LINE
  5
23D
100
AcDbEntity
  8
0
100
AcDbLine
 62
253
  6
CONTINUOUS
 10
-14.263911271
 20
-27.5600612284
 11
-14.2496731535
 21
-27.5818939206
  0
LWPOLYLINE
  5
23E
100
AcDbEntity
  8
SMUSSO
100
AcDbPolyline
 62
7
  6
CONTINUOUS
 90
63
 70
0
 10
-24.1188547056
 20
-28.6489100567
 10
-24.1167668186
 20
-28.7781530275
 10
-24.0922694785
 20
-29.1098580105
 10
-24.0402797275
 20
-29.4405040068
 10
-23.9609171081
 20
-29.7693318196
 10
-23.8543641124
 20
-30.0955861671
 10
-23.7208656299
 20
-30.4185179621
 10
-23.5607284152
 20
-30.7373857559
 10
-23.3743205494
 20
-31.0514571827
 10
-23.162070325
 20
-31.3600111747
 10
-22.9244653615
 20
-31.6623393443
 10
-22.6620517137
 20
-31.9577473672
 10
-22.3754322179
 20
-32.2455570858
 10
-22.0652652721
 20
-32.5251078028
 10
-21.7322636109
 20
-32.7957575731
 10
-21.3771934153
 20
-33.0568842643
 10
-21.0008691232
 20
-33.3078894704
 10
-20.6041511718
 20
-33.5481993268
 10
-20.1879483641
 20
-33.7772628999
 10
-19.7532176384
 20
-33.9945531127
 10
-19.3009582176
 20
-34.1995703489
 10
-18.832209389
 20
-34.3918434678
 10
-18.3480463952
 20
-34.5709314089
 10
-17.8495791157
 20
-34.7364234634
 10
-17.3379511106
 20
-34.8879396781
 10
-16.8143375881
 20
-35.0251317378
 10
-16.2799410741
 20
-35.1476843422
 10
-15.7359884507
 20
-35.255315941
 10
-15.1837285648
 20
-35.3477792378
 10
-14.6244298339
 20
-35.424861691
 10
-14.0593764026
 20
-35.4863861797
 10
-13.4898656479
 20
-35.5322113024
 10
-12.917205683
 20
-35.5622316742
 10
-12.3427113928
 20
-35.5763782686
 10
-11.767701888
 20
-35.5746185065
 10
-11.1934979587
 20
-35.556956342
 10
-10.6214180708
 20
-35.5234322743
 10
-10.052775821
 20
-35.4741232238
 10
-9.4888773931
 20
-35.409142406
 10
-8.931017599
 20
-35.3286390121
 10
-8.380477387
 20
-35.2327978762
 10
-7.8385213526
 20
-35.1218391378
 10
-7.3063939065
 20
-34.9960175999
 10
-6.7853168892
 20
-34.8556221924
 10
-6.2764871872
 20
-34.7009754322
 10
-5.7810731054
 20
-34.5324324698
 10
-5.3002121381
 20
-34.3503803617
 10
-4.8350087419
 20
-34.1552373391
 10
-4.3865309857
 20
-33.9474515621
 10
-3.9558085231
 20
-33.7275002158
 10
-3.543830568
 20
-33.4958886024
 10
-3.1515428959
 20
-33.2531486311
 10
-2.7798460563
 20
-32.9998377543
 10
-2.4295935923
 20
-32.7365379021
 10
-2.1015894582
 20
-32.4638537409
 10
-1.7965865072
 20
-32.1824114707
 10
-1.5152849907
 20
-31.8928576218
 10
-1.2583304452
 20
-31.59585642
 10
-1.0263124948
 20
-31.292090576
 10
-0.8197636582
 20
-30.982259968
 10
-0.6391577853
 20
-30.6670768327
 10
-0.4849090426
 20
-30.3472641131
 10
-0.357371134
 20
-30.0235561491
  0
LWPOLYLINE
  5
23F
100
AcDbEntity
  8
0
100
AcDbPolyline
 62
7
  6
CONTINUOUS
 90
31
 70
0
 10
-24.11868192
 20
-26.6078218111
 10
-24.1176360921
 20
-26.7005300966
 10
-24.0922687194
 20
-27.0687769612
 10
-24.0327377228
 20
-27.4357088774
 10
-23.9393306493
 20
-27.8013369015
 10
-23.8128378802
 20
-28.1625663497
 10
-23.6529785734
 20
-28.5193598963
 10
-23.4600335709
 20
-28.8717548671
 10
-23.2356357799
 20
-29.2167685552
 10
-22.9795182157
 20
-29.5543383154
 10
-22.691947863
 20
-29.8845267929
 10
-22.3753585822
 20
-30.2045392181
 10
-22.0295040463
 20
-30.5142892205
 10
-21.6546305824
 20
-30.8138631704
 10
-21.2539110327
 20
-31.100725409
 10
-20.8271260012
 20
-31.3747680407
 10
-20.3744948838
 20
-31.6360989611
 10
-19.8998487111
 20
-31.8825061988
 10
-19.403000606
 20
-32.1138630803
 10
-18.8841374457
 20
-32.3302962791
 10
-18.3476508915
 20
-32.5299738446
 10
-17.7933913455
 20
-32.7127535513
 10
-17.2215084056
 20
-32.8787776247
 10
-16.6368425284
 20
-33.02664079
 10
-16.0392852046
 20
-33.1561888922
 10
-15.4289449434
 20
-33.2675760863
 10
-14.8109877287
 20
-33.3598595625
 10
-14.1853489043
 20
-33.4328771623
 10
-13.5520931264
 20
-33.4867910442
 10
-12.9165803485
 20
-33.5211448741
 10
-12.2787914136
 20
-33.5357726198
  0
LINE
  5
240
100
AcDbEntity
  8
0
100
AcDbLine
 62
7
  6
CONTINUOUS
 10
-25.6188547056
 20
-35.1807597052
 11
-25.6188547056
 21
-29.8736154716
  0
LINE
  5
241
100
AcDbEntity
  8
0
100
AcDbLine
 62
7
  6
CONTINUOUS
 10
-24.1188547056
 20
-28.6489100564
 11
-24.1188547056
 21
-26.6078217989
  0
LWPOLYLINE
  5
242
100
AcDbEntity
  8
SMUSSO
100
AcDbPolyline
 62
7
  6
CONTINUOUS
 90
12
 70
0
 10
-25.6188547056
 20
-29.8736154713
 10
-25.6126311964
 20
-29.636960181
 10
-25.5788740177
 20
-29.274166929
 10
-25.5158743526
 20
-28.9126762942
 10
-25.4237691221
 20
-28.5532736303
 10
-25.3027584794
 20
-28.1967397516
 10
-25.1531053876
 20
-27.8438492589
 10
-24.9751350299
 20
-27.4953688145
 10
-24.7692341086
 20
-27.1520554961
 10
-24.5358500227
 20
-26.8146551717
 10
-24.2754898655
 20
-26.4839008423
 10
-24.1045413098
 20
-26.2911229618
  0
LWPOLYLINE
  5
243
100
AcDbEntity
  8
RACCORDO
100
AcDbPolyline
 62
7
  6
CONTINUOUS
 90
4
 70
0
 10
2.7533575023
 20
34.4262719308
 10
2.6294623691
 20
34.313505997
 10
2.4655594843
 20
34.1367981883
 10
2.4345478741
 20
34.0973984052
  0
LWPOLYLINE
  5
244
100
AcDbEntity
  8
RACCORDO
100
AcDbPolyline
 62
7
  6
CONTINUOUS
 90
3
 70
0
 10
1.8859026194
 20
33.9426472671
 10
2.0732679241
 20
34.0858643638
 10
2.2657283841
 20
34.2083338295
  0
LINE
  5
245
100
AcDbEntity
  8
ASSI
100
AcDbLine
 62
7
  6
CONTINUOUS
 10
6.5134089786
 20
33.6812899597
 11
7.0740449903
 21
34.0049941664
  0
LINE
  5
246
100
AcDbEntity
  8
ASSI
100
AcDbLine
 62
253
  6
CONTINUOUS
 10
6.5134089786
 20
33.6679923321
 11
7.1554619359
 21
34.0387056628
  0
LINE
  5
247
100
AcDbEntity
  8
ASSI
100
AcDbLine
 62
253
  6
CONTINUOUS
 10
6.5134089786
 20
32.7878195029
 11
7.6108691424
 21
33.4214792471
  0
LINE
  5
248
100
AcDbEntity
  8
ASSI
100
AcDbLine
 62
7
  6
CONTINUOUS
 10
6.5134089786
 20
32.4135855057
 11
7.6740220402
 21
33.0837089415
  0
LWPOLYLINE
  5
249
100
AcDbEntity
  8
0
100
AcDbPolyline
 62
7
  6
CONTINUOUS
 90
22
 70
0
 10
-13.1896668581
 20
-27.3015104601
 10
-13.4016281018
 20
-27.34034737
 10
-13.6081550367
 20
-27.3857001259
 10
-13.8092476627
 20
-27.4375687277
 10
-14.0055165121
 20
-27.4961616583
 10
-14.1963510526
 20
-27.5612704348
 10
-14.3799196876
 20
-27.6322696092
 10
-14.5561531356
 20
-27.7092161606
 10
-14.7251206781
 20
-27.79205311
 10
-14.8851985626
 20
-27.8799840725
 10
-15.0363008653
 20
-27.9730580675
 10
-15.17851351
 20
-28.0712260756
 10
-15.3104705167
 20
-28.1735446547
 10
-15.4320730095
 20
-28.2800537834
 10
-15.5434198642
 20
-28.3907134831
 10
-15.6434417282
 20
-28.5044603757
 10
-15.7320294315
 20
-28.6213241891
 10
-15.8092921441
 20
-28.7412751955
 10
-15.8744880232
 20
-28.8631608326
 10
-15.9273697879
 20
-28.9865969131
 10
-15.9681847191
 20
-29.1119676243
 10
-15.9969328168
 20
-29.2392729663
  0
LWPOLYLINE
  5
24A
100
AcDbEntity
  8
0
100
AcDbPolyline
 62
7
  6
CONTINUOUS
 90
13
 70
0
 10
-13.8764696779
 20
-27.1382861837
 10
-14.1662647565
 20
-27.1904716754
 10
-14.450201084
 20
-27.2501673103
 10
-14.7282786604
 20
-27.3173730885
 10
-15.001077913
 20
-27.3922704408
 10
-15.2680184146
 20
-27.4746779363
 10
-15.5273588825
 20
-27.5640512822
 10
-15.7790628094
 20
-27.6604401074
 10
-16.0231667027
 20
-27.763794783
 10
-16.2580388021
 20
-27.8734221296
 10
-16.4836141403
 20
-27.9893625962
 10
-16.6999576847
 20
-28.1115757339
 10
-16.9056325766
 20
-28.2392470166
  0
LWPOLYLINE
  5
24B
100
AcDbEntity
  8
0
100
AcDbPolyline
 62
7
  6
CONTINUOUS
 90
28
 70
0
 10
-13.8764696779
 20
-25.9135807685
 10
-14.1662647565
 20
-25.9657662602
 10
-14.450201084
 20
-26.0254618952
 10
-14.7282786604
 20
-26.0926676733
 10
-15.001077913
 20
-26.1675650256
 10
-15.2680184146
 20
-26.2499725211
 10
-15.5273588825
 20
-26.3393458671
 10
-15.7790628094
 20
-26.4357346922
 10
-16.0231667027
 20
-26.5390893678
 10
-16.2580388021
 20
-26.6487167144
 10
-16.4836141403
 20
-26.764657181
 10
-16.6999576847
 20
-26.8868703187
 10
-16.9056325766
 20
-27.0145416014
 10
-17.1005680936
 20
-27.1477070585
 10
-17.2848349582
 20
-27.2863306607
 10
-17.4572084789
 20
-27.4294897936
 10
-17.6176099556
 20
-27.5772144546
 10
-17.7661180883
 20
-27.7294746462
 10
-17.9017442858
 20
-27.8852577626
 10
-18.0244033811
 20
-28.0445871934
 10
-18.134180541
 20
-28.207439549
 10
-18.230342675
 20
-28.3727320531
 10
-18.312799781
 20
-28.540481036
 10
-18.381641861
 20
-28.7106701676
 10
-18.4364058307
 20
-28.8821676813
 10
-18.4769373287
 20
-29.0545963218
 10
-18.5033907164
 20
-29.2283333445
 10
-18.5157659937
 20
-29.4033787494
  0
LWPOLYLINE
  5
24C
100
AcDbEntity
  8
0
100
AcDbPolyline
 62
7
  6
CONTINUOUS
 90
24
 70
0
 10
-13.8764696779
 20
-25.9135807685
 10
-13.7776026767
 20
-25.8998320069
 10
-13.6784350828
 20
-25.8907377487
 10
-13.5789668962
 20
-25.8862979938
 10
-13.4785516412
 20
-25.8865436937
 10
-13.3778357935
 20
-25.8914438969
 10
-13.27875878
 20
-25.9009057494
 10
-13.1813521796
 20
-25.9150179064
 10
-13.0855844134
 20
-25.9336917126
 10
-12.9933001722
 20
-25.9565683477
 10
-12.9045683275
 20
-25.9837285027
 10
-12.8193200078
 20
-26.0150914866
 10
-12.7391932896
 20
-26.0500564063
 10
-12.6642849228
 20
-26.0886940354
 10
-12.5944981574
 20
-26.1309336003
 10
-12.5311808205
 20
-26.1759618874
 10
-12.4744589686
 20
-26.2238333452
 10
-12.4242065451
 20
-26.2744935252
 10
-12.3813932063
 20
-26.326965868
 10
-12.3461638987
 20
-26.3812851196
 10
-12.3183736758
 20
-26.437416534
 10
-12.298557355
 20
-26.4942793137
 10
-12.2868694826
 20
-26.5518876105
 10
-12.2831503717
 20
-26.6075456486
  0
LWPOLYLINE
  5
24D
100
AcDbEntity
  8
0
100
AcDbPolyline
 62
7
  6
CONTINUOUS
 90
44
 70
0
 10
-5.0799947944
 20
-24.5847690859
 10
-5.4982545806
 20
-24.3934613926
 10
-5.9301686753
 20
-24.2147324911
 10
-6.3757370784
 20
-24.0485823816
 10
-6.8361367856
 20
-23.8946472857
 10
-7.3101908013
 20
-23.7532909816
 10
-7.7943681384
 20
-23.6256048043
 10
-8.2886698049
 20
-23.5117184572
 10
-8.7930947928
 20
-23.4115022369
 10
-9.3041090912
 20
-23.3256583676
 10
-9.8217589875
 20
-23.2542877767
 10
-10.3459981943
 20
-23.1972895368
 10
-10.8731538388
 20
-23.1550630894
 10
-11.4032464165
 20
-23.1277121688
 10
-11.936255432
 20
-23.1151330408
 10
-12.468446526
 20
-23.1174139443
 10
-12.99981397
 20
-23.1346592348
 10
-13.5303634926
 20
-23.1667645567
 10
-14.0563779208
 20
-23.213505082
 10
-14.5778254219
 20
-23.2749835892
 10
-15.0947378287
 20
-23.3510972997
 10
-15.6034934666
 20
-23.4413130495
 10
-16.1040350687
 20
-23.5457298751
 10
-16.5964199019
 20
-23.6642487401
 10
-17.0771980918
 20
-23.7960393717
 10
-17.5462881425
 20
-23.941194977
 10
-18.00377155
 20
-24.099622349
 10
-18.4464429269
 20
-24.2702115941
 10
-18.8741982629
 20
-24.4530481238
 10
-19.2871415685
 20
-24.6480465266
 10
-19.682379488
 20
-24.8538406748
 10
-20.0597877038
 20
-25.0705063958
 10
-20.4194905335
 20
-25.2979678622
 10
-20.7589675749
 20
-25.5346314643
 10
-21.0780767953
 20
-25.7805618354
 10
-21.3769602274
 20
-26.0356943422
 10
-21.6535235666
 20
-26.2982414752
 10
-21.9076100688
 20
-26.5682553131
 10
-22.1393764783
 20
-26.8456837771
 10
-22.3471987227
 20
-27.1285831219
 10
-22.5309086528
 20
-27.4169917785
 10
-22.6906744179
 20
-27.7108713159
 10
-22.8253763945
 20
-28.0081626951
 10
-22.8362055042
 20
-28.0379136829
  0
LWPOLYLINE
  5
24E
100
AcDbEntity
  8
0
100
AcDbPolyline
 62
7
  6
CONTINUOUS
 90
31
 70
0
 10
-5.3577775282
 20
-29.2617060416
 10
-5.3930273514
 20
-29.2267488479
 10
-5.4788934135
 20
-29.1541293263
 10
-5.5730662361
 20
-29.0856110635
 10
-5.6756755269
 20
-29.021258089
 10
-5.7865915783
 20
-28.9610063734
 10
-5.9040915496
 20
-28.9057918179
 10
-6.028278245
 20
-28.8556930722
 10
-6.1590488602
 20
-28.8106314866
 10
-6.294372142
 20
-28.7713070134
 10
-6.4343191741
 20
-28.7378092318
 10
-6.5788188728
 20
-28.7100485626
 10
-6.7256267342
 20
-28.6884562193
 10
-6.8747787993
 20
-28.673128513
 10
-7.0262390271
 20
-28.6639691327
 10
-7.1776547906
 20
-28.6611203593
 10
-7.3290253974
 20
-28.6646807256
 10
-7.48035154
 20
-28.6745516989
 10
-7.6292826688
 20
-28.6905799616
 10
-7.7757813902
 20
-28.7128616531
 10
-7.9198850978
 20
-28.7413006339
 10
-8.0593554233
 20
-28.7754551692
 10
-8.1941200233
 20
-28.815414501
 10
-8.3242512411
 20
-28.8610893872
 10
-8.4477277389
 20
-28.9117703656
 10
-8.564445612
 20
-28.9675356014
 10
-8.6745087649
 20
-29.0283069295
 10
-8.7762075739
 20
-29.0931403924
 10
-8.86941144
 20
-29.1620994167
 10
-8.954250962
 20
-29.2351205758
 10
-8.9807995199
 20
-29.2619487959
  0
LWPOLYLINE
  5
24F
100
AcDbEntity
  8
ASSI
100
AcDbPolyline
 62
7
  6
CONTINUOUS
 90
44
 70
0
 10
-23.1188383289
 20
-26.6078217972
 10
-23.117570518
 20
-26.5107752119
 10
-23.0964034115
 20
-26.2030674668
 10
-23.0493787117
 20
-25.8955878376
 10
-22.9768272725
 20
-25.5904998605
 10
-22.8785690562
 20
-25.2878204022
 10
-22.7547841005
 20
-24.987532596
 10
-22.6063433721
 20
-24.691749378
 10
-22.4330729758
 20
-24.4005025171
 10
-22.2351468067
 20
-24.1137602444
 10
-22.0139575174
 20
-23.8335401886
 10
-21.7693410344
 20
-23.5598883491
 10
-21.5014614311
 20
-23.2927587266
 10
-21.2122035806
 20
-23.0340309522
 10
-20.9014167012
 20
-22.7837642815
 10
-20.5692515746
 20
-22.5418994588
 10
-20.2180454185
 20
-22.3101383486
 10
-19.8476639383
 20
-22.0885522117
 10
-19.4582414285
 20
-21.8770697874
 10
-19.052517991
 20
-21.6771791575
 10
-18.6303786546
 20
-21.4889620768
 10
-18.1919383904
 20
-21.3123367905
 10
-17.7402822131
 20
-21.1485461166
 10
-17.2753169092
 20
-20.9976805754
 10
-16.7971356922
 20
-20.8596496466
 10
-16.3091032174
 20
-20.7354245864
 10
-15.811150002
 20
-20.6251027662
 10
-15.3033455289
 20
-20.5285868147
 10
-14.7892629014
 20
-20.4465558746
 10
-14.2688578374
 20
-20.3791121073
 10
-13.742174619
 20
-20.3261533515
 10
-13.2129191958
 20
-20.2880522654
 10
-12.6810734233
 20
-20.2649136391
 10
-12.146655446
 20
-20.2566326824
 10
-11.6134256465
 20
-20.2632676835
 10
-11.0813924022
 20
-20.2849238436
 10
-10.5505473356
 20
-20.3214959614
 10
-10.0246256974
 20
-20.3727267201
 10
-9.5036622094
 20
-20.4387195067
 10
-8.9876221498
 20
-20.5193709341
 10
-8.4801366033
 20
-20.6141135245
 10
-7.9824159314
 20
-20.7227581185
 10
-7.4932497727
 20
-20.8454938756
 10
-7.0126381271
 20
-20.9823207955
  0
LINE
  5
250
100
AcDbEntity
  8
0
100
AcDbLine
 62
7
  6
CONTINUOUS
 10
18.7638047091
 20
34.7612963998
 11
19.8244648809
 21
35.3737082898
  0
LINE
  5
251
100
AcDbEntity
  8
RACCORDO
100
AcDbLine
 62
7
  6
CONTINUOUS
 10
20.0284999553
 20
34.6796490391
 11
19.1106233343
 21
34.1528125339
  0
LWPOLYLINE
  5
252
100
AcDbEntity
  8
RACCORDO
100
AcDbPolyline
 62
7
  6
CONTINUOUS
 90
6
 70
0
 10
20.0284999553
 20
34.6796490391
 10
20.052878189
 20
34.6925151712
 10
20.0744629477
 20
34.7003085299
 10
20.0925010814
 20
34.703080121
 10
20.1060765244
 20
34.7012364757
 10
20.1096548044
 20
34.6995881726
  0
LINE
  5
253
100
AcDbEntity
  8
0
100
AcDbLine
 62
7
  6
CONTINUOUS
 10
-11.7653013151
 20
-18.2381926356
 11
-7.0126381271
 21
-20.9823207955
  0
LINE
  5
254
100
AcDbEntity
  8
0
100
AcDbLine
 62
7
  6
CONTINUOUS
 10
-2.3758288793
 20
-23.6595563423
 11
2.3768343087
 21
-26.4036845022
  0
LINE
  5
255
100
AcDbEntity
  8
0
100
AcDbLine
 62
7
  6
CONTINUOUS
 10
-18.5157659937
 20
-30.6280841646
 11
-18.5157659937
 21
-29.4033787494
  0
LINE
  5
256
100
AcDbEntity
  8
0
100
AcDbLine
 62
253
  6
CONTINUOUS
 10
-16.491429204
 20
-28.6476306625
 11
-16.491429204
 21
-31.0970414929
  0
LWPOLYLINE
  5
257
100
AcDbEntity
  8
0
100
AcDbPolyline
 62
7
  6
CONTINUOUS
 90
13
 70
0
 10
-19.1685370355
 20
-30.2820169806
 10
-19.1682719555
 20
-30.2635116503
 10
-19.1604277721
 20
-30.1756991713
 10
-19.1417935523
 20
-30.0888918433
 10
-19.1122008235
 20
-30.0031053622
 10
-19.0718180584
 20
-29.9183240321
 10
-19.0212725394
 20
-29.835864744
 10
-18.9604055892
 20
-29.7557637554
 10
-18.8893758851
 20
-29.6779848088
 10
-18.809286742
 20
-29.603736023
 10
-18.7205059316
 20
-29.5334201043
 10
-18.6226656822
 20
-29.4666343465
 10
-18.5157659937
 20
-29.4033787494
  0
LINE
  5
258
100
AcDbEntity
  8
ASSI
100
AcDbLine
 62
7
  6
CONTINUOUS
 10
6.5134089786
 20
25.2906134583
 11
7.9882827128
 21
26.1421870679
  0
LINE
  5
259
100
AcDbEntity
  8
RACCORDO
100
AcDbLine
 62
253
  6
CONTINUOUS
 10
6.5134089786
 20
23.2397942129
 11
5.9477235537
 21
22.9131745382
  0
LINE
  5
25A
100
AcDbEntity
  8
RACCORDO
100
AcDbLine
 62
253
  6
CONTINUOUS
 10
5.9477235537
 20
22.8125211183
 11
5.8063021974
 21
22.7308661996
  0
LINE
  5
25B
100
AcDbEntity
  8
RACCORDO
100
AcDbLine
 62
7
  6
CONTINUOUS
 10
5.8441822431
 20
22.5836526877
 11
5.7027608869
 21
22.501997769
  0
LINE
  5
25C
100
AcDbEntity
  8
RACCORDO
100
AcDbLine
 62
7
  6
CONTINUOUS
 10
6.2545557023
 20
22.6676231364
 11
5.7138654663
 21
22.3554353706
  0
LWPOLYLINE
  5
25D
100
AcDbEntity
  8
RACCORDO
100
AcDbPolyline
 62
253
  6
CONTINUOUS
 90
15
 70
0
 10
5.8063021974
 20
22.7308661996
 10
5.7424774098
 20
22.6975857213
 10
5.6737916472
 20
22.6685791723
 10
5.6007532841
 20
22.6440808392
 10
5.523913591
 20
22.6243087246
 10
5.4438369879
 20
22.6094329193
 10
5.361093584
 20
22.5995786382
 10
5.2763006499
 20
22.5948860573
 10
5.1900952707
 20
22.5954348184
 10
5.1031005209
 20
22.6012207382
 10
5.0159715654
 20
22.6122943219
 10
4.9293753848
 20
22.6286388456
 10
4.8439595523
 20
22.650106036
 10
4.7603828784
 20
22.6766571344
 10
4.6792954184
 20
22.7081681448
  0
LWPOLYLINE
  5
25E
100
AcDbEntity
  8
RACCORDO
100
AcDbPolyline
 62
7
  6
CONTINUOUS
 90
4
 70
0
 10
5.5160342791
 20
22.4212797369
 10
5.6075002329
 20
22.4545615026
 10
5.6925098445
 20
22.4961744223
 10
5.702706805
 20
22.5019665563
  0
LINE
  5
25F
100
AcDbEntity
  8
RACCORDO
100
AcDbLine
 62
7
  6
CONTINUOUS
 10
10.5349357203
 20
20.613544392
 11
10.6981768463
 21
20.6652394855
  0
LWPOLYLINE
  5
260
100
AcDbEntity
  8
0
100
AcDbPolyline
 62
7
  6
CONTINUOUS
 90
27
 70
0
 10
-14.4995067577
 20
-19.8168885906
 10
-15.1249358424
 20
-19.9002362795
 10
-15.7384238227
 20
-20.0019333452
 10
-16.3399706987
 20
-20.1219797878
 10
-16.9312108385
 20
-20.2608189852
 10
-17.510509874
 20
-20.4180075594
 10
-18.0729647002
 20
-20.5922153765
 10
-18.6184323782
 20
-20.7835869018
 10
-19.1470558469
 20
-20.9919776699
 10
-19.6543608188
 20
-21.2156241514
 10
-20.140166361
 20
-21.4546558337
 10
-20.6046534065
 20
-21.7089432292
 10
-21.0438904663
 20
-21.9763343455
 10
-21.457663287
 20
-22.2569404506
 10
-21.846186122
 20
-22.5506502764
 10
-22.2061702428
 20
-22.8549780265
 10
-22.5373734007
 20
-23.1700138269
 10
-22.8400378442
 20
-23.4956675516
 10
-23.1116015906
 20
-23.8291830261
 10
-23.3518006677
 20
-24.1706269969
 10
-23.5608990476
 20
-24.5199327176
 10
-23.7371266641
 20
-24.8741437741
 10
-23.880204513
 20
-25.23330182
 10
-23.9904115984
 20
-25.5973652016
 10
-24.0668148671
 20
-25.9632525441
 10
-24.109127388
 20
-26.3309793399
 10
-24.11868192
 20
-26.6078218111
  0
LWPOLYLINE
  5
261
100
AcDbEntity
  8
ASSI
100
AcDbPolyline
 62
7
  6
CONTINUOUS
 90
11
 70
0
 10
-2.3758288793
 20
-23.6595563423
 10
-2.13887702
 20
-23.937025119
 10
-1.926324752
 20
-24.2194328856
 10
-1.7381720752
 20
-24.5067796421
 10
-1.5740913131
 20
-24.7997640139
 10
-1.4344101422
 20
-25.0976873757
 10
-1.3201115919
 20
-25.3984538513
 10
-1.2313746563
 20
-25.7020835069
 10
-1.1680203413
 20
-26.0085562765
 10
-1.1304946943
 20
-26.3157160859
 10
-1.1189412219
 20
-26.6078217897
  0
LWPOLYLINE
  5
262
100
AcDbEntity
  8
0
100
AcDbPolyline
 62
7
  6
CONTINUOUS
 90
15
 70
0
 10
-4.9393298171
 20
-24.5035508909
 10
-4.8949667547
 20
-24.5800846785
 10
-4.8424875037
 20
-24.6541660482
 10
-4.7818920641
 20
-24.7257949999
 10
-4.7128403438
 20
-24.7952719898
 10
-4.6356724348
 20
-24.8622965617
 10
-4.5514086139
 20
-24.9259673477
 10
-4.4599604312
 20
-24.9862313991
 10
-4.3614163365
 20
-25.0431416646
 10
-4.257061956
 20
-25.0959556215
 10
-4.1468211899
 20
-25.1446195313
 10
-4.030770138
 20
-25.1891871327
 10
-3.9104227259
 20
-25.2290771186
 10
-3.7862835957
 20
-25.2640957203
 10
-3.665781232
 20
-25.2925626227
  0
LINE
  5
263
100
AcDbEntity
  8
0
100
AcDbLine
 62
7
  6
CONTINUOUS
 10
-15.9969328168
 20
-30.4639783815
 11
-15.9969328168
 21
-29.2392729663
  0
LINE
  5
264
100
AcDbEntity
  8
0
100
AcDbLine
 62
7
  6
CONTINUOUS
 10
-15.6841884708
 20
-27.7338842935
 11
-15.6841884708
 21
-27.6241084294
  0
LINE
  5
265
100
AcDbEntity
  8
0
100
AcDbLine
 62
253
  6
CONTINUOUS
 10
-13.8764696779
 20
-27.1382861837
 11
-13.8764696779
 21
-25.9135807685
  0
LWPOLYLINE
  5
266
100
AcDbEntity
  8
0
100
AcDbPolyline
 62
7
  6
CONTINUOUS
 90
45
 70
0
 10
-14.968655043
 20
-30.2820169766
 10
-14.9710969421
 20
-30.3411020674
 10
-14.9840179331
 20
-30.4282555649
 10
-15.0078556811
 20
-30.5151015345
 10
-15.0422399003
 20
-30.6002909929
 10
-15.0873352618
 20
-30.6837980746
 10
-15.1429770945
 20
-30.765648645
 10
-15.2083010984
 20
-30.8445713173
 10
-15.2834584493
 20
-30.9205203746
 10
-15.3682979713
 20
-30.9935415338
 10
-15.4615018374
 20
-31.0625005581
 10
-15.5632006463
 20
-31.127334021
 10
-15.6732637993
 20
-31.1881053491
 10
-15.7899816724
 20
-31.2438705848
 10
-15.9134581701
 20
-31.2945515633
 10
-16.043589388
 20
-31.3402264495
 10
-16.178353988
 20
-31.3801857813
 10
-16.3178243135
 20
-31.4143403165
 10
-16.4619280211
 20
-31.4427792974
 10
-16.6084267425
 20
-31.4650609888
 10
-16.7573578713
 20
-31.4810892516
 10
-16.9086840139
 20
-31.4909602248
 10
-17.0600546207
 20
-31.4945205912
 10
-17.2114703842
 20
-31.4916718178
 10
-17.362930612
 20
-31.4825124375
 10
-17.5120826771
 20
-31.4671847312
 10
-17.6588905385
 20
-31.4455923879
 10
-17.8033902372
 20
-31.4178317186
 10
-17.9433372693
 20
-31.3843339371
 10
-18.0786605511
 20
-31.3450094638
 10
-18.2094311663
 20
-31.2999478783
 10
-18.3336178617
 20
-31.2498491326
 10
-18.4511178329
 20
-31.1946345771
 10
-18.5620338843
 20
-31.1343828614
 10
-18.6646431752
 20
-31.070029887
 10
-18.7588159978
 20
-31.0015116242
 10
-18.8446820599
 20
-30.9288921025
 10
-18.920907644
 20
-30.8532993119
 10
-18.9873422311
 20
-30.7746868265
 10
-19.0441363402
 20
-30.6931010721
 10
-19.0904078114
 20
-30.6098093158
 10
-19.1259923458
 20
-30.5247849216
 10
-19.1510542424
 20
-30.4380545255
 10
-19.1652042377
 20
-30.3509653021
 10
-19.1685370355
 20
-30.2820169806
  0
LWPOLYLINE
  5
267
100
AcDbEntity
  8
RACCORDO
100
AcDbPolyline
 62
7
  6
CONTINUOUS
 90
3
 70
0
 10
5.7127330926
 20
22.3564281417
 10
5.7541299423
 20
22.3876402219
 10
5.7970750543
 20
22.4303605182
  0
LWPOLYLINE
  5
268
100
AcDbEntity
  8
RACCORDO
100
AcDbPolyline
 62
7
  6
CONTINUOUS
 90
10
 70
0
 10
10.6153753308
 20
20.7270171364
 10
10.4203338258
 20
20.6239213947
 10
10.2165433479
 20
20.5349699588
 10
10.0044368161
 20
20.4606066471
 10
9.7845946348
 20
20.401258847
 10
9.5573756653
 20
20.3572328199
 10
9.3228466028
 20
20.3287972113
 10
9.0812943477
 20
20.3162925521
 10
8.8332962204
 20
20.3200494834
 10
8.5795864266
 20
20.3403120762
  0
LWPOLYLINE
  5
269
100
AcDbEntity
  8
RACCORDO
100
AcDbPolyline
 62
7
  6
CONTINUOUS
 90
61
 70
0
 10
10.2660750472
 20
20.3522196786
 10
10.0595264924
 20
20.2446868959
 10
9.8422338423
 20
20.1545269906
 10
9.6156969047
 20
20.0827874207
 10
9.379986275
 20
20.0293274675
 10
9.1369115923
 20
19.9945570776
 10
8.8864161983
 20
19.9786201183
 10
8.6285567513
 20
19.9813727223
 10
8.3653128651
 20
20.0027932346
 10
8.0966431028
 20
20.0430253585
 10
7.8225889013
 20
20.1019253907
 10
7.5452541853
 20
20.179040566
 10
7.2646139888
 20
20.2745109336
 10
6.9806932778
 20
20.3881964443
 10
6.6956708748
 20
20.5192241846
 10
6.4095385924
 20
20.667727252
 10
6.122304618
 20
20.8335725489
 10
5.8361723356
 20
21.015487869
 10
5.5511499326
 20
21.2135968555
 10
5.2672292216
 20
21.4277758651
 10
4.9865890251
 20
21.6563817619
 10
4.7092543091
 20
21.8995257651
 10
4.4352001076
 20
22.1570966553
 10
4.1665303453
 20
22.4271176385
 10
3.9032864591
 20
22.7096845675
 10
3.6454270121
 20
23.0047015894
 10
3.3949316181
 20
23.3099043508
 10
3.1518569354
 20
23.6253712914
 10
2.9161463057
 20
23.9510239715
 10
2.6896093681
 20
24.2843627186
 10
2.4723167181
 20
24.6254467295
 10
2.2641977601
 20
24.9742168075
 10
2.0668503467
 20
25.32799569
 10
1.8803573807
 20
25.6868219608
 10
1.7046359593
 20
26.0506570361
 10
1.5410352262
 20
26.4167079023
 10
1.3896484764
 20
26.7849916374
 10
1.2503824149
 20
27.1554911634
 10
1.124306301
 20
27.5253622333
 10
1.0115216659
 20
27.8946000235
 10
0.9119269783
 20
28.2632093577
 10
0.8262869042
 20
28.6283604596
 10
0.7547088646
 20
28.9900267151
 10
0.6970854385
 20
29.3482347384
 10
0.6538590285
 20
29.7002345961
 10
0.6251404631
 20
30.0459784982
 10
0.6108189139
 20
30.3855142347
 10
0.6110042984
 20
30.7162352426
 10
0.6258082909
 20
31.0380736604
 10
0.655119217
 20
31.3510973496
 10
0.6987119714
 20
31.6529033316
 10
0.7566964933
 20
31.9434052422
 10
0.8289628433
 20
32.2226894455
 10
0.9149560981
 20
32.4886120559
 10
1.0147819212
 20
32.7410702026
 10
1.128334649
 20
32.9801667563
 10
1.2547423676
 20
33.2040664429
 10
1.3941040228
 20
33.4126522635
 10
1.5463206687
 20
33.606041217
 10
1.7102235536
 20
33.7827490256
 10
1.8859026194
 20
33.9426472671
  0
LINE
  5
26A
100
AcDbEntity
  8
RACCORDO
100
AcDbLine
 62
7
  6
CONTINUOUS
 10
-12.4117479245
 20
3.6028804552
 11
-12.4117479245
 21
-6.6029980047
  0
LINE
  5
26B
100
AcDbEntity
  8
RACCORDO
100
AcDbLine
 62
253
  6
CONTINUOUS
 10
-12.1188547056
 20
3.1946058619
 11
-12.1188547056
 21
-7.011272598
  0
LINE
  5
26C
100
AcDbEntity
  8
0
100
AcDbLine
 62
253
  6
CONTINUOUS
 10
-11.0480425531
 20
-32.8541304903
 11
-11.0480425531
 21
-31.6294250751
  0
LWPOLYLINE
  5
26D
100
AcDbEntity
  8
RACCORDO
100
AcDbPolyline
 62
253
  6
CONTINUOUS
 90
22
 70
0
 10
-11.0581945339
 20
3.8068993871
 10
-11.0562173199
 20
3.8690559058
 10
-11.0502967353
 20
3.9331480573
 10
-11.0404658906
 20
3.9988174121
 10
-11.0267797636
 20
4.0656967205
 10
-11.0093148928
 20
4.1334119665
 10
-10.9881689488
 20
4.2015844588
 10
-10.9634601884
 20
4.2698329492
 10
-10.9353267929
 20
4.3377757645
 10
-10.9039260957
 20
4.4050329409
 10
-10.8694337022
 20
4.471228349
 10
-10.832042508
 20
4.5359917972
 10
-10.7919616196
 20
4.598961102
 10
-10.7494151857
 20
4.6597841135
 10
-10.7046411433
 20
4.7181206849
 10
-10.6578898869
 20
4.7736445742
 10
-10.6094228685
 20
4.8260452695
 10
-10.5595111354
 20
4.8750297247
 10
-10.508433814
 20
4.9203239989
 10
-10.4564765496
 20
4.9616747881
 10
-10.4039299083
 20
4.9988508419
 10
-10.351087752
 20
5.0316442568
  0
LWPOLYLINE
  5
26E
100
AcDbEntity
  8
0
100
AcDbPolyline
 62
7
  6
CONTINUOUS
 90
17
 70
0
 10
-12.2831503717
 20
-26.6075456486
 10
-12.2874866223
 20
-26.6681750481
 10
-12.3000187238
 20
-26.7257233136
 10
-12.3205959058
 20
-26.7828796923
 10
-12.3488216136
 20
-26.8385438013
 10
-12.3848440537
 20
-26.8926866898
 10
-12.4285150197
 20
-26.9453373085
 10
-12.4789933377
 20
-26.9954821266
 10
-12.5364108907
 20
-27.043072553
 10
-12.6006357957
 20
-27.0881571787
 10
-12.6704312308
 20
-27.1298682467
 10
-12.7459050877
 20
-27.1681403549
 10
-12.8269494746
 20
-27.2030389053
 10
-12.9120038948
 20
-27.2338923462
 10
-13.0005481826
 20
-27.260476827
 10
-13.0931025037
 20
-27.2830161984
 10
-13.1896668581
 20
-27.3015104601
  0
LWPOLYLINE
  5
26F
100
AcDbEntity
  8
0
100
AcDbPolyline
 62
7
  6
CONTINUOUS
 90
17
 70
0
 10
-11.9545590396
 20
-32.3233898867
 10
-11.950222789
 20
-32.2627604872
 10
-11.9376906875
 20
-32.2052122217
 10
-11.9171135055
 20
-32.148055843
 10
-11.8888877977
 20
-32.092391734
 10
-11.8528653576
 20
-32.0382488455
 10
-11.8091943916
 20
-31.9855982268
 10
-11.7587160735
 20
-31.9354534086
 10
-11.7012985206
 20
-31.8878629823
 10
-11.6370736156
 20
-31.8427783565
 10
-11.5672781805
 20
-31.8010672886
 10
-11.4918043236
 20
-31.7627951804
 10
-11.4107599367
 20
-31.72789663
 10
-11.3257055165
 20
-31.6970431891
 10
-11.2371612287
 20
-31.6704587082
 10
-11.1446069075
 20
-31.6479193369
 10
-11.0480425531
 20
-31.6294250751
  0
LWPOLYLINE
  5
270
100
AcDbEntity
  8
RACCORDO
100
AcDbPolyline
 62
253
  6
CONTINUOUS
 90
3
 70
0
 10
4.4251740623
 20
34.4498600528
 10
4.4540396963
 20
34.5051224422
 10
4.4599677261
 20
34.5139208299
  0
LINE
  5
271
100
AcDbEntity
  8
RACCORDO
100
AcDbLine
 62
253
  6
CONTINUOUS
 10
6.5134089786
 20
23.8055529159
 11
6.7620051443
 21
24.1124561468
  0
LINE
  5
272
100
AcDbEntity
  8
RACCORDO
100
AcDbLine
 62
253
  6
CONTINUOUS
 10
6.5134089786
 20
23.3619121707
 11
6.9030581955
 21
23.8429517848
  0
LWPOLYLINE
  5
273
100
AcDbEntity
  8
0
100
AcDbPolyline
 62
7
  6
CONTINUOUS
 90
37
 70
0
 10
4.8908551649
 20
15.7817790919
 10
4.8040965916
 20
15.724829406
 10
4.7231427423
 20
15.657672207
 10
4.6490926519
 20
15.5812024665
 10
4.5820347562
 20
15.4953008928
 10
4.5218806194
 20
15.4000867776
 10
4.4693975285
 20
15.2967746102
 10
4.4246837481
 20
15.1852606561
 10
4.3876410136
 20
15.0656486498
 10
4.3587418179
 20
14.9394642842
 10
4.3380904783
 20
14.8066233685
 10
4.3255826775
 20
14.6672100934
 10
4.3213779569
 20
14.5230027239
 10
4.3255826775
 20
14.3739398484
 10
4.3380904783
 20
14.2200828785
 10
4.3587418179
 20
14.0633943135
 10
4.3876410136
 20
13.903837881
 10
4.4246837481
 20
13.7414498534
 10
4.4693975285
 20
13.5783015465
 10
4.5218806194
 20
13.4143832213
 10
4.5820347562
 20
13.2497046167
 10
4.6490926519
 20
13.0863662659
 10
4.7231427423
 20
12.9243853372
 10
4.8040965916
 20
12.7637446622
 10
4.8909216052
 20
12.6064932687
 10
4.9836929917
 20
12.4526745727
 10
5.0823355424
 20
12.3022451583
 10
5.1855910374
 20
12.1571238049
 10
5.2935185676
 20
12.017378508
 10
5.4060590419
 20
11.8829412721
 10
5.5217769675
 20
11.7555268912
 10
5.6407130469
 20
11.6352253266
 10
5.7628265775
 20
11.521946617
 10
5.8865599587
 20
11.4171356716
 10
6.0113939903
 20
11.3212741271
 10
6.1378478724
 20
11.2338803469
 10
6.2659216052
 20
11.154954331
  0
LWPOLYLINE
  5
274
100
AcDbEntity
  8
RACCORDO
100
AcDbPolyline
 62
7
  6
CONTINUOUS
 90
16
 70
0
 10
-11.601148153
 20
5.1554972014
 10
-11.6926063435
 20
5.0982084566
 10
-11.780569068
 20
5.0338340797
 10
-11.8645025972
 20
4.9625175708
 10
-11.9437295546
 20
4.8846283939
 10
-12.0179494946
 20
4.8002681237
 10
-12.0871471866
 20
4.7091133615
 10
-12.1508336151
 20
4.6113216701
 10
-12.2084918392
 20
4.5071768644
 10
-12.2599462488
 20
4.3963188871
 10
-12.304824154
 20
4.2785231128
 10
-12.342453099
 20
4.1543611859
 10
-12.3722897021
 20
4.0245010308
 10
-12.3939870068
 20
3.8892507891
 10
-12.40725141
 20
3.7486432349
 10
-12.4117479245
 20
3.6028804552
  0
LINE
  5
275
100
AcDbEntity
  8
RACCORDO
100
AcDbLine
 62
253
  6
CONTINUOUS
 10
22.383879649
 20
26.3852470356
 11
21.4687174007
 21
25.851281221
  0
LINE
  5
276
100
AcDbEntity
  8
0
100
AcDbLine
 62
7
  6
CONTINUOUS
 10
10.615375331
 20
20.7270171361
 11
10.9576787063
 21
20.9246588149
  0
LINE
  5
277
100
AcDbEntity
  8
RACCORDO
100
AcDbLine
 62
253
  6
CONTINUOUS
 10
15.8118631512
 20
22.5850844744
 11
21.4687174007
 21
25.851281221
  0
LINE
  5
278
100
AcDbEntity
  8
RACCORDO
100
AcDbLine
 62
7
  6
CONTINUOUS
 10
-2.1586995973
 20
10.6074486558
 11
-11.601148153
 21
5.1554972014
  0
LINE
  5
279
100
AcDbEntity
  8
RACCORDO
100
AcDbLine
 62
7
  6
CONTINUOUS
 10
10.5085622923
 20
-20.0760595845
 11
5.558814824
 21
-17.2181374312
  0
LINE
  5
27A
100
AcDbEntity
  8
ASSI
100
AcDbLine
 62
7
  6
CONTINUOUS
 10
2.7303876993
 20
-15.5850390579
 11
1.1393974416
 21
-14.6664212229
  0
LINE
  5
27B
100
AcDbEntity
  8
ASSI
100
AcDbLine
 62
7
  6
CONTINUOUS
 10
-2.7496898549
 20
-12.4209109596
 11
-4.3406801126
 21
-11.5022931246
  0
LINE
  5
27C
100
AcDbEntity
  8
RACCORDO
100
AcDbLine
 62
7
  6
CONTINUOUS
 10
-7.1691072373
 20
-9.8691947513
 11
-12.1188547056
 21
-7.011272598
  0
LINE
  5
27D
100
AcDbEntity
  8
0
100
AcDbLine
 62
7
  6
CONTINUOUS
 10
-7.0972225458
 20
-9.8276894314
 11
-4.3406801126
 21
-11.4192824847
  0
LINE
  5
27E
100
AcDbEntity
  8
0
100
AcDbLine
 62
7
  6
CONTINUOUS
 10
-2.6778051634
 20
-12.3794056397
 11
1.1393974416
 21
-14.583410583
  0
LINE
  5
27F
100
AcDbEntity
  8
0
100
AcDbLine
 62
7
  6
CONTINUOUS
 10
2.8022723908
 20
-15.543533738
 11
5.558814824
 21
-17.1351267913
  0
LINE
  5
280
100
AcDbEntity
  8
0
100
AcDbLine
 62
7
  6
CONTINUOUS
 10
-5.0477868938
 20
-8.6443709713
 11
-4.3865043356
 21
-9.0261872326
  0
LWPOLYLINE
  5
281
100
AcDbEntity
  8
RACCORDO
100
AcDbPolyline
 62
7
  6
CONTINUOUS
 90
12
 70
0
 10
-12.1188547056
 20
-7.011272598
 10
-12.1701114324
 20
-6.9792888092
 10
-12.2166505718
 20
-6.9455934958
 10
-12.2584721237
 20
-6.9101866578
 10
-12.2957565313
 20
-6.8728519514
 10
-12.3283233514
 20
-6.8338057204
 10
-12.3556312548
 20
-6.7936969957
 10
-12.3775923399
 20
-6.7525080179
 10
-12.3942945082
 20
-6.7102565464
 10
-12.4054601344
 20
-6.66764489
 10
-12.4109966765
 20
-6.6246670281
 10
-12.4116887443
 20
-6.6029980047
  0
LWPOLYLINE
  5
282
100
AcDbEntity
  8
0
100
AcDbPolyline
 62
7
  6
CONTINUOUS
 90
11
 70
0
 10
-1.4039152685
 20
-28.0365076431
 10
-1.4852036891
 20
-27.8399947756
 10
-1.6338891129
 20
-27.5449702294
 10
-1.8074616562
 20
-27.2537513088
 10
-2.0047043078
 20
-26.9683779983
 10
-2.2258416656
 20
-26.6888509464
 10
-2.4706491318
 20
-26.4151695046
 10
-2.7372359019
 20
-26.1493717124
 10
-3.024971708
 20
-25.8921369162
 10
-3.334486818
 20
-25.6427857696
 10
-3.665781232
 20
-25.4013182725
  0
LINE
  5
283
100
AcDbEntity
  8
0
100
AcDbLine
 62
7
  6
CONTINUOUS
 10
-8.2407765945
 20
-30.9163679841
 11
-8.2407765945
 21
-29.691662569
  0
LINE
  5
284
100
AcDbEntity
  8
ASSI
100
AcDbLine
 62
7
  6
CONTINUOUS
 10
-7.1691072373
 20
-9.8691947513
 11
-7.1691072373
 21
-7.8280190593
  0
LWPOLYLINE
  5
285
100
AcDbEntity
  8
ASSI
100
AcDbPolyline
 62
7
  6
CONTINUOUS
 90
13
 70
0
 10
-7.1691072373
 20
-7.8280190593
 10
-7.1655233917
 20
-7.7152705049
 10
-7.1552220719
 20
-7.608049214
 10
-7.1382032779
 20
-7.5063551867
 10
-7.1143191237
 20
-7.4097482696
 10
-7.0837174953
 20
-7.318668616
 10
-7.046842051
 20
-7.2344366865
 10
-7.0036013921
 20
-7.1571522404
 10
-6.9540869173
 20
-7.0867155182
 10
-6.8990164806
 20
-7.024147702
 10
-6.8383091413
 20
-6.969563428
 10
-6.7720458402
 20
-6.92284806
 10
-6.7549166029
 20
-6.9125892774
  0
LWPOLYLINE
  5
286
100
AcDbEntity
  8
0
100
AcDbPolyline
 62
7
  6
CONTINUOUS
 90
45
 70
0
 10
-9.2690543683
 20
-28.6489185587
 10
-9.2666124692
 20
-28.5898334679
 10
-9.2536914782
 20
-28.5026799704
 10
-9.2298537302
 20
-28.4158340007
 10
-9.195469511
 20
-28.3306445423
 10
-9.1503741495
 20
-28.2471374607
 10
-9.0947323168
 20
-28.1652868903
 10
-9.0294083129
 20
-28.086364218
 10
-8.954250962
 20
-28.0104151607
 10
-8.86941144
 20
-27.9373940015
 10
-8.7762075739
 20
-27.8684349772
 10
-8.6745087649
 20
-27.8036015143
 10
-8.564445612
 20
-27.7428301862
 10
-8.4477277389
 20
-27.6870649504
 10
-8.3242512411
 20
-27.636383972
 10
-8.1941200233
 20
-27.5907090858
 10
-8.0593554233
 20
-27.550749754
 10
-7.9198850978
 20
-27.5165952188
 10
-7.7757813902
 20
-27.4881562379
 10
-7.6292826688
 20
-27.4658745464
 10
-7.48035154
 20
-27.4498462837
 10
-7.3290253974
 20
-27.4399753104
 10
-7.1776547906
 20
-27.4364149441
 10
-7.0262390271
 20
-27.4392637175
 10
-6.8747787993
 20
-27.4484230978
 10
-6.7256267342
 20
-27.4637508041
 10
-6.5788188728
 20
-27.4853431474
 10
-6.4343191741
 20
-27.5131038166
 10
-6.294372142
 20
-27.5466015982
 10
-6.1590488602
 20
-27.5859260714
 10
-6.028278245
 20
-27.630987657
 10
-5.9040915496
 20
-27.6810864027
 10
-5.7865915783
 20
-27.7363009582
 10
-5.6756755269
 20
-27.7965526738
 10
-5.5730662361
 20
-27.8609056483
 10
-5.4788934135
 20
-27.9294239111
 10
-5.3930273514
 20
-28.0020434328
 10
-5.3168017673
 20
-28.0776362234
 10
-5.2503671802
 20
-28.1562487088
 10
-5.1935730711
 20
-28.2378344631
 10
-5.1473015999
 20
-28.3211262195
 10
-5.1117170655
 20
-28.4061506137
 10
-5.0866551689
 20
-28.4928810098
 10
-5.0725051736
 20
-28.5799702332
 10
-5.0691723758
 20
-28.6489185547
  0
LWPOLYLINE
  5
287
100
AcDbEntity
  8
RACCORDO
100
AcDbPolyline
 62
253
  6
CONTINUOUS
 90
7
 70
0
 10
8.2811759315
 20
31.7635044423
 10
8.3014668791
 20
31.8046967116
 10
8.3274600379
 20
31.8486770159
 10
8.358710658
 20
31.8946928401
 10
8.3946840327
 20
31.9419568406
 10
8.4347646483
 20
31.9896603178
 10
8.466729559
 20
32.0244355589
  0
LWPOLYLINE
  5
288
100
AcDbEntity
  8
RACCORDO
100
AcDbPolyline
 62
7
  6
CONTINUOUS
 90
4
 70
0
 10
5.9167853226
 20
22.6633790322
 10
5.8961458031
 20
22.6304047557
 10
5.8718481057
 20
22.6037736203
 10
5.8441822432
 20
22.5836526875
  0
LWPOLYLINE
  5
289
100
AcDbEntity
  8
RACCORDO
100
AcDbPolyline
 62
7
  6
CONTINUOUS
 90
3
 70
0
 10
5.7970750543
 20
22.4303605182
 10
5.8348988613
 20
22.4793774624
 10
5.8673156534
 20
22.534414671
  0
LWPOLYLINE
  5
28A
100
AcDbEntity
  8
RACCORDO
100
AcDbPolyline
 62
253
  6
CONTINUOUS
 90
4
 70
0
 10
11.0740161278
 20
21.0668641696
 10
10.9349225061
 20
20.9443556732
 10
10.7094076277
 20
20.7839764282
 10
10.615375331
 20
20.7270171361
  0
LINE
  5
28B
100
AcDbEntity
  8
RACCORDO
100
AcDbLine
 62
253
  6
CONTINUOUS
 10
-2.1586995973
 20
9.7618265034
 11
-10.3510877527
 21
5.0316442572
  0
LINE
  5
28C
100
AcDbEntity
  8
0
100
AcDbLine
 62
7
  6
CONTINUOUS
 10
-3.8103500267
 20
-6.9096774089
 11
-2.7496898549
 21
-7.5220892989
  0
LINE
  5
28D
100
AcDbEntity
  8
0
100
AcDbLine
 62
7
  6
CONTINUOUS
 10
1.1393974416
 20
-9.7675995622
 11
2.2000576134
 21
-10.3800114522
  0
LWPOLYLINE
  5
28E
100
AcDbEntity
  8
ASSI
100
AcDbPolyline
 62
7
  6
CONTINUOUS
 90
41
 70
0
 10
-7.3458839326
 20
-4.6482690795
 10
-7.4961461958
 20
-4.5560301126
 10
-7.6447219361
 20
-4.4543474341
 10
-7.7916111535
 20
-4.343221044
 10
-7.9373568781
 20
-4.2221590019
 10
-8.0814160799
 20
-4.0916532483
 10
-8.2221596684
 20
-3.9531796046
 10
-8.3595500073
 20
-3.8066476251
 10
-8.4936247329
 20
-3.6521477557
 10
-8.6228676642
 20
-3.4914271546
 10
-8.747223954
 20
-3.3244152087
 10
-8.8667484495
 20
-3.1511825311
 10
-8.9800895105
 20
-2.9736881199
 10
-9.0871769471
 20
-2.791883599
 10
-9.1880809491
 20
-2.6058173445
 10
-9.2816604459
 20
-2.4175934825
 10
-9.3678322949
 20
-2.2271875215
 10
-9.4466796388
 20
-2.0346239531
 10
-9.5173108338
 20
-1.8420803782
 10
-9.5796326164
 20
-1.6495570238
 10
-9.6337382503
 20
-1.4570536629
 10
-9.679015883
 20
-1.2667472155
 10
-9.7153653055
 20
-1.0786626196
 10
-9.742886727
 20
-0.8927749372
 10
-9.7612689218
 20
-0.7111862753
 10
-9.7704081484
 20
-0.5339454332
 10
-9.7704081484
 20
-0.3610036115
 10
-9.7612689218
 20
-0.1943165191
 10
-9.742886727
 20
-0.0339551551
 10
-9.7153653055
 20
0.1201514797
 10
-9.679015883
 20
0.2662606736
 10
-9.6337382503
 20
0.4042816455
 10
-9.5796326164
 20
0.5343051767
 10
-9.5173108338
 20
0.6548608987
 10
-9.4466796388
 20
0.76584134
 10
-9.3678322949
 20
0.8673539722
 10
-9.2816604459
 20
0.9582508418
 10
-9.1880809491
 20
1.0384114466
 10
-9.0871769471
 20
1.1079562888
 10
-8.9800895105
 20
1.1660989222
 10
-8.905815197
 20
1.1982118808
  0
LWPOLYLINE
  5
28F
100
AcDbEntity
  8
ASSI
100
AcDbPolyline
 62
7
  6
CONTINUOUS
 90
41
 70
0
 10
5.7355915193
 20
-12.2013490561
 10
5.5853292562
 20
-12.1091100891
 10
5.4367535159
 20
-12.0074274106
 10
5.2898642985
 20
-11.8963010206
 10
5.1441185738
 20
-11.7752389785
 10
5.000059372
 20
-11.6447332248
 10
4.8593157835
 20
-11.5062595811
 10
4.7219254447
 20
-11.3597276017
 10
4.587850719
 20
-11.2052277322
 10
4.4586077878
 20
-11.0445071311
 10
4.3342514979
 20
-10.8774951852
 10
4.2147270024
 20
-10.7042625077
 10
4.1013859415
 20
-10.5267680965
 10
3.9942985049
 20
-10.3449635756
 10
3.8933945028
 20
-10.158897321
 10
3.7998150061
 20
-9.9706734591
 10
3.713643157
 20
-9.7802674981
 10
3.6347958132
 20
-9.5877039297
 10
3.5641646181
 20
-9.3951603548
 10
3.5018428355
 20
-9.2026370003
 10
3.4477372017
 20
-9.0101336394
 10
3.402459569
 20
-8.8198271921
 10
3.3661101464
 20
-8.6317425962
 10
3.338588725
 20
-8.4458549138
 10
3.3202065301
 20
-8.2642662519
 10
3.3110673036
 20
-8.0870254098
 10
3.3110673036
 20
-7.9140835881
 10
3.3202065301
 20
-7.7473964957
 10
3.338588725
 20
-7.5870351316
 10
3.3661101464
 20
-7.4329284969
 10
3.402459569
 20
-7.286819303
 10
3.4477372017
 20
-7.148798331
 10
3.5018428355
 20
-7.0187747999
 10
3.5641646181
 20
-6.8982190778
 10
3.6347958132
 20
-6.7872386365
 10
3.713643157
 20
-6.6857260044
 10
3.7998150061
 20
-6.5948291347
 10
3.8933945028
 20
-6.51466853
 10
3.9942985049
 20
-6.4451236877
 10
4.1013859415
 20
-6.3869810544
 10
4.1756602549
 20
-6.3548680957
  0
LINE
  5
290
100
AcDbEntity
  8
0
100
AcDbLine
 62
7
  6
CONTINUOUS
 10
-5.0799947944
 20
-24.5847690859
 11
-5.0799947944
 21
-21.197214717
  0
LINE
  5
291
100
AcDbEntity
  8
0
100
AcDbLine
 62
7
  6
CONTINUOUS
 10
-4.9393298171
 20
-24.5035508909
 11
-4.9393298171
 21
-20.8840357341
  0
LINE
  5
292
100
AcDbEntity
  8
ASSI
100
AcDbLine
 62
7
  6
CONTINUOUS
 10
-4.3406801126
 20
-11.5022931246
 11
-4.3406801126
 21
-9.4611174327
  0
LINE
  5
293
100
AcDbEntity
  8
0
100
AcDbLine
 62
7
  6
CONTINUOUS
 10
-3.8103500267
 20
-2.8273260249
 11
-3.8103500267
 21
-6.9096774089
  0
LINE
  5
294
100
AcDbEntity
  8
0
100
AcDbLine
 62
7
  6
CONTINUOUS
 10
-3.665781232
 20
-25.4013182725
 11
-3.665781232
 21
-22.0137639036
  0
LWPOLYLINE
  5
295
100
AcDbEntity
  8
0
100
AcDbPolyline
 62
7
  6
CONTINUOUS
 90
13
 70
0
 10
-5.0691723758
 20
-28.6489185547
 10
-5.0694374558
 20
-28.667423885
 10
-5.0772816392
 20
-28.755236364
 10
-5.095915859
 20
-28.842043692
 10
-5.1255085878
 20
-28.9278301731
 10
-5.1658913529
 20
-29.0126115032
 10
-5.2164368719
 20
-29.0950707912
 10
-5.2773038221
 20
-29.1751717799
 10
-5.3483335262
 20
-29.2529507265
 10
-5.4284226692
 20
-29.3271995123
 10
-5.5172034797
 20
-29.397515431
 10
-5.6150437291
 20
-29.4643011888
 10
-5.7219434175
 20
-29.5275567858
  0
LWPOLYLINE
  5
296
100
AcDbEntity
  8
RACCORDO
100
AcDbPolyline
 62
253
  6
CONTINUOUS
 90
6
 70
0
 10
4.3920886352
 20
22.8786350718
 10
4.3778470822
 20
22.8409356471
 10
4.369898601
 20
22.8073741135
 10
4.3683791926
 20
22.7785247183
 10
4.3733148548
 20
22.754881083
 10
4.3846873802
 20
22.736778519
  0
LWPOLYLINE
  5
297
100
AcDbEntity
  8
RACCORDO
100
AcDbPolyline
 62
7
  6
CONTINUOUS
 90
3
 70
0
 10
5.8673156534
 20
22.534414671
 10
5.8946111405
 20
22.5957485276
 10
5.9167853226
 20
22.6633790322
  0
LINE
  5
298
100
AcDbEntity
  8
0
100
AcDbLine
 62
7
  6
CONTINUOUS
 10
-7.8339357503
 20
-9.4853311002
 11
-11.7653013151
 21
-18.2381926356
  0
LWPOLYLINE
  5
299
100
AcDbEntity
  8
RACCORDO
100
AcDbPolyline
 62
253
  6
CONTINUOUS
 90
3
 70
0
 10
6.3386417679
 20
15.4076243096
 10
6.4123673306
 20
15.5125693707
 10
6.4371980416
 20
15.5367569358
  0
LWPOLYLINE
  5
29A
100
AcDbEntity
  8
0
100
AcDbPolyline
 62
7
  6
CONTINUOUS
 90
37
 70
0
 10
7.6409880455
 20
11.0187160925
 10
7.7277466188
 20
11.0756657784
 10
7.8087004681
 20
11.1428229774
 10
7.8827505585
 20
11.2192927179
 10
7.9498084542
 20
11.3051942916
 10
8.009962591
 20
11.4004084068
 10
8.0624456819
 20
11.5037205742
 10
8.1071594623
 20
11.6152345283
 10
8.1442021968
 20
11.7348465346
 10
8.1731013925
 20
11.8610309002
 10
8.1937527321
 20
11.9938718159
 10
8.2062605329
 20
12.133285091
 10
8.2104652535
 20
12.2774924606
 10
8.2062605329
 20
12.426555336
 10
8.1937527321
 20
12.5804123059
 10
8.1731013925
 20
12.7371008709
 10
8.1442021968
 20
12.8966573034
 10
8.1071594623
 20
13.059045331
 10
8.0624456819
 20
13.2221936379
 10
8.009962591
 20
13.3861119631
 10
7.9498084542
 20
13.5507905677
 10
7.8827505585
 20
13.7141289185
 10
7.8087004681
 20
13.8761098472
 10
7.7277466188
 20
14.0367505222
 10
7.6409216052
 20
14.1940019157
 10
7.5481502187
 20
14.3478206117
 10
7.449507668
 20
14.4982500261
 10
7.346252173
 20
14.6433713795
 10
7.2383246428
 20
14.7831166764
 10
7.1257841685
 20
14.9175539123
 10
7.0100662429
 20
15.0449682932
 10
6.8911301635
 20
15.1652698578
 10
6.7690166329
 20
15.2785485674
 10
6.6452832517
 20
15.3833595128
 10
6.5204492201
 20
15.4792210573
 10
6.393995338
 20
15.5666148375
 10
6.2659216052
 20
15.6455408534
  0
LWPOLYLINE
  5
29B
100
AcDbEntity
  8
ASSI
100
AcDbPolyline
 62
7
  6
CONTINUOUS
 90
13
 70
0
 10
-8.905815197
 20
1.1982118808
 10
-8.8667484495
 20
1.2127099172
 10
-8.747223954
 20
1.2479187033
 10
-8.6228676642
 20
1.2713271228
 10
-8.4936247329
 20
1.2828012265
 10
-8.3595500073
 20
1.2824749635
 10
-8.2221596684
 20
1.2703520234
 10
-8.0814160799
 20
1.246298499
 10
-7.9373568781
 20
1.2104482974
 10
-7.7916111535
 20
1.1632068299
 10
-7.6447219361
 20
1.1047092336
 10
-7.4961461958
 20
1.0348203714
 10
-7.3458839326
 20
0.9535402433
  0
LWPOLYLINE
  5
29C
100
AcDbEntity
  8
RACCORDO
100
AcDbPolyline
 62
253
  6
CONTINUOUS
 90
22
 70
0
 10
10.5085622923
 20
-9.8701811246
 10
10.5633816622
 20
-9.8995499046
 10
10.6218488879
 20
-9.9264712053
 10
10.683636997
 20
-9.950794472
 10
10.7484004452
 20
-9.9723836789
 10
10.8157770492
 20
-9.9911180906
 10
10.8853900115
 20
-10.0068929366
 10
10.9568500284
 20
-10.0196199975
 10
11.0297574663
 20
-10.0292280985
 10
11.1037045974
 20
-10.0356635071
 10
11.1782778792
 20
-10.038890234
 10
11.2530602677
 20
-10.038890234
 10
11.3276335496
 20
-10.0356635071
 10
11.4015806806
 20
-10.0292280985
 10
11.4744881186
 20
-10.0196199975
 10
11.5459481354
 20
-10.0068929366
 10
11.6155610978
 20
-9.9911180906
 10
11.6829377018
 20
-9.9723836789
 10
11.74770115
 20
-9.950794472
 10
11.8094892591
 20
-9.9264712055
 10
11.8679564848
 20
-9.899549905
 10
11.9227758547
 20
-9.8701811253
  0
LINE
  5
29D
100
AcDbEntity
  8
0
100
AcDbLine
 62
7
  6
CONTINUOUS
 10
2.2000576134
 20
-6.2976600682
 11
1.1393974416
 21
-5.6852481782
  0
LINE
  5
29E
100
AcDbEntity
  8
0
100
AcDbLine
 62
7
  6
CONTINUOUS
 10
-2.7496898549
 20
-3.4397379149
 11
-3.8103500267
 21
-2.8273260249
  0
LWPOLYLINE
  5
29F
100
AcDbEntity
  8
ASSI
100
AcDbPolyline
 62
7
  6
CONTINUOUS
 90
38
 70
0
 10
-7.3458839326
 20
0.9535402433
 10
-7.1956216695
 20
0.8613012764
 10
-7.0470459292
 20
0.7596185979
 10
-6.9001567118
 20
0.6484922078
 10
-6.7544109871
 20
0.5274301657
 10
-6.6103517854
 20
0.3969244121
 10
-6.4696081968
 20
0.2584507683
 10
-6.332217858
 20
0.1119187889
 10
-6.1981431324
 20
-0.0425810805
 10
-6.0689002011
 20
-0.2033016816
 10
-5.9445439112
 20
-0.3703136276
 10
-5.8250194157
 20
-0.5435463051
 10
-5.7116783548
 20
-0.7210407163
 10
-5.6045909182
 20
-0.9028452372
 10
-5.5036869162
 20
-1.0889114917
 10
-5.4101074194
 20
-1.2771353537
 10
-5.3239355703
 20
-1.4675413147
 10
-5.2450882265
 20
-1.6601048831
 10
-5.1744570315
 20
-1.852648458
 10
-5.1121352489
 20
-2.0451718124
 10
-5.058029615
 20
-2.2376751734
 10
-5.0127519823
 20
-2.4279816207
 10
-4.9764025597
 20
-2.6160662166
 10
-4.9488811383
 20
-2.801953899
 10
-4.9304989434
 20
-2.9835425609
 10
-4.9213597169
 20
-3.160783403
 10
-4.9213597169
 20
-3.3337252247
 10
-4.9304989434
 20
-3.5004123171
 10
-4.9488811383
 20
-3.6607736811
 10
-4.9764025597
 20
-3.8148803159
 10
-5.0127519823
 20
-3.9609895098
 10
-5.058029615
 20
-4.0990104817
 10
-5.1121352489
 20
-4.2290340129
 10
-5.1744570315
 20
-4.3495897349
 10
-5.2450882265
 20
-4.4605701762
 10
-5.3239355703
 20
-4.5620828084
 10
-5.4101074194
 20
-4.652979678
 10
-5.48815171
 20
-4.7209751613
  0
LWPOLYLINE
  5
2A0
100
AcDbEntity
  8
RACCORDO
100
AcDbPolyline
 62
253
  6
CONTINUOUS
 90
12
 70
0
 10
-12.1188547056
 20
3.1946058619
 10
-12.1697196476
 20
3.226257879
 10
-12.2163457042
 20
3.2600161224
 10
-12.2584721237
 20
3.2956918022
 10
-12.295863318
 20
3.3330854055
 10
-12.3283101803
 20
3.3719878122
 10
-12.3556312548
 20
3.4121814642
 10
-12.3776737507
 20
3.4534415823
 10
-12.3943143977
 20
3.4955374233
 10
-12.4054601344
 20
3.5382335699
 10
-12.4110486292
 20
3.5812912483
 10
-12.4117479245
 20
3.6028804552
  0
LWPOLYLINE
  5
2A1
100
AcDbEntity
  8
ASSI
100
AcDbPolyline
 62
7
  6
CONTINUOUS
 90
21
 70
0
 10
-0.5069308075
 20
-12.216773663
 10
-0.5055466719
 20
-12.2601117098
 10
-0.4944735876
 20
-12.3460674335
 10
-0.4721423353
 20
-12.4312907464
 10
-0.4387379987
 20
-12.5157936894
 10
-0.3948158284
 20
-12.598171645
 10
-0.3402000218
 20
-12.6783890944
 10
-0.2750663815
 20
-12.7564815564
 10
-0.2004975663
 20
-12.8311509691
 10
-0.1163358698
 20
-12.9023401171
 10
-0.0227389985
 20
-12.9701062159
 10
0.0787372698
 20
-13.0333228496
 10
0.1882246371
 20
-13.0919139752
 10
0.3055914015
 20
-13.1459556356
 10
0.4288866792
 20
-13.1945495443
 10
0.5582095636
 20
-13.2376046437
 10
0.6934609614
 20
-13.2752119913
 10
0.8323927083
 20
-13.3067464735
 10
0.9750663204
 20
-13.3321065842
 10
1.1214202817
 20
-13.3513938295
 10
1.1393974416
 20
-13.3529642301
  0
LINE
  5
2A2
100
AcDbEntity
  8
0
100
AcDbLine
 62
7
  6
CONTINUOUS
 10
-2.7496898549
 20
-12.4209109596
 11
-2.7496898549
 21
-7.5220892989
  0
LINE
  5
2A3
100
AcDbEntity
  8
RACCORDO
100
AcDbLine
 62
7
  6
CONTINUOUS
 10
-2.7496898549
 20
-3.4397379149
 11
-2.7496898549
 21
-0.9903270845
  0
LINE
  5
2A4
100
AcDbEntity
  8
RACCORDO
100
AcDbLine
 62
7
  6
CONTINUOUS
 10
-2.1586995973
 20
32.3836747143
 11
-2.1586995973
 21
7.8895664105
  0
LINE
  5
2A5
100
AcDbEntity
  8
RACCORDO
100
AcDbLine
 62
253
  6
CONTINUOUS
 10
-1.8658063784
 20
31.9754001209
 11
-1.8658063784
 21
7.4812918172
  0
LINE
  5
2A6
100
AcDbEntity
  8
SMUSSO
100
AcDbLine
 62
7
  6
CONTINUOUS
 10
-0.357371134
 20
-30.0235561491
 11
-0.357371134
 21
-27.9823804571
  0
LINE
  5
2A7
100
AcDbEntity
  8
0
100
AcDbLine
 62
253
  6
CONTINUOUS
 10
0.0787372698
 20
-11.4002244763
 11
0.0787372698
 21
-13.0333228496
  0
LWPOLYLINE
  5
2A8
100
AcDbEntity
  8
RACCORDO
100
AcDbPolyline
 62
7
  6
CONTINUOUS
 90
19
 70
0
 10
-2.1586995971
 20
32.3836747142
 10
-2.149025591
 20
32.8570990427
 10
-2.1200090501
 20
33.3195314139
 10
-2.0716675082
 20
33.7702104659
 10
-2.0039427664
 20
34.2088821014
 10
-1.9169292273
 20
34.6342553973
 10
-1.8110938513
 20
35.0441863847
 10
-1.6867052651
 20
35.4381329514
 10
-1.5440676561
 20
35.8155021414
 10
-1.3841359013
 20
36.1744191876
 10
-1.207627378
 20
36.514218151
 10
-1.0149869742
 20
36.8348706345
 10
-0.8070937979
 20
37.1356747853
 10
-0.58496848
 20
37.4160042471
 10
-0.3491197844
 20
37.6760064666
 10
-0.0997139933
 20
37.9160407135
 10
0.1627070556
 20
38.1359434882
 10
0.4371356612
 20
38.335225118
 10
0.7227263848
 20
38.5136600717
  0
LWPOLYLINE
  5
2A9
100
AcDbEntity
  8
ASSI
100
AcDbPolyline
 62
7
  6
CONTINUOUS
 90
31
 70
0
 10
-1.1189412219
 20
-26.6078217897
 10
-1.133293695
 20
-26.932106545
 10
-1.1733358082
 20
-27.2391616792
 10
-1.2392876429
 20
-27.5447227496
 10
-1.3309677566
 20
-27.8488002047
 10
-1.4477314323
 20
-28.1492547357
 10
-1.5897555703
 20
-28.4460608055
 10
-1.7568632704
 20
-28.7392439512
 10
-1.9478791149
 20
-29.0267414759
 10
-2.1629717182
 20
-29.3085132937
 10
-2.401972466
 20
-29.5845994904
 10
-2.6632000974
 20
-29.8530576268
 10
-2.9468109693
 20
-30.113833702
 10
-3.2526487249
 20
-30.3669817168
 10
-3.5785630333
 20
-30.6107212342
 10
-3.9246935381
 20
-30.8449853621
 10
-4.2909005957
 20
-31.0698409925
 10
-4.6746149439
 20
-31.2837083644
 10
-5.0759646462
 20
-31.4865122687
 10
-5.4948216391
 20
-31.6783279144
 10
-5.9282324698
 20
-31.857801167
 10
-6.3762976913
 20
-32.0248434892
 10
-6.8389167505
 20
-32.1795434183
 10
-7.3128345355
 20
-32.3208124322
 10
-7.7981307357
 20
-32.4485558053
 10
-8.2947256617
 20
-32.5628682633
 10
-8.799125134
 20
-32.6629454602
 10
-9.3113841981
 20
-32.7486869977
 10
-9.8314478085
 20
-32.8201932742
 10
-10.3556566488
 20
-32.8769611396
 10
-10.8840399562
 20
-32.9188866467
  0
LINE
  5
2AA
100
AcDbEntity
  8
RACCORDO
100
AcDbLine
 62
7
  6
CONTINUOUS
 10
8.0169341299
 20
32.4867240063
 11
8.0100793636
 21
32.463733572
  0
LWPOLYLINE
  5
2AB
100
AcDbEntity
  8
ASSI
100
AcDbPolyline
 62
7
  6
CONTINUOUS
 90
16
 70
0
 10
-5.48815171
 20
-4.7209751613
 10
-5.5036869162
 20
-4.7331402828
 10
-5.6045909182
 20
-4.802685125
 10
-5.7116783548
 20
-4.8608277584
 10
-5.8250194157
 20
-4.9074387534
 10
-5.9445439112
 20
-4.9426475395
 10
-6.0689002011
 20
-4.966055959
 10
-6.1981431324
 20
-4.9775300627
 10
-6.332217858
 20
-4.9772037997
 10
-6.4696081968
 20
-4.9650808596
 10
-6.6103517854
 20
-4.9410273352
 10
-6.7544109871
 20
-4.9051771336
 10
-6.9001567118
 20
-4.8579356661
 10
-7.0470459292
 20
-4.7994380698
 10
-7.1956216695
 20
-4.7295492076
 10
-7.3458839326
 20
-4.6482690795
  0
LWPOLYLINE
  5
2AC
100
AcDbEntity
  8
RACCORDO
100
AcDbPolyline
 62
7
  6
CONTINUOUS
 90
22
 70
0
 10
-2.0425830737
 20
0.2344177856
 10
-2.0959084262
 20
0.2012398291
 10
-2.1483571134
 20
0.1641330763
 10
-2.1999291351
 20
0.1230975273
 10
-2.25090206
 20
0.0778607702
 10
-2.3009983195
 20
0.0286952168
 10
-2.3493852079
 20
-0.0235818974
 10
-2.3960341535
 20
-0.0790225813
 10
-2.440973728
 20
-0.1375748261
 10
-2.4834569406
 20
-0.1982653696
 10
-2.523442734
 20
-0.261129953
 10
-2.5609721655
 20
-0.3261328351
 10
-2.5954214167
 20
-0.3921935307
 10
-2.6267390032
 20
-0.4593297207
 10
-2.6549764094
 20
-0.5275237243
 10
-2.6796642699
 20
-0.5956420128
 10
-2.7007432549
 20
-0.6636833207
 10
-2.7182726943
 20
-0.7316489135
 10
-2.7319612116
 20
-0.7984090595
 10
-2.7417116814
 20
-0.8635871814
 10
-2.7476212292
 20
-0.9275598564
 10
-2.7496898549
 20
-0.9903270845
  0
LINE
  5
2AD
100
AcDbEntity
  8
RACCORDO
100
AcDbLine
 62
7
  6
CONTINUOUS
 10
-2.0425830737
 20
0.2344177856
 11
4.3213779569
 21
3.9088891255
  0
LWPOLYLINE
  5
2AE
100
AcDbEntity
  8
RACCORDO
100
AcDbPolyline
 62
253
  6
CONTINUOUS
 90
22
 70
0
 10
-11.0581945339
 20
3.8068993871
 10
-11.1376078094
 20
3.8493030398
 10
-11.215901527
 20
3.8843732561
 10
-11.2930756866
 20
3.9121100363
 10
-11.3696228862
 20
3.9326215894
 10
-11.4450505278
 20
3.9457997062
 10
-11.5178808175
 20
3.9513197589
 10
-11.587982373
 20
3.9490187461
 10
-11.6554865768
 20
3.9390596691
 10
-11.7193097818
 20
3.9216069044
 10
-11.7794135249
 20
3.8965289302
 10
-11.8358362694
 20
3.8639572683
 10
-11.8876097586
 20
3.8244508595
 10
-11.9346392721
 20
3.7779108562
 10
-11.9770195304
 20
3.7244361061
 10
-12.014066438
 20
3.6648820926
 10
-12.0457047269
 20
3.5990524434
 10
-12.0720096652
 20
3.5271435308
 10
-12.0925229613
 20
3.4505999563
 10
-12.1070918515
 20
3.3699032535
 10
-12.1158690996
 20
3.2845718887
 10
-12.1188547056
 20
3.1946058619
  0
LWPOLYLINE
  5
2AF
100
AcDbEntity
  8
RACCORDO
100
AcDbPolyline
 62
253
  6
CONTINUOUS
 90
13
 70
0
 10
-10.3510877527
 20
5.0316442572
 10
-10.4667052355
 20
5.0940300295
 10
-10.5818276267
 20
5.1474080299
 10
-10.6959619545
 20
5.1915496856
 10
-10.8086194761
 20
5.2262659747
 10
-10.919317777
 20
5.2514082376
 10
-11.0275828365
 20
5.266868812
 10
-11.1329510519
 20
5.2725814916
 10
-11.2349712141
 20
5.2685218111
 10
-11.333206447
 20
5.2547071546
 10
-11.4272360887
 20
5.2311966809
 10
-11.5166574946
 20
5.1980910661
 10
-11.601148153
 20
5.1554972014
  0
LINE
  5
2B0
100
AcDbEntity
  8
RACCORDO
100
AcDbLine
 62
253
  6
CONTINUOUS
 10
9.4479021205
 20
-8.0330638194
 11
1.1393974416
 21
-3.2358373478
  0
LINE
  5
2B1
100
AcDbEntity
  8
RACCORDO
100
AcDbLine
 62
253
  6
CONTINUOUS
 10
-2.7496898549
 20
-0.9903270845
 11
-11.0581945339
 21
3.8068993871
  0
LINE
  5
2B2
100
AcDbEntity
  8
RACCORDO
100
AcDbLine
 62
253
  6
CONTINUOUS
 10
10.1550089017
 20
-6.8083189493
 11
1.8465042228
 21
-2.0110924777
  0
LINE
  5
2B3
100
AcDbEntity
  8
RACCORDO
100
AcDbLine
 62
253
  6
CONTINUOUS
 10
-2.0425830737
 20
0.2344177856
 11
-10.3510877527
 21
5.0316442572
  0
LWPOLYLINE
  5
2B4
100
AcDbEntity
  8
ASSI
100
AcDbPolyline
 62
7
  6
CONTINUOUS
 90
38
 70
0
 10
5.7355915193
 20
-6.5995397333
 10
5.8858537825
 20
-6.6917787002
 10
6.0344295228
 20
-6.7934613787
 10
6.1813187402
 20
-6.9045877688
 10
6.3270644648
 20
-7.0256498109
 10
6.4711236666
 20
-7.1561555645
 10
6.6118672551
 20
-7.2946292082
 10
6.749257594
 20
-7.4411611876
 10
6.8833323196
 20
-7.5956610571
 10
7.0125752508
 20
-7.7563816582
 10
7.1369315407
 20
-7.9233936041
 10
7.2564560362
 20
-8.0966262817
 10
7.3697970972
 20
-8.2741206928
 10
7.4768845337
 20
-8.4559252137
 10
7.5777885358
 20
-8.6419914683
 10
7.6713680326
 20
-8.8302153303
 10
7.7575398816
 20
-9.0206212913
 10
7.8363872254
 20
-9.2131848597
 10
7.9070184205
 20
-9.4057284346
 10
7.9693402031
 20
-9.598251789
 10
8.0234458369
 20
-9.7907551499
 10
8.0687234696
 20
-9.9810615972
 10
8.1050728922
 20
-10.1691461932
 10
8.1325943136
 20
-10.3550338755
 10
8.1509765085
 20
-10.5366225374
 10
8.1601157351
 20
-10.7138633796
 10
8.1601157351
 20
-10.8868052013
 10
8.1509765085
 20
-11.0534922937
 10
8.1325943136
 20
-11.2138536577
 10
8.1050728922
 20
-11.3679602924
 10
8.0687234696
 20
-11.5140694863
 10
8.0234458369
 20
-11.6520904583
 10
7.9693402031
 20
-11.7821139895
 10
7.9070184205
 20
-11.9026697115
 10
7.8363872254
 20
-12.0136501528
 10
7.7575398816
 20
-12.115162785
 10
7.6713680326
 20
-12.2060596546
 10
7.593323742
 20
-12.2740551379
  0
LWPOLYLINE
  5
2B5
100
AcDbEntity
  8
ASSI
100
AcDbPolyline
 62
7
  6
CONTINUOUS
 90
22
 70
0
 10
4.0588821871
 20
-15.1767644262
 10
4.0592079228
 20
-15.1940520932
 10
4.0665327421
 20
-15.2639700768
 10
4.0833849636
 20
-15.3328799641
 10
4.1099491534
 20
-15.4007622264
 10
4.1460407455
 20
-15.4676363926
 10
4.190965055
 20
-15.5322152799
 10
4.2448931904
 20
-15.5944544239
 10
4.3076540432
 20
-15.6543982892
 10
4.3780396031
 20
-15.7108930862
 10
4.4561975769
 20
-15.7638719992
 10
4.5419802577
 20
-15.8134018441
 10
4.6337365151
 20
-15.8585292786
 10
4.7315820698
 20
-15.8991690187
 10
4.8354012011
 20
-15.9354063485
 10
4.9431956158
 20
-15.966543778
 10
5.0550423236
 20
-15.9924825113
 10
5.1708643148
 20
-16.0133213442
 10
5.2884322673
 20
-16.0286591745
 10
5.407780004
 20
-16.038389436
 10
5.528873702
 20
-16.0426186949
 10
5.558814824
 20
-16.0422824975
  0
LINE
  5
2B6
100
AcDbEntity
  8
0
100
AcDbLine
 62
7
  6
CONTINUOUS
 10
1.1393974416
 20
-14.6664212229
 11
1.1393974416
 21
-9.7675995622
  0
LINE
  5
2B7
100
AcDbEntity
  8
RACCORDO
100
AcDbLine
 62
7
  6
CONTINUOUS
 10
1.1393974416
 20
-5.6852481782
 11
1.1393974416
 21
-3.2358373478
  0
LINE
  5
2B8
100
AcDbEntity
  8
SMUSSO
100
AcDbLine
 62
7
  6
CONTINUOUS
 10
1.3650907754
 20
-35.5607904445
 11
1.3650907754
 21
-30.2537336454
  0
LINE
  5
2B9
100
AcDbEntity
  8
0
100
AcDbLine
 62
7
  6
CONTINUOUS
 10
2.2000576134
 20
-10.3800114522
 11
2.2000576134
 21
-6.2976600682
  0
LINE
  5
2BA
100
AcDbEntity
  8
ASSI
100
AcDbLine
 62
7
  6
CONTINUOUS
 10
2.7303876993
 20
-15.5850390579
 11
2.7303876993
 21
-13.5438633659
  0
LINE
  5
2BB
100
AcDbEntity
  8
0
100
AcDbLine
 62
7
  6
CONTINUOUS
 10
3.2607177852
 20
0.0305961284
 11
3.2607177852
 21
-1.1945432911
  0
LWPOLYLINE
  5
2BC
100
AcDbEntity
  8
ASSI
100
AcDbPolyline
 62
7
  6
CONTINUOUS
 90
13
 70
0
 10
2.7303876993
 20
-13.5438633659
 10
2.7339715449
 20
-13.4311148114
 10
2.7442728647
 20
-13.3238935206
 10
2.7612916587
 20
-13.2221994933
 10
2.7851758129
 20
-13.1255925761
 10
2.8157774413
 20
-13.0345129226
 10
2.8526528856
 20
-12.9502809931
 10
2.8958935445
 20
-12.8729965469
 10
2.9454080193
 20
-12.8025598248
 10
3.000478456
 20
-12.7399920086
 10
3.0611857953
 20
-12.6854077346
 10
3.1274490964
 20
-12.6386923666
 10
3.1445783337
 20
-12.628433584
  0
LWPOLYLINE
  5
2BD
100
AcDbEntity
  8
RACCORDO
100
AcDbPolyline
 62
7
  6
CONTINUOUS
 90
22
 70
0
 10
1.1393974416
 20
-3.2358373478
 10
1.1414660673
 20
-3.1730701197
 10
1.1473756151
 20
-3.1090974447
 10
1.1571260849
 20
-3.0439193228
 10
1.1708146022
 20
-2.9771591768
 10
1.1883440416
 20
-2.909193584
 10
1.2094230267
 20
-2.8411522761
 10
1.2341108871
 20
-2.7730339876
 10
1.2623482933
 20
-2.704839984
 10
1.2936658798
 20
-2.637703794
 10
1.328115131
 20
-2.5716430984
 10
1.3656445625
 20
-2.5066402163
 10
1.4056303559
 20
-2.4437756329
 10
1.4481135685
 20
-2.3830850894
 10
1.493053143
 20
-2.3245328446
 10
1.5397020886
 20
-2.2690921607
 10
1.588088977
 20
-2.2168150465
 10
1.6381852365
 20
-2.1676494931
 10
1.6891581614
 20
-2.122412736
 10
1.7407301832
 20
-2.081377187
 10
1.7931788703
 20
-2.0442704342
 10
1.8465042228
 20
-2.0110924777
  0
LINE
  5
2BE
100
AcDbEntity
  8
RACCORDO
100
AcDbLine
 62
7
  6
CONTINUOUS
 10
8.0100793636
 20
32.463733572
 11
7.995227237
 21
32.384293253
  0
LINE
  5
2BF
100
AcDbEntity
  8
0
100
AcDbLine
 62
7
  6
CONTINUOUS
 10
4.3213779569
 20
0.6430080184
 11
-2.7496898549
 21
-3.4397379149
  0
LINE
  5
2C0
100
AcDbEntity
  8
RACCORDO
100
AcDbLine
 62
7
  6
CONTINUOUS
 10
1.8465042228
 20
-2.0110924777
 11
8.2104652535
 21
1.6633788622
  0
LINE
  5
2C1
100
AcDbEntity
  8
ASSI
100
AcDbLine
 62
253
  6
CONTINUOUS
 10
-7.1691072373
 20
-7.8280190593
 11
-5.7559475379
 21
-7.0120783599
  0
LWPOLYLINE
  5
2C2
100
AcDbEntity
  8
ASSI
100
AcDbPolyline
 62
7
  6
CONTINUOUS
 90
35
 70
0
 10
-6.7549166029
 20
-6.9125892774
 10
-6.7011872535
 20
-6.8846788709
 10
-6.6256664358
 20
-6.8551803638
 10
-6.5455503326
 20
-6.8342280356
 10
-6.4620004562
 20
-6.8221256504
 10
-6.3749667823
 20
-6.8190021364
 10
-6.2844993351
 20
-6.8247285654
 10
-6.1919096994
 20
-6.8392219164
 10
-6.0971669585
 20
-6.8626099081
 10
-6.000302029
 20
-6.8947648218
 10
-5.9027192454
 20
-6.93522048
 10
-5.8044081498
 20
-6.98409781
 10
-5.7053792001
 20
-7.0412758844
 10
-5.6070681046
 20
-7.1059257433
 10
-5.509485321
 20
-7.1781562377
 10
-5.4126203914
 20
-7.2578585166
 10
-5.3178776505
 20
-7.3438770672
 10
-5.2252880148
 20
-7.4363039068
 10
-5.1348205676
 20
-7.5350470181
 10
-5.0477868938
 20
-7.6386748371
 10
-4.9642370173
 20
-7.7472585254
 10
-4.8841209141
 20
-7.8607269214
 10
-4.8086000965
 20
-7.9774349757
 10
-4.7377415097
 20
-8.0974298846
 10
-4.6714782086
 20
-8.2206644518
 10
-4.6107708693
 20
-8.3453520395
 10
-4.5557004326
 20
-8.4715138156
 10
-4.5061859578
 20
-8.5991286122
 10
-4.4629452989
 20
-8.7263462873
 10
-4.4260698546
 20
-8.8531610556
 10
-4.3954682262
 20
-8.9795787026
 10
-4.371584072
 20
-9.1037664423
 10
-4.354565278
 20
-9.2251133463
 10
-4.3442639582
 20
-9.3442303431
 10
-4.3406801126
 20
-9.4611174327
  0
LINE
  5
2C3
100
AcDbEntity
  8
0
100
AcDbLine
 62
7
  6
CONTINUOUS
 10
4.3213779569
 20
3.9088891255
 11
4.3213779569
 21
0.6430080184
  0
LINE
  5
2C4
100
AcDbEntity
  8
RACCORDO
100
AcDbLine
 62
253
  6
CONTINUOUS
 10
4.3920886351
 20
22.8786350719
 11
4.3920886351
 21
34.0090147054
  0
LINE
  5
2C5
100
AcDbEntity
  8
ASSI
100
AcDbLine
 62
253
  6
CONTINUOUS
 10
4.4981546522
 20
-14.5643525746
 11
4.4981546522
 21
-15.7880974887
  0
LINE
  5
2C6
100
AcDbEntity
  8
RACCORDO
100
AcDbLine
 62
7
  6
CONTINUOUS
 10
4.922418721
 20
37.3163352069
 11
4.922418721
 21
35.0122716173
  0
LINE
  5
2C7
100
AcDbEntity
  8
ASSI
100
AcDbLine
 62
7
  6
CONTINUOUS
 10
5.558814824
 20
-17.2181374312
 11
5.558814824
 21
-15.1769617392
  0
LINE
  5
2C8
100
AcDbEntity
  8
RACCORDO
100
AcDbLine
 62
253
  6
CONTINUOUS
 10
5.8063021974
 20
22.7308661996
 11
5.8063021974
 21
34.1567835777
  0
LINE
  5
2C9
100
AcDbEntity
  8
RACCORDO
100
AcDbLine
 62
7
  6
CONTINUOUS
 10
5.8416575365
 20
35.7693395397
 11
5.8416575365
 21
35.5430285886
  0
LINE
  5
2CA
100
AcDbEntity
  8
RACCORDO
100
AcDbLine
 62
7
  6
CONTINUOUS
 10
5.9477235537
 20
22.9131745382
 11
5.9477235537
 21
22.8125211183
  0
LINE
  5
2CB
100
AcDbEntity
  8
RACCORDO
100
AcDbLine
 62
7
  6
CONTINUOUS
 10
5.9477235537
 20
34.1377850765
 11
5.9477235537
 21
34.2384384964
  0
LINE
  5
2CC
100
AcDbEntity
  8
0
100
AcDbLine
 62
7
  6
CONTINUOUS
 10
6.3366322833
 20
36.2207457028
 11
6.3366322833
 21
36.0551317551
  0
LINE
  5
2CD
100
AcDbEntity
  8
RACCORDO
100
AcDbLine
 62
7
  6
CONTINUOUS
 10
6.5134089786
 20
23.2397942129
 11
6.5134089786
 21
25.2906134583
  0
LINE
  5
2CE
100
AcDbEntity
  8
RACCORDO
100
AcDbLine
 62
7
  6
CONTINUOUS
 10
6.5134089786
 20
32.4135855057
 11
6.5134089786
 21
34.4644047511
  0
LINE
  5
2CF
100
AcDbEntity
  8
RACCORDO
100
AcDbLine
 62
7
  6
CONTINUOUS
 10
6.9030581955
 20
23.8429517848
 11
6.9030581955
 21
21.4523747635
  0
LWPOLYLINE
  5
2D0
100
AcDbEntity
  8
RACCORDO
100
AcDbPolyline
 62
7
  6
CONTINUOUS
 90
10
 70
0
 10
5.9477235537
 20
22.8125211183
 10
5.9473276597
 20
22.7935610029
 10
5.9461659814
 20
22.7751724253
 10
5.9442385188
 20
22.7573553856
 10
5.9415381219
 20
22.7400756766
 10
5.9380719407
 20
22.7233675054
 10
5.9338614252
 20
22.7073334932
 10
5.9289137253
 20
22.6920078472
 10
5.9232216911
 20
22.6773563602
 10
5.9167853226
 20
22.6633790322
  0
LWPOLYLINE
  5
2D1
100
AcDbEntity
  8
RACCORDO
100
AcDbPolyline
 62
7
  6
CONTINUOUS
 90
22
 70
0
 10
7.6094244895
 20
35.7648917522
 10
7.6112951209
 20
35.8275620978
 10
7.6171266364
 20
35.8919158131
 10
7.6269190362
 20
35.9579528982
 10
7.6408013906
 20
36.0262795714
 10
7.6586446292
 20
36.0962896143
 10
7.6800615403
 20
36.1661643717
 10
7.7051771058
 20
36.2357858556
 10
7.7338663438
 20
36.3052720541
 10
7.7653670969
 20
36.3731582757
 10
7.7994593329
 20
36.4390083166
 10
7.8363630841
 20
36.5032583806
 10
7.8759762897
 20
36.5657523886
 10
7.9185757953
 20
36.6269075679
 10
7.9638847554
 20
36.6863066912
 10
8.0109705722
 20
36.7425419971
 10
8.0599817502
 20
36.7955372611
 10
8.1107697849
 20
36.8453687077
 10
8.1619565654
 20
36.890857249
 10
8.2130827213
 20
36.9316098555
 10
8.2646076228
 20
36.9680195567
 10
8.3165312701
 20
37.0000863525
  0
LWPOLYLINE
  5
2D2
100
AcDbEntity
  8
RACCORDO
100
AcDbPolyline
 62
7
  6
CONTINUOUS
 90
11
 70
0
 10
5.8416575365
 20
35.5430285886
 10
5.839094913
 20
35.4761880661
 10
5.8318521591
 20
35.413421276
 10
5.8199292747
 20
35.3547282182
 10
5.8031809272
 20
35.2997637405
 10
5.7817524493
 20
35.2488729952
 10
5.7560798389
 20
35.2030914391
 10
5.7260761526
 20
35.162523737
 10
5.6918283338
 20
35.1270652242
 10
5.6540332115
 20
35.0974373631
 10
5.634562004
 20
35.0853141206
  0
LWPOLYLINE
  5
2D3
100
AcDbEntity
  8
RACCORDO
100
AcDbPolyline
 62
7
  6
CONTINUOUS
 90
10
 70
0
 10
6.5134089786
 20
23.2397942129
 10
6.5091856589
 20
23.1446518401
 10
6.4974505287
 20
23.0563707891
 10
6.4782035878
 20
22.9749510598
 10
6.4511415011
 20
22.8997934525
 10
6.4165676038
 20
22.8314971669
 10
6.3753919017
 20
22.7718598021
 10
6.3274390932
 20
22.7211112836
 10
6.2728844798
 20
22.679021686
 10
6.2545093187
 20
22.6677032969
  0
LWPOLYLINE
  5
2D4
100
AcDbEntity
  8
0
100
AcDbPolyline
 62
7
  6
CONTINUOUS
 90
4
 70
0
 10
6.0316070302
 20
15.1150008842
 10
6.0430390689
 20
15.3447081235
 10
6.0762976143
 20
15.5592619724
 10
6.1203126469
 20
15.72264161
  0
LWPOLYLINE
  5
2D5
100
AcDbEntity
  8
RACCORDO
100
AcDbPolyline
 62
253
  6
CONTINUOUS
 90
5
 70
0
 10
6.2038958852
 20
14.8286384008
 10
6.2124533655
 20
14.99350669
 10
6.2380203602
 20
15.1463108707
 10
6.2802664875
 20
15.2849755039
 10
6.3386417679
 20
15.4076243096
  0
LWPOLYLINE
  5
2D6
100
AcDbEntity
  8
RACCORDO
100
AcDbPolyline
 62
253
  6
CONTINUOUS
 90
8
 70
0
 10
5.8063021974
 20
22.7308661996
 10
5.8035233026
 20
22.6813874072
 10
5.7952303019
 20
22.6358954097
 10
5.7815535595
 20
22.5951053324
 10
5.7627080713
 20
22.5596583872
 10
5.7389900845
 20
22.5301117931
 10
5.7107724412
 20
22.5069300169
 10
5.7027608869
 20
22.501997769
  0
LWPOLYLINE
  5
2D7
100
AcDbEntity
  8
RACCORDO
100
AcDbPolyline
 62
253
  6
CONTINUOUS
 90
4
 70
0
 10
6.9497687414
 20
14.8034776563
 10
6.9572393223
 20
14.9307719337
 10
6.9795232581
 20
15.0472614006
 10
6.986979804
 20
15.0683197836
  0
LWPOLYLINE
  5
2D8
100
AcDbEntity
  8
0
100
AcDbPolyline
 62
7
  6
CONTINUOUS
 90
3
 70
0
 10
6.0973691035
 20
15.7332796835
 10
6.0904061761
 20
15.6215732225
 10
6.0904061761
 20
15.6116316192
  0
LWPOLYLINE
  5
2D9
100
AcDbEntity
  8
RACCORDO
100
AcDbPolyline
 62
7
  6
CONTINUOUS
 90
3
 70
0
 10
7.995227237
 20
32.384293253
 10
7.9886601297
 20
32.3027851372
 10
7.9883290389
 20
32.2800135073
  0
LWPOLYLINE
  5
2DA
100
AcDbEntity
  8
SMUSSO
100
AcDbPolyline
 62
7
  6
CONTINUOUS
 90
68
 70
0
 10
1.3650907754
 20
-30.2537336454
 10
1.3197748656
 20
-30.6160892874
 10
1.2452643848
 20
-30.9768343682
 10
1.14172109
 20
-31.3351851716
 10
1.0093698071
 20
-31.6903638052
 10
0.848497954
 20
-32.0415980213
 10
0.6594549244
 20
-32.3881228944
 10
0.442651305
 20
-32.7291849796
 10
0.198557994
 20
-33.0640439254
 10
-0.0722947979
 20
-33.3919722163
 10
-0.3693187398
 20
-33.7122574101
 10
-0.6918686411
 20
-34.0242036658
 10
-1.039243823
 20
-34.327133238
 10
-1.4106896941
 20
-34.6203879843
 10
-1.8053993655
 20
-34.9033307779
 10
-2.2225153682
 20
-35.1753468784
 10
-2.6611315811
 20
-35.4358452957
 10
-3.1202951695
 20
-35.6842600594
 10
-3.5990086142
 20
-35.9200514393
 10
-4.096231955
 20
-36.1427071387
 10
-4.6108850138
 20
-36.3517433968
 10
-5.1418496971
 20
-36.5467060339
 10
-5.6879725097
 20
-36.7271714519
 10
-6.2480670207
 20
-36.892747547
 10
-6.8209163923
 20
-37.0430745604
 10
-7.405276117
 20
-37.1778258655
 10
-7.9998766761
 20
-37.2967086736
 10
-8.6034262475
 20
-37.3994646731
 10
-9.2146136109
 20
-37.4858705885
 10
-9.8321109485
 20
-37.5557386648
 10
-10.4545766778
 20
-37.6089170831
 10
-11.0806584692
 20
-37.6452902801
 10
-11.7089961331
 20
-37.6647792022
 10
-12.3382245233
 20
-37.6673414891
 10
-12.9669766069
 20
-37.6529715475
 10
-13.593886383
 20
-37.6217005701
 10
-14.2175917981
 20
-37.5735964834
 10
-14.8367378105
 20
-37.5087637747
 10
-15.4499792812
 20
-37.4273432746
 10
-16.0559838469
 20
-37.3295118712
 10
-16.6534349166
 20
-37.2154820926
 10
-17.2410344805
 20
-37.0855016586
 10
-17.8175058824
 20
-36.9398529653
 10
-18.3815968332
 20
-36.7788523896
 10
-18.9320816498
 20
-36.6028497389
 10
-19.4677639107
 20
-36.4122275544
 10
-19.9874791342
 20
-36.2074002931
 10
-20.4900989885
 20
-35.9888127256
 10
-20.9745330997
 20
-35.7569389918
 10
-21.4397296419
 20
-35.5122823131
 10
-21.884676922
 20
-35.255374516
 10
-22.3084072948
 20
-34.98677419
 10
-22.7100003409
 20
-34.7070647047
 10
-23.0885832535
 20
-34.4168538857
 10
-23.4433322161
 20
-34.1167733409
 10
-23.773476048
 20
-33.807475764
 10
-24.0782984717
 20
-33.4896325857
 10
-24.3571381631
 20
-33.1639335476
 10
-24.6093895627
 20
-32.8310859541
 10
-24.8345043966
 20
-32.4918132336
 10
-25.0319935966
 20
-32.1468525109
 10
-25.2014281348
 20
-31.7969532412
 10
-25.3424399343
 20
-31.4428756063
 10
-25.4547226616
 20
-31.0853888924
 10
-25.5380324134
 20
-30.7252697652
 10
-25.5921882324
 20
-30.3633006063
 10
-25.6170724992
 20
-30.0002678416
 10
-25.6188547056
 20
-29.8736154713
  0
LWPOLYLINE
  5
2DB
100
AcDbEntity
  8
0
100
AcDbPolyline
 62
7
  6
CONTINUOUS
 90
62
 70
0
 10
1.3650907754
 20
-35.5607904445
 10
1.313109701
 20
-35.9609969943
 10
1.2264357281
 20
-36.3570903493
 10
1.1050688567
 20
-36.7490705094
 10
0.9485089384
 20
-37.1379443296
 10
0.7572561215
 20
-37.5227049549
 10
0.5328108513
 20
-37.9003318204
 10
0.2749118114
 20
-38.2707688251
 10
-0.0161796817
 20
-38.63407207
 10
-0.3381792333
 20
-38.9873892933
 10
-0.6913297573
 20
-39.3306416868
 10
-1.0753883398
 20
-39.6639080588
 10
-1.4873418437
 20
-39.9845725717
 10
-1.9274050769
 20
-40.2925343978
 10
-2.3953632316
 20
-40.5878943649
 10
-2.8875587477
 20
-40.8683391189
 10
-3.4041924199
 20
-41.1337564094
 10
-3.9450634535
 20
-41.3842584868
 10
-4.5059119037
 20
-41.6178687476
 10
-5.0868906465
 20
-41.8344509702
 10
-5.6878468061
 20
-42.0341413762
 10
-6.30406181
 20
-42.2153720263
 10
-6.9356557837
 20
-42.3779975985
 10
-7.5825086018
 20
-42.5221634148
 10
-8.239541316
 20
-42.6467375014
 10
-8.9068340685
 20
-42.7515656249
 10
-9.5843067172
 20
-42.8368020187
 10
-10.2666398873
 20
-42.9017774093
 10
-10.953871845
 20
-42.9463322942
 10
-11.6459643242
 20
-42.9706261759
 10
-12.3374831519
 20
-42.974468288
 10
-13.0284238144
 20
-42.9576976262
 10
-13.7187908253
 20
-42.9204751948
 10
-14.4031635526
 20
-42.8630932409
 10
-15.0814948094
 20
-42.7853930606
 10
-15.7538317827
 20
-42.6875333579
 10
-16.4148954015
 20
-42.5702824922
 10
-17.0645969196
 20
-42.4334878078
 10
-17.7030250833
 20
-42.2773019604
 10
-18.3251670591
 20
-42.102951276
 10
-18.9308946382
 20
-41.9102927528
 10
-19.5203360295
 20
-41.6994693926
 10
-20.0888630274
 20
-41.4721365266
 10
-20.6363109873
 20
-41.2281641841
 10
-21.1628445537
 20
-40.9676823359
 10
-21.6643294541
 20
-40.692736225
 10
-22.1405684971
 20
-40.4032119814
 10
-22.5917588742
 20
-40.0992234752
 10
-23.0143578871
 20
-39.783157559
 10
-23.4081404546
 20
-39.4549191531
 10
-23.7733316579
 20
-39.1146033374
 10
-24.1070640433
 20
-38.7648822044
 10
-24.4090899551
 20
-38.4056817099
 10
-24.6796570489
 20
-38.0370758982
 10
-24.9166408382
 20
-37.6619589949
 10
-25.1197769417
 20
-37.2802797401
 10
-25.2893297407
 20
-36.8920893938
 10
-25.423967892
 20
-36.5004359616
 10
-25.5234165329
 20
-36.1052921787
 10
-25.5879505262
 20
-35.7066853099
 10
-25.6170631171
 20
-35.307745156
 10
-25.6188292379
 20
-35.1807597082
  0
LINE
  5
2DC
100
AcDbEntity
  8
0
100
AcDbLine
 62
7
  6
CONTINUOUS
 10
-5.0799947944
 20
-21.197214717
 11
-4.9393298171
 21
-20.8840357341
  0
LINE
  5
2DD
100
AcDbEntity
  8
0
100
AcDbLine
 62
7
  6
CONTINUOUS
 10
-3.665781232
 20
-22.0137639036
 11
-3.5251162548
 21
-21.7005849207
  0
LINE
  5
2DE
100
AcDbEntity
  8
0
100
AcDbLine
 62
7
  6
CONTINUOUS
 10
1.1393974416
 20
-4.0517552556
 11
-3.8103500267
 21
-6.9096774089
  0
LINE
  5
2DF
100
AcDbEntity
  8
ASSI
100
AcDbLine
 62
7
  6
CONTINUOUS
 10
-7.1691072373
 20
-9.8691947513
 11
-4.5944924847
 21
-8.3826444606
  0
LINE
  5
2E0
100
AcDbEntity
  8
0
100
AcDbLine
 62
7
  6
CONTINUOUS
 10
1.1393974416
 20
-5.2765790356
 11
-2.7496898549
 21
-7.5220892989
  0
LINE
  5
2E1
100
AcDbEntity
  8
RACCORDO
100
AcDbLine
 62
7
  6
CONTINUOUS
 10
14.3976495889
 20
-1.9090238294
 11
8.2104652535
 21
1.6633788622
  0
LINE
  5
2E2
100
AcDbEntity
  8
RACCORDO
100
AcDbLine
 62
7
  6
CONTINUOUS
 10
4.3213779569
 20
3.9088891255
 11
-1.8658063784
 21
7.4812918172
  0
LWPOLYLINE
  5
2E3
100
AcDbEntity
  8
RACCORDO
100
AcDbPolyline
 62
7
  6
CONTINUOUS
 90
12
 70
0
 10
-1.8658063784
 20
7.4812918172
 10
-1.9170631052
 20
7.5132756059
 10
-1.9636022446
 20
7.5469709194
 10
-2.0054237965
 20
7.5823777574
 10
-2.0427082041
 20
7.6197124638
 10
-2.0752750242
 20
7.6587586948
 10
-2.1025829276
 20
7.6988674195
 10
-2.1245440127
 20
7.7400563972
 10
-2.141246181
 20
7.7823078688
 10
-2.1524118071
 20
7.8249195252
 10
-2.1579483493
 20
7.8678973871
 10
-2.1586404171
 20
7.8895664105
  0
LWPOLYLINE
  5
2E4
100
AcDbEntity
  8
RACCORDO
100
AcDbPolyline
 62
253
  6
CONTINUOUS
 90
10
 70
0
 10
7.9882827128
 20
32.2796988515
 10
7.9917518349
 20
32.2229575309
 10
8.0028076208
 20
32.1629969301
 10
8.0214038921
 20
32.1029489625
 10
8.0474288112
 20
32.0431682021
 10
8.0807123343
 20
31.9840557978
 10
8.1210346889
 20
31.9261654725
 10
8.1681188963
 20
31.8699159643
 10
8.221628362
 20
31.8155871778
 10
8.2811759316
 20
31.7635044425
  0
LWPOLYLINE
  5
2E5
100
AcDbEntity
  8
RACCORDO
100
AcDbPolyline
 62
7
  6
CONTINUOUS
 90
14
 70
0
 10
7.9883037467
 20
20.9344887671
 10
7.9924581372
 20
20.8647477392
 10
8.0052260878
 20
20.7957424341
 10
8.02590114
 20
20.7302671282
 10
8.0546380447
 20
20.6672620859
 10
8.0913384594
 20
20.6074737497
 10
8.135446372
 20
20.5521465953
 10
8.1873180193
 20
20.501310968
 10
8.2473157083
 20
20.4555078588
 10
8.3143866733
 20
20.4162711201
 10
8.3871164782
 20
20.3846108336
 10
8.4649778279
 20
20.3606607793
 10
8.5481107266
 20
20.3443393563
 10
8.5791554151
 20
20.3403608369
  0
LWPOLYLINE
  5
2E6
100
AcDbEntity
  8
RACCORDO
100
AcDbPolyline
 62
253
  6
CONTINUOUS
 90
16
 70
0
 10
5.8063021974
 20
34.1567835777
 10
5.8035233026
 20
34.2094713682
 10
5.7952303019
 20
34.2645399151
 10
5.7815535595
 20
34.3211235517
 10
5.7627080713
 20
34.3783327943
 10
5.7389900845
 20
34.435268325
 10
5.7107724412
 20
34.4910351284
 10
5.6784987173
 20
34.5447565614
 10
5.6426762492
 20
34.5955881336
 10
5.6038681592
 20
34.6427307828
 10
5.5626845038
 20
34.6854434347
 10
5.519772681
 20
34.7230546562
 10
5.4758072529
 20
34.7549732085
 10
5.431479346
 20
34.7806973374
 10
5.3874857877
 20
34.7998226622
 10
5.3445181484
 20
34.812048535
  0
LWPOLYLINE
  5
2E7
100
AcDbEntity
  8
RACCORDO
100
AcDbPolyline
 62
7
  6
CONTINUOUS
 90
16
 70
0
 10
7.6094244895
 20
33.4608281626
 10
7.6119871129
 20
33.3910283868
 10
7.6192298669
 20
33.319897846
 10
7.6311527512
 20
33.2474365402
 10
7.6479010987
 20
33.1731314906
 10
7.6693295767
 20
33.0974956761
 10
7.695002187
 20
33.0220680331
 10
7.7250058734
 20
32.9468528261
 10
7.7592536922
 20
32.8718457906
 10
7.7970488145
 20
32.7985730696
 10
7.838463909
 20
32.7270701914
 10
7.8834263071
 20
32.6573016278
 10
7.931021174
 20
32.5906869361
 10
7.9809435646
 20
32.5276993022
 10
8.0334984241
 20
32.4678655402
 10
8.0886857523
 20
32.4111856502
  0
LWPOLYLINE
  5
2E8
100
AcDbEntity
  8
RACCORDO
100
AcDbPolyline
 62
253
  6
CONTINUOUS
 90
22
 70
0
 10
10.5085622923
 20
-9.8701811246
 10
10.5055756405
 20
-9.7767610714
 10
10.4967976751
 20
-9.6812898988
 10
10.482228396
 20
-9.5837676069
 10
10.4617151955
 20
-9.483537297
 10
10.4354106814
 20
-9.3812558678
 10
10.403772677
 20
-9.278894015
 10
10.3667257119
 20
-9.1765598655
 10
10.3243452565
 20
-9.0741452924
 10
10.2773155451
 20
-8.9732966115
 10
10.2255419068
 20
-8.8740035729
 10
10.1691190126
 20
-8.7762764265
 10
10.1090151102
 20
-8.6817922366
 10
10.0451919571
 20
-8.5906382928
 10
9.977687796
 20
-8.5027273057
 10
9.9075856018
 20
-8.4194744713
 10
9.8347529432
 20
-8.3408902347
 10
9.7593222516
 20
-8.2669641509
 10
9.6827737965
 20
-8.1990800813
 10
9.6056010013
 20
-8.1376993131
 10
9.5273104426
 20
-8.0823605592
 10
9.4479021205
 20
-8.0330638194
  0
LINE
  5
2E9
100
AcDbEntity
  8
RACCORDO
100
AcDbLine
 62
7
  6
CONTINUOUS
 10
7.6094244895
 20
35.7648917522
 11
7.6094244895
 21
33.4608281626
  0
LINE
  5
2EA
100
AcDbEntity
  8
RACCORDO
100
AcDbLine
 62
7
  6
CONTINUOUS
 10
7.9882827128
 20
32.2796975328
 11
7.9882827128
 21
20.9334733605
  0
LINE
  5
2EB
100
AcDbEntity
  8
RACCORDO
100
AcDbLine
 62
253
  6
CONTINUOUS
 10
8.2811759316
 20
31.7635044421
 11
8.2811759316
 21
20.6331248086
  0
LINE
  5
2EC
100
AcDbEntity
  8
0
100
AcDbLine
 62
7
  6
CONTINUOUS
 10
10.4378516142
 20
41.3277970421
 11
10.4378516142
 21
38.5887383441
  0
LWPOLYLINE
  5
2ED
100
AcDbEntity
  8
RACCORDO
100
AcDbPolyline
 62
253
  6
CONTINUOUS
 90
22
 70
0
 10
9.4479021205
 20
-8.0330638194
 10
9.4498793345
 20
-7.9709073007
 10
9.4557999191
 20
-7.9068151492
 10
9.4656307639
 20
-7.8411457944
 10
9.4793168908
 20
-7.7742664859
 10
9.4967817616
 20
-7.70655124
 10
9.5179277056
 20
-7.6383787477
 10
9.542636466
 20
-7.5701302572
 10
9.5707698615
 20
-7.5021874419
 10
9.6021705587
 20
-7.4349302656
 10
9.6366629522
 20
-7.3687348575
 10
9.6740541465
 20
-7.3039714093
 10
9.7141350348
 20
-7.2410021045
 10
9.7566814687
 20
-7.180179093
 10
9.8014555111
 20
-7.1218425216
 10
9.8482067676
 20
-7.0663186323
 10
9.896673786
 20
-7.013917937
 10
9.9465855191
 20
-6.9649334818
 10
9.9976628404
 20
-6.9196392076
 10
10.0496201046
 20
-6.8782884183
 10
10.1021667458
 20
-6.8411123644
 10
10.1550089017
 20
-6.8083189493
  0
LINE
  5
2EE
100
AcDbEntity
  8
0
100
AcDbLine
 62
7
  6
CONTINUOUS
 10
-17.0784986015
 20
-28.4275032355
 11
-18.0224841188
 21
-29.2667995611
  0
LINE
  5
2EF
100
AcDbEntity
  8
0
100
AcDbLine
 62
7
  6
CONTINUOUS
 10
-16.491429204
 20
-28.6476306625
 11
-18.5004717285
 21
-30.4338678218
  0
LWPOLYLINE
  5
2F0
100
AcDbEntity
  8
RACCORDO
100
AcDbPolyline
 62
253
  6
CONTINUOUS
 90
6
 70
0
 10
22.383879649
 20
3.0341971193
 10
22.4053582697
 20
3.049030254
 10
22.4224280716
 20
3.0659412232
 10
22.4344177373
 20
3.0845048986
 10
22.4407886465
 20
3.1042934767
 10
22.4417197537
 20
3.1154144308
  0
LWPOLYLINE
  5
2F1
100
AcDbEntity
  8
RACCORDO
100
AcDbPolyline
 62
253
  6
CONTINUOUS
 90
6
 70
0
 10
22.342511024
 20
2.9426775518
 10
22.3506205517
 20
2.948237058
 10
22.3648338345
 20
2.9634323466
 10
22.3753063583
 20
2.9832458058
 10
22.3817199208
 20
3.0070754135
 10
22.383879649
 20
3.0341971193
  0
LWPOLYLINE
  5
2F2
100
AcDbEntity
  8
ASSI
100
AcDbPolyline
 62
7
  6
CONTINUOUS
 90
12
 70
0
 10
0.0787372698
 20
-11.4002244763
 10
-0.0237761838
 20
-11.4641920539
 10
-0.1168544624
 20
-11.5315826807
 10
-0.2004975663
 20
-11.6023963569
 10
-0.2750663815
 20
-11.6770657695
 10
-0.3402000218
 20
-11.7551582315
 10
-0.3948158284
 20
-11.835375681
 10
-0.4387379987
 20
-11.9177536365
 10
-0.4721423353
 20
-12.0022565795
 10
-0.4944735876
 20
-12.0874798924
 10
-0.5055466719
 20
-12.1734356161
 10
-0.5069308075
 20
-12.216773663
  0
LINE
  5
2F3
100
AcDbEntity
  8
RACCORDO
100
AcDbLine
 62
253
  6
CONTINUOUS
 10
21.9618370421
 20
2.7879497191
 11
22.383879649
 21
3.0341971193
  0
LINE
  5
2F4
100
AcDbEntity
  8
RACCORDO
100
AcDbLine
 62
7
  6
CONTINUOUS
 10
22.019676494
 20
2.7543146652
 11
22.342511024
 21
2.9426775518
  0
LINE
  5
2F5
100
AcDbEntity
  8
0
100
AcDbLine
 62
7
  6
CONTINUOUS
 10
2.2000576134
 20
-9.1551876722
 11
1.1393974416
 21
-9.7675995622
  0
LINE
  5
2F6
100
AcDbEntity
  8
0
100
AcDbLine
 62
7
  6
CONTINUOUS
 10
-2.7496898549
 20
-12.4209109596
 11
1.1393974416
 21
-10.1754006963
  0
LINE
  5
2F7
100
AcDbEntity
  8
RACCORDO
100
AcDbLine
 62
7
  6
CONTINUOUS
 10
21.9618370421
 20
1.6418943076
 11
15.8118631512
 21
-1.9090238294
  0
LINE
  5
2F8
100
AcDbEntity
  8
0
100
AcDbLine
 62
7
  6
CONTINUOUS
 10
-11.7653013151
 20
-18.2381926356
 11
-14.4995067577
 21
-19.8168885906
  0
LINE
  5
2F9
100
AcDbEntity
  8
ASSI
100
AcDbLine
 62
7
  6
CONTINUOUS
 10
1.1393974416
 20
-10.7878125863
 11
0.0787372698
 21
-11.4002244763
  0
LWPOLYLINE
  5
2FA
100
AcDbEntity
  8
RACCORDO
100
AcDbPolyline
 62
7
  6
CONTINUOUS
 90
22
 70
0
 10
15.8118631512
 20
-1.9090238294
 10
15.756469173
 20
-1.938618821
 10
15.6981109381
 20
-1.9654899368
 10
15.6367884466
 20
-1.9896371767
 10
15.5721270043
 20
-2.0111647264
 10
15.5045013055
 20
-2.0299684002
 10
15.435035432
 20
-2.0457356413
 10
15.3636986259
 20
-2.0584156967
 10
15.2905216453
 20
-2.0680593193
 10
15.2167208461
 20
-2.0745062119
 10
15.1422858016
 20
-2.077702942
 10
15.0672269385
 20
-2.077702942
 10
14.9927918939
 20
-2.0745062119
 10
14.9189910948
 20
-2.0680593193
 10
14.8458141141
 20
-2.0584156967
 10
14.7744773081
 20
-2.0457356413
 10
14.7050114346
 20
-2.0299684002
 10
14.6373857357
 20
-2.0111647264
 10
14.5727242935
 20
-1.9896371767
 10
14.511401802
 20
-1.9654899368
 10
14.4530435671
 20
-1.938618821
 10
14.3976495889
 20
-1.9090238294
  0
LWPOLYLINE
  5
2FB
100
AcDbEntity
  8
RACCORDO
100
AcDbPolyline
 62
253
  6
CONTINUOUS
 90
6
 70
0
 10
23.7981174435
 20
1.0690134893
 10
23.8225825027
 20
1.0805270311
 10
23.8462867769
 20
1.0867515309
 10
23.8685148045
 20
1.0874991243
 10
23.8885956847
 20
1.0827472552
 10
23.896842336
 20
1.0788045573
  0
LWPOLYLINE
  5
2FC
100
AcDbEntity
  8
ASSI
100
AcDbPolyline
 62
7
  6
CONTINUOUS
 90
13
 70
0
 10
4.1756602549
 20
-6.3548680957
 10
4.2147270024
 20
-6.3403700594
 10
4.3342514979
 20
-6.3051612732
 10
4.4586077878
 20
-6.2817528538
 10
4.587850719
 20
-6.2702787501
 10
4.7219254447
 20
-6.2706050131
 10
4.8593157835
 20
-6.2827279532
 10
5.000059372
 20
-6.3067814776
 10
5.1441185738
 20
-6.3426316792
 10
5.2898642985
 20
-6.3898731467
 10
5.4367535159
 20
-6.448370743
 10
5.5853292562
 20
-6.5182596052
 10
5.7355915193
 20
-6.5995397333
  0
LWPOLYLINE
  5
2FD
100
AcDbEntity
  8
RACCORDO
100
AcDbPolyline
 62
253
  6
CONTINUOUS
 90
3
 70
0
 10
7.9927994462
 20
20.8885966145
 10
7.9884171206
 20
20.9256585309
 10
7.9882827128
 20
20.9335078775
  0
LINE
  5
2FE
100
AcDbEntity
  8
RACCORDO
100
AcDbLine
 62
253
  6
CONTINUOUS
 10
11.5313395935
 20
24.5048509598
 11
11.5121989783
 21
24.880174386
  0
LWPOLYLINE
  5
2FF
100
AcDbEntity
  8
RACCORDO
100
AcDbPolyline
 62
253
  6
CONTINUOUS
 90
25
 70
0
 10
11.9227758547
 20
-9.8701811246
 10
11.9189909305
 20
-9.734496488
 10
11.9076523653
 20
-9.5950221381
 10
11.8888087128
 20
-9.4523553253
 10
11.8625406648
 20
-9.3071069736
 10
11.8289607049
 20
-9.1598990559
 10
11.788212625
 20
-9.0113619301
 10
11.7404709105
 20
-8.8621316471
 10
11.6859399997
 20
-8.7128472416
 10
11.6248534072
 20
-8.5641479866
 10
11.557472719
 20
-8.4166706418
 10
11.4840864678
 20
-8.271046721
 10
11.4050089025
 20
-8.127899803
 10
11.3205786454
 20
-7.9878428651
 10
11.2311572398
 20
-7.8514756524
 10
11.1371275983
 20
-7.7193821055
 10
11.0388923656
 20
-7.5921278645
 10
10.9368722037
 20
-7.4702578579
 10
10.8315039883
 20
-7.3542939632
 10
10.7232389284
 20
-7.2447327601
 10
10.6125406269
 20
-7.1420433992
 10
10.4998831047
 20
-7.0466656056
 10
10.3857487765
 20
-6.9590078
 10
10.2706263849
 20
-6.8794453484
 10
10.1550089017
 20
-6.8083189493
  0
LINE
  5
300
100
AcDbEntity
  8
RACCORDO
100
AcDbLine
 62
253
  6
CONTINUOUS
 10
10.5085622923
 20
-20.0760595845
 11
10.5085622923
 21
-9.8701811246
  0
LINE
  5
301
100
AcDbEntity
  8
RACCORDO
100
AcDbLine
 62
253
  6
CONTINUOUS
 10
11.9227758547
 20
-20.0760595845
 11
11.9227758547
 21
-9.8701811246
  0
LINE
  5
302
100
AcDbEntity
  8
0
100
AcDbLine
 62
7
  6
CONTINUOUS
 10
6.3081998735
 20
-17.6508229668
 11
2.3768343087
 21
-26.4036845022
  0
LWPOLYLINE
  5
303
100
AcDbEntity
  8
0
100
AcDbPolyline
 62
7
  6
CONTINUOUS
 90
14
 70
0
 10
-17.2848349582
 20
-28.5110360759
 10
-17.4572084789
 20
-28.6541952088
 10
-17.6176099556
 20
-28.8019198697
 10
-17.7661180883
 20
-28.9541800614
 10
-17.9017442858
 20
-29.1099631778
 10
-18.0244033811
 20
-29.2692926086
 10
-18.134180541
 20
-29.4321449641
 10
-18.230342675
 20
-29.5974374683
 10
-18.312799781
 20
-29.7651864512
 10
-18.381641861
 20
-29.9353755827
 10
-18.4364058307
 20
-30.1068730965
 10
-18.4769373287
 20
-30.279301737
 10
-18.5033907164
 20
-30.4530387597
 10
-18.5157659937
 20
-30.6280841646
  0
LWPOLYLINE
  5
304
100
AcDbEntity
  8
0
100
AcDbPolyline
 62
7
  6
CONTINUOUS
 90
10
 70
0
 10
-17.0784986015
 20
-28.4275032355
 10
-16.8580312407
 20
-28.2544433839
 10
-16.6118727862
 20
-28.0994892707
 10
-16.3400232381
 20
-27.962640896
 10
-16.03898266
 20
-27.842480109
 10
-15.7122509883
 20
-27.7404250604
 10
-15.3703280325
 20
-27.6607302028
 10
-15.0167137293
 20
-27.604813687
 10
-14.6479081422
 20
-27.5712573622
 10
-14.263911271
 20
-27.5600612284
  0
LWPOLYLINE
  5
305
100
AcDbEntity
  8
0
100
AcDbPolyline
 62
7
  6
CONTINUOUS
 90
7
 70
0
 10
-16.491429204
 20
-28.6476306625
 10
-16.2929190721
 20
-28.4950129477
 10
-16.0713149682
 20
-28.3609790873
 10
-15.8266168923
 20
-28.2455290813
 10
-15.5543928491
 20
-28.1474702054
 10
-15.259074834
 20
-28.067995184
 10
-15.1419655512
 20
-28.0459973744
  0
LWPOLYLINE
  5
306
100
AcDbEntity
  8
0
100
AcDbPolyline
 62
7
  6
CONTINUOUS
 90
3
 70
0
 10
-16.9056325766
 20
-28.2392470166
 10
-17.1005680936
 20
-28.3724124737
 10
-17.2848349582
 20
-28.5110360759
  0
LINE
  5
307
100
AcDbEntity
  8
RACCORDO
100
AcDbLine
 62
253
  6
CONTINUOUS
 10
10.1550089017
 20
-6.8083189493
 11
23.7981174435
 21
1.0690134893
  0
LINE
  5
308
100
AcDbEntity
  8
ASSI
100
AcDbLine
 62
253
  6
CONTINUOUS
 10
2.7303876993
 20
-13.5438633659
 11
4.1435473987
 21
-12.7279226665
  0
LWPOLYLINE
  5
309
100
AcDbEntity
  8
ASSI
100
AcDbPolyline
 62
7
  6
CONTINUOUS
 90
35
 70
0
 10
3.1445783337
 20
-12.628433584
 10
3.1983076831
 20
-12.6005231775
 10
3.2738285008
 20
-12.5710246704
 10
3.353944604
 20
-12.5500723422
 10
3.4374944805
 20
-12.537969957
 10
3.5245281543
 20
-12.534846443
 10
3.6149956015
 20
-12.540572872
 10
3.7075852372
 20
-12.555066223
 10
3.8023279781
 20
-12.5784542147
 10
3.8991929076
 20
-12.6106091284
 10
3.9967756912
 20
-12.6510647865
 10
4.0950867868
 20
-12.6999421165
 10
4.1941157365
 20
-12.757120191
 10
4.2924268321
 20
-12.8217700499
 10
4.3900096157
 20
-12.8940005443
 10
4.4868745452
 20
-12.9737028231
 10
4.5816172861
 20
-13.0597213738
 10
4.6742069218
 20
-13.1521482133
 10
4.764674369
 20
-13.2508913247
 10
4.8517080428
 20
-13.3545191436
 10
4.9352579193
 20
-13.463102832
 10
5.0153740225
 20
-13.5765712279
 10
5.0908948402
 20
-13.6932792823
 10
5.1617534269
 20
-13.8132741911
 10
5.228016728
 20
-13.9365087584
 10
5.2887240673
 20
-14.0611963461
 10
5.343794504
 20
-14.1873581222
 10
5.3933089788
 20
-14.3149729187
 10
5.4365496377
 20
-14.4421905939
 10
5.473425082
 20
-14.5690053622
 10
5.5040267104
 20
-14.6954230092
 10
5.5279108646
 20
-14.8196107489
 10
5.5449296586
 20
-14.9409576529
 10
5.5552309784
 20
-15.0600746496
 10
5.558814824
 20
-15.1769617392
  0
LWPOLYLINE
  5
30A
100
AcDbEntity
  8
RACCORDO
100
AcDbPolyline
 62
253
  6
CONTINUOUS
 90
20
 70
0
 10
8.2019103769
 20
12.4800660873
 10
8.1058759524
 20
12.462574723
 10
7.9741068372
 20
12.462236915
 10
7.8355574281
 20
12.4839991662
 10
7.6920811663
 20
12.5275694982
 10
7.5456045523
 20
12.5923692725
 10
7.3981212985
 20
12.677522755
 10
7.2516439857
 20
12.7818680084
 10
7.1081659072
 20
12.9039790754
 10
6.9696141291
 20
13.0422097426
 10
6.8378434508
 20
13.1947102313
 10
6.7146288785
 20
13.3594341642
 10
6.6016499212
 20
13.5341446448
 10
6.5004464059
 20
13.7164632909
 10
6.412382883
 20
13.9039335382
 10
6.338656644
 20
14.0940085156
 10
6.2802778601
 20
14.2840677721
 10
6.2380265639
 20
14.4715260136
 10
6.2124552017
 20
14.6538689328
 10
6.2038958852
 20
14.8286384008
  0
LWPOLYLINE
  5
30B
100
AcDbEntity
  8
0
100
AcDbPolyline
 62
7
  6
CONTINUOUS
 90
17
 70
0
 10
8.204574801
 20
12.1144957446
 10
8.1275003845
 20
12.130630823
 10
7.9075662823
 20
12.2055151208
 10
7.6859613399
 20
12.310805846
 10
7.4714555502
 20
12.4423571797
 10
7.2658377157
 20
12.5977607781
 10
7.0690887563
 20
12.7762048995
 10
6.8865291784
 20
12.9717309772
 10
6.7204478599
 20
13.1797261612
 10
6.569903087
 20
13.3995887901
 10
6.4354430158
 20
13.629712431
 10
6.3180246069
 20
13.8682716107
 10
6.218948283
 20
14.1129548755
 10
6.1394340501
 20
14.3616900131
 10
6.0806930034
 20
14.6128387317
 10
6.0441835167
 20
14.8646469099
 10
6.0316070302
 20
15.1150008842
  0
LWPOLYLINE
  5
30C
100
AcDbEntity
  8
RACCORDO
100
AcDbPolyline
 62
7
  6
CONTINUOUS
 90
6
 70
0
 10
21.9618370421
 20
2.7879497191
 10
21.9815552906
 20
2.7777916131
 10
21.9973083761
 20
2.7684594258
 10
22.0088158089
 20
2.7607458609
 10
22.0168149741
 20
2.7561249604
 10
22.0204023627
 20
2.7547411
  0
LWPOLYLINE
  5
30D
100
AcDbEntity
  8
0
100
AcDbPolyline
 62
7
  6
CONTINUOUS
 90
13
 70
0
 10
6.2659216052
 20
11.154954331
 10
6.393995338
 20
11.0859840106
 10
6.5204492201
 20
11.0273520173
 10
6.6452832517
 20
10.9790583513
 10
6.7690166329
 20
10.9409850895
 10
6.8911301635
 20
10.9132501549
 10
7.0100662429
 20
10.8962073162
 10
7.1257841685
 20
10.8899935373
 10
7.2383246428
 20
10.8944718543
 10
7.346252173
 20
10.9095851447
 10
7.449507668
 20
10.9354696406
 10
7.5481502187
 20
10.97198911
 10
7.6409880455
 20
11.0187160925
  0
LINE
  5
30E
100
AcDbEntity
  8
RACCORDO
100
AcDbLine
 62
253
  6
CONTINUOUS
 10
23.896842336
 20
1.0788045573
 11
23.8973817812
 21
1.078496431
  0
LINE
  5
30F
100
AcDbEntity
  8
RACCORDO
100
AcDbLine
 62
7
  6
CONTINUOUS
 10
22.8829551952
 20
0.5406097393
 11
21.4687174007
 21
1.3571729172
  0
LINE
  5
310
100
AcDbEntity
  8
RACCORDO
100
AcDbLine
 62
253
  6
CONTINUOUS
 10
23.7981174435
 20
1.0690134893
 11
22.0196771473
 21
2.0958626273
  0
LINE
  5
311
100
AcDbEntity
  8
RACCORDO
100
AcDbLine
 62
7
  6
CONTINUOUS
 10
23.8973817984
 20
1.0784964211
 11
22.0196771473
 21
2.1626595535
  0
LWPOLYLINE
  5
312
100
AcDbEntity
  8
RACCORDO
100
AcDbPolyline
 62
7
  6
CONTINUOUS
 90
25
 70
0
 10
22.8829309631
 20
0.5406237306
 10
22.9993616292
 20
0.4688728071
 10
23.1143197039
 20
0.389423916
 10
23.2278051872
 20
0.3022770573
 10
23.3402900792
 20
0.2069943797
 10
23.4513023797
 20
0.1040137346
 10
23.5594260883
 20
-0.0053513241
 10
23.6646242024
 20
-0.1211825795
 10
23.7669337246
 20
-0.2433982485
 10
23.8650496611
 20
-0.3704394275
 10
23.9589182929
 20
-0.5023679305
 10
24.048593339
 20
-0.6391219437
 10
24.1329309631
 20
-0.7789571218
 10
24.2118627937
 20
-0.9219129341
 10
24.2854572021
 20
-1.0679499114
 10
24.3527754661
 20
-1.2152053011
 10
24.4137371894
 20
-1.363694711
 10
24.4684227683
 20
-1.5134025333
 10
24.5161346692
 20
-1.6624191926
 10
24.5567835605
 20
-1.8107358352
 10
24.5904587737
 20
-1.9583613149
 10
24.6167307697
 20
-2.1034126171
 10
24.635456369
 20
-2.2452620704
 10
24.6467787511
 20
-2.3845373463
 10
24.6506979161
 20
-2.5212384447
  0
LINE
  5
313
100
AcDbEntity
  8
RACCORDO
100
AcDbLine
 62
253
  6
CONTINUOUS
 10
23.9874144864
 20
0.9480589031
 11
23.7981174435
 21
1.0690134893
  0
LWPOLYLINE
  5
314
100
AcDbEntity
  8
RACCORDO
100
AcDbPolyline
 62
7
  6
CONTINUOUS
 90
8
 70
0
 10
5.9167853226
 20
34.4233072762
 10
5.8946111405
 20
34.5165439704
 10
5.8673156534
 20
34.6093979713
 10
5.8348988613
 20
34.7018692789
 10
5.7970750543
 20
34.7945642074
 10
5.7541299423
 20
34.8868764426
 10
5.7069206548
 20
34.976987042
 10
5.6553659593
 20
35.0648498663
  0
LWPOLYLINE
  5
315
100
AcDbEntity
  8
RACCORDO
100
AcDbPolyline
 62
253
  6
CONTINUOUS
 90
8
 70
0
 10
4.3920886354
 20
34.0090147054
 10
4.3777603761
 20
34.0701554732
 10
4.3697392769
 20
34.1337415259
 10
4.3681617916
 20
34.1986849676
 10
4.3730539039
 20
34.2638746978
 10
4.3843320737
 20
34.3281952871
 10
4.4018046997
 20
34.3905460581
 10
4.4251740623
 20
34.4498600528
  0
LWPOLYLINE
  5
316
100
AcDbEntity
  8
RACCORDO
100
AcDbPolyline
 62
253
  6
CONTINUOUS
 90
7
 70
0
 10
11.5121989783
 20
24.880174386
 10
11.4737047706
 20
25.264628038
 10
11.416069415
 20
25.6581109481
 10
11.3399295519
 20
26.0562725352
 10
11.245079832
 20
26.4591644063
 10
11.1317256047
 20
26.8667349544
 10
11.0011195583
 20
27.2744787766
  0
LWPOLYLINE
  5
317
100
AcDbEntity
  8
RACCORDO
100
AcDbPolyline
 62
253
  6
CONTINUOUS
 90
46
 70
0
 10
14.3976495889
 20
22.5850844744
 10
14.3932923863
 20
22.8647474027
 10
14.3831895155
 20
23.1405525423
 10
14.3673409765
 20
23.412499893
 10
14.3455448662
 20
23.6795529546
 10
14.3180030877
 20
23.9427482274
 10
14.2853213501
 20
24.2051952124
 10
14.2476082678
 20
24.4677108433
 10
14.2047552263
 20
24.7294781864
 10
14.1570420917
 20
24.9911559422
 10
14.1045633344
 20
25.2527187569
 10
14.0472244839
 20
25.5141919843
 10
13.9850219946
 20
25.7763103869
 10
13.9179344998
 20
26.0393663778
 10
13.8459833663
 20
26.3030675438
 10
13.7692291492
 20
26.5672714073
 10
13.6875493178
 20
26.8323225711
 10
13.6010664028
 20
27.0978764325
 10
13.5102085509
 20
27.3627567058
 10
13.415222803
 20
27.6263004062
 10
13.3158621184
 20
27.8891705184
 10
13.2118135211
 20
28.152179711
 10
13.1036958061
 20
28.4142924365
 10
12.9908901786
 20
28.6765442423
 10
12.8712272783
 20
28.9428544393
 10
12.7451787263
 20
29.2130341753
 10
12.6122729016
 20
29.4872723026
 10
12.46892558
 20
29.7700546885
 10
12.3151762299
 20
30.0621736046
 10
12.150985383
 20
30.3628367795
 10
11.9726504109
 20
30.6741532665
 10
11.779647087
 20
30.9975770311
 10
11.5724996378
 20
31.331654108
 10
11.3490781144
 20
31.6741316547
 10
11.1083441661
 20
32.0265021133
 10
10.8513361436
 20
32.3872730418
 10
10.5790391498
 20
32.7497142719
 10
10.2903189873
 20
33.1145477037
 10
9.9863098535
 20
33.4810514372
 10
9.6713994434
 20
33.8403296037
 10
9.3452859177
 20
34.191697588
 10
9.0082711156
 20
34.5358400053
 10
8.6656482504
 20
34.8659148327
 10
8.3191817266
 20
35.1796413958
 10
7.9671071396
 20
35.479300369
 10
7.6094244895
 20
35.7648917522
  0
LWPOLYLINE
  5
318
100
AcDbEntity
  8
RACCORDO
100
AcDbPolyline
 62
253
  6
CONTINUOUS
 90
46
 70
0
 10
15.8118631512
 20
22.5850844744
 10
15.8079671636
 20
22.8903243232
 10
15.7966540109
 20
23.1923235363
 10
15.7784797952
 20
23.490540578
 10
15.7541343493
 20
23.7829549141
 10
15.7240774004
 20
24.0705956712
 10
15.6882048064
 20
24.3576828721
 10
15.6465739146
 20
24.645012359
 10
15.5995311268
 20
24.9312564837
 10
15.547018183
 20
25.2176267598
 10
15.489168915
 20
25.5039217644
 10
15.4261267607
 20
25.7899055768
 10
15.3576797347
 20
26.0767964317
 10
15.2837971267
 20
26.3647569272
 10
15.2046253664
 20
26.6532477149
 10
15.1201199855
 20
26.9424577245
 10
15.0302140615
 20
27.232573005
 10
14.9350683695
 20
27.5230342687
 10
14.8350039265
 20
27.8129131253
 10
14.7304110744
 20
28.1012437019
 10
14.6211303117
 20
28.3886221571
 10
14.506619249
 20
28.6764597668
 10
14.3874146085
 20
28.9633672128
 10
14.2630784787
 20
29.2503598352
 10
14.1312749229
 20
29.5423958124
 10
13.9919494015
 20
29.8388778851
 10
13.8447503571
 20
30.139847402
 10
13.6863456691
 20
30.4510304195
 10
13.5159246897
 20
30.7725313573
 10
13.3333016522
 20
31.1032049229
 10
13.135566273
 20
31.4465860459
 10
12.9213086871
 20
31.8030240823
 10
12.6905689954
 20
32.1703221653
 10
12.4423964083
 20
32.5478792196
 10
12.1752675126
 20
32.9357419447
 10
11.8895215919
 20
33.3311174246
 10
11.5872660396
 20
33.7291132689
 10
11.2676353371
 20
34.1290668889
 10
10.9311807602
 20
34.5284790332
 10
10.582786789
 20
34.9202560132
 10
10.2231552051
 20
35.3027947482
 10
9.852419004
 20
35.6751454901
 10
9.4752254314
 20
36.0321659725
 10
9.093698642
 20
36.3718441159
 10
8.7072157593
 20
36.6947329652
 10
8.3165312707
 20
37.0000863528
  0
LINE
  5
319
100
AcDbEntity
  8
RACCORDO
100
AcDbLine
 62
253
  6
CONTINUOUS
 10
14.3976495889
 20
-1.9090238294
 11
14.3976495889
 21
22.5850844744
  0
LINE
  5
31A
100
AcDbEntity
  8
RACCORDO
100
AcDbLine
 62
253
  6
CONTINUOUS
 10
15.8118631512
 20
-1.9090238294
 11
15.8118631512
 21
22.5850844744
  0
LWPOLYLINE
  5
31B
100
AcDbEntity
  8
ASSI
100
AcDbPolyline
 62
7
  6
CONTINUOUS
 90
16
 70
0
 10
7.593323742
 20
-12.2740551379
 10
7.5777885358
 20
-12.2862202594
 10
7.4768845337
 20
-12.3557651016
 10
7.3697970972
 20
-12.413907735
 10
7.2564560362
 20
-12.46051873
 10
7.1369315407
 20
-12.4957275161
 10
7.0125752508
 20
-12.5191359356
 10
6.8833323196
 20
-12.5306100392
 10
6.749257594
 20
-12.5302837763
 10
6.6118672551
 20
-12.5181608362
 10
6.4711236666
 20
-12.4941073117
 10
6.3270644648
 20
-12.4582571101
 10
6.1813187402
 20
-12.4110156427
 10
6.0344295228
 20
-12.3525180464
 10
5.8858537825
 20
-12.2826291842
 10
5.7355915193
 20
-12.2013490561
  0
LWPOLYLINE
  5
31C
100
AcDbEntity
  8
RACCORDO
100
AcDbPolyline
 62
253
  6
CONTINUOUS
 90
6
 70
0
 10
25.5658601644
 20
-1.9928067147
 10
25.5880699621
 20
-1.9773687021
 10
25.6053139264
 20
-1.9599449993
 10
25.6170724992
 20
-1.9410621978
 10
25.6229919865
 20
-1.9212903985
 10
25.6236960489
 20
-1.91233069
  0
LWPOLYLINE
  5
31D
100
AcDbEntity
  8
ASSI
100
AcDbPolyline
 62
7
  6
CONTINUOUS
 90
11
 70
0
 10
4.4981546522
 20
-14.5643525746
 10
4.4155282572
 20
-14.6162444175
 10
4.3411910116
 20
-14.6710295291
 10
4.2751429156
 20
-14.7287079094
 10
4.217064524
 20
-14.7896893751
 10
4.1672752819
 20
-14.8535641095
 10
4.1267335243
 20
-14.9191026625
 10
4.0956183944
 20
-14.9863372658
 10
4.073750749
 20
-15.0552356877
 10
4.0615514927
 20
-15.124471783
 10
4.0588821871
 20
-15.1767644262
  0
LWPOLYLINE
  5
31E
100
AcDbEntity
  8
0
100
AcDbPolyline
 62
7
  6
CONTINUOUS
 90
5
 70
0
 10
-18.5157659937
 20
-30.6280841646
 10
-18.6226656822
 20
-30.6913397617
 10
-18.7205059316
 20
-30.7581255195
 10
-18.809286742
 20
-30.8284414382
 10
-18.8799318831
 20
-30.8939349089
  0
LINE
  5
31F
100
AcDbEntity
  8
ASSI
100
AcDbLine
 62
7
  6
CONTINUOUS
 10
2.7303876993
 20
-15.5850390579
 11
5.3050024519
 21
-14.0984887672
  0
LINE
  5
320
100
AcDbEntity
  8
0
100
AcDbLine
 62
7
  6
CONTINUOUS
 10
-13.4865620122
 20
-27.1112295088
 11
-14.263911271
 21
-27.5600612284
  0
LINE
  5
321
100
AcDbEntity
  8
RACCORDO
100
AcDbLine
 62
253
  6
CONTINUOUS
 10
11.9227758547
 20
-9.8701811246
 11
25.5658601644
 21
-1.9931972577
  0
LWPOLYLINE
  5
322
100
AcDbEntity
  8
RACCORDO
100
AcDbPolyline
 62
253
  6
CONTINUOUS
 90
16
 70
0
 10
8.071057782
 20
13.1907704494
 10
8.0490084982
 20
13.1948590961
 10
7.936979206
 20
13.2338128871
 10
7.8229996982
 20
13.2909971962
 10
7.7090201985
 20
13.3654335803
 10
7.596990924
 20
13.455848412
 10
7.4888286667
 20
13.5606947297
 10
7.3863840687
 20
13.6781786693
 10
7.2914100594
 20
13.8062900087
 10
7.2055317736
 20
13.9428365882
 10
7.1302186246
 20
14.0854819914
 10
7.0667591948
 20
14.2317855506
 10
7.0162392746
 20
14.379243963
 10
6.9795232512
 20
14.5253341756
 10
6.9572393205
 20
14.6675565559
 10
6.9497687414
 20
14.8034776563
  0
LWPOLYLINE
  5
323
100
AcDbEntity
  8
0
100
AcDbPolyline
 62
7
  6
CONTINUOUS
 90
3
 70
0
 10
8.1006077156
 20
12.1397873777
 10
8.1704162952
 20
12.1023858684
 10
8.2021884216
 20
12.0878969063
  0
LWPOLYLINE
  5
324
100
AcDbEntity
  8
0
100
AcDbPolyline
 62
7
  6
CONTINUOUS
 90
13
 70
0
 10
6.2659216052
 20
15.6455408534
 10
6.1378478724
 20
15.7145111738
 10
6.0113939903
 20
15.7731431671
 10
5.8865599587
 20
15.8214368331
 10
5.7628265775
 20
15.8595100949
 10
5.6407130469
 20
15.8872450295
 10
5.5217769675
 20
15.9042878682
 10
5.4060590419
 20
15.9105016471
 10
5.2935185676
 20
15.9060233301
 10
5.1855910374
 20
15.8909100397
 10
5.0823355424
 20
15.8650255438
 10
4.9836929917
 20
15.8285060744
 10
4.8908551649
 20
15.7817790919
  0
LWPOLYLINE
  5
325
100
AcDbEntity
  8
RACCORDO
100
AcDbPolyline
 62
253
  6
CONTINUOUS
 90
3
 70
0
 10
24.3575812135
 20
0.6413687601
 10
24.1746245398
 20
0.8049731619
 10
23.9874144864
 20
0.9480589031
  0
LWPOLYLINE
  5
326
100
AcDbEntity
  8
RACCORDO
100
AcDbPolyline
 62
253
  6
CONTINUOUS
 90
9
 70
0
 10
8.2811759312
 20
20.6331248086
 10
8.3015536238
 20
20.5754769078
 10
8.3276195005
 20
20.5223096835
 10
8.3589283343
 20
20.4745327498
 10
8.3949454036
 20
20.4329634682
 10
8.4350542625
 20
20.3983131053
 10
8.4785672666
 20
20.3711746728
 10
8.5247386682
 20
20.3520126437
 10
8.5727790455
 20
20.3411548215
  0
LWPOLYLINE
  5
327
100
AcDbEntity
  8
RACCORDO
100
AcDbPolyline
 62
7
  6
CONTINUOUS
 90
10
 70
0
 10
5.9167853226
 20
34.4233072762
 10
5.9232216911
 20
34.4018973912
 10
5.9289137253
 20
34.3806728858
 10
5.9338614252
 20
34.35963376
 10
5.9380719407
 20
34.33873755
 10
5.9415381219
 20
34.3180267196
 10
5.9442385188
 20
34.29762866
 10
5.9461659814
 20
34.2775858347
 10
5.9473276597
 20
34.2578557802
 10
5.9477235537
 20
34.2384384964
  0
LINE
  5
328
100
AcDbEntity
  8
RACCORDO
100
AcDbLine
 62
7
  6
CONTINUOUS
 10
11.7751467171
 20
25.5814901765
 11
11.833131239
 21
25.2240291935
  0
LWPOLYLINE
  5
329
100
AcDbEntity
  8
RACCORDO
100
AcDbPolyline
 62
7
  6
CONTINUOUS
 90
20
 70
0
 10
11.833131239
 20
25.2240291935
 10
11.8767239934
 20
24.8718833915
 10
11.9060349195
 20
24.5250121795
 10
11.920838912
 20
24.1860784822
 10
11.9210242965
 20
23.855143397
 10
11.9067027473
 20
23.5321458265
 10
11.8779841819
 20
23.2195654039
 10
11.8347577719
 20
22.9174823209
 10
11.7771343458
 20
22.6258163857
 10
11.7055563062
 20
22.3468066562
 10
11.6199162321
 20
22.0805505652
 10
11.5203215445
 20
21.8269506798
 10
11.4075369094
 20
21.5879537592
 10
11.2814607955
 20
21.3636722254
 10
11.142194734
 20
21.1539936563
 10
10.9908079842
 20
20.9605275453
 10
10.8272072511
 20
20.7833987048
 10
10.6514858297
 20
20.6224823224
 10
10.4649928637
 20
20.4790134541
 10
10.2660750472
 20
20.3522196786
  0
LWPOLYLINE
  5
32A
100
AcDbEntity
  8
RACCORDO
100
AcDbPolyline
 62
253
  6
CONTINUOUS
 90
6
 70
0
 10
22.4417197543
 20
26.4664732927
 10
22.441008556
 20
26.4567434399
 10
22.4350844316
 20
26.436975056
 10
22.423324024
 20
26.4180970114
 10
22.4060822954
 20
26.4006790976
 10
22.383879649
 20
26.3852470356
  0
LINE
  5
32B
100
AcDbEntity
  8
0
100
AcDbLine
 62
7
  6
CONTINUOUS
 10
-4.9393298171
 20
-24.5035508909
 11
-5.0799947944
 21
-24.5847690859
  0
LWPOLYLINE
  5
32C
100
AcDbEntity
  8
RACCORDO
100
AcDbPolyline
 62
7
  6
CONTINUOUS
 90
3
 70
0
 10
10.2618245519
 20
20.5547345139
 10
10.2992250906
 20
20.5600844388
 10
10.5349357203
 20
20.613544392
  0
LINE
  5
32D
100
AcDbEntity
  8
RACCORDO
100
AcDbLine
 62
7
  6
CONTINUOUS
 10
5.6040113692
 20
22.4532920079
 11
5.6284931246
 21
22.4302827364
  0
LWPOLYLINE
  5
32E
100
AcDbEntity
  8
RACCORDO
100
AcDbPolyline
 62
7
  6
CONTINUOUS
 90
13
 70
0
 10
4.3846947603
 20
22.736770469
 10
4.408012408
 20
22.7131600671
 10
4.4907007829
 20
22.6394202048
 10
4.5804698025
 20
22.5736240319
 10
4.6771198714
 20
22.5160573633
 10
4.7793767666
 20
22.4676594392
 10
4.884801071
 20
22.4295195278
 10
4.9926951958
 20
22.4017447417
 10
5.1020093574
 20
22.3845158021
 10
5.2099524085
 20
22.3781572836
 10
5.3156012535
 20
22.3823716192
 10
5.4183483078
 20
22.3969161407
 10
5.5160342791
 20
22.4212797369
  0
LWPOLYLINE
  5
32F
100
AcDbEntity
  8
RACCORDO
100
AcDbPolyline
 62
7
  6
CONTINUOUS
 90
31
 70
0
 10
4.3846873802
 20
22.736778519
 10
4.0512964746
 20
23.0998212592
 10
3.7292373448
 20
23.4813599724
 10
3.4197936565
 20
23.8797466513
 10
3.124208575
 20
24.2932709935
 10
2.8436581772
 20
24.7201984417
 10
2.5792589331
 20
25.1587680585
 10
2.3321227445
 20
25.607094053
 10
2.1032415365
 20
26.063360415
 10
1.8934884297
 20
26.5258747152
 10
1.70376868
 20
26.9927621559
 10
1.5349420813
 20
27.4620796962
 10
1.3877406759
 20
27.9320559629
 10
1.2628675345
 20
28.4008576816
 10
1.1610037429
 20
28.8664849573
 10
1.0827335819
 20
29.3270053988
 10
1.028534355
 20
29.7808110457
 10
0.9988919494
 20
30.2257872148
 10
0.9941609468
 20
30.6594578124
 10
1.014564261
 20
31.0805752115
 10
1.0602495687
 20
31.4869998281
 10
1.1309124595
 20
31.8753921511
 10
1.2262809656
 20
32.2445898899
 10
1.3459595669
 20
32.593152732
 10
1.4886226377
 20
32.9180239183
 10
1.6529980487
 20
33.2177794247
 10
1.8383489577
 20
33.4922944377
 10
2.0435614032
 20
33.740800838
 10
2.2673546191
 20
33.962548073
 10
2.5083367383
 20
34.1569130838
 10
2.764996017
 20
34.3233969709
  0
LINE
  5
330
100
AcDbEntity
  8
RACCORDO
100
AcDbLine
 62
253
  6
CONTINUOUS
 10
10.853070796
 20
27.682396967
 11
10.6877702147
 21
28.0904884316
  0
LINE
  5
331
100
AcDbEntity
  8
RACCORDO
100
AcDbLine
 62
7
  6
CONTINUOUS
 10
11.1377391876
 20
27.7867994357
 11
11.2771008428
 21
27.4172822689
  0
LINE
  5
332
100
AcDbEntity
  8
RACCORDO
100
AcDbLine
 62
253
  6
CONTINUOUS
 10
11.0011195583
 20
27.2744787766
 11
10.853070796
 21
27.682396967
  0
LWPOLYLINE
  5
333
100
AcDbEntity
  8
RACCORDO
100
AcDbPolyline
 62
7
  6
CONTINUOUS
 90
6
 70
0
 10
11.2771008428
 20
27.4172822689
 10
11.4035085614
 20
27.0474101175
 10
11.5170612892
 20
26.67718572
 10
11.6168871123
 20
26.309451215
 10
11.7028803671
 20
25.9442257495
 10
11.7751467171
 20
25.5814901765
  0
LINE
  5
334
100
AcDbEntity
  8
DRAFT
100
AcDbLine
 62
7
  6
CONTINUOUS
 10
21.4687174007
 20
25.851281221
 11
21.4364916287
 21
26.7263771033
  0
LINE
  5
335
100
AcDbEntity
  8
RACCORDO
100
AcDbLine
 62
253
  6
CONTINUOUS
 10
22.3533159464
 20
27.2506611687
 11
22.383879649
 21
26.3852470356
  0
LWPOLYLINE
  5
336
100
AcDbEntity
  8
RACCORDO
100
AcDbPolyline
 62
7
  6
CONTINUOUS
 90
10
 70
0
 10
22.4417197543
 20
26.4664732927
 10
22.4112376513
 20
27.3308365421
 10
22.3201411031
 20
28.2228846584
 10
22.1692419957
 20
29.136569737
 10
21.9597352831
 20
30.0656988889
 10
21.693167536
 20
31.0040641662
 10
21.3714249795
 20
31.9454287256
 10
20.9967604615
 20
32.8834614778
 10
20.5717785848
 20
33.8118267338
 10
20.1170717439
 20
34.6919953717
  0
LINE
  5
337
100
AcDbEntity
  8
0
100
AcDbLine
 62
7
  6
CONTINUOUS
 10
20.7616106195
 20
-14.9726271679
 11
20.7616106195
 21
-24.361482982
  0
LINE
  5
338
100
AcDbEntity
  8
0
100
AcDbLine
 62
7
  6
CONTINUOUS
 10
21.4687174007
 20
25.851281221
 11
21.4687174007
 21
1.3571729172
  0
LINE
  5
339
100
AcDbEntity
  8
DRAFT
100
AcDbLine
 62
7
  6
CONTINUOUS
 10
21.4687174007
 20
1.3571729172
 11
21.4687174007
 21
25.851281221
  0
LINE
  5
33A
100
AcDbEntity
  8
RACCORDO
100
AcDbLine
 62
253
  6
CONTINUOUS
 10
21.9618370421
 20
1.6418943076
 11
21.9618370421
 21
2.7879497191
  0
LINE
  5
33B
100
AcDbEntity
  8
RACCORDO
100
AcDbLine
 62
7
  6
CONTINUOUS
 10
22.0196771473
 20
1.7225204557
 11
22.0196771473
 21
2.7543158027
  0
LINE
  5
33C
100
AcDbEntity
  8
RACCORDO
100
AcDbLine
 62
253
  6
CONTINUOUS
 10
22.383879649
 20
26.3852470356
 11
22.383879649
 21
3.0341971193
  0
LINE
  5
33D
100
AcDbEntity
  8
RACCORDO
100
AcDbLine
 62
7
  6
CONTINUOUS
 10
22.4417197543
 20
26.4664732927
 11
22.4417197543
 21
3.1154233765
  0
LINE
  5
33E
100
AcDbEntity
  8
RACCORDO
100
AcDbLine
 62
253
  6
CONTINUOUS
 10
24.6506979161
 20
-12.3188851238
 11
25.5658601644
 21
-11.7793572448
  0
LINE
  5
33F
100
AcDbEntity
  8
RACCORDO
100
AcDbLine
 62
7
  6
CONTINUOUS
 10
24.6506979161
 20
-12.4195851351
 11
25.504824954
 21
-11.9160401625
  0
LINE
  5
340
100
AcDbEntity
  8
RACCORDO
100
AcDbLine
 62
7
  6
CONTINUOUS
 10
11.9227758547
 20
-20.0760595845
 11
24.6506979161
 21
-12.7271169046
  0
LWPOLYLINE
  5
341
100
AcDbEntity
  8
RACCORDO
100
AcDbPolyline
 62
7
  6
CONTINUOUS
 90
22
 70
0
 10
11.9227758547
 20
-20.0760595845
 10
11.8673818765
 20
-20.1056545762
 10
11.8090236416
 20
-20.132525692
 10
11.74770115
 20
-20.1566729319
 10
11.6830397078
 20
-20.1782004815
 10
11.6154140089
 20
-20.1970041553
 10
11.5459481355
 20
-20.2127713965
 10
11.4746113294
 20
-20.2254514518
 10
11.4014343488
 20
-20.2350950745
 10
11.3276335496
 20
-20.241541967
 10
11.253198505
 20
-20.2447386971
 10
11.178139642
 20
-20.2447386971
 10
11.1037045974
 20
-20.241541967
 10
11.0299037983
 20
-20.2350950745
 10
10.9567268176
 20
-20.2254514518
 10
10.8853900116
 20
-20.2127713965
 10
10.8159241381
 20
-20.1970041553
 10
10.7482984392
 20
-20.1782004815
 10
10.683636997
 20
-20.1566729319
 10
10.6223145055
 20
-20.132525692
 10
10.5639562706
 20
-20.1056545762
 10
10.5085622923
 20
-20.0760595845
  0
LWPOLYLINE
  5
342
100
AcDbEntity
  8
RACCORDO
100
AcDbPolyline
 62
253
  6
CONTINUOUS
 90
21
 70
0
 10
8.2811759316
 20
20.6331248086
 10
8.5721382392
 20
20.6129465476
 10
8.8529167271
 20
20.6174424143
 10
9.1235113953
 20
20.6466124089
 10
9.3848904647
 20
20.7007434506
 10
9.6360857144
 20
20.7795486202
 10
9.8741924818
 20
20.8821671596
 10
10.0990214475
 20
21.0088670386
 10
10.3107619308
 20
21.1593802875
 10
10.5070772279
 20
21.3320422396
 10
10.6877970898
 20
21.5270983849
 10
10.8530917655
 20
21.7443032335
 10
11.0011352981
 20
21.9812556487
 10
11.1317365349
 20
22.2381747778
 10
11.2450866286
 20
22.5148414735
 10
11.3399330793
 20
22.8081971573
 10
11.4160706576
 20
23.1184263206
 10
11.4737045929
 20
23.4453444721
 10
11.5121980738
 20
23.7853395596
 10
11.5313390609
 20
24.1385567917
 10
11.5313395935
 20
24.5048509598
  0
LINE
  5
343
100
AcDbEntity
  8
RACCORDO
100
AcDbLine
 62
7
  6
CONTINUOUS
 10
8.5791546245
 20
20.340360544
 11
8.5795864266
 21
20.3403120762
  0
LWPOLYLINE
  5
344
100
AcDbEntity
  8
RACCORDO
100
AcDbPolyline
 62
253
  6
CONTINUOUS
 90
12
 70
0
 10
8.2811759316
 20
20.6331248082
 10
8.2453022458
 20
20.6463495729
 10
8.210239738
 20
20.6613753727
 10
8.176327189
 20
20.678249173
 10
8.1440043014
 20
20.6968987743
 10
8.1135626636
 20
20.7174379788
 10
8.0852185034
 20
20.7401896813
 10
8.0594887335
 20
20.7651014514
 10
8.0368699603
 20
20.7921807914
 10
8.0177620473
 20
20.8218425116
 10
8.0028198463
 20
20.8540426044
 10
7.9927994462
 20
20.8885966145
  0
LINE
  5
345
100
AcDbEntity
  8
RACCORDO
100
AcDbLine
 62
7
  6
CONTINUOUS
 10
7.8999320934
 20
20.9189534156
 11
7.9914111385
 21
20.8823240274
  0
LWPOLYLINE
  5
346
100
AcDbEntity
  8
RACCORDO
100
AcDbPolyline
 62
253
  6
CONTINUOUS
 90
4
 70
0
 10
4.6792954184
 20
22.7081681448
 10
4.6013190611
 20
22.7443175207
 10
4.5270666596
 20
22.7848804542
 10
4.4571353673
 20
22.8297274839
  0
LINE
  5
347
100
AcDbEntity
  8
RACCORDO
100
AcDbLine
 62
253
  6
CONTINUOUS
 10
4.4571353673
 20
22.8297274839
 11
4.3920886351
 21
22.8786350715
  0
LWPOLYLINE
  5
348
100
AcDbEntity
  8
RACCORDO
100
AcDbPolyline
 62
7
  6
CONTINUOUS
 90
9
 70
0
 10
5.6284931246
 20
22.4302827364
 10
5.9058278406
 20
22.1871387332
 10
6.1864680371
 20
21.9585328365
 10
6.4703887481
 20
21.7443538268
 10
6.7554111512
 20
21.5462448403
 10
7.0415434335
 20
21.3643295202
 10
7.328777408
 20
21.1984842233
 10
7.6149096903
 20
21.0499811559
 10
7.8999320934
 20
20.9189534156
  0
LWPOLYLINE
  5
349
100
AcDbEntity
  8
RACCORDO
100
AcDbPolyline
 62
253
  6
CONTINUOUS
 90
8
 70
0
 10
10.6877702147
 20
28.0904884316
 10
10.5070431924
 20
28.4942444854
 10
10.3107196596
 20
28.8936163334
 10
10.0989696859
 20
29.2886527707
 10
9.8741288588
 20
29.6749914984
 10
9.6360005678
 20
30.0525911178
 10
9.3847814234
 20
30.4214930276
 10
9.1233968457
 20
30.7774591252
  0
LWPOLYLINE
  5
34A
100
AcDbEntity
  8
DRAFT
100
AcDbPolyline
 62
7
  6
CONTINUOUS
 90
8
 70
0
 10
21.4364916287
 20
26.7263771033
 10
21.3454417996
 20
27.6181478774
 10
21.1955679135
 20
28.5265935433
 10
20.9850327877
 20
29.4581817946
 10
20.7156736048
 20
30.4064449378
 10
20.3930019131
 20
31.3519798914
 10
20.0188548956
 20
32.2883189617
 10
19.5913953693
 20
33.2219298426
  0
LWPOLYLINE
  5
34B
100
AcDbEntity
  8
RACCORDO
100
AcDbPolyline
 62
7
  6
CONTINUOUS
 90
11
 70
0
 10
25.6235726843
 20
-1.912329995
 10
25.6085329923
 20
-1.6363225634
 10
25.5494609512
 20
-1.285206456
 10
25.4481433432
 20
-0.92809029
 10
25.3074561341
 20
-0.572695346
 10
25.1307211276
 20
-0.2266753889
 10
24.9225003229
 20
0.1017987121
 10
24.6874200031
 20
0.4046177076
 10
24.4304668959
 20
0.6750883744
 10
24.1566837816
 20
0.9065520487
 10
23.896711742
 20
1.0785756802
  0
LINE
  5
34C
100
AcDbEntity
  8
RACCORDO
100
AcDbLine
 62
253
  6
CONTINUOUS
 10
25.5658597346
 20
-1.9931974683
 11
25.5580915451
 21
-1.7965928047
  0
LINE
  5
34D
100
AcDbEntity
  8
RACCORDO
100
AcDbLine
 62
7
  6
CONTINUOUS
 10
24.6506979161
 20
-2.5212384447
 11
24.6506979161
 21
-12.7271169046
  0
LINE
  5
34E
100
AcDbEntity
  8
RACCORDO
100
AcDbLine
 62
253
  6
CONTINUOUS
 10
25.5658601644
 20
-11.7793572448
 11
25.5658601644
 21
-1.9931972577
  0
LINE
  5
34F
100
AcDbEntity
  8
RACCORDO
100
AcDbLine
 62
7
  6
CONTINUOUS
 10
25.6237002696
 20
-11.6981309883
 11
25.6237002696
 21
-1.9115804721
  0
LINE
  5
350
100
AcDbEntity
  8
RACCORDO
100
AcDbLine
 62
253
  6
CONTINUOUS
 10
25.6236960489
 20
-1.91233069
 11
25.6237002696
 21
-1.9115804721
  0
LWPOLYLINE
  5
351
100
AcDbEntity
  8
RACCORDO
100
AcDbPolyline
 62
253
  6
CONTINUOUS
 90
7
 70
0
 10
25.5144061407
 20
-11.9096214954
 10
25.5287384385
 20
-11.8964936259
 10
25.5412459603
 20
-11.8799295361
 10
25.5515748111
 20
-11.8598674121
 10
25.5593573268
 20
-11.8363246285
 10
25.5642307246
 20
-11.8094188125
 10
25.5658601644
 20
-11.7793572448
  0
LWPOLYLINE
  5
352
100
AcDbEntity
  8
RACCORDO
100
AcDbPolyline
 62
253
  6
CONTINUOUS
 90
6
 70
0
 10
25.5658601644
 20
-11.7793572448
 10
25.5880628113
 20
-11.7639251826
 10
25.6053045401
 20
-11.7465072687
 10
25.6170649473
 20
-11.7276292241
 10
25.6229890714
 20
-11.7078608406
 10
25.6237002641
 20
-11.6981580406
  0
LWPOLYLINE
  5
353
100
AcDbEntity
  8
RACCORDO
100
AcDbPolyline
 62
7
  6
CONTINUOUS
 90
10
 70
0
 10
25.5048892773
 20
-11.915995808
 10
25.5261208954
 20
-11.9018556776
 10
25.5470913795
 20
-11.8841558431
 10
25.566209615
 20
-11.8636981135
 10
25.5830912266
 20
-11.8406792446
 10
25.5973685028
 20
-11.8153984897
 10
25.6087499768
 20
-11.7881800704
 10
25.6170231097
 20
-11.7592974515
 10
25.6220364416
 20
-11.7290761244
 10
25.6237057019
 20
-11.698158072
  0
LINE
  5
354
100
AcDbEntity
  8
0
100
AcDbLine
 62
7
  6
CONTINUOUS
 10
-0.357371134
 20
-27.9823804571
 11
2.3768343087
 21
-26.4036845022
  0
LWPOLYLINE
  5
355
100
AcDbEntity
  8
RACCORDO
100
AcDbPolyline
 62
253
  6
CONTINUOUS
 90
22
 70
0
 10
14.3976495889
 20
22.5850844744
 10
14.4524689588
 20
22.5557156944
 10
14.5109361845
 20
22.5287943937
 10
14.5727242935
 20
22.5044711271
 10
14.6374877418
 20
22.4828819201
 10
14.7048643457
 20
22.4641475084
 10
14.7744773081
 20
22.4483726625
 10
14.8459373249
 20
22.4356456015
 10
14.9188447629
 20
22.4260375005
 10
14.9927918939
 20
22.4196020919
 10
15.0673651758
 20
22.416375365
 10
15.1421475643
 20
22.416375365
 10
15.2167208461
 20
22.4196020919
 10
15.2906679772
 20
22.4260375005
 10
15.3635754151
 20
22.4356456015
 10
15.435035432
 20
22.4483726625
 10
15.5046483944
 20
22.4641475084
 10
15.5720249983
 20
22.4828819201
 10
15.6367884466
 20
22.5044711271
 10
15.6985765556
 20
22.5287943937
 10
15.7570437813
 20
22.5557156944
 10
15.8118631512
 20
22.5850844744
  0
LINE
  5
356
100
AcDbEntity
  8
RACCORDO
100
AcDbLine
 62
7
  6
CONTINUOUS
 10
6.5134089786
 20
24.2559924573
 11
6.7620051443
 21
24.1124561468
  0
LINE
  5
357
100
AcDbEntity
  8
ASSI
100
AcDbLine
 62
7
  6
CONTINUOUS
 10
6.5128274126
 20
25.2896062213
 11
7.9882827128
 21
24.4376968228
  0
LWPOLYLINE
  5
358
100
AcDbEntity
  8
RACCORDO
100
AcDbPolyline
 62
253
  6
CONTINUOUS
 90
12
 70
0
 10
-1.8658063784
 20
31.9754001209
 10
-1.9166713204
 20
32.0070521381
 10
-1.963297377
 20
32.0408103814
 10
-2.0054237965
 20
32.0764860612
 10
-2.0428149908
 20
32.1138796646
 10
-2.0752618531
 20
32.1527820713
 10
-2.1025829276
 20
32.1929757233
 10
-2.1246254235
 20
32.2342358414
 10
-2.1412660705
 20
32.2763316823
 10
-2.1524118071
 20
32.319027829
 10
-2.158000302
 20
32.3620855073
 10
-2.1586995973
 20
32.3836747142
  0
LWPOLYLINE
  5
359
100
AcDbEntity
  8
RACCORDO
100
AcDbPolyline
 62
253
  6
CONTINUOUS
 90
4
 70
0
 10
9.1233968457
 20
30.7774591252
 10
8.8528219744
 20
31.1190767097
 10
8.5720816697
 20
31.447758482
 10
8.2811759316
 20
31.7635044421
  0
LINE
  5
35A
100
AcDbEntity
  8
RACCORDO
100
AcDbLine
 62
7
  6
CONTINUOUS
 10
5.6553659593
 20
35.0648498663
 11
5.6398752793
 21
35.0886222937
  0
LWPOLYLINE
  5
35B
100
AcDbEntity
  8
RACCORDO
100
AcDbPolyline
 62
253
  6
CONTINUOUS
 90
10
 70
0
 10
25.4921307643
 20
-1.3659819869
 10
25.4316037128
 20
-1.1340943441
 10
25.3517867704
 20
-0.8946897121
 10
25.2537986375
 20
-0.6537344998
 10
25.1383720899
 20
-0.4142644025
 10
25.006234432
 20
-0.1789038537
 10
24.860098248
 20
0.0470542181
 10
24.7022882243
 20
0.2602626916
 10
24.5341463557
 20
0.4591105206
 10
24.3575812135
 20
0.6413687601
  0
LWPOLYLINE
  5
35C
100
AcDbEntity
  8
RACCORDO
100
AcDbPolyline
 62
253
  6
CONTINUOUS
 90
3
 70
0
 10
25.5580915451
 20
-1.7965928047
 10
25.5338759267
 20
-1.5870413939
 10
25.4921307643
 20
-1.3659819869
  0
LWPOLYLINE
  5
35D
100
AcDbEntity
  8
0
100
AcDbPolyline
 62
7
  6
CONTINUOUS
 90
24
 70
0
 10
-9.0442080439
 20
-32.7039672536
 10
-8.9696909967
 20
-32.6809630141
 10
-8.7103505288
 20
-32.5915896682
 10
-8.4586466019
 20
-32.4952008431
 10
-8.2145427086
 20
-32.3918461675
 10
-7.9796706092
 20
-32.2822188209
 10
-7.7540952709
 20
-32.1662783543
 10
-7.5377517266
 20
-32.0440652166
 10
-7.3320768347
 20
-31.9163939339
 10
-7.1371413177
 20
-31.7832284767
 10
-6.9528744531
 20
-31.6446048746
 10
-6.7805009324
 20
-31.5014457417
 10
-6.6200994557
 20
-31.3537210807
 10
-6.4715913229
 20
-31.201460889
 10
-6.3359651255
 20
-31.0456777727
 10
-6.2133060302
 20
-30.8863483418
 10
-6.1035288703
 20
-30.7234959863
 10
-6.0073667362
 20
-30.5582034822
 10
-5.9249096303
 20
-30.3904544993
 10
-5.8560675503
 20
-30.2202653677
 10
-5.8013035806
 20
-30.048767854
 10
-5.7607720826
 20
-29.8763392135
 10
-5.7343186949
 20
-29.7026021908
 10
-5.7219434175
 20
-29.5275567858
  0
LINE
  5
35E
100
AcDbEntity
  8
RACCORDO
100
AcDbLine
 62
7
  6
CONTINUOUS
 10
5.8906912815
 20
35.7976510095
 11
5.9275284702
 21
35.7633893658
  0
LWPOLYLINE
  5
35F
100
AcDbEntity
  8
RACCORDO
100
AcDbPolyline
 62
7
  6
CONTINUOUS
 90
15
 70
0
 10
8.0886857523
 20
32.4111856502
 10
8.3583932053
 20
32.1404705997
 10
8.6215103626
 20
31.8586555946
 10
8.8780372242
 20
31.5657406349
 10
9.1286345257
 20
31.2608821429
 10
9.3726415315
 20
30.9449236964
 10
9.6080760346
 20
30.6203960282
 10
9.8348356854
 20
30.2872684464
 10
10.0530228335
 20
29.945571643
 10
10.2609623205
 20
29.5979284265
 10
10.4585752863
 20
29.2442929854
 10
10.645940591
 20
28.8847111313
 10
10.8216196568
 20
28.5219431082
 10
10.9855225417
 20
28.1559643565
 10
11.1377391876
 20
27.7867994357
  0
LWPOLYLINE
  5
360
100
AcDbEntity
  8
RACCORDO
100
AcDbPolyline
 62
7
  6
CONTINUOUS
 90
14
 70
0
 10
5.9275284702
 20
35.7633893658
 10
6.0044429893
 20
35.682501568
 10
6.0779509255
 20
35.5951829654
 10
6.1481403959
 20
35.5015999017
 10
6.2131639717
 20
35.4042155393
 10
6.2728844798
 20
35.3029289403
 10
6.3274390932
 20
35.1978410426
 10
6.3753919017
 20
35.0917178228
 10
6.4165676038
 20
34.9845317893
 10
6.4511415011
 20
34.8763104337
 10
6.4782035878
 20
34.769902207
 10
6.4974505287
 20
34.6662565928
 10
6.5091856589
 20
34.5644241075
 10
6.5134089786
 20
34.4644047511
  0
LINE
  5
361
100
AcDbEntity
  8
0
100
AcDbLine
 62
7
  6
CONTINUOUS
 10
1.3650907754
 20
-35.5607904445
 11
20.7616106195
 21
-24.361482982
  0
LINE
  5
362
100
AcDbEntity
  8
ASSI
100
AcDbLine
 62
7
  6
CONTINUOUS
 10
7.1554619359
 20
34.0387056628
 11
7.6094244895
 21
34.1616241996
  0
LWPOLYLINE
  5
363
100
AcDbEntity
  8
RACCORDO
100
AcDbPolyline
 62
253
  6
CONTINUOUS
 90
12
 70
0
 10
4.9332868616
 20
34.6803767944
 10
4.9343818762
 20
34.6805295185
 10
4.9748985462
 20
34.68736011
 10
5.0172045464
 20
34.6956846242
 10
5.0609743698
 20
34.7054235128
 10
5.1047165401
 20
34.7166386166
 10
5.1486201816
 20
34.7295440681
 10
5.1924818989
 20
34.7439819354
 10
5.2342159609
 20
34.7594787067
 10
5.2731226607
 20
34.7758949243
 10
5.3098908639
 20
34.7934145458
 10
5.3445179552
 20
34.8120484234
  0
LWPOLYLINE
  5
364
100
AcDbEntity
  8
RACCORDO
100
AcDbPolyline
 62
253
  6
CONTINUOUS
 90
22
 70
0
 10
4.3920886351
 20
34.0090147058
 10
4.4298823163
 20
33.9968985225
 10
4.4709843614
 20
33.9853598758
 10
4.515476111
 20
33.9745943733
 10
4.5632906074
 20
33.9648894328
 10
4.6145668621
 20
33.9563798749
 10
4.6696898474
 20
33.9490899305
 10
4.7285989457
 20
33.9433354887
 10
4.791276962
 20
33.9393858536
 10
4.8581774958
 20
33.9373189937
 10
4.9293044549
 20
33.937559276
 10
5.0042582476
 20
33.9404969931
 10
5.0828003689
 20
33.9462540132
 10
5.1648332513
 20
33.955302671
 10
5.2494362045
 20
33.9680562993
 10
5.3349901625
 20
33.9844110295
 10
5.4210752043
 20
34.004627071
 10
5.5064901041
 20
34.0289112847
 10
5.5885484637
 20
34.0565843068
 10
5.6659948555
 20
34.0871519947
 10
5.7387862854
 20
34.1206368082
 10
5.8063021974
 20
34.1567835777
  0
LWPOLYLINE
  5
365
100
AcDbEntity
  8
0
100
AcDbPolyline
 62
7
  6
CONTINUOUS
 90
19
 70
0
 10
18.7638047091
 20
34.7612963998
 10
19.0425854048
 20
34.2757098594
 10
19.3075749186
 20
33.7854679399
 10
19.5587732505
 20
33.2905706412
 10
19.7966258632
 20
32.7900148552
 10
20.020687294
 20
32.2848036901
 10
20.2296211547
 20
31.7779464706
 10
20.4233373821
 20
31.2694331737
 10
20.6019260394
 20
30.7592738224
 10
20.7643209271
 20
30.2505078102
 10
20.9104258425
 20
29.743141092
 10
21.0403369884
 20
29.2371677129
 10
21.1532767734
 20
28.7356092014
 10
21.2491431976
 20
28.2384998514
 10
21.3280382609
 20
27.745805369
 10
21.389490372
 20
27.2604444001
 10
21.4333423338
 20
26.7833898268
 10
21.4597513434
 20
26.3136687672
 10
21.4687174007
 20
25.851281221
  0
LWPOLYLINE
  5
366
100
AcDbEntity
  8
RACCORDO
100
AcDbPolyline
 62
253
  6
CONTINUOUS
 90
9
 70
0
 10
20.0284999553
 20
34.6796490391
 10
20.5023949486
 20
33.7644712317
 10
20.9293607862
 20
32.8323663649
 10
21.3062584648
 20
31.889668705
 10
21.6304030952
 20
30.942414537
 10
21.8991445872
 20
29.9975558303
 10
22.1101387352
 20
29.062884455
 10
22.2618508434
 20
28.1452730411
 10
22.3533159464
 20
27.2506611687
  0
LINE
  5
367
100
AcDbEntity
  8
DRAFT
100
AcDbLine
 62
7
  6
CONTINUOUS
 10
19.5913953693
 20
33.2219298426
 11
19.1106233343
 21
34.1528125339
  0
LWPOLYLINE
  5
368
100
AcDbEntity
  8
RACCORDO
100
AcDbPolyline
 62
253
  6
CONTINUOUS
 90
40
 70
0
 10
4.3920886351
 20
34.0090147054
 10
4.1011263275
 20
34.0291929665
 10
3.8203478395
 20
34.0246970997
 10
3.5497531713
 20
33.9955271051
 10
3.2883741019
 20
33.9413960634
 10
3.0371788522
 20
33.8625908938
 10
2.7990720848
 20
33.7599723544
 10
2.5742431192
 20
33.6332724754
 10
2.3625026359
 20
33.4827592265
 10
2.1661873387
 20
33.3100972744
 10
1.9854674768
 20
33.1150411291
 10
1.8201728011
 20
32.8978362805
 10
1.6721292686
 20
32.6608838653
 10
1.5415280317
 20
32.4039647362
 10
1.428177938
 20
32.1272980406
 10
1.3333314873
 20
31.8339423567
 10
1.257193909
 20
31.5237131934
 10
1.1995599737
 20
31.1967950419
 10
1.1610664929
 20
30.8567999545
 10
1.1419255058
 20
30.5035827224
 10
1.1419249731
 20
30.1372885542
 10
1.1610655884
 20
29.7619651281
 10
1.1995597961
 20
29.377511476
 10
1.2571951517
 20
28.9840285659
 10
1.3333350148
 20
28.5858669789
 10
1.4281847346
 20
28.1829751077
 10
1.5415389619
 20
27.7754045596
 10
1.6721450084
 20
27.3676607374
 10
1.8201937706
 20
26.959742547
 10
1.985494352
 20
26.5516510825
 10
2.1662213742
 20
26.1478950286
 10
2.3625449071
 20
25.7485231807
 10
2.5742948808
 20
25.3534867434
 10
2.7991357078
 20
24.9671480157
 10
3.0372639989
 20
24.5895483963
 10
3.2884831432
 20
24.2206464864
 10
3.549867721
 20
23.8646803888
 10
3.8204425922
 20
23.5230628043
 10
4.1011828969
 20
23.194381032
 10
4.3920886351
 20
22.8786350719
  0
LWPOLYLINE
  5
369
100
AcDbEntity
  8
RACCORDO
100
AcDbPolyline
 62
7
  6
CONTINUOUS
 90
7
 70
0
 10
4.4431574581
 20
34.5160679981
 10
4.4983447863
 20
34.5090189448
 10
4.5508996458
 20
34.5081636724
 10
4.6008220364
 20
34.5135021809
 10
4.6484169033
 20
34.5251555134
 10
4.6933793014
 20
34.5430026267
 10
4.7153231885
 20
34.5545571493
  0
LINE
  5
36A
100
AcDbEntity
  8
RACCORDO
100
AcDbLine
 62
7
  6
CONTINUOUS
 10
5.3448031936
 20
34.917981167
 11
5.4859395333
 21
34.8937034478
  0
LWPOLYLINE
  5
36B
100
AcDbEntity
  8
RACCORDO
100
AcDbPolyline
 62
7
  6
CONTINUOUS
 90
13
 70
0
 10
5.4859395333
 20
34.8937034478
 10
5.5286706403
 20
34.8813372285
 10
5.5711183714
 20
34.8631622937
 10
5.6132827267
 20
34.8391786434
 10
5.6557720666
 20
34.8088647189
 10
5.6979780306
 20
34.772742079
 10
5.7380755372
 20
34.7323753994
 10
5.7759727992
 20
34.6875778151
 10
5.8117616038
 20
34.6385361911
 10
5.8438922304
 20
34.5873757981
 10
5.8718481057
 20
34.5348050597
 10
5.8961458031
 20
34.4801155525
 10
5.9167853226
 20
34.4233072762
  0
LWPOLYLINE
  5
36C
100
AcDbEntity
  8
RACCORDO
100
AcDbPolyline
 62
253
  6
CONTINUOUS
 90
46
 70
0
 10
4.922418721
 20
37.3163352069
 10
4.5559720772
 20
37.4455772258
 10
4.1991010024
 20
37.5535383924
 10
3.8518054965
 20
37.6402187067
 10
3.5126061531
 20
37.7047002076
 10
3.1829823787
 20
37.7479008561
 10
2.8673723925
 20
37.7725745358
 10
2.5667379927
 20
37.7780541406
 10
2.2801173812
 20
37.7650067766
 10
2.0090633831
 20
37.7381876448
 10
1.7543749875
 20
37.697543715
 10
1.5152532053
 20
37.6431280176
 10
1.2908538945
 20
37.5798548447
 10
1.0819282628
 20
37.5082894293
 10
0.8877251024
 20
37.4278665385
 10
0.7051466481
 20
37.3418047662
 10
0.5343580593
 20
37.2508718205
 10
0.3751941767
 20
37.1542999932
 10
0.2240617568
 20
37.0530047543
 10
0.0806915514
 20
36.9475509742
 10
-0.0546471912
 20
36.8373737825
 10
-0.1847399689
 20
36.721694038
 10
-0.3101918003
 20
36.6005098551
 10
-0.4303976668
 20
36.4738231194
 10
-0.5463280104
 20
36.3408603467
 10
-0.6584526073
 20
36.2012108541
 10
-0.7663016813
 20
36.0552853245
 10
-0.8694363466
 20
35.9035423232
 10
-0.9677836712
 20
35.746021002
 10
-1.0614165872
 20
35.582682209
 10
-1.1501150048
 20
35.4138670539
 10
-1.2337698504
 20
35.2399085085
 10
-1.3124901978
 20
35.060473601
 10
-1.3863831781
 20
34.8749045252
 10
-1.4555459073
 20
34.6832864763
 10
-1.5198812694
 20
34.4855342593
 10
-1.5792050479
 20
34.2807344824
 10
-1.6335571373
 20
34.0697190113
 10
-1.6828976431
 20
33.8516559804
 10
-1.7269226647
 20
33.6231364012
 10
-1.766013622
 20
33.3848836967
 10
-1.799789095
 20
33.136174444
 10
-1.8268009232
 20
32.8714293858
 10
-1.8465663864
 20
32.5887887696
 10
-1.8595682048
 20
32.290112348
 10
-1.8658063784
 20
31.9754001209
  0
LWPOLYLINE
  5
36D
100
AcDbEntity
  8
RACCORDO
100
AcDbPolyline
 62
253
  6
CONTINUOUS
 90
18
 70
0
 10
5.6295255021
 20
38.5515298075
 10
5.228022185
 20
38.7010680754
 10
4.8353246715
 20
38.8256943208
 10
4.4520902183
 20
38.9260479769
 10
4.0775199848
 20
39.0030672141
 10
3.7135662072
 20
39.0570805429
 10
3.3647100757
 20
39.0886268281
 10
3.0316721548
 20
39.0992437685
 10
2.7139331596
 20
39.0905388301
 10
2.4136319991
 20
39.0642972091
 10
2.1310579147
 20
39.0225000953
 10
1.8653150314
 20
38.9669451816
 10
1.6164713583
 20
38.8995449539
 10
1.384824697
 20
38.8223683258
 10
1.1690169826
 20
38.7369169314
 10
0.9666801103
 20
38.6439251017
 10
0.7777785102
 20
38.5448913503
 10
0.7227263846
 20
38.5136600719
  0
LINE
  5
36E
100
AcDbEntity
  8
DRAFT
100
AcDbLine
 62
7
  6
CONTINUOUS
 10
10.6792776145
 20
38.3643064796
 11
10.3642134401
 21
38.5462205853
  0
LINE
  5
36F
100
AcDbEntity
  8
0
100
AcDbLine
 62
7
  6
CONTINUOUS
 10
10.4378516142
 20
38.5887383441
 11
10.7529157887
 21
38.4068242384
  0
LINE
  5
370
100
AcDbEntity
  8
RACCORDO
100
AcDbLine
 62
253
  6
CONTINUOUS
 10
19.3254481991
 20
35.0855823119
 11
20.0284999553
 21
34.6796490391
  0
LINE
  5
371
100
AcDbEntity
  8
RACCORDO
100
AcDbLine
 62
7
  6
CONTINUOUS
 10
19.3832923072
 20
35.118980775
 11
20.1096541054
 21
34.6995885762
  0
LWPOLYLINE
  5
372
100
AcDbEntity
  8
RACCORDO
100
AcDbPolyline
 62
7
  6
CONTINUOUS
 90
3
 70
0
 10
20.1096548044
 20
34.6995881726
 10
20.1149689408
 20
34.6950390751
 10
20.1169252347
 20
34.6920919152
  0
LWPOLYLINE
  5
373
100
AcDbEntity
  8
0
100
AcDbPolyline
 62
7
  6
CONTINUOUS
 90
10
 70
0
 10
10.4378516142
 20
41.3277970421
 10
10.7348858795
 20
41.2031131672
 10
11.0326811103
 20
41.0662849235
 10
11.3312373068
 20
40.9173123111
 10
11.6310617794
 20
40.7559024151
 10
11.9316472175
 20
40.5823481503
 10
12.2314716901
 20
40.3975282608
 10
12.5300278866
 20
40.2017356611
 10
12.8278231175
 20
39.9946774367
 10
13.1248573827
 20
39.7763535875
  0
ARC
  5
374
100
AcDbEntity
  8
RACCORDO
100
AcDbCircle
 62
7
  6
CONTINUOUS
 10
22.2417197543
 20
3.1154233765
 40
0.2
100
AcDbArc
 50
300.2620969329
 51
359.9974372505
  0
ELLIPSE
  5
375
100
AcDbEntity
  8
RACCORDO
100
AcDbEllipse
 62
7
  6
CONTINUOUS
 10
22.8829067306
 20
-1.5005659502
 30
0.0
 11
-1.2500604053
 21
2.1650286333
 31
0.0
 40
0.5773474973
 41
3.9269562005
 42
5.497725112
  0
ELLIPSE
  5
376
100
AcDbEntity
  8
RACCORDO
100
AcDbEllipse
 62
7
  6
CONTINUOUS
 10
6.7616349007
 20
23.9241141872
 30
0.0
 11
-0.0847891787
 21
0.1995690803
 31
0.0
 40
0.5671580254
 41
-2.2137248257
 42
-0.6455464839
  0
ELLIPSE
  5
377
100
AcDbEntity
  8
RACCORDO
100
AcDbEllipse
 62
7
  6
CONTINUOUS
 10
21.8196771473
 20
1.7231250416
 30
0.0
 11
0.1999993287
 21
-0.0009022159
 31
0.0
 40
0.5743567055
 41
-0.7775712039
 42
0.0025905402
  0
ELLIPSE
  5
378
100
AcDbEntity
  8
RACCORDO
100
AcDbEllipse
 62
7
  6
CONTINUOUS
 10
24.4385629738
 20
-12.1963943516
 30
0.0
 11
-0.15001136
 21
0.2598105594
 31
0.0
 40
0.5773158418
 41
3.1468291281
 42
3.9269287905
  0
ELLIPSE
  5
379
100
AcDbEntity
  8
0
100
AcDbEllipse
 62
7
  6
CONTINUOUS
 10
-2.9264665502
 20
-18.3851510897
 30
0.0
 11
1.3909475098
 21
3.3524669492
 31
0.0
 40
0.4692954544
 41
-2.7067143728
 42
-1.6322354081
  0
ELLIPSE
  5
37A
100
AcDbEntity
  8
0
100
AcDbEllipse
 62
7
  6
CONTINUOUS
 10
-12.1188547056
 20
-38.8512459817
 30
0.0
 11
7.2859155277
 21
17.5605411625
 31
0.0
 40
0.4692954544
 41
0.0295956967
 42
0.2412261926
  0
ELLIPSE
  5
37B
100
AcDbEntity
  8
0
100
AcDbEllipse
 62
7
  6
CONTINUOUS
 10
-12.1188547056
 20
-38.8512459817
 30
0.0
 11
7.2859155277
 21
17.5605411625
 31
0.0
 40
0.4692954544
 41
-0.3641043553
 42
-0.1524738594
  0
ELLIPSE
  5
37C
100
AcDbEntity
  8
ASSI
100
AcDbEllipse
 62
7
  6
CONTINUOUS
 10
-2.9264665502
 20
-18.3851510897
 30
0.0
 11
1.3909475098
 21
3.3524669492
 31
0.0
 40
0.4692954544
 41
4.650949899
 42
7.7925425526
  0
ELLIPSE
  5
37D
100
AcDbEntity
  8
0
100
AcDbEllipse
 62
7
  6
CONTINUOUS
 10
-2.9264665502
 20
-18.3851510897
 30
0.0
 11
1.3909475098
 21
3.3524669492
 31
0.0
 40
0.4692954544
 41
1.5093572455
 42
2.5838362101
  0
ENDSEC
  0
SECTION
  2
OBJECTS
  0
DICTIONARY
  5
C
100
AcDbDictionary
280
0
281
1
  3
ACAD_GROUP
350
D
  3
ACAD_MLINESTYLE
350
17
  3
ACAD_LAYOUT
350
1A
  3
ACAD_PLOTSETTINGS
350
19
  3
ACAD_PLOTSTYLENAME
350
E
  0
DICTIONARY
  5
D
102
{ACAD_REACTORS
330
C
102
}
100
AcDbDictionary
280
0
281
1
  0
ACDBDICTIONARYWDFLT
  5
E
102
{ACAD_REACTORS
330
C
102
}
100
AcDbDictionary
281
1
  3
Normal
350
F
100
AcDbDictionaryWithDefault
340
F
  0
DICTIONARY
  5
17
102
{ACAD_REACTORS
330
C
102
}
100
AcDbDictionary
280
0
281
1
  3
Standard
350
18
  0
DICTIONARY
  5
19
102
{ACAD_REACTORS
330
C
102
}
100
AcDbDictionary
281
1
  0
DICTIONARY
  5
1A
102
{ACAD_REACTORS
330
C
102
}
100
AcDbDictionary
281
1
  3
Model
350
37E
  3
Layout1
350
37F
  0
ACDBPLACEHOLDER
  5
F
102
{ACAD_REACTORS
330
E
102
}
  0
MLINESTYLE
  5
18
102
{ACAD_REACTORS
330
17
102
}
100
AcDbMlineStyle
  2
STANDARD
 70
0
  3

 62
256
 51
90.0
 52
90.0
 71
2
 49
0.5
 62
256
  6
BYLAYER
 49
-0.5
 62
256
  6
BYLAYER
  0
LAYOUT
  5
37E
102
{ACAD_REACTORS
330
1A
102
}
100
AcDbPlotSettings
  1

  2
none_device
  4
ANSI_C_(22.00_x_17.00_Inches)
  6

 40
0.0
 41
0.0
 42
0.0
 43
0.0
 44
558.8
 45
431.8
 46
0.0
 47
0.0
 48
0.0
 49
0.0
140
0.0
141
0.0
142
1.0
143
1.0
 70
1024
 72
1
 73
0
 74
0
  7

 75
0
147
1.0
148
0.0
149
0.0
100
AcDbLayout
  1
Model
 70
0
 71
0
 10
0.0
 20
0.0
 11
558.8
 21
431.8
 12
0.0
 22
0.0
 32
0.0
 14
0.0
 24
0.0
 34
0.0
 15
0.0
 25
0.0
 35
0.0
146
0.0
 13
0.0
 23
0.0
 33
0.0
 16
1.0
 26
0.0
 36
0.0
 17
0.0
 27
1.0
 37
0.0
 76
0
330
214
345
0
346
0
  0
LAYOUT
  5
37F
102
{ACAD_REACTORS
330
1A
102
}
100
AcDbPlotSettings
  1

  2
none_device
  4
ANSI_C_(22.00_x_17.00_Inches)
  6

 40
0.0
 41
0.0
 42
0.0
 43
0.0
 44
558.8
 45
431.8
 46
0.0
 47
0.0
 48
0.0
 49
0.0
140
0.0
141
0.0
142
1.0
143
1.0
 70
0
 72
1
 73
0
 74
0
  7

 75
0
147
1.0
148
0.0
149
0.0
100
AcDbLayout
  1
Layout1
 70
0
 71
1
 10
0.0
 20
0.0
 11
558.8
 21
431.8
 12
0.0
 22
0.0
 32
0.0
 14
0.0
 24
0.0
 34
0.0
 15
0.0
 25
0.0
 35
0.0
146
0.0
 13
0.0
 23
0.0
 33
0.0
 16
1.0
 26
0.0
 36
0.0
 17
0.0
 27
1.0
 37
0.0
 76
0
330
215
345
0
346
0
  0
ENDSEC
  0
EOF
