0
SECTION
2
HEADER
9
$ACADVER
1
AC1015
9
$DWGCODEPAGE
3
ANSI_1252
9
$EXTMAX
10
297.0000000000
20
210.0000000000
30
0.0000000000
9
$EXTMIN
10
0.0000000000
20
0.0000000000
30
0.0000000000
9
$LIMMIN
10
0.0000000000
20
0.0000000000
9
$LIMMAX
10
297.0000000000
20
210.0000000000
9
$VIEWCTR
10
148.5000000000
20
105.0000000000
9
$VIEWSIZE
40
210.0000000000
9
$CLAYER
8
0
9
$LTSCALE
40
16.3350000000
9
$CELTYPE
6
BYLAYER
9
$DIMSCALE
40
1
9
$DIMASZ
40
3.0000000000
9
$DIMEXO
40
1.8562500000
9
$DIMDLI
40
11.2860000000
9
$DIMEXE
40
5.3460000000
9
$DIMCEN
40
2.6730000000
9
$DIMLFAC
40
1.0000000000
9
$DIMBLK
1
_FILLED
9
$DIMTXT
40
3.0000000000
9
$DIMTOL
70
1
9
$DIMLIM
70
0
9
$DIMTFAC
40
1.0000000000
9
$DIMTP
40
0.0100000000
9
$DIMTM
40
0.0100000000
9
$PDMODE
70
3
9
$PDSIZE
40
3.0000000000
9
$HANDSEED
5
47F
9
$MEASUREMENT
70
1
9
$INSUNITS
70
4
0
ENDSEC
0
SECTION
2
CLASSES
0
CLASS
1
ACDBDICTIONARYWDFLT
2
AcDbDictionaryWithDefault
3
AutoCAD 2000
90
0
280
0
281
0
0
CLASS
1
ACDBPLACEHOLDER
2
AcDbPlaceHolder
3
AutoCAD 2000
90
0
280
0
281
0
0
CLASS
1
LAYOUT
2
AcDbLayout
3
AutoCAD 2000
90
0
280
0
281
0
0
ENDSEC
0
SECTION
2
TABLES
0
TABLE
2
VPORT
5
8
100
AcDbSymbolTable
70
2
0
VPORT
5
1F4
100
AcDbSymbolTableRecord
100
AcDbViewportTableRecord
2
*ACTIVE
70
0
10
0.0
20
0.0
11
1.0
21
1.0
12
148.5000000000
22
105.0000000000
13
0.0
23
0.0
14
1.0
24
1.0
15
0.0
25
0.0
16
0.0
26
0.0
36
1.0
17
0.0
27
0.0
37
0.0
40
210.0000000000
41
1.4142857143
42
50.0
43
0.0
44
0.0
50
0.0
51
0.0
71
0
72
100
73
1
74
1
75
0
76
0
77
0
78
0
0
ENDTAB
0
TABLE
2
LTYPE
5
5
100
AcDbSymbolTable
70
6
0
LTYPE
5
14
100
AcDbSymbolTableRecord
100
AcDbLinetypeTableRecord
2
BYBLOCK
70
0
3

72
65
73
0
40
0.0
0
LTYPE
5
15
100
AcDbSymbolTableRecord
100
AcDbLinetypeTableRecord
2
BYLAYER
70
0
3

72
65
73
0
40
0.0
0
LTYPE
5
16
100
AcDbSymbolTableRecord
100
AcDbLinetypeTableRecord
2
CONTINUOUS
70
64
3
Solid line
72
65
73
0
40
0
0
LTYPE
5
1F5
100
AcDbSymbolTableRecord
100
AcDbLinetypeTableRecord
2
CENTER
70
64
3
____ _ ____ _ ____ _ ____ _ ____ _ ____ _ ____
72
65
73
4
40
0.6
49
0.375
74
0
49
-0.075
74
0
49
0.075
74
0
49
-0.075
74
0
0
LTYPE
5
1F6
100
AcDbSymbolTableRecord
100
AcDbLinetypeTableRecord
2
HIDDEN
70
64
3
- - - - - - - - - - - - - - - - - - - -
72
65
73
2
40
0.2
49
0.1
74
0
49
-0.1
74
0
0
LTYPE
5
1F7
100
AcDbSymbolTableRecord
100
AcDbLinetypeTableRecord
2
PHANTOM
70
64
3
_____ _ _ _____ _ _ _____ _ _ _____
72
65
73
6
40
0.8
49
0.45
74
0
49
-0.05
74
0
49
0.1
74
0
49
-0.05
74
0
49
0.1
74
0
49
-0.05
74
0
0
LTYPE
5
1F8
100
AcDbSymbolTableRecord
100
AcDbLinetypeTableRecord
2
DOT
70
64
3
. . . . . . . . . . . . . . . . . . . .
72
65
73
2
40
0.2
49
0.1
74
0
49
-0.1
74
0
0
LTYPE
5
1F9
100
AcDbSymbolTableRecord
100
AcDbLinetypeTableRecord
2
DASHED
70
64
3
- - - - - - - - - - - - - - - - - - - -
72
65
73
2
40
0.2
49
0.1
74
0
49
-0.1
74
0
0
ENDTAB
0
TABLE
2
LAYER
5
2
100
AcDbSymbolTable
70
36
0
LAYER
5
10
100
AcDbSymbolTableRecord
100
AcDbLayerTableRecord
2
0
70
0
62
7
6
CONTINUOUS
370
-3
390
F
0
LAYER
5
1FA
100
AcDbSymbolTableRecord
100
AcDbLayerTableRecord
2
DEFAULT_1
70
0
62
7
6
CENTER
370
-3
390
F
0
LAYER
5
1FB
100
AcDbSymbolTableRecord
100
AcDbLayerTableRecord
2
DEFAULT_2
70
0
62
9
6
HIDDEN
370
-3
390
F
0
LAYER
5
1FC
100
AcDbSymbolTableRecord
100
AcDbLayerTableRecord
2
DEFAULT_3
70
0
62
7
6
PHANTOM
370
-3
390
F
0
LAYER
5
1FD
100
AcDbSymbolTableRecord
100
AcDbLayerTableRecord
2
_BLACK_HOLE
70
0
62
7
6
CONTINUOUS
370
-3
390
F
0
LAYER
5
1FE
100
AcDbSymbolTableRecord
100
AcDbLayerTableRecord
2
ASSI
70
0
62
7
6
CONTINUOUS
370
-3
390
F
0
LAYER
5
1FF
100
AcDbSymbolTableRecord
100
AcDbLayerTableRecord
2
COORDINATE
70
0
62
7
6
CONTINUOUS
370
-3
390
F
0
LAYER
5
200
100
AcDbSymbolTableRecord
100
AcDbLayerTableRecord
2
COPY_PUBLISH
70
0
62
7
6
CONTINUOUS
370
-3
390
F
0
LAYER
5
201
100
AcDbSymbolTableRecord
100
AcDbLayerTableRecord
2
COSMETIC
70
0
62
7
6
CONTINUOUS
370
-3
390
F
0
LAYER
5
202
100
AcDbSymbolTableRecord
100
AcDbLayerTableRecord
2
CURVE
70
0
62
7
6
CONTINUOUS
370
-3
390
F
0
LAYER
5
203
100
AcDbSymbolTableRecord
100
AcDbLayerTableRecord
2
IMPORT_IGES
70
0
62
7
6
CONTINUOUS
370
-3
390
F
0
LAYER
5
204
100
AcDbSymbolTableRecord
100
AcDbLayerTableRecord
2
PIANI
70
0
62
7
6
CONTINUOUS
370
-3
390
F
0
LAYER
5
205
100
AcDbSymbolTableRecord
100
AcDbLayerTableRecord
2
RACCORDO
70
0
62
7
6
CONTINUOUS
370
-3
390
F
0
LAYER
5
206
100
AcDbSymbolTableRecord
100
AcDbLayerTableRecord
2
TRASH
70
0
62
7
6
CONTINUOUS
370
-3
390
F
0
ENDTAB
0
TABLE
2
STYLE
5
3
100
AcDbSymbolTable
70
1
0
STYLE
5
11
100
AcDbSymbolTableRecord
100
AcDbTextStyleTableRecord
2
STANDARD
70
0
40
0.0
41
0.8000000000
50
0.0
71
0
42
0.2
3
txt
4

0
ENDTAB
0
TABLE
2
VIEW
5
6
100
AcDbSymbolTable
70
0
0
ENDTAB
0
TABLE
2
UCS
5
7
100
AcDbSymbolTable
70
0
0
ENDTAB
0
TABLE
2
APPID
5
9
100
AcDbSymbolTable
70
1
0
APPID
5
207
100
AcDbSymbolTableRecord
100
AcDbRegAppTableRecord
2
ACAD
70
0
0
ENDTAB
0
TABLE
2
BLOCK_RECORD
5
1
100
AcDbSymbolTable
70
0
0
BLOCK_RECORD
5
1F
100
AcDbSymbolTableRecord
100
AcDbBlockTableRecord
2
*MODEL_SPACE
0
BLOCK_RECORD
5
1B
100
AcDbSymbolTableRecord
100
AcDbBlockTableRecord
2
*PAPER_SPACE
0
ENDTAB
0
TABLE
2
DIMSTYLE
5
A
100
AcDbSymbolTable
70
1
100
AcDbDimStyleTable
71
0
0
DIMSTYLE
105
208
100
AcDbSymbolTableRecord
100
AcDbDimStyleTableRecord
2
STANDARD
70
0
3

4

40
1.0
41
3.0000000000
42
0.0625
43
0.38
44
0.18
45
0.0
46
0.0
47
0.0100000000
48
0.0100000000
140
3.0000000000
141
0.09
142
0.0
143
25.4
144
1.0000000000
145
0.0
146
1.0000000000
147
0.09
71
1
72
0
73
0
74
0
75
0
76
0
77
1
78
8
170
0
171
2
172
0
173
0
174
0
175
0
176
0
177
0
178
0
270
2
271
2
272
2
273
2
274
2
275
0
280
0
281
0
282
0
283
1
284
8
285
0
286
0
287
3
288
0
340
11
0
ENDTAB
0
ENDSEC
0
SECTION
2
BLOCKS
0
BLOCK
5
20
100
AcDbEntity
8
0
100
AcDbBlockBegin
2
*MODEL_SPACE
70
0
10
0.0
20
0.0
30
0.0
3
*MODEL_SPACE
1

0
ENDBLK
5
21
100
AcDbEntity
8
0
100
AcDbBlockEnd
0
BLOCK
5
1C
100
AcDbEntity
8
0
100
AcDbBlockBegin
2
*PAPER_SPACE
70
0
10
0.0
20
0.0
30
0.0
3
*PAPER_SPACE
1

0
ENDBLK
5
1D
100
AcDbEntity
8
0
100
AcDbBlockEnd
0
ENDSEC
0
SECTION
2
ENTITIES
0
LINE
5
209
100
AcDbEntity
8
0
100
AcDbLine
62
0
6
CONTINUOUS
10
-9.4033248398
20
-18.7195681272
11
-13.3211123928
21
-16.7606743508
0
LINE
5
20A
100
AcDbEntity
8
0
100
AcDbLine
62
0
6
CONTINUOUS
10
-13.3211123928
20
-14.7688159221
11
-13.2360515864
21
-14.8113463252
0
LINE
5
20B
100
AcDbEntity
8
0
100
AcDbLine
62
0
6
CONTINUOUS
10
-9.4883856462
20
-16.6851792954
11
-9.4033248398
21
-16.7277096985
0
LINE
5
20C
100
AcDbEntity
8
0
100
AcDbLine
62
0
6
CONTINUOUS
10
-13.2360515864
20
-14.2917310830
11
-11.9622186163
21
-14.9286475680
0
LINE
5
20D
100
AcDbEntity
8
0
100
AcDbLine
62
0
6
CONTINUOUS
10
-10.7622186163
20
-15.5286475680
11
-9.4883856462
21
-16.1655640531
0
LINE
5
20E
100
AcDbEntity
8
0
100
AcDbLine
62
0
6
CONTINUOUS
10
-2.7395422582
20
22.3704819748
11
-8.2549751515
21
19.6127655282
0
LINE
5
20F
100
AcDbEntity
8
0
100
AcDbLine
62
9
6
CONTINUOUS
10
-8.2548266100
20
19.6128397956
11
-8.2549751515
21
19.6127655282
0
LINE
5
210
100
AcDbEntity
8
0
100
AcDbLine
62
9
6
CONTINUOUS
10
-5.3205263726
20
20.2320811749
11
-0.4762008618
21
22.6542704913
0
LINE
5
211
100
AcDbEntity
8
0
100
AcDbLine
62
9
6
CONTINUOUS
10
-2.7395291580
20
22.3704885249
11
-2.7307895412
21
22.3748469248
0
LINE
5
212
100
AcDbEntity
8
0
100
AcDbLine
62
9
6
CONTINUOUS
10
-11.9622186163
20
-14.0626221642
11
-10.7622186163
21
-14.6626221642
0
LINE
5
213
100
AcDbEntity
8
0
100
AcDbLine
62
0
6
CONTINUOUS
10
-8.2863041181
20
-15.5645232891
11
-8.8166342040
21
-15.2993582461
0
LINE
5
214
100
AcDbEntity
8
0
100
AcDbLine
62
9
6
CONTINUOUS
10
-11.6978091395
20
-13.7228872472
11
-10.6023640244
21
-14.2706098047
0
LINE
5
215
100
AcDbEntity
8
0
100
AcDbLine
62
0
6
CONTINUOUS
10
-8.8166342040
20
-14.5922514650
11
-8.4630808134
21
-14.7690281603
0
LINE
5
216
100
AcDbEntity
8
0
100
AcDbLine
62
0
6
CONTINUOUS
10
-8.4630808134
20
-14.7690281603
11
-8.8166342040
21
-14.5127921537
0
LINE
5
217
100
AcDbEntity
8
0
100
AcDbLine
62
9
6
CONTINUOUS
10
-4.6097539419
20
19.6508355729
11
0.2560042965
21
22.0825420919
0
LINE
5
218
100
AcDbEntity
8
0
100
AcDbLine
62
0
6
CONTINUOUS
10
-9.0287662384
20
-14.0674592041
11
-9.1701875946
21
-13.9967485259
0
LINE
5
219
100
AcDbEntity
8
0
100
AcDbLine
62
0
6
CONTINUOUS
10
-11.1500865819
20
-13.0067990323
11
-11.2915079382
21
-12.9360883542
0
LINE
5
21A
100
AcDbEntity
8
0
100
AcDbLine
62
9
6
CONTINUOUS
10
1.1585966639
20
20.5258005353
11
-3.9324143625
21
17.9802950221
0
LINE
5
21B
100
AcDbEntity
8
0
100
AcDbLine
62
9
6
CONTINUOUS
10
1.3657034451
20
19.8098747091
11
-3.7254653795
21
17.2642902968
0
LINE
5
21C
100
AcDbEntity
8
0
100
AcDbLine
62
0
6
CONTINUOUS
10
5.6083441322
20
-19.1543348014
11
1.1108676804
21
-16.9055965755
0
LINE
5
21D
100
AcDbEntity
8
0
100
AcDbLine
62
0
6
CONTINUOUS
10
-9.6931692893
20
-11.5035780907
11
-14.1906457411
21
-9.2548398648
0
LINE
5
21E
100
AcDbEntity
8
0
100
AcDbLine
62
0
6
CONTINUOUS
10
4.3001965870
20
-17.6342356250
11
2.6031403121
21
-16.7857074876
0
LINE
5
21F
100
AcDbEntity
8
0
100
AcDbLine
62
0
6
CONTINUOUS
10
1.8960335309
20
-16.4321540970
11
1.1108676804
21
-16.0395711717
0
LINE
5
220
100
AcDbEntity
8
0
100
AcDbLine
62
0
6
CONTINUOUS
10
-9.6931692893
20
-10.6375526869
11
-10.4783351398
21
-10.2449697616
0
LINE
5
221
100
AcDbEntity
8
0
100
AcDbLine
62
0
6
CONTINUOUS
10
-11.1854419210
20
-9.8914163710
11
-12.8824981959
21
-9.0428882336
0
LINE
5
222
100
AcDbEntity
8
0
100
AcDbLine
62
0
6
CONTINUOUS
10
-13.9090557902
20
-8.3004536166
11
-14.1557787995
21
-7.3914429872
0
LINE
5
223
100
AcDbEntity
8
0
100
AcDbLine
62
0
6
CONTINUOUS
10
-14.5441991316
20
-7.0862047408
11
-14.5441991316
21
-8.6450504676
0
LINE
5
224
100
AcDbEntity
8
0
100
AcDbLine
62
0
6
CONTINUOUS
10
-13.7604522210
20
-14.2384858362
11
-13.7604522210
21
-16.2303442649
0
LINE
5
225
100
AcDbEntity
8
0
100
AcDbLine
62
9
6
CONTINUOUS
10
-13.3211123928
20
-14.7688159221
11
-13.3211123928
21
-16.7606743508
0
LINE
5
226
100
AcDbEntity
8
0
100
AcDbLine
62
0
6
CONTINUOUS
10
-13.2360515864
20
-14.8113463252
11
-13.2360515864
21
-14.2917310830
0
LINE
5
227
100
AcDbEntity
8
0
100
AcDbLine
62
0
6
CONTINUOUS
10
-5.9917600528
20
15.7762165519
11
-7.4702674151
21
14.3341373062
0
LINE
5
228
100
AcDbEntity
8
0
100
AcDbLine
62
0
6
CONTINUOUS
10
-5.3156415193
20
15.8642532297
11
-6.2681858871
21
14.9351780702
0
LWPOLYLINE
5
229
100
AcDbEntity
8
0
100
AcDbPolyline
62
0
6
CONTINUOUS
90
3
70
0
10
-0.2103317536
20
17.5143171876
10
-0.2557232626
20
17.4896588311
10
-0.2996942767
20
17.4618467839
0
LINE
5
22A
100
AcDbEntity
8
0
100
AcDbLine
62
0
6
CONTINUOUS
10
-7.4702674151
20
14.3341373062
11
-6.2681858871
21
14.9351780702
0
LINE
5
22B
100
AcDbEntity
8
0
100
AcDbLine
62
0
6
CONTINUOUS
10
1.3657034451
20
18.4458739225
11
-3.7254653795
21
15.9002895103
0
LINE
5
22C
100
AcDbEntity
8
0
100
AcDbLine
62
0
6
CONTINUOUS
10
4.6495093417
20
19.9442375269
11
-0.2101834680
21
17.5143911221
0
LINE
5
22D
100
AcDbEntity
8
0
100
AcDbLine
62
9
6
CONTINUOUS
10
5.3289280955
20
19.7517060127
11
0.4845040533
21
17.3295694643
0
LINE
5
22E
100
AcDbEntity
8
0
100
AcDbLine
62
0
6
CONTINUOUS
10
5.9618975228
20
-17.3392530680
11
5.7054721921
21
-17.2110404026
0
LINE
5
22F
100
AcDbEntity
8
0
100
AcDbLine
62
0
6
CONTINUOUS
10
-14.2877738010
20
-7.2144174061
11
-14.5441991316
21
-7.0862047408
0
LINE
5
230
100
AcDbEntity
8
0
100
AcDbLine
62
0
6
CONTINUOUS
10
-8.3570147963
20
-10.0328377272
11
-7.1847507823
21
-10.6189697342
0
LINE
5
231
100
AcDbEntity
8
0
100
AcDbLine
62
0
6
CONTINUOUS
10
0.1636219170
20
-14.2931560839
11
1.7930898058
21
-15.1078900283
0
LINE
5
232
100
AcDbEntity
8
0
100
AcDbLine
62
0
6
CONTINUOUS
10
-3.9729527529
20
-12.1716553372
11
-2.2171452413
21
-13.0495590930
0
LINE
5
233
100
AcDbEntity
8
0
100
AcDbLine
62
0
6
CONTINUOUS
10
-9.2762536118
20
-9.0353503538
11
-8.5691468306
21
-9.3889037444
0
LINE
5
234
100
AcDbEntity
8
0
100
AcDbLine
62
0
6
CONTINUOUS
10
-9.0641215774
20
-8.9292843366
11
-8.3570147963
21
-9.2828377272
0
LINE
5
235
100
AcDbEntity
8
0
100
AcDbLine
62
0
6
CONTINUOUS
10
-12.8796739940
20
-4.9071226367
11
-12.1090462454
21
-6.4722144895
0
LINE
5
236
100
AcDbEntity
8
0
100
AcDbLine
62
0
6
CONTINUOUS
10
-12.0601370883
20
-14.6276068040
11
-12.0601370883
21
-13.7615814002
0
LINE
5
237
100
AcDbEntity
8
0
100
AcDbLine
62
0
6
CONTINUOUS
10
-11.9622186163
20
-14.9286475680
11
-11.9622186163
21
-14.0626221642
0
LINE
5
238
100
AcDbEntity
8
0
100
AcDbLine
62
0
6
CONTINUOUS
10
-11.8571933631
20
-6.4899405745
11
-11.8571933631
21
-5.4183629521
0
LINE
5
239
100
AcDbEntity
8
0
100
AcDbLine
62
0
6
CONTINUOUS
10
-11.6500865819
20
12.6750663278
11
-11.6500865819
21
-2.9133909403
0
LINE
5
23A
100
AcDbEntity
8
0
100
AcDbLine
62
9
6
CONTINUOUS
10
-11.5036399725
20
12.4982896325
11
-11.5036399725
21
-3.0901676356
0
LINE
5
23B
100
AcDbEntity
8
0
100
AcDbLine
62
9
6
CONTINUOUS
10
-1.4419194130
20
16.6850488802
11
-1.4410198518
21
16.6857069545
0
LINE
5
23C
100
AcDbEntity
8
0
100
AcDbLine
62
9
6
CONTINUOUS
10
-1.4576984265
20
16.1355728973
11
-1.5005916453
21
16.1044862570
0
LINE
5
23D
100
AcDbEntity
8
0
100
AcDbLine
62
0
6
CONTINUOUS
10
-1.4279777564
20
16.6948443399
11
-0.2997372418
21
17.4618176127
0
LINE
5
23E
100
AcDbEntity
8
0
100
AcDbLine
62
9
6
CONTINUOUS
10
-1.4898776269
20
16.2148642725
11
-0.3616371677
21
16.9818375076
0
LINE
5
23F
100
AcDbEntity
8
0
100
AcDbLine
62
0
6
CONTINUOUS
10
-5.1401100613
20
14.0115935380
11
-5.1232888871
21
14.0204448541
0
LINE
5
240
100
AcDbEntity
8
0
100
AcDbLine
62
0
6
CONTINUOUS
10
-5.1235764037
20
14.0203828271
11
-1.7505916453
21
15.7068752062
0
LINE
5
241
100
AcDbEntity
8
0
100
AcDbLine
62
9
6
CONTINUOUS
10
-4.6763628082
20
13.9919810398
11
-1.7505916453
21
15.4548666213
0
LINE
5
242
100
AcDbEntity
8
0
100
AcDbLine
62
0
6
CONTINUOUS
10
-4.8999696059
20
13.5731692316
11
-5.3949443528
21
13.3256818581
0
LINE
5
243
100
AcDbEntity
8
0
100
AcDbLine
62
9
6
CONTINUOUS
10
-5.1713375550
20
13.3114809645
11
-4.6763628082
21
13.5589683379
0
LINE
5
244
100
AcDbEntity
8
0
100
AcDbLine
62
9
6
CONTINUOUS
10
-1.7505916453
20
14.8575225832
11
-4.0790187701
21
13.6933090208
0
LINE
5
245
100
AcDbEntity
8
0
100
AcDbLine
62
0
6
CONTINUOUS
10
-8.0741720838
20
11.4906624693
11
-6.8720905558
21
12.0917032333
0
LINE
5
246
100
AcDbEntity
8
0
100
AcDbLine
62
9
6
CONTINUOUS
10
-4.5739935169
20
13.0128089455
11
-4.0790187701
21
13.2602963189
0
LINE
5
247
100
AcDbEntity
8
0
100
AcDbLine
62
0
6
CONTINUOUS
10
-5.1396789419
20
-9.5964338140
11
-3.9729527529
21
-10.1797969085
0
LINE
5
248
100
AcDbEntity
8
0
100
AcDbLine
62
0
6
CONTINUOUS
10
-0.2252868126
20
-12.0536298786
11
0.1636219170
21
-12.2480842434
0
LINE
5
249
100
AcDbEntity
8
0
100
AcDbLine
62
0
6
CONTINUOUS
10
0.1636219170
20
-11.8682849533
11
-1.1445256282
21
-11.2142111807
0
LINE
5
24A
100
AcDbEntity
8
0
100
AcDbLine
62
0
6
CONTINUOUS
10
-4.8921915684
20
-9.3403782106
11
-6.2003391136
21
-8.6863044380
0
LINE
5
24B
100
AcDbEntity
8
0
100
AcDbLine
62
0
6
CONTINUOUS
10
-12.8796739940
20
-4.9071226367
11
-11.8571933631
21
-5.4183629521
0
LINE
5
24C
100
AcDbEntity
8
0
100
AcDbLine
62
0
6
CONTINUOUS
10
6.8429567974
20
-14.7684380324
11
5.8204761665
21
-14.2571977170
0
LINE
5
24D
100
AcDbEntity
8
0
100
AcDbLine
62
0
6
CONTINUOUS
10
-11.1854419210
20
-5.5612893521
11
-10.4783351398
21
-5.9148427427
0
LINE
5
24E
100
AcDbEntity
8
0
100
AcDbLine
62
0
6
CONTINUOUS
10
2.6031403121
20
-12.4555804687
11
1.8960335309
21
-12.1020270781
0
LINE
5
24F
100
AcDbEntity
8
0
100
AcDbLine
62
0
6
CONTINUOUS
10
-11.1854419210
20
-5.5612893521
11
-11.1854419210
21
-9.8914163710
0
LINE
5
250
100
AcDbEntity
8
0
100
AcDbLine
62
0
6
CONTINUOUS
10
-10.7622186163
20
-15.5286475680
11
-10.7622186163
21
-14.6626221642
0
LINE
5
251
100
AcDbEntity
8
0
100
AcDbLine
62
0
6
CONTINUOUS
10
-10.4783351398
20
-5.9148427427
11
-10.4783351398
21
-10.2449697616
0
LINE
5
252
100
AcDbEntity
8
0
100
AcDbLine
62
9
6
CONTINUOUS
10
-9.6931692893
20
-10.6375526869
11
-9.6931692893
21
-11.5035780907
0
LINE
5
253
100
AcDbEntity
8
0
100
AcDbLine
62
0
6
CONTINUOUS
10
-7.4702674151
20
14.3341373062
11
-8.0741720838
21
11.4906624693
0
LINE
5
254
100
AcDbEntity
8
0
100
AcDbLine
62
0
6
CONTINUOUS
10
-12.6724583316
20
-4.1520854849
11
-12.8796739940
21
-4.9071226367
0
LINE
5
255
100
AcDbEntity
8
0
100
AcDbLine
62
0
6
CONTINUOUS
10
-6.1841104334
20
9.8681737434
11
-6.1770983067
21
9.8718759026
0
LINE
5
256
100
AcDbEntity
8
0
100
AcDbLine
62
0
6
CONTINUOUS
10
-6.1910784264
20
9.8645709948
11
-6.1841104334
21
9.8681737434
0
LINE
5
257
100
AcDbEntity
8
0
100
AcDbLine
62
9
6
CONTINUOUS
10
-4.2204401263
20
12.4030195483
11
-3.7254653795
21
12.6505069217
0
LINE
5
258
100
AcDbEntity
8
0
100
AcDbLine
62
9
6
CONTINUOUS
10
-0.8715587662
20
13.7239068378
11
-3.3719119889
21
12.4737302264
0
LINE
5
259
100
AcDbEntity
8
0
100
AcDbLine
62
0
6
CONTINUOUS
10
-6.1908312800
20
9.8648966593
11
-6.1481154194
21
9.8862545896
0
LINE
5
25A
100
AcDbEntity
8
0
100
AcDbLine
62
9
6
CONTINUOUS
10
-3.3719119889
20
11.2608527654
11
-0.1156384916
21
12.8889895141
0
LINE
5
25B
100
AcDbEntity
8
0
100
AcDbLine
62
0
6
CONTINUOUS
10
-1.9223430875
20
-9.8726745069
11
-4.1143741091
21
-8.7766589960
0
LINE
5
25C
100
AcDbEntity
8
0
100
AcDbLine
62
0
6
CONTINUOUS
10
-12.5034443795
20
-3.7884145393
11
-11.5418195134
21
-4.2692269723
0
LINE
5
25D
100
AcDbEntity
8
0
100
AcDbLine
62
0
6
CONTINUOUS
10
7.8809407453
20
-13.9806071017
11
6.9193158792
21
-13.4997946686
0
LINE
5
25E
100
AcDbEntity
8
0
100
AcDbLine
62
0
6
CONTINUOUS
10
-11.1615613453
20
-3.7264781742
11
-10.3553460797
21
-4.1295858070
0
LINE
5
25F
100
AcDbEntity
8
0
100
AcDbLine
62
0
6
CONTINUOUS
10
4.0058791111
20
-11.3101984024
11
5.2433159782
21
-11.9289168359
0
LINE
5
260
100
AcDbEntity
8
0
100
AcDbLine
62
0
6
CONTINUOUS
10
-9.4883856462
20
-16.6851792954
11
-9.4883856462
21
-16.1655640531
0
LINE
5
261
100
AcDbEntity
8
0
100
AcDbLine
62
9
6
CONTINUOUS
10
-9.4033248398
20
-16.7277096985
11
-9.4033248398
21
-18.7195681272
0
LINE
5
262
100
AcDbEntity
8
0
100
AcDbLine
62
0
6
CONTINUOUS
10
-9.2055429337
20
-8.9999950148
11
-9.2055429337
21
-3.7196009128
0
LINE
5
263
100
AcDbEntity
8
0
100
AcDbLine
62
0
6
CONTINUOUS
10
-8.8166342040
20
-15.2993582461
11
-8.8166342040
21
-14.4333328424
0
LINE
5
264
100
AcDbEntity
8
0
100
AcDbLine
62
0
6
CONTINUOUS
10
-8.3570147963
20
-10.0328377272
11
-8.3570147963
21
-9.2828377272
0
LINE
5
265
100
AcDbEntity
8
0
100
AcDbLine
62
0
6
CONTINUOUS
10
-8.2863041181
20
-16.0841385314
11
-8.2863041181
21
-15.5645232891
0
LINE
5
266
100
AcDbEntity
8
0
100
AcDbLine
62
0
6
CONTINUOUS
10
-8.2309477789
20
-14.6529616430
11
-8.2309477789
21
-13.5271286181
0
LINE
5
267
100
AcDbEntity
8
0
100
AcDbLine
62
0
6
CONTINUOUS
10
-6.2681858871
20
14.9351780702
11
-6.8720905558
21
12.0917032333
0
LINE
5
268
100
AcDbEntity
8
0
100
AcDbLine
62
0
6
CONTINUOUS
10
-11.5418195134
20
-4.2692269723
11
-11.8571933631
21
-5.4183629521
0
LINE
5
269
100
AcDbEntity
8
0
100
AcDbLine
62
0
6
CONTINUOUS
10
-11.2824862681
20
-3.6492705615
11
-11.5418195134
21
-4.2692269723
0
LINE
5
26A
100
AcDbEntity
8
0
100
AcDbLine
62
0
6
CONTINUOUS
10
-11.6500865819
20
-1.6958171014
11
-12.4769567904
21
-3.5609683532
0
LINE
5
26B
100
AcDbEntity
8
0
100
AcDbLine
62
9
6
CONTINUOUS
10
-3.5739424978
20
10.7557764931
11
0.1196420059
21
12.6025687450
0
LINE
5
26C
100
AcDbEntity
8
0
100
AcDbLine
62
0
6
CONTINUOUS
10
-3.7254653795
20
10.6153472228
11
-4.2204401263
21
10.3678598494
0
LINE
5
26D
100
AcDbEntity
8
0
100
AcDbLine
62
0
6
CONTINUOUS
10
-0.9906984597
20
11.9539438550
11
0.1732919223
21
12.5359390460
0
LINE
5
26E
100
AcDbEntity
8
0
100
AcDbLine
62
9
6
CONTINUOUS
10
-0.5434848642
20
11.9255420678
11
0.3044600029
21
12.3495145014
0
LINE
5
26F
100
AcDbEntity
8
0
100
AcDbLine
62
0
6
CONTINUOUS
10
-0.7670916619
20
11.5067302595
11
-1.2620664087
21
11.2592428861
0
LINE
5
270
100
AcDbEntity
8
0
100
AcDbLine
62
0
6
CONTINUOUS
10
-7.4702674151
20
8.0432829637
11
-6.6150673534
21
8.4708829945
0
LINE
5
271
100
AcDbEntity
8
0
100
AcDbLine
62
9
6
CONTINUOUS
10
-1.0384596110
20
11.2450419925
11
-0.5434848642
21
11.4925293659
0
LINE
5
272
100
AcDbEntity
8
0
100
AcDbLine
62
9
6
CONTINUOUS
10
0.6153719148
20
11.9076264192
11
0.0538591739
21
11.6268700488
0
LINE
5
273
100
AcDbEntity
8
0
100
AcDbLine
62
9
6
CONTINUOUS
10
-0.4411155729
20
10.9463699735
11
0.0538591739
21
11.1938573469
0
LINE
5
274
100
AcDbEntity
8
0
100
AcDbLine
62
9
6
CONTINUOUS
10
-6.4491985099
20
9.1765296131
11
-6.4487226329
21
9.1767673117
0
LINE
5
275
100
AcDbEntity
8
0
100
AcDbLine
62
9
6
CONTINUOUS
10
-6.4623713306
20
9.1701095291
11
-6.4617537533
21
9.1704176896
0
LINE
5
276
100
AcDbEntity
8
0
100
AcDbLine
62
9
6
CONTINUOUS
10
-6.4617537533
20
9.1704176896
11
-6.4491985099
21
9.1765296131
0
LINE
5
277
100
AcDbEntity
8
0
100
AcDbLine
62
9
6
CONTINUOUS
10
-11.2915079382
20
-3.4560412740
11
-10.2629922973
21
-3.9702990944
0
LINE
5
278
100
AcDbEntity
8
0
100
AcDbLine
62
9
6
CONTINUOUS
10
3.8759325183
20
-11.0397615022
11
5.1133693853
21
-11.6584799357
0
LINE
5
279
100
AcDbEntity
8
0
100
AcDbLine
62
0
6
CONTINUOUS
10
6.0724847515
20
-11.8639435395
11
6.5275829477
21
-12.0914926376
0
LINE
5
27A
100
AcDbEntity
8
0
100
AcDbLine
62
0
6
CONTINUOUS
10
9.8374186664
20
-13.6853322434
11
10.4873809224
21
-14.0103133714
0
LINE
5
27B
100
AcDbEntity
8
0
100
AcDbLine
62
0
6
CONTINUOUS
10
3.1688257371
20
-9.9067852482
11
3.8759325183
21
-10.2603386388
0
LINE
5
27C
100
AcDbEntity
8
0
100
AcDbLine
62
0
6
CONTINUOUS
10
-9.2055429337
20
-3.7196009128
11
-9.9126497149
21
-3.3660475222
0
LINE
5
27D
100
AcDbEntity
8
0
100
AcDbLine
62
9
6
CONTINUOUS
10
-7.5106143737
20
-16.8214173334
11
-7.5106143737
21
-18.8132757621
0
LINE
5
27E
100
AcDbEntity
8
0
100
AcDbLine
62
0
6
CONTINUOUS
10
-7.2609992854
20
-17.8640453289
11
-7.2609992854
21
-16.7382123040
0
LINE
5
27F
100
AcDbEntity
8
0
100
AcDbLine
62
0
6
CONTINUOUS
10
-6.2003391136
20
-10.1267638999
11
-6.2003391136
21
-8.6863044380
0
LINE
5
280
100
AcDbEntity
8
0
100
AcDbLine
62
0
6
CONTINUOUS
10
-4.8971498307
20
15.8771151869
11
-5.1854714104
21
14.0186308077
0
LINE
5
281
100
AcDbEntity
8
0
100
AcDbLine
62
0
6
CONTINUOUS
10
-4.9387495420
20
14.1127962579
11
-4.6704917653
21
15.8419519043
0
LINE
5
282
100
AcDbEntity
8
0
100
AcDbLine
62
9
6
CONTINUOUS
10
0.9369080841
20
11.3923861223
11
0.5176064271
21
11.1827352938
0
LINE
5
283
100
AcDbEntity
8
0
100
AcDbLine
62
9
6
CONTINUOUS
10
-0.2092419463
20
10.7243025960
11
0.2857328005
21
10.9717899694
0
LINE
5
284
100
AcDbEntity
8
0
100
AcDbLine
62
0
6
CONTINUOUS
10
-3.7254653795
20
8.0172710115
11
-4.2204401263
21
7.7697836381
0
LINE
5
285
100
AcDbEntity
8
0
100
AcDbLine
62
9
6
CONTINUOUS
10
-1.4936301702
20
8.7654750233
11
-3.5739424978
21
7.7253188595
0
LINE
5
286
100
AcDbEntity
8
0
100
AcDbLine
62
0
6
CONTINUOUS
10
13.5279400815
20
-12.4900337919
11
14.2873110306
21
-12.8697192664
0
LINE
5
287
100
AcDbEntity
8
0
100
AcDbLine
62
0
6
CONTINUOUS
10
-1.1445256282
20
-11.2142111807
11
-1.9223430875
21
-9.8726745069
0
LINE
5
288
100
AcDbEntity
8
0
100
AcDbLine
62
0
6
CONTINUOUS
10
-8.0741720838
20
11.4906624693
11
-7.4702674151
21
8.0432829637
0
LINE
5
289
100
AcDbEntity
8
0
100
AcDbLine
62
0
6
CONTINUOUS
10
-5.2811002981
20
-9.6671444921
11
-5.2811002981
21
-9.1459238457
0
LINE
5
28A
100
AcDbEntity
8
0
100
AcDbLine
62
0
6
CONTINUOUS
10
-5.1396789419
20
-9.2166345238
11
-5.1396789419
21
-9.5964338140
0
LINE
5
28B
100
AcDbEntity
8
0
100
AcDbLine
62
9
6
CONTINUOUS
10
-4.6447041950
20
12.4030195483
11
-4.6447041950
21
9.9173498812
0
LINE
5
28C
100
AcDbEntity
8
0
100
AcDbLine
62
9
6
CONTINUOUS
10
-4.6447041950
20
8.2202936063
11
-4.6447041950
21
5.7346239392
0
LINE
5
28D
100
AcDbEntity
8
0
100
AcDbLine
62
9
6
CONTINUOUS
10
-4.4325721607
20
15.8050415288
11
-4.4325721607
21
17.2642902968
0
LINE
5
28E
100
AcDbEntity
8
0
100
AcDbLine
62
0
6
CONTINUOUS
10
-9.9126497149
20
-3.3660475222
11
-11.1854419210
21
-5.5612893521
0
LINE
5
28F
100
AcDbEntity
8
0
100
AcDbLine
62
0
6
CONTINUOUS
10
-9.2055429337
20
-3.7196009128
11
-10.4783351398
21
-5.9148427427
0
LINE
5
290
100
AcDbEntity
8
0
100
AcDbLine
62
9
6
CONTINUOUS
10
-4.3495118477
20
5.4646273346
11
-4.3501003914
21
5.4643305086
0
LINE
5
291
100
AcDbEntity
8
0
100
AcDbLine
62
9
6
CONTINUOUS
10
-1.3280892806
20
8.0401234324
11
-3.3719119889
21
7.0182120783
0
LINE
5
292
100
AcDbEntity
8
0
100
AcDbLine
62
9
6
CONTINUOUS
10
-4.2204401263
20
5.7346239392
11
-3.7254653795
21
5.9821113126
0
LINE
5
293
100
AcDbEntity
8
0
100
AcDbLine
62
0
6
CONTINUOUS
10
-3.8554119723
20
5.7116744124
11
-4.3503867192
21
5.4641870390
0
LINE
5
294
100
AcDbEntity
8
0
100
AcDbLine
62
0
6
CONTINUOUS
10
-5.7851214794
20
4.7145104612
11
-4.5830399513
21
5.3155512252
0
LINE
5
295
100
AcDbEntity
8
0
100
AcDbLine
62
9
6
CONTINUOUS
10
-3.3719119889
20
5.8053346173
11
-1.3146224241
21
6.8339793997
0
LINE
5
296
100
AcDbEntity
8
0
100
AcDbLine
62
9
6
CONTINUOUS
10
0.9626457610
20
7.9650294839
11
1.4576205078
21
8.2125168573
0
LINE
5
297
100
AcDbEntity
8
0
100
AcDbLine
62
9
6
CONTINUOUS
10
1.7941269654
20
8.1770985110
11
2.2670337709
21
8.4135519138
0
LINE
5
298
100
AcDbEntity
8
0
100
AcDbLine
62
0
6
CONTINUOUS
10
1.3447208480
20
7.8007216081
11
0.8497461012
21
7.5532342347
0
LINE
5
299
100
AcDbEntity
8
0
100
AcDbLine
62
0
6
CONTINUOUS
10
15.7199711031
20
-12.4602162778
11
15.4635457725
21
-12.3320036125
0
LINE
5
29A
100
AcDbEntity
8
0
100
AcDbLine
62
0
6
CONTINUOUS
10
-6.8720905558
20
12.0917032333
11
-6.4245171995
21
9.5367383592
0
LINE
5
29B
100
AcDbEntity
8
0
100
AcDbLine
62
9
6
CONTINUOUS
10
-4.2204401263
20
12.4030195483
11
-4.2204401263
21
10.3678598494
0
LINE
5
29C
100
AcDbEntity
8
0
100
AcDbLine
62
9
6
CONTINUOUS
10
-4.2204401263
20
7.7697836381
11
-4.2204401263
21
5.7346239392
0
LINE
5
29D
100
AcDbEntity
8
0
100
AcDbLine
62
0
6
CONTINUOUS
10
-3.9729527529
20
-10.1797969085
11
-3.9729527529
21
-12.1716553372
0
LINE
5
29E
100
AcDbEntity
8
0
100
AcDbLine
62
0
6
CONTINUOUS
10
-3.7254653795
20
12.6505069217
11
-3.7254653795
21
10.6153472228
0
LINE
5
29F
100
AcDbEntity
8
0
100
AcDbLine
62
0
6
CONTINUOUS
10
-3.7254653795
20
8.0172710115
11
-3.7254653795
21
5.9821113126
0
LINE
5
2A0
100
AcDbEntity
8
0
100
AcDbLine
62
9
6
CONTINUOUS
10
-3.7254653795
20
15.9002895103
11
-3.7254653795
21
17.2642902968
0
LINE
5
2A1
100
AcDbEntity
8
0
100
AcDbLine
62
0
6
CONTINUOUS
10
-3.3719119889
20
5.8053346173
11
-3.3719119889
21
7.0182120783
0
LINE
5
2A2
100
AcDbEntity
8
0
100
AcDbLine
62
0
6
CONTINUOUS
10
-3.3719119889
20
11.2608527654
11
-3.3719119889
21
12.4737302264
0
LINE
5
2A3
100
AcDbEntity
8
0
100
AcDbLine
62
0
6
CONTINUOUS
10
-1.4078261245
20
16.6917180557
11
-1.3460368696
21
17.0900037652
0
LINE
5
2A4
100
AcDbEntity
8
0
100
AcDbLine
62
0
6
CONTINUOUS
10
1.5616067992
20
7.3502309285
11
1.5545946725
21
7.3465287693
0
LINE
5
2A5
100
AcDbEntity
8
0
100
AcDbLine
62
0
6
CONTINUOUS
10
1.5685747922
20
7.3538336771
11
1.5616067992
21
7.3502309285
0
LINE
5
2A6
100
AcDbEntity
8
0
100
AcDbLine
62
0
6
CONTINUOUS
10
-3.6318051746
20
5.2644608169
11
-1.4730623774
21
6.3438322154
0
LINE
5
2A7
100
AcDbEntity
8
0
100
AcDbLine
62
0
6
CONTINUOUS
10
1.5683276457
20
7.3535080126
11
2.4353839957
21
7.7870361876
0
LINE
5
2A8
100
AcDbEntity
8
0
100
AcDbLine
62
0
6
CONTINUOUS
10
-1.4798809672
20
4.6258762389
11
-3.1287654003
21
3.8014340224
0
LINE
5
2A9
100
AcDbEntity
8
0
100
AcDbLine
62
9
6
CONTINUOUS
10
2.6614659871
20
6.5452447211
11
1.5616067992
21
5.9953151271
0
LINE
5
2AA
100
AcDbEntity
8
0
100
AcDbLine
62
0
6
CONTINUOUS
10
-7.4702674151
20
8.0432829637
11
-5.7851214794
21
4.7145104612
0
LINE
5
2AB
100
AcDbEntity
8
0
100
AcDbLine
62
0
6
CONTINUOUS
10
-4.5118437308
20
5.2414253167
11
-4.5383843608
21
5.4390434857
0
LINE
5
2AC
100
AcDbEntity
8
0
100
AcDbLine
62
0
6
CONTINUOUS
10
-1.7505916453
20
16.0268534297
11
-1.7505916453
21
14.6352511295
0
LINE
5
2AD
100
AcDbEntity
8
0
100
AcDbLine
62
9
6
CONTINUOUS
10
-1.6041450359
20
15.8500767344
11
-1.6041450359
21
14.3908279665
0
LINE
5
2AE
100
AcDbEntity
8
0
100
AcDbLine
62
0
6
CONTINUOUS
10
-1.4798809672
20
4.2143443596
11
-1.4798809672
21
6.3591024027
0
LINE
5
2AF
100
AcDbEntity
8
0
100
AcDbLine
62
0
6
CONTINUOUS
10
-1.4798809672
20
8.7379766172
11
-1.4798809672
21
10.8827399687
0
LINE
5
2B0
100
AcDbEntity
8
0
100
AcDbLine
62
9
6
CONTINUOUS
10
-1.4127462744
20
-16.7806530623
11
-1.4127462744
21
-15.9146276586
0
LINE
5
2B1
100
AcDbEntity
8
0
100
AcDbLine
62
9
6
CONTINUOUS
10
-1.3920130016
20
4.1082783424
11
-1.3920130016
21
6.5939480096
0
LINE
5
2B2
100
AcDbEntity
8
0
100
AcDbLine
62
9
6
CONTINUOUS
10
-1.3920130016
20
8.2910042844
11
-1.3920130016
21
10.7766739516
0
LINE
5
2B3
100
AcDbEntity
8
0
100
AcDbLine
62
0
6
CONTINUOUS
10
-1.2505916453
20
11.2590994165
11
-1.2505916453
21
11.4130700546
0
LINE
5
2B4
100
AcDbEntity
8
0
100
AcDbLine
62
9
6
CONTINUOUS
10
-0.2092419463
20
3.4021427115
11
-0.2170953006
21
3.3979554421
0
LINE
5
2B5
100
AcDbEntity
8
0
100
AcDbLine
62
0
6
CONTINUOUS
10
0.2857328005
20
3.6496300849
11
0.2773222134
21
3.6452044269
0
LINE
5
2B6
100
AcDbEntity
8
0
100
AcDbLine
62
9
6
CONTINUOUS
10
-0.2170953006
20
3.3979554421
11
-0.2171847020
21
3.3979104953
0
LINE
5
2B7
100
AcDbEntity
8
0
100
AcDbLine
62
9
6
CONTINUOUS
10
0.8463856779
20
5.5192219906
11
1.3413604247
21
5.7667093640
0
LINE
5
2B8
100
AcDbEntity
8
0
100
AcDbLine
62
9
6
CONTINUOUS
10
0.9626457610
20
4.9895281162
11
1.4576205078
21
5.2370154896
0
LINE
5
2B9
100
AcDbEntity
8
0
100
AcDbLine
62
9
6
CONTINUOUS
10
2.7357146597
20
5.4067212255
11
1.7941269654
21
4.9359273783
0
LINE
5
2BA
100
AcDbEntity
8
0
100
AcDbLine
62
0
6
CONTINUOUS
10
-2.1698304609
20
2.8030394022
11
-3.3719119889
21
2.2019986381
0
LINE
5
2BB
100
AcDbEntity
8
0
100
AcDbLine
62
9
6
CONTINUOUS
10
0.2774659717
20
3.6452354404
11
0.2857328005
21
3.6496300849
0
LINE
5
2BC
100
AcDbEntity
8
0
100
AcDbLine
62
0
6
CONTINUOUS
10
0.2774659717
20
3.6452354404
11
-0.2175087751
21
3.3977480669
0
LINE
5
2BD
100
AcDbEntity
8
0
100
AcDbLine
62
0
6
CONTINUOUS
10
-5.7851214794
20
4.7145104612
11
-3.3719119889
21
2.2019986381
0
LINE
5
2BE
100
AcDbEntity
8
0
100
AcDbLine
62
0
6
CONTINUOUS
10
-4.6499590005
20
5.4477405425
11
-4.5830399513
21
5.3155512252
0
LINE
5
2BF
100
AcDbEntity
8
0
100
AcDbLine
62
0
6
CONTINUOUS
10
0.1636219170
20
-14.2931560839
11
0.1636219170
21
-11.8682849533
0
LINE
5
2C0
100
AcDbEntity
8
0
100
AcDbLine
62
0
6
CONTINUOUS
10
-10.3369137836
20
-10.3156804397
11
-9.2762536118
21
-9.0353503538
0
LINE
5
2C1
100
AcDbEntity
8
0
100
AcDbLine
62
0
6
CONTINUOUS
10
-9.6298070024
20
-10.6692338303
11
-8.5691468306
21
-9.3889037444
0
LINE
5
2C2
100
AcDbEntity
8
0
100
AcDbLine
62
0
6
CONTINUOUS
10
0.5176064271
20
3.2068111339
11
0.5007852529
21
3.1979598178
0
LINE
5
2C3
100
AcDbEntity
8
0
100
AcDbLine
62
0
6
CONTINUOUS
10
0.5010727694
20
3.1980218449
11
2.6641377944
21
4.2795543574
0
LINE
5
2C4
100
AcDbEntity
8
0
100
AcDbLine
62
0
6
CONTINUOUS
10
-0.0485101173
20
1.7423792304
11
-1.2505916453
21
1.1413384664
0
LINE
5
2C5
100
AcDbEntity
8
0
100
AcDbLine
62
0
6
CONTINUOUS
10
-11.5418195134
20
-4.2692269723
11
-10.8089416312
21
-3.9027880312
0
LINE
5
2C6
100
AcDbEntity
8
0
100
AcDbLine
62
0
6
CONTINUOUS
10
-1.2505916453
20
1.1413384664
11
1.0453479485
21
1.2358152028
0
LINE
5
2C7
100
AcDbEntity
8
0
100
AcDbLine
62
0
6
CONTINUOUS
10
-0.0485101173
20
1.7423792304
11
1.6646309309
21
1.8128741057
0
LINE
5
2C8
100
AcDbEntity
8
0
100
AcDbLine
62
0
6
CONTINUOUS
10
-3.3719119889
20
2.2019986381
11
-1.2505916453
21
1.1413384664
0
LINE
5
2C9
100
AcDbEntity
8
0
100
AcDbLine
62
0
6
CONTINUOUS
10
-2.1698304609
20
2.8030394022
11
-0.0485101173
21
1.7423792304
0
LINE
5
2CA
100
AcDbEntity
8
0
100
AcDbLine
62
0
6
CONTINUOUS
10
-4.5830399513
20
5.3155512252
11
-2.1698304609
21
2.8030394022
0
LINE
5
2CB
100
AcDbEntity
8
0
100
AcDbLine
62
9
6
CONTINUOUS
10
1.1108676804
20
-16.9055965755
11
1.1108676804
21
-16.0395711717
0
LINE
5
2CC
100
AcDbEntity
8
0
100
AcDbLine
62
0
6
CONTINUOUS
10
1.3657034451
20
18.4458739225
11
1.3657034451
21
19.8098747091
0
LINE
5
2CD
100
AcDbEntity
8
0
100
AcDbLine
62
0
6
CONTINUOUS
10
1.8960335309
20
-12.1020270781
11
1.8960335309
21
-16.4321540970
0
LINE
5
2CE
100
AcDbEntity
8
0
100
AcDbLine
62
9
6
CONTINUOUS
10
6.1740295571
20
4.0130082582
11
11.6894624504
21
6.7707247049
0
LINE
5
2CF
100
AcDbEntity
8
0
100
AcDbLine
62
0
6
CONTINUOUS
10
-10.7945016263
20
-4.8870170837
11
-11.8571933631
21
-5.4183629521
0
LINE
5
2D0
100
AcDbEntity
8
0
100
AcDbLine
62
0
6
CONTINUOUS
10
-14.5441991316
20
-7.0862047408
11
-12.3504807222
21
-5.9893455360
0
LINE
5
2D1
100
AcDbEntity
8
0
100
AcDbLine
62
9
6
CONTINUOUS
10
-14.2877738010
20
-7.2144174061
11
-12.2479105899
21
-6.1944858006
0
LINE
5
2D2
100
AcDbEntity
8
0
100
AcDbLine
62
9
6
CONTINUOUS
10
-14.1557787995
20
-7.3914429872
11
-12.1507013572
21
-6.3889042660
0
LINE
5
2D3
100
AcDbEntity
8
0
100
AcDbLine
62
9
6
CONTINUOUS
10
-11.8571933631
20
-6.4899405745
11
-11.1854419210
21
-6.1540648535
0
LINE
5
2D4
100
AcDbEntity
8
0
100
AcDbLine
62
0
6
CONTINUOUS
10
-0.5752796515
20
3.4034284244
11
-1.1726236896
21
3.7021004434
0
LINE
5
2D5
100
AcDbEntity
8
0
100
AcDbLine
62
0
6
CONTINUOUS
10
-4.7081575956
20
5.4698673964
11
-5.3055016337
21
5.7685394154
0
LINE
5
2D6
100
AcDbEntity
8
0
100
AcDbLine
62
9
6
CONTINUOUS
10
-0.6532476073
20
3.5656905645
11
-1.2505916453
21
3.8643625836
0
LINE
5
2D7
100
AcDbEntity
8
0
100
AcDbLine
62
9
6
CONTINUOUS
10
-4.7861255513
20
5.6321295365
11
-5.3834695894
21
5.9308015556
0
LINE
5
2D8
100
AcDbEntity
8
0
100
AcDbLine
62
0
6
CONTINUOUS
10
0.0538591739
20
3.2264236321
11
-0.2564485171
21
3.3815774776
0
LINE
5
2D9
100
AcDbEntity
8
0
100
AcDbLine
62
0
6
CONTINUOUS
10
-4.0790187701
20
5.2928626041
11
-4.3913099293
21
5.4490081837
0
LINE
5
2DA
100
AcDbEntity
8
0
100
AcDbLine
62
0
6
CONTINUOUS
10
11.2651983817
20
-6.6932014115
11
13.2180417798
21
-8.7064483831
0
LINE
5
2DB
100
AcDbEntity
8
0
100
AcDbLine
62
9
6
CONTINUOUS
10
-4.5254115328
20
17.7326312255
11
-5.2023558084
21
19.4021968280
0
LINE
5
2DC
100
AcDbEntity
8
0
100
AcDbLine
62
9
6
CONTINUOUS
10
-3.9324143625
20
17.9802950221
11
-4.6097539419
21
19.6508355729
0
LINE
5
2DD
100
AcDbEntity
8
0
100
AcDbLine
62
0
6
CONTINUOUS
10
6.9193158792
20
-13.4997946686
11
6.5275829477
21
-12.1715935188
0
LINE
5
2DE
100
AcDbEntity
8
0
100
AcDbLine
62
0
6
CONTINUOUS
10
2.6031403121
20
-12.4555804687
11
2.6031403121
21
-16.7857074876
0
LINE
5
2DF
100
AcDbEntity
8
0
100
AcDbLine
62
0
6
CONTINUOUS
10
3.8759325183
20
-11.0397615022
11
3.8759325183
21
-10.2603386388
0
LINE
5
2E0
100
AcDbEntity
8
0
100
AcDbLine
62
0
6
CONTINUOUS
10
-11.8243191865
20
-6.5556889277
11
-11.1854419210
21
-6.2362502950
0
LINE
5
2E1
100
AcDbEntity
8
0
100
AcDbLine
62
0
6
CONTINUOUS
10
-11.1854419210
20
-6.8255045187
11
-13.7482384784
21
-8.1069027974
0
LINE
5
2E2
100
AcDbEntity
8
0
100
AcDbLine
62
9
6
CONTINUOUS
10
-4.5361255513
20
17.6222532099
11
-4.5790187701
21
17.6962330691
0
LINE
5
2E3
100
AcDbEntity
8
0
100
AcDbLine
62
0
6
CONTINUOUS
10
7.8544531562
20
-13.7266733265
11
6.7286995945
21
-10.0615845182
0
LINE
5
2E4
100
AcDbEntity
8
0
100
AcDbLine
62
9
6
CONTINUOUS
10
5.4669227759
20
-11.4022439291
11
5.4669227759
21
4.0130082582
0
LINE
5
2E5
100
AcDbEntity
8
0
100
AcDbLine
62
0
6
CONTINUOUS
10
5.8204761665
20
-14.2571977170
11
5.8204761665
21
-15.3287753394
0
LINE
5
2E6
100
AcDbEntity
8
0
100
AcDbLine
62
0
6
CONTINUOUS
10
5.9618975228
20
-18.8980987948
11
5.9618975228
21
-17.3392530680
0
LINE
5
2E7
100
AcDbEntity
8
0
100
AcDbLine
62
0
6
CONTINUOUS
10
-13.3421176036
20
-13.6976531449
11
-13.5085276625
21
-13.8224606890
0
LINE
5
2E8
100
AcDbEntity
8
0
100
AcDbLine
62
0
6
CONTINUOUS
10
-11.1854419210
20
-8.1943600962
11
-12.8824981959
21
-9.0428882336
0
LINE
5
2E9
100
AcDbEntity
8
0
100
AcDbLine
62
0
6
CONTINUOUS
10
-9.2762536118
20
-9.0353503538
11
-9.0641215774
21
-8.9292843366
0
LINE
5
2EA
100
AcDbEntity
8
0
100
AcDbLine
62
9
6
CONTINUOUS
10
6.1740295571
20
-11.4022439291
11
6.1740295571
21
4.0130082582
0
LINE
5
2EB
100
AcDbEntity
8
0
100
AcDbLine
62
0
6
CONTINUOUS
10
6.5275829477
20
-12.0914926376
11
6.5275829477
21
-12.1715935188
0
LINE
5
2EC
100
AcDbEntity
8
0
100
AcDbLine
62
0
6
CONTINUOUS
10
6.5275829477
20
-11.2254672338
11
6.5275829477
21
-8.8003296389
0
LINE
5
2ED
100
AcDbEntity
8
0
100
AcDbLine
62
0
6
CONTINUOUS
10
-4.1143741091
20
-8.7766589960
11
-4.8921915684
21
-9.3403782106
0
LINE
5
2EE
100
AcDbEntity
8
0
100
AcDbLine
62
0
6
CONTINUOUS
10
-3.9456906435
20
-8.8610007288
11
-3.9729527529
21
-8.8807588028
0
LINE
5
2EF
100
AcDbEntity
8
0
100
AcDbLine
62
0
6
CONTINUOUS
10
-10.4783351398
20
-10.2449697616
11
-10.1369137836
21
-10.0742590835
0
LINE
5
2F0
100
AcDbEntity
8
0
100
AcDbLine
62
0
6
CONTINUOUS
10
-8.5691468306
20
-9.3889037444
11
-8.3570147963
21
-9.2828377272
0
LINE
5
2F1
100
AcDbEntity
8
0
100
AcDbLine
62
0
6
CONTINUOUS
10
-8.3570147963
20
-10.0328377272
11
-9.6312271543
21
-10.6699439063
0
LINE
5
2F2
100
AcDbEntity
8
0
100
AcDbLine
62
0
6
CONTINUOUS
10
3.1688257371
20
-9.9067852482
11
1.8960335309
21
-12.1020270781
0
LINE
5
2F3
100
AcDbEntity
8
0
100
AcDbLine
62
0
6
CONTINUOUS
10
-4.8921915684
20
-9.3403782106
11
-3.9729527529
21
-8.8807588028
0
LINE
5
2F4
100
AcDbEntity
8
0
100
AcDbLine
62
0
6
CONTINUOUS
10
-5.1396789419
20
-9.5964338140
11
-13.3421176036
21
-13.6976531449
0
LINE
5
2F5
100
AcDbEntity
8
0
100
AcDbLine
62
0
6
CONTINUOUS
10
-10.2108467662
20
-12.5371791244
11
-11.1500865819
21
-13.0067990323
0
LINE
5
2F6
100
AcDbEntity
8
0
100
AcDbLine
62
0
6
CONTINUOUS
10
-12.0556179520
20
-13.7015142657
11
-13.2360515864
21
-14.2917310830
0
LINE
5
2F7
100
AcDbEntity
8
0
100
AcDbLine
62
0
6
CONTINUOUS
10
-9.0697473161
20
-12.7281941901
11
-3.9729527529
21
-10.1797969085
0
LINE
5
2F8
100
AcDbEntity
8
0
100
AcDbLine
62
9
6
CONTINUOUS
10
-5.3834695894
20
12.9456073262
11
-4.7861255513
21
12.6469353072
0
LINE
5
2F9
100
AcDbEntity
8
0
100
AcDbLine
62
9
6
CONTINUOUS
10
-1.2505916453
20
10.8791683542
11
-0.6532476073
21
10.5804963352
0
LINE
5
2FA
100
AcDbEntity
8
0
100
AcDbLine
62
9
6
CONTINUOUS
10
-5.1713375550
20
13.3114809645
11
-4.5739935169
21
13.0128089455
0
LINE
5
2FB
100
AcDbEntity
8
0
100
AcDbLine
62
9
6
CONTINUOUS
10
-1.0384596110
20
11.2450419925
11
-0.4411155729
21
10.9463699735
0
LINE
5
2FC
100
AcDbEntity
8
0
100
AcDbLine
62
0
6
CONTINUOUS
10
-4.6763628082
20
13.5589683379
11
-4.0790187701
21
13.2602963189
0
LINE
5
2FD
100
AcDbEntity
8
0
100
AcDbLine
62
0
6
CONTINUOUS
10
-0.5434848642
20
11.4925293659
11
0.0538591739
21
11.1938573469
0
LINE
5
2FE
100
AcDbEntity
8
0
100
AcDbLine
62
0
6
CONTINUOUS
10
-4.6763628082
20
13.9919810398
11
-4.0790187701
21
13.6933090208
0
LINE
5
2FF
100
AcDbEntity
8
0
100
AcDbLine
62
0
6
CONTINUOUS
10
-0.5434848642
20
11.9255420678
11
0.0538591739
21
11.6268700488
0
LINE
5
300
100
AcDbEntity
8
0
100
AcDbLine
62
0
6
CONTINUOUS
10
12.2385151995
20
-11.5346423048
11
11.1127616379
21
-7.8695534965
0
LINE
5
301
100
AcDbEntity
8
0
100
AcDbLine
62
0
6
CONTINUOUS
10
10.4873809224
20
-14.0103133714
11
10.4873809224
21
-13.3603511154
0
LINE
5
302
100
AcDbEntity
8
0
100
AcDbLine
62
0
6
CONTINUOUS
10
3.8759325183
20
-10.2603386388
11
2.6031403121
21
-12.4555804687
0
LINE
5
303
100
AcDbEntity
8
0
100
AcDbLine
62
0
6
CONTINUOUS
10
-9.1701875946
20
-13.9967485259
11
-8.2309477789
21
-13.5271286181
0
LINE
5
304
100
AcDbEntity
8
0
100
AcDbLine
62
0
6
CONTINUOUS
10
-8.2309477789
20
-14.3006528502
11
-3.9729527529
21
-12.1716553372
0
LINE
5
305
100
AcDbEntity
8
0
100
AcDbLine
62
0
6
CONTINUOUS
10
0.2560042965
20
22.0825420919
11
1.1585966639
21
20.5258005353
0
LINE
5
306
100
AcDbEntity
8
0
100
AcDbLine
62
0
6
CONTINUOUS
10
11.2651983817
20
-6.6932014115
11
11.2651983817
21
-6.6049934670
0
LINE
5
307
100
AcDbEntity
8
0
100
AcDbLine
62
9
6
CONTINUOUS
10
11.6894624504
20
6.7707247049
11
11.6894624504
21
-6.3928614327
0
LINE
5
308
100
AcDbEntity
8
0
100
AcDbLine
62
0
6
CONTINUOUS
10
11.8359090598
20
6.9475014002
11
11.8359090598
21
-6.2160847374
0
LINE
5
309
100
AcDbEntity
8
0
100
AcDbLine
62
0
6
CONTINUOUS
10
5.5734771906
20
-17.2560709822
11
5.3267541813
21
-17.9183586024
0
LINE
5
30A
100
AcDbEntity
8
0
100
AcDbLine
62
0
6
CONTINUOUS
10
1.0475053935
20
-16.0078900283
11
1.8960335309
21
-14.9836259596
0
LINE
5
30B
100
AcDbEntity
8
0
100
AcDbLine
62
0
6
CONTINUOUS
10
-8.4630808134
20
-14.7690281603
11
-8.2309477789
21
-14.6529616430
0
LINE
5
30C
100
AcDbEntity
8
0
100
AcDbLine
62
0
6
CONTINUOUS
10
-9.4883856462
20
-16.1655640531
11
-8.2863041181
21
-15.5645232891
0
LINE
5
30D
100
AcDbEntity
8
0
100
AcDbLine
62
0
6
CONTINUOUS
10
-0.2252868126
20
-12.0536298786
11
-9.4883856462
21
-16.6851792954
0
LINE
5
30E
100
AcDbEntity
8
0
100
AcDbLine
62
9
6
CONTINUOUS
10
10.9116449911
20
-6.6082986172
11
6.5275829477
21
-8.8003296389
0
LINE
5
30F
100
AcDbEntity
8
0
100
AcDbLine
62
0
6
CONTINUOUS
10
-7.7087743581
20
19.2611108631
11
-4.5790187701
21
17.6962330691
0
LINE
5
310
100
AcDbEntity
8
0
100
AcDbLine
62
0
6
CONTINUOUS
10
-1.4576984265
20
16.1355728973
11
1.6720571615
21
14.5706951033
0
LINE
5
311
100
AcDbEntity
8
0
100
AcDbLine
62
0
6
CONTINUOUS
10
13.5279400815
20
-9.6335027939
11
13.5279400815
21
-12.4900337919
0
LINE
5
312
100
AcDbEntity
8
0
100
AcDbLine
62
0
6
CONTINUOUS
10
1.7546121747
20
-16.3614434189
11
1.8960335309
21
-16.1907327407
0
LINE
5
313
100
AcDbEntity
8
0
100
AcDbLine
62
0
6
CONTINUOUS
10
11.6894624504
20
-6.3928614327
11
10.9116449911
21
-6.7817701623
0
LINE
5
314
100
AcDbEntity
8
0
100
AcDbLine
62
0
6
CONTINUOUS
10
-7.2609992854
20
-16.7382123040
11
0.1636219170
21
-13.0259017027
0
LINE
5
315
100
AcDbEntity
8
0
100
AcDbLine
62
9
6
CONTINUOUS
10
11.1127616379
20
-7.8695534965
11
6.7286995945
21
-10.0615845182
0
LINE
5
316
100
AcDbEntity
8
0
100
AcDbLine
62
0
6
CONTINUOUS
10
15.7199711031
20
-14.0190620046
11
15.7199711031
21
-12.4602162778
0
LINE
5
317
100
AcDbEntity
8
0
100
AcDbLine
62
0
6
CONTINUOUS
10
-7.2609992854
20
-17.8640453289
11
0.1636219170
21
-14.1517347277
0
LINE
5
318
100
AcDbEntity
8
0
100
AcDbLine
62
9
6
CONTINUOUS
10
6.1740295571
20
-11.4022439291
11
6.5275829477
21
-11.2254672338
0
LINE
5
319
100
AcDbEntity
8
0
100
AcDbLine
62
0
6
CONTINUOUS
10
5.9141363714
20
-11.9431177295
11
6.2676897620
21
-11.7663410342
0
LINE
5
31A
100
AcDbEntity
8
0
100
AcDbLine
62
0
6
CONTINUOUS
10
-7.5106143737
20
-16.8214173334
11
-7.2609992854
21
-16.7382123040
0
LINE
5
31B
100
AcDbEntity
8
0
100
AcDbLine
62
0
6
CONTINUOUS
10
6.0723290488
20
-15.5629021367
11
6.8429567974
21
-14.7684380324
0
LINE
5
31C
100
AcDbEntity
8
0
100
AcDbLine
62
0
6
CONTINUOUS
10
6.9193158792
20
-13.4997946686
11
5.8204761665
21
-14.2571977170
0
LINE
5
31D
100
AcDbEntity
8
0
100
AcDbLine
62
0
6
CONTINUOUS
10
7.5649469026
20
-14.2707881020
11
6.8429567974
21
-14.7684380324
0
LINE
5
31E
100
AcDbEntity
8
0
100
AcDbLine
62
0
6
CONTINUOUS
10
1.8960335309
20
-16.2907327407
11
1.7546121747
21
-16.3614434189
0
LINE
5
31F
100
AcDbEntity
8
0
100
AcDbLine
62
9
6
CONTINUOUS
10
7.8544531562
20
-13.7266733265
11
12.2385151995
21
-11.5346423048
0
LINE
5
320
100
AcDbEntity
8
0
100
AcDbLine
62
0
6
CONTINUOUS
10
-1.4127462744
20
-15.9146276586
11
-7.2609992854
21
-17.8640453289
0
LINE
5
321
100
AcDbEntity
8
0
100
AcDbLine
62
0
6
CONTINUOUS
10
-1.4127462744
20
-16.7806530623
11
-7.5106143737
21
-18.8132757621
0
LINE
5
322
100
AcDbEntity
8
0
100
AcDbLine
62
0
6
CONTINUOUS
10
11.1634978734
20
-13.0173177244
11
12.1915128434
21
-11.9575051316
0
LINE
5
323
100
AcDbEntity
8
0
100
AcDbLine
62
0
6
CONTINUOUS
10
6.0472616791
20
-15.5774912841
11
6.0723290488
21
-15.5629021367
0
LINE
5
324
100
AcDbEntity
8
0
100
AcDbLine
62
0
6
CONTINUOUS
10
11.1634978734
20
-13.0173177244
11
11.1384305037
21
-13.0319068718
0
LINE
5
325
100
AcDbEntity
8
0
100
AcDbLine
62
9
6
CONTINUOUS
10
7.5649469026
20
-14.2707881020
11
12.1915128434
21
-11.9575051316
0
LINE
5
326
100
AcDbEntity
8
0
100
AcDbLine
62
0
6
CONTINUOUS
10
5.8204761665
20
-15.1770395604
11
2.6031403121
21
-16.7857074876
0
LINE
5
327
100
AcDbEntity
8
0
100
AcDbLine
62
9
6
CONTINUOUS
10
6.0723290488
20
-15.5629021367
11
11.1634978734
21
-13.0173177244
0
LINE
5
328
100
AcDbEntity
8
0
100
AcDbLine
62
0
6
CONTINUOUS
10
6.0513402419
20
-15.5783714557
11
11.1425090664
21
-13.0327870434
0
LINE
5
329
100
AcDbEntity
8
0
100
AcDbLine
62
0
6
CONTINUOUS
10
13.5279400815
20
-12.4900337919
11
10.4873809224
21
-14.0103133714
0
LINE
5
32A
100
AcDbEntity
8
0
100
AcDbLine
62
0
6
CONTINUOUS
10
10.8590775069
20
-14.0465997594
11
4.4951164762
21
-17.2285802747
0
LINE
5
32B
100
AcDbEntity
8
0
100
AcDbLine
62
0
6
CONTINUOUS
10
5.6853115053
20
-17.1707190290
11
15.3741030534
21
-12.3263232550
0
LINE
5
32C
100
AcDbEntity
8
0
100
AcDbLine
62
9
6
CONTINUOUS
10
5.7054721921
20
-17.2110404026
11
15.4635457725
21
-12.3320036125
0
LINE
5
32D
100
AcDbEntity
8
0
100
AcDbLine
62
0
6
CONTINUOUS
10
5.9618975228
20
-17.3392530680
11
15.7199711031
21
-12.4602162778
0
LINE
5
32E
100
AcDbEntity
8
0
100
AcDbLine
62
9
6
CONTINUOUS
10
15.7199711031
20
-14.0190620046
11
5.9618975228
21
-18.8980987948
0
LINE
5
32F
100
AcDbEntity
8
0
100
AcDbLine
62
0
6
CONTINUOUS
10
15.5900245103
20
-14.2894989048
11
6.0440829643
21
-19.0624696778
0
SPLINE
5
330
100
AcDbEntity
8
0
100
AcDbSpline
62
0
6
CONTINUOUS
70
0
71
3
72
8
73
4
74
2
42
0.0000001000
43
0.0000001000
44
0.0000000001
12
-0.0630772190
22
-0.0317765070
32
0.0000000000
13
-0.0562460017
23
-0.0427304213
33
0.0000000000
40
0.0000000000
40
0.0000000000
40
0.0000000000
40
0.0000000000
40
1.0000000000
40
1.0000000000
40
1.0000000000
40
1.0000000000
10
-1.2622283212
20
11.2588524489
30
0.0000000000
10
-1.2832540609
20
11.2482602799
30
0.0000000000
10
-1.3033206777
20
11.2357283225
30
0.0000000000
10
-1.3220693450
20
11.2214848487
30
0.0000000000
11
-1.2622283212
21
11.2588524489
31
0.0000000000
11
-1.3220693450
21
11.2214848487
31
0.0000000000
0
SPLINE
5
331
100
AcDbEntity
8
0
100
AcDbSpline
62
0
6
CONTINUOUS
70
0
71
3
72
9
73
5
74
3
42
0.0000001000
43
0.0000001000
44
0.0000000001
12
-0.3089752878
22
-0.2347303601
32
0.0000000000
13
0.0000000000
23
-0.3798952385
33
0.0000000000
40
0.0000000000
40
0.0000000000
40
0.0000000000
40
0.0000000000
40
0.2331665354
40
1.0000000000
40
1.0000000000
40
1.0000000000
40
1.0000000000
10
-1.3220693450
20
11.2214848487
30
0.0000000000
10
-1.3460835774
20
11.2032410938
30
0.0000000000
10
-1.4398021487
20
11.1129552841
30
0.0000000000
10
-1.4798809672
20
10.9798454294
30
0.0000000000
10
-1.4798809672
20
10.8827399687
30
0.0000000000
11
-1.3220693450
21
11.2214848487
31
0.0000000000
11
-1.3868714338
21
11.1588096358
31
0.0000000000
11
-1.4798809672
21
10.8827399687
31
0.0000000000
0
SPLINE
5
332
100
AcDbEntity
8
0
100
AcDbSpline
62
0
6
CONTINUOUS
70
0
71
3
72
8
73
4
74
2
42
0.0000001000
43
0.0000001000
44
0.0000000001
12
0.1209451842
22
-0.0604725921
32
0.0000000000
13
0.1343812369
23
-0.0201082192
33
0.0000000000
40
0.0000000000
40
0.0000000000
40
0.0000000000
40
0.0000000000
40
1.0000000000
40
1.0000000000
40
1.0000000000
40
1.0000000000
10
-0.5752796515
20
3.4034284244
30
0.0000000000
10
-0.5349645901
20
3.3832708937
30
0.0000000000
10
-0.4912684913
20
3.3689733192
30
0.0000000000
10
-0.4464747456
20
3.3622705795
30
0.0000000000
11
-0.5752796515
21
3.4034284244
31
0.0000000000
11
-0.4464747456
21
3.3622705795
31
0.0000000000
0
SPLINE
5
333
100
AcDbEntity
8
0
100
AcDbSpline
62
0
6
CONTINUOUS
70
0
71
3
72
8
73
4
74
2
42
0.0000001000
43
0.0000001000
44
0.0000000001
12
0.0849850159
22
-0.0127167852
32
0.0000000000
13
0.0856759675
23
0.0059118138
33
0.0000000000
40
0.0000000000
40
0.0000000000
40
0.0000000000
40
0.0000000000
40
1.0000000000
40
1.0000000000
40
1.0000000000
40
1.0000000000
10
-0.4464747456
20
3.3622705795
30
0.0000000000
10
-0.4181464070
20
3.3580316511
30
0.0000000000
10
-0.3893790627
20
3.3568302890
30
0.0000000000
10
-0.3608204069
20
3.3588008936
30
0.0000000000
11
-0.4464747456
21
3.3622705795
31
0.0000000000
11
-0.3608204069
21
3.3588008936
31
0.0000000000
0
SPLINE
5
334
100
AcDbEntity
8
0
100
AcDbSpline
62
0
6
CONTINUOUS
70
0
71
3
72
9
73
5
74
3
42
0.0000001000
43
0.0000001000
44
0.0000000001
12
0.1494592088
22
0.0103129856
32
0.0000000000
13
0.1336868184
23
0.0669270385
33
0.0000000000
40
0.0000000000
40
0.0000000000
40
0.0000000000
40
0.0000000000
40
0.2824256429
40
1.0000000000
40
1.0000000000
40
1.0000000000
40
1.0000000000
10
-0.3608204069
20
3.3588008936
30
0.0000000000
10
-0.3467500358
20
3.3597717775
30
0.0000000000
10
-0.2971096613
20
3.3659356541
30
0.0000000000
10
-0.2490754650
20
3.3819538983
30
0.0000000000
10
-0.2170987207
20
3.3979622738
30
0.0000000000
11
-0.3608204069
21
3.3588008936
31
0.0000000000
11
-0.3188387220
21
3.3640394773
31
0.0000000000
11
-0.2170987207
21
3.3979622738
31
0.0000000000
0
SPLINE
5
335
100
AcDbEntity
8
0
100
AcDbSpline
62
0
6
CONTINUOUS
70
0
71
3
72
9
73
5
74
3
42
0.0000001000
43
0.0000001000
44
0.0000000001
12
0.0000000000
22
-0.2822409090
32
0.0000000000
13
0.1321669947
23
-0.2508242845
33
0.0000000000
40
0.0000000000
40
0.0000000000
40
0.0000000000
40
0.0000000000
40
0.7494428846
40
1.0000000000
40
1.0000000000
40
1.0000000000
40
1.0000000000
10
-1.4798809672
20
4.2143443596
30
0.0000000000
10
-1.4798809672
20
4.1438365459
30
0.0000000000
10
-1.4602736086
20
4.0492068123
30
0.0000000000
10
-1.4210033131
20
3.9629876825
30
0.0000000000
10
-1.4099648528
20
3.9420390794
30
0.0000000000
11
-1.4798809672
21
4.2143443596
31
0.0000000000
11
-1.4394478001
21
4.0067213236
31
0.0000000000
11
-1.4099648528
21
3.9420390794
31
0.0000000000
0
SPLINE
5
336
100
AcDbEntity
8
0
100
AcDbSpline
62
0
6
CONTINUOUS
70
0
71
3
72
9
73
5
74
3
42
0.0000001000
43
0.0000001000
44
0.0000000001
12
0.1283919348
22
-0.2436600398
32
0.0000000000
13
0.2267670099
23
-0.1565801699
33
0.0000000000
40
0.0000000000
40
0.0000000000
40
0.0000000000
40
0.0000000000
40
0.5144828977
40
1.0000000000
40
1.0000000000
40
1.0000000000
40
1.0000000000
10
-1.4099648528
20
3.9420390794
30
0.0000000000
10
-1.3879463679
20
3.9002527716
30
0.0000000000
10
-1.3358762940
20
3.8240922439
30
0.0000000000
10
-1.2668444625
20
3.7615500175
30
0.0000000000
10
-1.2301447086
20
3.7362092341
30
0.0000000000
11
-1.4099648528
21
3.9420390794
31
0.0000000000
11
-1.3298783903
21
3.8254908579
31
0.0000000000
11
-1.2301447086
21
3.7362092341
31
0.0000000000
0
SPLINE
5
337
100
AcDbEntity
8
0
100
AcDbSpline
62
0
6
CONTINUOUS
70
0
71
3
72
8
73
4
74
2
42
0.0000001000
43
0.0000001000
44
0.0000000001
12
0.0552211942
22
-0.0381296379
32
0.0000000000
13
0.0597180482
23
-0.0298590241
33
0.0000000000
40
0.0000000000
40
0.0000000000
40
0.0000000000
40
0.0000000000
40
1.0000000000
40
1.0000000000
40
1.0000000000
40
1.0000000000
10
-1.2301447086
20
3.7362092341
30
0.0000000000
10
-1.2117376439
20
3.7234993548
30
0.0000000000
10
-1.1925297057
20
3.7120534515
30
0.0000000000
10
-1.1726236896
20
3.7021004434
30
0.0000000000
11
-1.2301447086
21
3.7362092341
31
0.0000000000
11
-1.1726236896
21
3.7021004434
31
0.0000000000
0
SPLINE
5
338
100
AcDbEntity
8
0
100
AcDbSpline
62
0
6
CONTINUOUS
70
0
71
3
72
10
73
6
74
4
42
0.0000001000
43
0.0000001000
44
0.0000000001
12
-0.0673819548
22
0.2323046609
32
0.0000000000
13
0.0979552368
23
0.2326436874
33
0.0000000000
40
0.0000000000
40
0.0000000000
40
0.0000000000
40
0.0000000000
40
0.2052968759
40
0.5524107723
40
1.0000000000
40
1.0000000000
40
1.0000000000
40
1.0000000000
10
-1.4808886992
20
6.3575425684
30
0.0000000000
10
-1.4854998008
20
6.3734397088
30
0.0000000000
10
-1.4604775359
20
6.4218881146
30
0.0000000000
10
-1.4354790449
20
6.4971041282
30
0.0000000000
10
-1.4066275712
20
6.5592384068
30
0.0000000000
10
-1.3920130016
20
6.5939480096
30
0.0000000000
11
-1.4808886992
21
6.3575425684
31
0.0000000000
11
-1.4684500064
21
6.4084974998
31
0.0000000000
11
-1.4362765950
21
6.4899969931
31
0.0000000000
11
-1.3920130016
21
6.5939480096
31
0.0000000000
0
SPLINE
5
339
100
AcDbEntity
8
0
100
AcDbSpline
62
0
6
CONTINUOUS
70
0
71
3
72
8
73
4
74
2
42
0.0000001000
43
0.0000001000
44
0.0000000001
12
0.0788750496
22
-0.0394375248
32
0.0000000000
13
0.0869102824
23
-0.0228033869
33
0.0000000000
40
0.0000000000
40
0.0000000000
40
0.0000000000
40
0.0000000000
40
1.0000000000
40
1.0000000000
40
1.0000000000
40
1.0000000000
10
-4.7081575956
20
5.4698673964
30
0.0000000000
10
-4.6818659124
20
5.4567215548
30
0.0000000000
10
-4.6538238717
20
5.4461607776
30
0.0000000000
10
-4.6248537776
20
5.4385596487
30
0.0000000000
11
-4.7081575956
21
5.4698673964
31
0.0000000000
11
-4.6248537776
21
5.4385596487
31
0.0000000000
0
SPLINE
5
33A
100
AcDbEntity
8
0
100
AcDbSpline
62
0
6
CONTINUOUS
70
0
71
3
72
8
73
4
74
2
42
0.0000001000
43
0.0000001000
44
0.0000000001
12
0.1720393089
22
-0.0451394106
32
0.0000000000
13
0.1747236669
23
0.0331602431
33
0.0000000000
40
0.0000000000
40
0.0000000000
40
0.0000000000
40
0.0000000000
40
1.0000000000
40
1.0000000000
40
1.0000000000
40
1.0000000000
10
-4.6248537776
20
5.4385596487
30
0.0000000000
10
-4.5675073413
20
5.4235131785
30
0.0000000000
10
-4.5065243842
20
5.4200639083
30
0.0000000000
10
-4.4482831619
20
5.4311173227
30
0.0000000000
11
-4.6248537776
21
5.4385596487
31
0.0000000000
11
-4.4482831619
21
5.4311173227
31
0.0000000000
0
SPLINE
5
33B
100
AcDbEntity
8
0
100
AcDbSpline
62
0
6
CONTINUOUS
70
0
71
3
72
8
73
4
74
2
42
0.0000001000
43
0.0000001000
44
0.0000000001
12
0.1020105466
22
0.0193602537
32
0.0000000000
13
0.0929576843
23
0.0468294347
33
0.0000000000
40
0.0000000000
40
0.0000000000
40
0.0000000000
40
0.0000000000
40
1.0000000000
40
1.0000000000
40
1.0000000000
40
1.0000000000
10
-4.4482831619
20
5.4311173227
30
0.0000000000
10
-4.4142796464
20
5.4375707406
30
0.0000000000
10
-4.3812107015
20
5.4489676647
30
0.0000000000
10
-4.3502248067
20
5.4645774762
30
0.0000000000
11
-4.4482831619
21
5.4311173227
31
0.0000000000
11
-4.3502248067
21
5.4645774762
31
0.0000000000
0
SPLINE
5
33C
100
AcDbEntity
8
0
100
AcDbSpline
62
0
6
CONTINUOUS
70
0
71
3
72
10
73
6
74
4
42
0.0000001000
43
0.0000001000
44
0.0000000001
12
0.1234817020
22
-0.1931283456
32
0.0000000000
13
0.1905052428
23
-0.1283593058
33
0.0000000000
40
0.0000000000
40
0.0000000000
40
0.0000000000
40
0.0000000000
40
0.4349417168
40
0.8625898293
40
1.0000000000
40
1.0000000000
40
1.0000000000
40
1.0000000000
10
-5.5168399663
20
5.9640902513
30
0.0000000000
10
-5.4989375185
20
5.9360903932
30
0.0000000000
10
-5.4588738320
20
5.8833004664
30
0.0000000000
10
-5.4027136188
20
5.8309443049
30
0.0000000000
10
-5.3675914653
20
5.8056272242
30
0.0000000000
10
-5.3588656793
20
5.7997479328
30
0.0000000000
11
-5.5168399663
21
5.9640902513
31
0.0000000000
11
-5.4564046128
21
5.8847934969
31
0.0000000000
11
-5.3844730148
21
5.8181927215
31
0.0000000000
11
-5.3588656793
21
5.7997479328
31
0.0000000000
0
SPLINE
5
33D
100
AcDbEntity
8
0
100
AcDbSpline
62
0
6
CONTINUOUS
70
0
71
3
72
8
73
4
74
2
42
0.0000001000
43
0.0000001000
44
0.0000000001
12
0.0258139430
22
-0.0173930111
32
0.0000000000
13
0.0268475802
23
-0.0157034284
33
0.0000000000
40
0.0000000000
40
0.0000000000
40
0.0000000000
40
0.0000000000
40
1.0000000000
40
1.0000000000
40
1.0000000000
40
1.0000000000
10
-5.3588656793
20
5.7997479328
30
0.0000000000
10
-5.3502610317
20
5.7939502624
30
0.0000000000
10
-5.3414766558
20
5.7884222313
30
0.0000000000
10
-5.3325274623
20
5.7831877552
30
0.0000000000
11
-5.3588656793
21
5.7997479328
31
0.0000000000
11
-5.3325274623
21
5.7831877552
31
0.0000000000
0
SPLINE
5
33E
100
AcDbEntity
8
0
100
AcDbSpline
62
0
6
CONTINUOUS
70
0
71
3
72
8
73
4
74
2
42
0.0000001000
43
0.0000001000
44
0.0000000001
12
0.0265564717
22
-0.0155331560
32
0.0000000000
13
0.0274807548
23
-0.0137403774
33
0.0000000000
40
0.0000000000
40
0.0000000000
40
0.0000000000
40
0.0000000000
40
1.0000000000
40
1.0000000000
40
1.0000000000
40
1.0000000000
10
-5.3325274623
20
5.7831877552
30
0.0000000000
10
-5.3236753051
20
5.7780100365
30
0.0000000000
10
-5.3146618852
20
5.7731195412
30
0.0000000000
10
-5.3055016337
20
5.7685394154
30
0.0000000000
11
-5.3325274623
21
5.7831877552
31
0.0000000000
11
-5.3055016337
21
5.7685394154
31
0.0000000000
0
SPLINE
5
33F
100
AcDbEntity
8
0
100
AcDbSpline
62
0
6
CONTINUOUS
70
0
71
3
72
8
73
4
74
2
42
0.0000001000
43
0.0000001000
44
0.0000000001
12
0.0128275243
22
-0.0551571120
32
0.0000000000
13
0.0132213647
23
-0.0550697853
33
0.0000000000
40
0.0000000000
40
0.0000000000
40
0.0000000000
40
0.0000000000
40
1.0000000000
40
1.0000000000
40
1.0000000000
40
1.0000000000
10
-6.6653970847
20
8.6691939327
30
0.0000000000
10
-6.6611212433
20
8.6508082287
30
0.0000000000
10
-6.6567795235
20
8.6324368757
30
0.0000000000
10
-6.6523724020
20
8.6140802805
30
0.0000000000
11
-6.6653970847
21
8.6691939327
31
0.0000000000
11
-6.6523724020
21
8.6140802805
31
0.0000000000
0
SPLINE
5
340
100
AcDbEntity
8
0
100
AcDbSpline
62
0
6
CONTINUOUS
70
0
71
3
72
8
73
4
74
2
42
0.0000001000
43
0.0000001000
44
0.0000000001
12
0.0616596134
22
-0.2568253547
32
0.0000000000
13
0.0700493403
23
-0.2547756669
33
0.0000000000
40
0.0000000000
40
0.0000000000
40
0.0000000000
40
0.0000000000
40
1.0000000000
40
1.0000000000
40
1.0000000000
40
1.0000000000
10
-6.6523724020
20
8.6140802805
30
0.0000000000
10
-6.6318191975
20
8.5284718290
30
0.0000000000
10
-6.6098435375
20
8.4431843544
30
0.0000000000
10
-6.5864937574
20
8.3582591322
30
0.0000000000
11
-6.6523724020
21
8.6140802805
31
0.0000000000
11
-6.5864937574
21
8.3582591322
31
0.0000000000
0
SPLINE
5
341
100
AcDbEntity
8
0
100
AcDbSpline
62
0
6
CONTINUOUS
70
0
71
3
72
10
73
6
74
4
42
0.0000001000
43
0.0000001000
44
0.0000000001
12
0.5227717743
22
-1.9013673336
32
0.0000000000
13
0.9356185187
23
-1.7362654551
33
0.0000000000
40
0.0000000000
40
0.0000000000
40
0.0000000000
40
0.0000000000
40
0.3300301778
40
0.8321088686
40
1.0000000000
40
1.0000000000
40
1.0000000000
40
1.0000000000
10
-6.5864937574
20
8.3582591322
30
0.0000000000
10
-6.5289836036
20
8.1490895991
30
0.0000000000
10
-6.3629654024
20
7.6272487131
30
0.0000000000
10
-6.1052850186
20
7.0216178698
30
0.0000000000
10
-5.9035205383
20
6.6299788679
30
0.0000000000
10
-5.8511598544
20
6.5328110107
30
0.0000000000
11
-6.5864937574
21
8.3582591322
31
0.0000000000
11
-6.3896780318
21
7.7379598200
31
0.0000000000
11
-6.0028138282
21
6.8271508869
31
0.0000000000
11
-5.8511598544
21
6.5328110107
31
0.0000000000
0
SPLINE
5
342
100
AcDbEntity
8
0
100
AcDbSpline
62
0
6
CONTINUOUS
70
0
71
3
72
8
73
4
74
2
42
0.0000001000
43
0.0000001000
44
0.0000000001
12
0.3131053948
22
-0.5810424547
32
0.0000000000
13
0.3553001607
23
-0.5556979788
33
0.0000000000
40
0.0000000000
40
0.0000000000
40
0.0000000000
40
0.0000000000
40
1.0000000000
40
1.0000000000
40
1.0000000000
40
1.0000000000
10
-5.8511598544
20
6.5328110107
30
0.0000000000
10
-5.7467913895
20
6.3391301924
30
0.0000000000
10
-5.6352733532
20
6.1493229109
30
0.0000000000
10
-5.5168399663
20
5.9640902513
30
0.0000000000
11
-5.8511598544
21
6.5328110107
31
0.0000000000
11
-5.5168399663
21
5.9640902513
31
0.0000000000
0
SPLINE
5
343
100
AcDbEntity
8
0
100
AcDbSpline
62
0
6
CONTINUOUS
70
0
71
3
72
9
73
5
74
3
42
0.0000001000
43
0.0000001000
44
0.0000000001
12
-0.2684512883
22
-0.1340504457
32
0.0000000000
13
-0.0996688635
23
-0.2856364349
33
0.0000000000
40
0.0000000000
40
0.0000000000
40
0.0000000000
40
0.0000000000
40
0.5746917732
40
1.0000000000
40
1.0000000000
40
1.0000000000
40
1.0000000000
10
-6.4617525975
20
9.1704153749
30
0.0000000000
10
-6.5131781798
20
9.1447361455
30
0.0000000000
10
-6.5933146255
20
9.0780309178
30
0.0000000000
10
-6.6406047048
20
8.9878376755
30
0.0000000000
10
-6.6547347007
20
8.9473431670
30
0.0000000000
11
-6.4617525975
21
9.1704153749
31
0.0000000000
11
-6.5944375017
21
9.0603088529
31
0.0000000000
11
-6.6547347007
21
8.9473431670
31
0.0000000000
0
SPLINE
5
344
100
AcDbEntity
8
0
100
AcDbSpline
62
0
6
CONTINUOUS
70
0
71
3
72
9
73
5
74
3
42
0.0000001000
43
0.0000001000
44
0.0000000001
12
-0.0682503260
22
-0.1955954861
32
0.0000000000
13
0.0197516884
23
-0.2058227673
33
0.0000000000
40
0.0000000000
40
0.0000000000
40
0.0000000000
40
0.0000000000
40
0.3214363164
40
1.0000000000
40
1.0000000000
40
1.0000000000
40
1.0000000000
10
-6.6547347007
20
8.9473431670
30
0.0000000000
10
-6.6620474118
20
8.9263860028
30
0.0000000000
10
-6.6798122704
20
8.8594088579
30
0.0000000000
10
-6.6820123205
20
8.7897345192
30
0.0000000000
10
-6.6775447277
20
8.7431799008
30
0.0000000000
11
-6.6547347007
21
8.9473431670
31
0.0000000000
11
-6.6718597769
21
8.8830495518
31
0.0000000000
11
-6.6775447277
21
8.7431799008
31
0.0000000000
0
SPLINE
5
345
100
AcDbEntity
8
0
100
AcDbSpline
62
0
6
CONTINUOUS
70
0
71
3
72
8
73
4
74
2
42
0.0000001000
43
0.0000001000
44
0.0000000001
12
0.0071891003
22
-0.0749141282
32
0.0000000000
13
0.0169200178
23
-0.0727544376
33
0.0000000000
40
0.0000000000
40
0.0000000000
40
0.0000000000
40
0.0000000000
40
1.0000000000
40
1.0000000000
40
1.0000000000
40
1.0000000000
10
-6.6775447277
20
8.7431799008
30
0.0000000000
10
-6.6751483609
20
8.7182085248
30
0.0000000000
10
-6.6710370907
20
8.6934454119
30
0.0000000000
10
-6.6653970847
20
8.6691939327
30
0.0000000000
11
-6.6775447277
21
8.7431799008
31
0.0000000000
11
-6.6653970847
21
8.6691939327
31
0.0000000000
0
SPLINE
5
346
100
AcDbEntity
8
0
100
AcDbSpline
62
0
6
CONTINUOUS
70
0
71
3
72
9
73
5
74
3
42
0.0000001000
43
0.0000001000
44
0.0000000001
12
0.4279658577
22
0.2144849160
32
0.0000000000
13
0.1210030007
23
0.4673620045
33
0.0000000000
40
0.0000000000
40
0.0000000000
40
0.0000000000
40
0.0000000000
40
0.6967898318
40
1.0000000000
40
1.0000000000
40
1.0000000000
40
1.0000000000
10
-6.4492021493
20
9.1765368749
30
0.0000000000
10
-6.3498013966
20
9.2263538444
30
0.0000000000
10
-6.2455058888
20
9.3670642568
30
0.0000000000
10
-6.1924353836
20
9.5203177102
30
0.0000000000
10
-6.1802056035
20
9.5675540142
30
0.0000000000
11
-6.4492021493
21
9.1765368749
31
0.0000000000
11
-6.2293278599
21
9.4285348615
31
0.0000000000
11
-6.1802056035
21
9.5675540142
31
0.0000000000
0
SPLINE
5
347
100
AcDbEntity
8
0
100
AcDbSpline
62
0
6
CONTINUOUS
70
0
71
3
72
8
73
4
74
2
42
0.0000001000
43
0.0000001000
44
0.0000000001
12
0.0871850795
22
0.3367436613
32
0.0000000000
13
-0.0095292457
23
0.3472813870
33
0.0000000000
40
0.0000000000
40
0.0000000000
40
0.0000000000
40
0.0000000000
40
1.0000000000
40
1.0000000000
40
1.0000000000
40
1.0000000000
10
-6.1802056035
20
9.5675540142
30
0.0000000000
10
-6.1511439104
20
9.6798019013
30
0.0000000000
10
-6.1438887791
20
9.7963882383
30
0.0000000000
10
-6.1470651943
20
9.9121487006
30
0.0000000000
11
-6.1802056035
21
9.5675540142
31
0.0000000000
11
-6.1470651943
21
9.9121487006
31
0.0000000000
0
SPLINE
5
348
100
AcDbEntity
8
0
100
AcDbSpline
62
0
6
CONTINUOUS
70
0
71
3
72
8
73
4
74
2
42
0.0000001000
43
0.0000001000
44
0.0000000001
12
-0.0114576325
22
0.4175590205
32
0.0000000000
13
-0.0939249423
23
0.4057198506
33
0.0000000000
40
0.0000000000
40
0.0000000000
40
0.0000000000
40
0.0000000000
40
1.0000000000
40
1.0000000000
40
1.0000000000
40
1.0000000000
10
-6.1470651943
20
9.9121487006
30
0.0000000000
10
-6.1508844051
20
10.0513350408
30
0.0000000000
10
-6.1697843133
20
10.1893274290
30
0.0000000000
10
-6.2010926274
20
10.3245673791
30
0.0000000000
11
-6.1470651943
21
9.9121487006
31
0.0000000000
11
-6.2010926274
21
10.3245673791
31
0.0000000000
0
SPLINE
5
349
100
AcDbEntity
8
0
100
AcDbSpline
62
0
6
CONTINUOUS
70
0
71
3
72
9
73
5
74
3
42
0.0000001000
43
0.0000001000
44
0.0000000001
12
-0.1036694249
22
0.4478122909
32
0.0000000000
13
-0.1850979709
23
0.4212036114
33
0.0000000000
40
0.0000000000
40
0.0000000000
40
0.0000000000
40
0.0000000000
40
0.4920369571
40
1.0000000000
40
1.0000000000
40
1.0000000000
40
1.0000000000
10
-6.2010926274
20
10.3245673791
30
0.0000000000
10
-6.2180956902
20
10.3980141115
30
0.0000000000
10
-6.2600901145
20
10.5456349859
30
0.0000000000
10
-6.3154331520
20
10.6888715573
30
0.0000000000
10
-6.3467741282
20
10.7601901800
30
0.0000000000
11
-6.2010926274
21
10.3245673791
31
0.0000000000
11
-6.2626530119
21
10.5422225218
31
0.0000000000
11
-6.3467741282
21
10.7601901800
31
0.0000000000
0
SPLINE
5
34A
100
AcDbEntity
8
0
100
AcDbSpline
62
0
6
CONTINUOUS
70
0
71
3
72
8
73
4
74
2
42
0.0000001000
43
0.0000001000
44
0.0000000001
12
-0.1251144206
22
0.2847067719
32
0.0000000000
13
-0.1578939964
23
0.2672208525
33
0.0000000000
40
0.0000000000
40
0.0000000000
40
0.0000000000
40
0.0000000000
40
1.0000000000
40
1.0000000000
40
1.0000000000
40
1.0000000000
10
-6.3467741282
20
10.7601901800
30
0.0000000000
10
-6.3884789350
20
10.8550924373
30
0.0000000000
10
-6.4359009335
20
10.9474444098
30
0.0000000000
10
-6.4885322656
20
11.0365180273
30
0.0000000000
11
-6.3467741282
21
10.7601901800
31
0.0000000000
11
-6.4885322656
21
11.0365180273
31
0.0000000000
0
SPLINE
5
34B
100
AcDbEntity
8
0
100
AcDbSpline
62
0
6
CONTINUOUS
70
0
71
3
72
8
73
4
74
2
42
0.0000001000
43
0.0000001000
44
0.0000000001
12
-0.0823129868
22
0.1393070478
32
0.0000000000
13
-0.0905916484
23
0.1336517889
33
0.0000000000
40
0.0000000000
40
0.0000000000
40
0.0000000000
40
0.0000000000
40
1.0000000000
40
1.0000000000
40
1.0000000000
40
1.0000000000
10
-6.4885322656
20
11.0365180273
30
0.0000000000
10
-6.5159699279
20
11.0829537100
30
0.0000000000
10
-6.5448233437
20
11.1284984259
30
0.0000000000
10
-6.5750205599
20
11.1730490222
30
0.0000000000
11
-6.4885322656
21
11.0365180273
31
0.0000000000
11
-6.5750205599
21
11.1730490222
31
0.0000000000
0
SPLINE
5
34C
100
AcDbEntity
8
0
100
AcDbSpline
62
0
6
CONTINUOUS
70
0
71
3
72
10
73
6
74
4
42
0.0000001000
43
0.0000001000
44
0.0000000001
12
-0.1085345773
22
-0.3581535919
32
0.0000000000
13
0.1502966491
23
-0.3444384254
33
0.0000000000
40
0.0000000000
40
0.0000000000
40
0.0000000000
40
0.0000000000
40
0.4076696248
40
0.8511794871
40
1.0000000000
40
1.0000000000
40
1.0000000000
40
1.0000000000
10
-6.6603016269
20
11.6402534998
30
0.0000000000
10
-6.6750503770
20
11.5915840529
30
0.0000000000
10
-6.6878802349
20
11.4839488657
30
0.0000000000
10
-6.6643738592
20
11.3598468109
30
0.0000000000
10
-6.6377323828
20
11.2904896408
30
0.0000000000
10
-6.6302766413
20
11.2734031397
30
0.0000000000
11
-6.6603016269
21
11.6402534998
31
0.0000000000
11
-6.6798073056
21
11.4889402662
31
0.0000000000
11
-6.6503166877
21
11.3256031430
31
0.0000000000
11
-6.6302766413
21
11.2734031397
31
0.0000000000
0
SPLINE
5
34D
100
AcDbEntity
8
0
100
AcDbSpline
62
0
6
CONTINUOUS
70
0
71
3
72
8
73
4
74
2
42
0.0000001000
43
0.0000001000
44
0.0000000001
12
0.0322151699
22
-0.0738282754
32
0.0000000000
13
0.0413375135
23
-0.0689155094
33
0.0000000000
40
0.0000000000
40
0.0000000000
40
0.0000000000
40
0.0000000000
40
1.0000000000
40
1.0000000000
40
1.0000000000
40
1.0000000000
10
-6.6302766413
20
11.2734031397
30
0.0000000000
10
-6.6195382513
20
11.2487937146
30
0.0000000000
10
-6.6072187745
20
11.2248879242
30
0.0000000000
10
-6.5934396033
20
11.2019160878
30
0.0000000000
11
-6.6302766413
21
11.2734031397
31
0.0000000000
11
-6.5934396033
21
11.2019160878
31
0.0000000000
0
SPLINE
5
34E
100
AcDbEntity
8
0
100
AcDbSpline
62
0
6
CONTINUOUS
70
0
71
3
72
8
73
4
74
2
42
0.0000001000
43
0.0000001000
44
0.0000000001
12
0.0176317782
22
-0.0293946799
32
0.0000000000
13
0.0191968887
23
-0.0283215789
33
0.0000000000
40
0.0000000000
40
0.0000000000
40
0.0000000000
40
0.0000000000
40
1.0000000000
40
1.0000000000
40
1.0000000000
40
1.0000000000
10
-6.5934396033
20
11.2019160878
30
0.0000000000
10
-6.5875623439
20
11.1921178611
30
0.0000000000
10
-6.5814195228
20
11.1824895484
30
0.0000000000
10
-6.5750205599
20
11.1730490222
30
0.0000000000
11
-6.5934396033
21
11.2019160878
31
0.0000000000
11
-6.5750205599
21
11.1730490222
31
0.0000000000
0
SPLINE
5
34F
100
AcDbEntity
8
0
100
AcDbSpline
62
0
6
CONTINUOUS
70
0
71
3
72
8
73
4
74
2
42
0.0000001000
43
0.0000001000
44
0.0000000001
12
-0.1896874438
22
-0.1069882709
32
0.0000000000
13
-0.1791859144
23
-0.1249075014
33
0.0000000000
40
0.0000000000
40
0.0000000000
40
0.0000000000
40
0.0000000000
40
1.0000000000
40
1.0000000000
40
1.0000000000
40
1.0000000000
10
-5.4114677882
20
13.3168981678
30
0.0000000000
10
-5.4746969361
20
13.2812354108
30
0.0000000000
10
-5.5362951654
20
13.2424331248
30
0.0000000000
10
-5.5960238036
20
13.2007972910
30
0.0000000000
11
-5.4114677882
21
13.3168981678
31
0.0000000000
11
-5.5960238036
21
13.2007972910
31
0.0000000000
0
SPLINE
5
350
100
AcDbEntity
8
0
100
AcDbSpline
62
0
6
CONTINUOUS
70
0
71
3
72
8
73
4
74
2
42
0.0000001000
43
0.0000001000
44
0.0000000001
12
-0.0476432337
22
-0.0332113006
32
0.0000000000
13
-0.0468367391
23
-0.0343959685
33
0.0000000000
40
0.0000000000
40
0.0000000000
40
0.0000000000
40
0.0000000000
40
1.0000000000
40
1.0000000000
40
1.0000000000
40
1.0000000000
10
-5.5960238036
20
13.2007972910
30
0.0000000000
10
-5.6119048815
20
13.1897268574
30
0.0000000000
10
-5.6276537868
20
13.1784561034
30
0.0000000000
10
-5.6432660331
20
13.1669907806
30
0.0000000000
11
-5.5960238036
21
13.2007972910
31
0.0000000000
11
-5.6432660331
21
13.1669907806
31
0.0000000000
0
SPLINE
5
351
100
AcDbEntity
8
0
100
AcDbSpline
62
0
6
CONTINUOUS
70
0
71
3
72
8
73
4
74
2
42
0.0000001000
43
0.0000001000
44
0.0000000001
12
-0.3121332634
22
-0.2292244533
32
0.0000000000
13
-0.2717333356
23
-0.2759653484
33
0.0000000000
40
0.0000000000
40
0.0000000000
40
0.0000000000
40
0.0000000000
40
1.0000000000
40
1.0000000000
40
1.0000000000
40
1.0000000000
10
-5.6432660331
20
13.1669907806
30
0.0000000000
10
-5.7473104543
20
13.0905826295
30
0.0000000000
10
-5.8452854878
20
13.0055331574
30
0.0000000000
10
-5.9358632664
20
12.9135447079
30
0.0000000000
11
-5.6432660331
21
13.1669907806
31
0.0000000000
11
-5.9358632664
21
12.9135447079
31
0.0000000000
0
SPLINE
5
352
100
AcDbEntity
8
0
100
AcDbSpline
62
0
6
CONTINUOUS
70
0
71
3
72
8
73
4
74
2
42
0.0000001000
43
0.0000001000
44
0.0000000001
12
-0.1612377231
22
-0.1637488618
32
0.0000000000
13
-0.1456866015
23
-0.1774076646
33
0.0000000000
40
0.0000000000
40
0.0000000000
40
0.0000000000
40
0.0000000000
40
1.0000000000
40
1.0000000000
40
1.0000000000
40
1.0000000000
10
-5.9358632664
20
12.9135447079
30
0.0000000000
10
-5.9896091741
20
12.8589617540
30
0.0000000000
10
-6.0407506195
20
12.8019356905
30
0.0000000000
10
-6.0893128200
20
12.7427998023
30
0.0000000000
11
-5.9358632664
21
12.9135447079
31
0.0000000000
11
-6.0893128200
21
12.7427998023
31
0.0000000000
0
SPLINE
5
353
100
AcDbEntity
8
0
100
AcDbSpline
62
0
6
CONTINUOUS
70
0
71
3
72
9
73
5
74
3
42
0.0000001000
43
0.0000001000
44
0.0000000001
12
-0.6242790672
22
-0.7602064312
32
0.0000000000
13
-0.3511136038
23
-0.9184770281
33
0.0000000000
40
0.0000000000
40
0.0000000000
40
0.0000000000
40
0.0000000000
40
0.4851966638
40
1.0000000000
40
1.0000000000
40
1.0000000000
40
1.0000000000
10
-6.0893128200
20
12.7427998023
30
0.0000000000
10
-6.1902788602
20
12.6198499276
30
0.0000000000
10
-6.3753930101
20
12.3476510452
30
0.0000000000
10
-6.5141099516
20
12.0494353343
30
0.0000000000
10
-6.5743614365
20
11.8918236549
30
0.0000000000
11
-6.0893128200
21
12.7427998023
31
0.0000000000
11
-6.3589897601
21
12.3495851758
31
0.0000000000
11
-6.5743614365
21
11.8918236549
31
0.0000000000
0
SPLINE
5
354
100
AcDbEntity
8
0
100
AcDbSpline
62
0
6
CONTINUOUS
70
0
71
3
72
8
73
4
74
2
42
0.0000001000
43
0.0000001000
44
0.0000000001
12
-0.0950293849
22
-0.2485870843
32
0.0000000000
13
-0.0770160496
23
-0.2541455034
33
0.0000000000
40
0.0000000000
40
0.0000000000
40
0.0000000000
40
0.0000000000
40
1.0000000000
40
1.0000000000
40
1.0000000000
40
1.0000000000
10
-6.5743614365
20
11.8918236549
30
0.0000000000
10
-6.6060378981
20
11.8089612934
30
0.0000000000
10
-6.6346296103
20
11.7249686676
30
0.0000000000
10
-6.6603016269
20
11.6402534998
30
0.0000000000
11
-6.5743614365
21
11.8918236549
31
0.0000000000
11
-6.6603016269
21
11.6402534998
31
0.0000000000
0
SPLINE
5
355
100
AcDbEntity
8
0
100
AcDbSpline
62
0
6
CONTINUOUS
70
0
71
3
72
9
73
5
74
3
42
0.0000001000
43
0.0000001000
44
0.0000000001
12
0.0837044153
22
0.0409124518
32
0.0000000000
13
0.0821525420
23
-0.0410762710
33
0.0000000000
40
0.0000000000
40
0.0000000000
40
0.0000000000
40
0.0000000000
40
0.3800501044
40
1.0000000000
40
1.0000000000
40
1.0000000000
40
1.0000000000
10
15.3740720655
20
-12.3265183543
30
0.0000000000
10
15.3846760227
20
-12.3213354271
30
0.0000000000
10
15.4158729407
20
-12.3138928588
30
0.0000000000
10
15.4465689525
20
-12.3235152025
30
0.0000000000
10
15.4635457725
20
-12.3320036125
30
0.0000000000
11
15.3740720655
21
-12.3265183543
31
0.0000000000
11
15.4083164567
21
-12.3181431525
31
0.0000000000
11
15.4635457725
21
-12.3320036125
31
0.0000000000
0
SPLINE
5
356
100
AcDbEntity
8
0
100
AcDbSpline
62
0
6
CONTINUOUS
70
0
71
3
72
9
73
5
74
3
42
0.0000001000
43
0.0000001000
44
0.0000000001
12
-0.0435293867
22
-0.0212759856
32
0.0000000000
13
-0.0244694236
23
-0.0420504362
33
0.0000000000
40
0.0000000000
40
0.0000000000
40
0.0000000000
40
0.0000000000
40
0.2968610194
40
1.0000000000
40
1.0000000000
40
1.0000000000
40
1.0000000000
10
5.6159984851
20
-17.2055551445
30
0.0000000000
10
5.6116910924
20
-17.2076604814
30
0.0000000000
10
5.5978774341
20
-17.2160611042
30
0.0000000000
10
5.5874163473
20
-17.2287859435
30
0.0000000000
10
5.5816812121
20
-17.2386417104
30
0.0000000000
11
5.6159984851
21
-17.2055551445
31
0.0000000000
11
5.6037850693
21
-17.2130291942
31
0.0000000000
11
5.5816812121
21
-17.2386417104
31
0.0000000000
0
SPLINE
5
357
100
AcDbEntity
8
0
100
AcDbSpline
62
0
6
CONTINUOUS
70
0
71
3
72
8
73
4
74
2
42
0.0000001000
43
0.0000001000
44
0.0000000001
12
-0.0097623364
22
-0.0167764681
32
0.0000000000
13
-0.0066524769
23
-0.0178574877
33
0.0000000000
40
0.0000000000
40
0.0000000000
40
0.0000000000
40
0.0000000000
40
1.0000000000
40
1.0000000000
40
1.0000000000
40
1.0000000000
10
5.5816812121
20
-17.2386417104
30
0.0000000000
10
5.5784271000
20
-17.2442338665
30
0.0000000000
10
5.5756946829
20
-17.2501184864
30
0.0000000000
10
5.5734771906
20
-17.2560709822
30
0.0000000000
11
5.5816812121
21
-17.2386417104
31
0.0000000000
11
5.5734771906
21
-17.2560709822
31
0.0000000000
0
SPLINE
5
358
100
AcDbEntity
8
0
100
AcDbSpline
62
0
6
CONTINUOUS
70
0
71
3
72
9
73
5
74
3
42
0.0000001000
43
0.0000001000
44
0.0000000001
12
-0.6353113691
22
0.3176556846
32
0.0000000000
13
-0.0238847733
23
0.7216932541
33
0.0000000000
40
0.0000000000
40
0.0000000000
40
0.0000000000
40
0.0000000000
40
0.6494644165
40
1.0000000000
40
1.0000000000
40
1.0000000000
40
1.0000000000
10
-13.3211123928
20
-16.7606743508
30
0.0000000000
10
-13.4586497687
20
-16.6919056628
30
0.0000000000
10
-13.6729477428
20
-16.5587615445
30
0.0000000000
10
-13.7537041446
20
-16.3135050482
30
0.0000000000
10
-13.7564949656
20
-16.2291786595
30
0.0000000000
11
-13.3211123928
21
-16.7606743508
31
0.0000000000
11
-13.6806792130
21
-16.4716714759
31
0.0000000000
11
-13.7564949656
21
-16.2291786595
31
0.0000000000
0
SPLINE
5
359
100
AcDbEntity
8
0
100
AcDbSpline
62
0
6
CONTINUOUS
70
0
71
3
72
10
73
6
74
4
42
0.0000001000
43
0.0000001000
44
0.0000000001
12
-1.8328397839
22
-0.6109465946
32
0.0000000000
13
-1.7280179200
23
0.8640089600
33
0.0000000000
40
0.0000000000
40
0.0000000000
40
0.0000000000
40
0.0000000000
40
0.3356272701
40
0.6866843969
40
1.0000000000
40
1.0000000000
40
1.0000000000
40
1.0000000000
10
-7.5106143737
20
-18.8132757621
30
0.0000000000
10
-7.7156647115
20
-18.8816258747
30
0.0000000000
10
-8.1572501712
20
-18.9576150452
30
0.0000000000
10
-8.8038840426
20
-18.9279603163
30
0.0000000000
10
-9.2228531809
20
-18.8098039567
30
0.0000000000
10
-9.4033248398
20
-18.7195681272
30
0.0000000000
11
-7.5106143737
21
-18.8132757621
31
0.0000000000
11
-8.1479124974
21
-18.9328897730
31
0.0000000000
11
-8.8253190902
21
-18.8993515374
31
0.0000000000
11
-9.4033248398
21
-18.7195681272
31
0.0000000000
0
SPLINE
5
35A
100
AcDbEntity
8
0
100
AcDbSpline
62
0
6
CONTINUOUS
70
0
71
3
72
9
73
5
74
3
42
0.0000001000
43
0.0000001000
44
0.0000000001
12
-0.2622057932
22
-0.1311028966
32
0.0000000000
13
-0.2940317592
23
-0.0123423194
33
0.0000000000
40
0.0000000000
40
0.0000000000
40
0.0000000000
40
0.0000000000
40
0.7440290029
40
1.0000000000
40
1.0000000000
40
1.0000000000
40
1.0000000000
10
5.9141363714
20
-11.9431177295
30
0.0000000000
10
5.8491067998
20
-11.9756325153
30
0.0000000000
10
5.7540021837
20
-12.0054707636
30
0.0000000000
10
5.6561960925
20
-12.0147012400
30
0.0000000000
10
5.6311082249
20
-12.0157543319
30
0.0000000000
11
5.9141363714
21
-11.9431177295
31
0.0000000000
11
5.7060901341
21
-12.0086255265
31
0.0000000000
11
5.6311082249
21
-12.0157543319
31
0.0000000000
0
SPLINE
5
35B
100
AcDbEntity
8
0
100
AcDbSpline
62
0
6
CONTINUOUS
70
0
71
3
72
9
73
5
74
3
42
0.0000001000
43
0.0000001000
44
0.0000000001
12
-0.4013410788
22
-0.0168467509
32
0.0000000000
13
-0.3578999636
23
0.1789499818
33
0.0000000000
40
0.0000000000
40
0.0000000000
40
0.0000000000
40
0.0000000000
40
0.3854465654
40
1.0000000000
40
1.0000000000
40
1.0000000000
40
1.0000000000
10
5.6311082249
20
-12.0157543319
30
0.0000000000
10
5.5795430448
20
-12.0179188393
30
0.0000000000
10
5.4451889716
20
-12.0091803847
30
0.0000000000
10
5.3166321955
20
-11.9655749446
30
0.0000000000
10
5.2433159782
20
-11.9289168359
30
0.0000000000
11
5.6311082249
21
-12.0157543319
31
0.0000000000
11
5.4768317116
21
-12.0060022696
31
0.0000000000
11
5.2433159782
21
-11.9289168359
31
0.0000000000
0
SPLINE
5
35C
100
AcDbEntity
8
0
100
AcDbSpline
62
0
6
CONTINUOUS
70
0
71
3
72
8
73
4
74
2
42
0.0000001000
43
0.0000001000
44
0.0000000001
12
-0.1240709563
22
-0.0900198236
32
0.0000000000
13
-0.1022054697
23
-0.1154916638
33
0.0000000000
40
0.0000000000
40
0.0000000000
40
0.0000000000
40
0.0000000000
40
1.0000000000
40
1.0000000000
40
1.0000000000
40
1.0000000000
10
-1.4407434630
20
16.6859075912
30
0.0000000000
10
-1.4821004484
20
16.6559009833
30
0.0000000000
10
-1.5202531826
20
16.6210616207
30
0.0000000000
10
-1.5543216725
20
16.5825643995
30
0.0000000000
11
-1.4407434630
21
16.6859075912
31
0.0000000000
11
-1.5543216725
21
16.5825643995
31
0.0000000000
0
SPLINE
5
35D
100
AcDbEntity
8
0
100
AcDbSpline
62
0
6
CONTINUOUS
70
0
71
3
72
9
73
5
74
3
42
0.0000001000
43
0.0000001000
44
0.0000000001
12
-0.2192305503
22
-0.2477294129
32
0.0000000000
13
-0.0954616110
23
-0.3161611952
33
0.0000000000
40
0.0000000000
40
0.0000000000
40
0.0000000000
40
0.0000000000
40
0.2408360609
40
1.0000000000
40
1.0000000000
40
1.0000000000
40
1.0000000000
10
-1.5543216725
20
16.5825643995
30
0.0000000000
10
-1.5719212133
20
16.5626770075
30
0.0000000000
10
-1.6404723495
20
16.4760472967
30
0.0000000000
10
-1.6881401927
20
16.3753802700
30
0.0000000000
10
-1.7122971969
20
16.2953742106
30
0.0000000000
11
-1.5543216725
21
16.5825643995
31
0.0000000000
11
-1.6037291116
21
16.5201356983
31
0.0000000000
11
-1.7122971969
21
16.2953742106
31
0.0000000000
0
SPLINE
5
35E
100
AcDbEntity
8
0
100
AcDbSpline
62
0
6
CONTINUOUS
70
0
71
3
72
8
73
4
74
2
42
0.0000001000
43
0.0000001000
44
0.0000000001
12
-0.0254041262
22
-0.0841364274
32
0.0000000000
13
-0.0167518593
23
-0.0862759301
33
0.0000000000
40
0.0000000000
40
0.0000000000
40
0.0000000000
40
0.0000000000
40
1.0000000000
40
1.0000000000
40
1.0000000000
40
1.0000000000
10
-1.7122971969
20
16.2953742106
30
0.0000000000
10
-1.7207652390
20
16.2673287348
30
0.0000000000
10
-1.7277549527
20
16.2388429465
30
0.0000000000
10
-1.7333389059
20
16.2100843031
30
0.0000000000
11
-1.7122971969
21
16.2953742106
31
0.0000000000
11
-1.7333389059
21
16.2100843031
31
0.0000000000
0
SPLINE
5
35F
100
AcDbEntity
8
0
100
AcDbSpline
62
0
6
CONTINUOUS
70
0
71
3
72
8
73
4
74
2
42
0.0000001000
43
0.0000001000
44
0.0000000001
12
-0.0065941396
22
-0.0339613360
32
0.0000000000
13
-0.0053004864
23
-0.0341843671
33
0.0000000000
40
0.0000000000
40
0.0000000000
40
0.0000000000
40
0.0000000000
40
1.0000000000
40
1.0000000000
40
1.0000000000
40
1.0000000000
10
-1.7333389059
20
16.2100843031
30
0.0000000000
10
-1.7355369524
20
16.1987638578
30
0.0000000000
10
-1.7375171770
20
16.1874011337
30
0.0000000000
10
-1.7392840058
20
16.1760063446
30
0.0000000000
11
-1.7333389059
21
16.2100843031
31
0.0000000000
11
-1.7392840058
21
16.1760063446
31
0.0000000000
0
SPLINE
5
360
100
AcDbEntity
8
0
100
AcDbSpline
62
0
6
CONTINUOUS
70
0
71
3
72
8
73
4
74
2
42
0.0000001000
43
0.0000001000
44
0.0000000001
12
-0.0092734125
22
-0.0598069142
32
0.0000000000
13
-0.0054254352
23
-0.0602317070
33
0.0000000000
40
0.0000000000
40
0.0000000000
40
0.0000000000
40
0.0000000000
40
1.0000000000
40
1.0000000000
40
1.0000000000
40
1.0000000000
10
-1.7392840058
20
16.1760063446
30
0.0000000000
10
-1.7423751433
20
16.1560707066
30
0.0000000000
10
-1.7448130998
20
16.1360369214
30
0.0000000000
10
-1.7466215782
20
16.1159596857
30
0.0000000000
11
-1.7392840058
21
16.1760063446
31
0.0000000000
11
-1.7466215782
21
16.1159596857
31
0.0000000000
0
SPLINE
5
361
100
AcDbEntity
8
0
100
AcDbSpline
62
0
6
CONTINUOUS
70
0
71
3
72
8
73
4
74
2
42
0.0000001000
43
0.0000001000
44
0.0000000001
12
-0.0080165999
22
-0.0889981139
32
0.0000000000
13
0.0000000000
23
-0.0890379455
33
0.0000000000
40
0.0000000000
40
0.0000000000
40
0.0000000000
40
0.0000000000
40
1.0000000000
40
1.0000000000
40
1.0000000000
40
1.0000000000
10
-1.7466215782
20
16.1159596857
30
0.0000000000
10
-1.7492937782
20
16.0862936477
30
0.0000000000
10
-1.7505916453
20
16.0565327449
30
0.0000000000
10
-1.7505916453
20
16.0268534297
30
0.0000000000
11
-1.7466215782
21
16.1159596857
31
0.0000000000
11
-1.7505916453
21
16.0268534297
31
0.0000000000
0
SPLINE
5
362
100
AcDbEntity
8
0
100
AcDbSpline
62
0
6
CONTINUOUS
70
0
71
3
72
9
73
5
74
3
42
0.0000001000
43
0.0000001000
44
0.0000000001
12
0.0000000000
22
-0.3100831148
32
0.0000000000
13
-0.2799904430
23
-0.1475251504
33
0.0000000000
40
0.0000000000
40
0.0000000000
40
0.0000000000
40
0.0000000000
40
0.6403297784
40
1.0000000000
40
1.0000000000
40
1.0000000000
40
1.0000000000
10
15.7199711031
20
-14.0190620046
30
0.0000000000
10
15.7199711031
20
-14.0852471553
30
0.0000000000
10
15.7039919106
20
-14.1949790178
30
0.0000000000
10
15.6223985502
20
-14.2708309010
30
0.0000000000
10
15.5888304753
20
-14.2885177022
30
0.0000000000
11
15.7199711031
21
-14.0190620046
31
0.0000000000
11
15.6726039304
21
-14.2118847692
31
0.0000000000
11
15.5888304753
21
-14.2885177022
31
0.0000000000
0
SPLINE
5
363
100
AcDbEntity
8
0
100
AcDbSpline
62
0
6
CONTINUOUS
70
0
71
3
72
10
73
6
74
4
42
0.0000001000
43
0.0000001000
44
0.0000000001
12
-7.2345410454
22
-3.6172705227
32
0.0000000000
13
0.0000000006
23
-8.0884627842
33
0.0000000000
40
0.0000000000
40
0.0000000000
40
0.0000000000
40
0.0000000000
40
0.2916749289
40
0.6205883094
40
1.0000000000
40
1.0000000000
40
1.0000000000
40
1.0000000000
10
-8.2549751515
20
19.6127655282
30
0.0000000000
10
-8.9583532332
20
19.2610764873
30
0.0000000000
10
-10.2815172427
20
18.1275486633
30
0.0000000000
10
-11.4319515133
20
15.6232879805
30
0.0000000000
10
-11.6500865820
20
13.6980187741
30
0.0000000000
10
-11.6500865819
20
12.6750663277
30
0.0000000000
11
-8.2549751515
21
19.6127655282
31
0.0000000000
11
-10.0675458891
21
18.1026594103
31
0.0000000000
11
-11.2451834638
21
15.7170950636
31
0.0000000000
11
-11.6500865819
21
12.6750663277
31
0.0000000000
0
SPLINE
5
364
100
AcDbEntity
8
0
100
AcDbSpline
62
0
6
CONTINUOUS
70
0
71
3
72
8
73
4
74
2
42
0.0000001000
43
0.0000001000
44
0.0000000001
12
0.0000000000
22
-0.1144788873
32
0.0000000000
13
0.0155275556
23
-0.1139759838
33
0.0000000000
40
0.0000000000
40
0.0000000000
40
0.0000000000
40
0.0000000000
40
1.0000000000
40
1.0000000000
40
1.0000000000
40
1.0000000000
10
-11.6500865819
20
-2.9133909403
30
0.0000000000
10
-11.6500865819
20
-2.9515505694
30
0.0000000000
10
-11.6473882683
20
-2.9897887970
30
0.0000000000
10
-11.6422124164
20
-3.0277807916
30
0.0000000000
11
-11.6500865819
21
-2.9133909403
31
0.0000000000
11
-11.6422124164
21
-3.0277807916
31
0.0000000000
0
SPLINE
5
365
100
AcDbEntity
8
0
100
AcDbSpline
62
0
6
CONTINUOUS
70
0
71
3
72
8
73
4
74
2
42
0.0000001000
43
0.0000001000
44
0.0000000001
12
0.0300352462
22
-0.2204659141
32
0.0000000000
13
0.0808613000
23
-0.2078852652
33
0.0000000000
40
0.0000000000
40
0.0000000000
40
0.0000000000
40
0.0000000000
40
1.0000000000
40
1.0000000000
40
1.0000000000
40
1.0000000000
10
-11.6422124164
20
-3.0277807916
30
0.0000000000
10
-11.6322006677
20
-3.1012694296
30
0.0000000000
10
-11.6129189866
20
-3.1738367649
30
0.0000000000
10
-11.5859652199
20
-3.2431318532
30
0.0000000000
11
-11.6422124164
21
-3.0277807916
31
0.0000000000
11
-11.5859652199
21
-3.2431318532
31
0.0000000000
0
SPLINE
5
366
100
AcDbEntity
8
0
100
AcDbSpline
62
0
6
CONTINUOUS
70
0
71
3
72
9
73
5
74
3
42
0.0000001000
43
0.0000001000
44
0.0000000001
12
0.1614763832
22
-0.4151375348
32
0.0000000000
13
0.3325198763
23
-0.2974063109
33
0.0000000000
40
0.0000000000
40
0.0000000000
40
0.0000000000
40
0.0000000000
40
0.7603682404
40
1.0000000000
40
1.0000000000
40
1.0000000000
40
1.0000000000
10
-11.5859652199
20
-3.2431318532
30
0.0000000000
10
-11.5450380488
20
-3.3483509855
30
0.0000000000
10
-11.4679491445
20
-3.4768079949
30
0.0000000000
10
-11.3630666891
20
-3.5827931450
30
0.0000000000
10
-11.3365059148
20
-3.6065491442
30
0.0000000000
11
-11.5859652199
21
-3.2431318532
31
0.0000000000
11
-11.4117370242
21
-3.5307079189
31
0.0000000000
11
-11.3365059148
21
-3.6065491442
31
0.0000000000
0
SPLINE
5
367
100
AcDbEntity
8
0
100
AcDbSpline
62
0
6
CONTINUOUS
70
0
71
3
72
8
73
4
74
2
42
0.0000001000
43
0.0000001000
44
0.0000000001
12
0.0792598902
22
-0.0708901729
32
0.0000000000
13
0.0872377662
23
-0.0601095281
33
0.0000000000
40
0.0000000000
40
0.0000000000
40
0.0000000000
40
0.0000000000
40
1.0000000000
40
1.0000000000
40
1.0000000000
40
1.0000000000
10
-11.3365059148
20
-3.6065491442
30
0.0000000000
10
-11.3100859514
20
-3.6301792019
30
0.0000000000
10
-11.2822534777
20
-3.6521852083
30
0.0000000000
10
-11.2531742223
20
-3.6722217176
30
0.0000000000
11
-11.3365059148
21
-3.6065491442
31
0.0000000000
11
-11.2531742223
21
-3.6722217176
31
0.0000000000
0
SPLINE
5
368
100
AcDbEntity
8
0
100
AcDbSpline
62
0
6
CONTINUOUS
70
0
71
3
72
8
73
4
74
2
42
0.0000001000
43
0.0000001000
44
0.0000000001
12
0.0879787129
22
-0.0606200633
32
0.0000000000
13
0.0950770536
23
-0.0475385268
33
0.0000000000
40
0.0000000000
40
0.0000000000
40
0.0000000000
40
0.0000000000
40
1.0000000000
40
1.0000000000
40
1.0000000000
40
1.0000000000
10
-11.2531742223
20
-3.6722217176
30
0.0000000000
10
-11.2238479847
20
-3.6924284054
30
0.0000000000
10
-11.1932536965
20
-3.7106319986
30
0.0000000000
10
-11.1615613453
20
-3.7264781742
30
0.0000000000
11
-11.2531742223
21
-3.6722217176
31
0.0000000000
11
-11.1615613453
21
-3.7264781742
31
0.0000000000
0
SPLINE
5
369
100
AcDbEntity
8
0
100
AcDbSpline
62
0
6
CONTINUOUS
70
0
71
3
72
10
73
6
74
4
42
0.0000001000
43
0.0000001000
44
0.0000000001
12
0.0000000000
22
-0.7323450078
32
0.0000000000
13
0.6550292881
23
-0.3275146441
33
0.0000000000
40
0.0000000000
40
0.0000000000
40
0.0000000000
40
0.0000000000
40
0.3342904765
40
0.6865843886
40
1.0000000000
40
1.0000000000
40
1.0000000000
40
1.0000000000
10
-14.5441991316
20
-8.6450504676
30
0.0000000000
10
-14.5441991316
20
-8.7266557881
30
0.0000000000
10
-14.5069708693
20
-8.8946259445
30
0.0000000000
10
-14.3844581130
20
-9.1086686685
30
0.0000000000
10
-14.2590778760
20
-9.2206237973
30
0.0000000000
10
-14.1906457411
20
-9.2548398648
30
0.0000000000
11
-14.5441991316
21
-8.6450504676
31
0.0000000000
11
-14.4968319589
21
-8.8852404049
31
0.0000000000
11
-14.3674224363
21
-9.1084388152
31
0.0000000000
11
-14.1906457411
21
-9.2548398648
31
0.0000000000
0
SPLINE
5
36A
100
AcDbEntity
8
0
100
AcDbSpline
62
0
6
CONTINUOUS
70
0
71
3
72
9
73
5
74
3
42
0.0000001000
43
0.0000001000
44
0.0000000001
12
0.2036271904
22
-0.1018135952
32
0.0000000000
13
0.2055681679
23
0.1083125359
33
0.0000000000
40
0.0000000000
40
0.0000000000
40
0.0000000000
40
0.0000000000
40
0.7878668781
40
1.0000000000
40
1.0000000000
40
1.0000000000
40
1.0000000000
10
5.6083441322
20
-19.1543348014
30
0.0000000000
10
5.6618211718
20
-19.1810733212
30
0.0000000000
10
5.7439667753
20
-19.2028362404
30
0.0000000000
10
5.8162209559
20
-19.1752133845
30
0.0000000000
10
5.8307568949
20
-19.1675544923
30
0.0000000000
11
5.6083441322
21
-19.1543348014
31
0.0000000000
11
5.7851208275
21
-19.1847104471
31
0.0000000000
11
5.8307568949
21
-19.1675544923
31
0.0000000000
0
SPLINE
5
36B
100
AcDbEntity
8
0
100
AcDbSpline
62
0
6
CONTINUOUS
70
0
71
3
72
10
73
6
74
4
42
0.0000001000
43
0.0000001000
44
0.0000000001
12
-0.6458478191
22
-0.3229239095
32
0.0000000000
13
-0.7093928901
23
0.1347626959
33
0.0000000000
40
0.0000000000
40
0.0000000000
40
0.0000000000
40
0.0000000000
40
0.3260366461
40
0.6883583124
40
1.0000000000
40
1.0000000000
40
1.0000000000
40
1.0000000000
10
-3.7254653795
20
15.9002895103
30
0.0000000000
10
-3.7956553984
20
15.8651945008
30
0.0000000000
10
-3.9558956169
20
15.8156207033
30
0.0000000000
10
-4.1950699354
20
15.7856792294
30
0.0000000000
10
-4.3588800282
20
15.7910423042
30
0.0000000000
10
-4.4325721607
20
15.8050415288
30
0.0000000000
11
-3.7254653795
21
15.9002895103
31
0.0000000000
11
-3.9484354786
21
15.8247314469
31
0.0000000000
11
-4.2079471575
21
15.7915438970
31
0.0000000000
11
-4.4325721607
21
15.8050415288
31
0.0000000000
0
SPLINE
5
36C
100
AcDbEntity
8
0
100
AcDbSpline
62
0
6
CONTINUOUS
70
0
71
3
72
12
73
8
74
6
42
0.0000001000
43
0.0000001000
44
0.0000000001
12
0.0000000004
22
14.9904331806
32
0.0000000000
13
-11.2563112866
23
9.9471180028
33
0.0000000000
40
0.0000000000
40
0.0000000000
40
0.0000000000
40
0.0000000000
40
0.2184370939
40
0.4514896065
40
0.6884048305
40
0.9180723875
40
1.0000000000
40
1.0000000000
40
1.0000000000
40
1.0000000000
10
11.8359090598
20
6.9475014002
30
0.0000000000
10
11.8359090598
20
8.0389902869
30
0.0000000000
10
11.5602358715
20
10.2986348680
30
0.0000000000
10
10.4967073346
20
13.5878027720
30
0.0000000000
10
8.8506006787
20
16.6925434055
30
0.0000000000
10
7.1499014411
20
18.8617998472
30
0.0000000000
10
6.0238133784
20
19.9441020043
30
0.0000000000
10
5.7164124755
20
20.2157498805
30
0.0000000000
11
11.8359090598
21
6.9475014002
31
0.0000000000
11
11.4704169192
21
10.2015062256
31
0.0000000000
11
10.4093083183
21
13.5300189355
31
0.0000000000
11
8.7435931838
21
16.6666212778
31
0.0000000000
11
6.6049187253
21
19.3645936133
31
0.0000000000
11
5.7164124755
21
20.2157498805
31
0.0000000000
0
SPLINE
5
36D
100
AcDbEntity
8
0
100
AcDbSpline
62
0
6
CONTINUOUS
70
0
71
3
72
10
73
6
74
4
42
0.0000001000
43
0.0000001000
44
0.0000000001
12
-4.8568103128
22
4.2919269083
32
0.0000000000
13
-6.4921950077
23
0.3176903103
33
0.0000000000
40
0.0000000000
40
0.0000000000
40
0.0000000000
40
0.0000000000
40
0.3030031778
40
0.7408370816
40
1.0000000000
40
1.0000000000
40
1.0000000000
40
1.0000000000
10
5.7164124755
20
20.2157498805
30
0.0000000000
10
5.2258694893
20
20.6492390445
30
0.0000000000
10
3.9560276482
20
21.6286609770
30
0.0000000000
10
2.0008426479
20
22.6015243004
30
0.0000000000
10
0.5007121195
20
22.8809878636
30
0.0000000000
10
-0.0601332823
20
22.9084323796
30
0.0000000000
11
5.7164124755
21
20.2157498805
31
0.0000000000
11
4.1572542308
21
21.4071343934
31
0.0000000000
11
1.5973004995
21
22.6180516234
31
0.0000000000
11
-0.0601332823
21
22.9084323796
31
0.0000000000
0
SPLINE
5
36E
100
AcDbEntity
8
0
100
AcDbSpline
62
0
6
CONTINUOUS
70
0
71
3
72
8
73
4
74
2
42
0.0000001000
43
0.0000001000
44
0.0000000001
12
-0.7919740190
22
0.0387546079
32
0.0000000000
13
-0.7910487014
23
-0.0695808084
33
0.0000000000
40
0.0000000000
40
0.0000000000
40
0.0000000000
40
0.0000000000
40
1.0000000000
40
1.0000000000
40
1.0000000000
40
1.0000000000
10
-0.0601332823
20
22.9084323796
30
0.0000000000
10
-0.3241246220
20
22.9213505822
30
0.0000000000
10
-0.5887928083
20
22.9173265014
30
0.0000000000
10
-0.8524757088
20
22.8941328986
30
0.0000000000
11
-0.0601332823
21
22.9084323796
31
0.0000000000
11
-0.8524757088
21
22.8941328986
31
0.0000000000
0
SPLINE
5
36F
100
AcDbEntity
8
0
100
AcDbSpline
62
0
6
CONTINUOUS
70
0
71
3
72
8
73
4
74
2
42
0.0000001000
43
0.0000001000
44
0.0000000001
12
-1.9491103269
22
-0.1714441499
32
0.0000000000
13
-1.7539862873
23
-0.8672051518
33
0.0000000000
40
0.0000000000
40
0.0000000000
40
0.0000000000
40
0.0000000000
40
1.0000000000
40
1.0000000000
40
1.0000000000
40
1.0000000000
10
-0.8524757088
20
22.8941328986
30
0.0000000000
10
-1.5021791511
20
22.8369848487
30
0.0000000000
10
-2.1459008376
20
22.6634569777
30
0.0000000000
10
-2.7305629334
20
22.3743885938
30
0.0000000000
11
-0.8524757088
21
22.8941328986
31
0.0000000000
11
-2.7305629334
21
22.3743885938
31
0.0000000000
0
SPLINE
5
370
100
AcDbEntity
8
0
100
AcDbSpline
62
0
6
CONTINUOUS
70
0
71
3
72
9
73
5
74
3
42
0.0000001000
43
0.0000001000
44
0.0000000001
12
0.0000000000
22
-0.2454472409
32
0.0000000000
13
-0.2109931099
23
-0.1054965549
33
0.0000000000
40
0.0000000000
40
0.0000000000
40
0.0000000000
40
0.0000000000
40
0.2742918852
40
1.0000000000
40
1.0000000000
40
1.0000000000
40
1.0000000000
10
11.8322433592
20
-6.2160847374
30
0.0000000000
10
11.8322433592
20
-6.2385261328
30
0.0000000000
10
11.8159937762
20
-6.3203418798
30
0.0000000000
10
11.7405022544
20
-6.3673415306
30
0.0000000000
10
11.6894624504
20
-6.3928614327
30
0.0000000000
11
11.8322433592
21
-6.2160847374
31
0.0000000000
11
11.8188719729
21
-6.2807894986
31
0.0000000000
11
11.6894624504
21
-6.3928614327
31
0.0000000000
0
SPLINE
5
371
100
AcDbEntity
8
0
100
AcDbSpline
62
0
6
CONTINUOUS
70
0
71
3
72
9
73
5
74
3
42
0.0000001000
43
0.0000001000
44
0.0000000001
12
-0.2262392396
22
0.1832607854
32
0.0000000000
13
-0.0010436013
23
0.2997413572
33
0.0000000000
40
0.0000000000
40
0.0000000000
40
0.0000000000
40
0.0000000000
40
0.7166806869
40
1.0000000000
40
1.0000000000
40
1.0000000000
40
1.0000000000
10
-1.6041450359
20
14.3908279665
30
0.0000000000
10
-1.6581921338
20
14.4346077883
30
0.0000000000
10
-1.7297948562
20
14.5084053977
30
0.0000000000
10
-1.7485552113
20
14.6095095603
30
0.0000000000
10
-1.7486537688
20
14.6378170654
30
0.0000000000
11
-1.6041450359
21
14.3908279665
31
0.0000000000
11
-1.7336832215
21
14.5544119289
31
0.0000000000
11
-1.7486537688
21
14.6378170654
31
0.0000000000
0
SPLINE
5
372
100
AcDbEntity
8
0
100
AcDbSpline
62
0
6
CONTINUOUS
70
0
71
3
72
9
73
5
74
3
42
0.0000001000
43
0.0000001000
44
0.0000000001
12
2.5195178419
22
-2.0408874222
32
0.0000000000
13
1.8255495344
23
-2.6877638139
33
0.0000000000
40
0.0000000000
40
0.0000000000
40
0.0000000000
40
0.0000000000
40
0.7888950084
40
1.0000000000
40
1.0000000000
40
1.0000000000
40
1.0000000000
10
-1.6041450359
20
14.3908279665
30
0.0000000000
10
-0.9416000196
20
13.8541459998
30
0.0000000000
10
-0.1937435614
20
13.0571859899
30
0.0000000000
10
0.4391709165
20
12.1773454101
30
0.0000000000
10
0.5676317896
20
11.9882119576
30
0.0000000000
11
-1.6041450359
21
14.3908279665
31
0.0000000000
11
0.1668256796
21
12.5451292876
31
0.0000000000
11
0.5676317896
21
11.9882119576
31
0.0000000000
0
SPLINE
5
373
100
AcDbEntity
8
0
100
AcDbSpline
62
0
6
CONTINUOUS
70
0
71
3
72
8
73
4
74
2
42
0.0000001000
43
0.0000001000
44
0.0000000001
12
0.3729617933
22
-0.5491131263
32
0.0000000000
13
0.3439420811
23
-0.5673769146
33
0.0000000000
40
0.0000000000
40
0.0000000000
40
0.0000000000
40
0.0000000000
40
1.0000000000
40
1.0000000000
40
1.0000000000
40
1.0000000000
10
0.5676317896
20
11.9882119576
30
0.0000000000
10
0.6919523873
20
11.8051742488
30
0.0000000000
10
0.8114491043
20
11.6189571218
30
0.0000000000
10
0.9260964646
20
11.4298314836
30
0.0000000000
11
0.5676317896
21
11.9882119576
31
0.0000000000
11
0.9260964646
21
11.4298314836
31
0.0000000000
0
SPLINE
5
374
100
AcDbEntity
8
0
100
AcDbSpline
62
0
6
CONTINUOUS
70
0
71
3
72
9
73
5
74
3
42
0.0000001000
43
0.0000001000
44
0.0000000001
12
1.6778849405
22
-2.7678880627
32
0.0000000000
13
0.9486261443
23
-3.0955967035
33
0.0000000000
40
0.0000000000
40
0.0000000000
40
0.0000000000
40
0.0000000000
40
0.4327392066
40
1.0000000000
40
1.0000000000
40
1.0000000000
40
1.0000000000
10
0.9260964646
20
11.4298314836
30
0.0000000000
10
1.1681253306
20
11.0305735889
30
0.0000000000
10
1.6774785231
20
10.0779905188
30
0.0000000000
10
2.0701432846
20
9.0697991818
30
0.0000000000
10
2.2495160911
20
8.4844623011
30
0.0000000000
11
0.9260964646
21
11.4298314836
31
0.0000000000
11
1.5871080720
21
10.1957201218
31
0.0000000000
11
2.2495160911
21
8.4844623011
31
0.0000000000
0
SPLINE
5
375
100
AcDbEntity
8
0
100
AcDbSpline
62
0
6
CONTINUOUS
70
0
71
3
72
8
73
4
74
2
42
0.0000001000
43
0.0000001000
44
0.0000000001
12
0.0523270799
22
-0.1707559264
32
0.0000000000
13
0.0498504083
23
-0.1715055276
33
0.0000000000
40
0.0000000000
40
0.0000000000
40
0.0000000000
40
0.0000000000
40
1.0000000000
40
1.0000000000
40
1.0000000000
40
1.0000000000
10
2.2495160911
20
8.4844623011
30
0.0000000000
10
2.2669584510
20
8.4275436590
30
0.0000000000
10
2.2839907090
20
8.3704980308
30
0.0000000000
10
2.3006075118
20
8.3133295216
30
0.0000000000
11
2.2495160911
21
8.4844623011
31
0.0000000000
11
2.3006075118
21
8.3133295216
31
0.0000000000
0
SPLINE
5
376
100
AcDbEntity
8
0
100
AcDbSpline
62
0
6
CONTINUOUS
70
0
71
3
72
10
73
6
74
4
42
0.0000001000
43
0.0000001000
44
0.0000000001
12
1.4953983859
22
-5.1447740980
32
0.0000000000
13
-1.8903656048
23
-5.0534845358
33
0.0000000000
40
0.0000000000
40
0.0000000000
40
0.0000000000
40
0.0000000000
40
0.1329066057
40
0.6027296958
40
1.0000000000
40
1.0000000000
40
1.0000000000
40
1.0000000000
10
2.3006075118
20
8.3133295216
30
0.0000000000
10
2.3668569530
20
8.0854047008
30
0.0000000000
10
2.6373491582
20
7.0429107662
30
0.0000000000
10
2.8492198935
20
5.2555188645
30
0.0000000000
10
2.6117089644
20
3.7039872748
30
0.0000000000
10
2.3613802581
20
3.0347874951
30
0.0000000000
11
2.3006075118
21
8.3133295216
31
0.0000000000
11
2.4792051945
21
7.6239555015
31
0.0000000000
11
2.7409261741
21
5.1253407144
31
0.0000000000
11
2.3613802581
21
3.0347874951
31
0.0000000000
0
SPLINE
5
377
100
AcDbEntity
8
0
100
AcDbSpline
62
0
6
CONTINUOUS
70
0
71
3
72
8
73
4
74
2
42
0.0000001000
43
0.0000001000
44
0.0000000001
12
-0.0199865981
22
-0.0534298571
32
0.0000000000
13
-0.0205909847
23
-0.0532504576
33
0.0000000000
40
0.0000000000
40
0.0000000000
40
0.0000000000
40
0.0000000000
40
1.0000000000
40
1.0000000000
40
1.0000000000
40
1.0000000000
10
2.3613802581
20
3.0347874951
30
0.0000000000
10
2.3547180588
20
3.0169775428
30
0.0000000000
10
2.3479556287
20
2.9991970943
30
0.0000000000
10
2.3410919671
20
2.9814469418
30
0.0000000000
11
2.3613802581
21
3.0347874951
31
0.0000000000
11
2.3410919671
21
2.9814469418
31
0.0000000000
0
SPLINE
5
378
100
AcDbEntity
8
0
100
AcDbSpline
62
0
6
CONTINUOUS
70
0
71
3
72
8
73
4
74
2
42
0.0000001000
43
0.0000001000
44
0.0000000001
12
-0.6711157629
22
-1.7355761279
32
0.0000000000
13
-1.3849485194
23
-1.2360056966
33
0.0000000000
40
0.0000000000
40
0.0000000000
40
0.0000000000
40
0.0000000000
40
1.0000000000
40
1.0000000000
40
1.0000000000
40
1.0000000000
10
2.3410919671
20
2.9814469418
30
0.0000000000
10
2.1173867128
20
2.4029215658
30
0.0000000000
10
1.7861448705
20
1.8565790283
30
0.0000000000
10
1.3244953640
20
1.4445771294
30
0.0000000000
11
2.3410919671
21
2.9814469418
31
0.0000000000
11
1.3244953640
21
1.4445771294
31
0.0000000000
0
SPLINE
5
379
100
AcDbEntity
8
0
100
AcDbSpline
62
0
6
CONTINUOUS
70
0
71
3
72
8
73
4
74
2
42
0.0000001000
43
0.0000001000
44
0.0000000001
12
-0.6299286084
22
-0.5621836029
32
0.0000000000
13
-0.7603540327
23
-0.3800123428
33
0.0000000000
40
0.0000000000
40
0.0000000000
40
0.0000000000
40
0.0000000000
40
1.0000000000
40
1.0000000000
40
1.0000000000
40
1.0000000000
10
1.3244953640
20
1.4445771294
30
0.0000000000
10
1.1145191613
20
1.2571825952
30
0.0000000000
10
0.8775644137
20
1.0975802536
30
0.0000000000
10
0.6241130694
20
0.9709094727
30
0.0000000000
11
1.3244953640
21
1.4445771294
31
0.0000000000
11
0.6241130694
21
0.9709094727
31
0.0000000000
0
SPLINE
5
37A
100
AcDbEntity
8
0
100
AcDbSpline
62
0
6
CONTINUOUS
70
0
71
3
72
8
73
4
74
2
42
0.0000001000
43
0.0000001000
44
0.0000000001
12
-0.5650444741
22
-0.3186986448
32
0.0000000000
13
-0.4627401286
23
-0.4641084118
33
0.0000000000
40
0.0000000000
40
0.0000000000
40
0.0000000000
40
0.0000000000
40
1.0000000000
40
1.0000000000
40
1.0000000000
40
1.0000000000
10
-5.1401100613
20
14.0115935380
30
0.0000000000
10
-5.3284582193
20
13.9053606564
30
0.0000000000
10
-5.5017992185
20
13.7704582448
30
0.0000000000
10
-5.6560459280
20
13.6157554409
30
0.0000000000
11
-5.1401100613
21
14.0115935380
31
0.0000000000
11
-5.6560459280
21
13.6157554409
31
0.0000000000
0
SPLINE
5
37B
100
AcDbEntity
8
0
100
AcDbSpline
62
0
6
CONTINUOUS
70
0
71
3
72
8
73
4
74
2
42
0.0000001000
43
0.0000001000
44
0.0000000001
12
-0.2793807986
22
-0.2802069038
32
0.0000000000
13
-0.2349210715
23
-0.3176567537
33
0.0000000000
40
0.0000000000
40
0.0000000000
40
0.0000000000
40
0.0000000000
40
1.0000000000
40
1.0000000000
40
1.0000000000
40
1.0000000000
10
-5.6560459280
20
13.6157554409
30
0.0000000000
10
-5.7491728609
20
13.5223531396
30
0.0000000000
10
-5.8353395846
20
13.4217332422
30
0.0000000000
10
-5.9136466085
20
13.3158476577
30
0.0000000000
11
-5.6560459280
21
13.6157554409
31
0.0000000000
11
-5.9136466085
21
13.3158476577
31
0.0000000000
0
SPLINE
5
37C
100
AcDbEntity
8
0
100
AcDbSpline
62
0
6
CONTINUOUS
70
0
71
3
72
8
73
4
74
2
42
0.0000001000
43
0.0000001000
44
0.0000000001
12
-0.0422553715
22
-0.0571370804
32
0.0000000000
13
-0.0407411645
23
-0.0581352456
33
0.0000000000
40
0.0000000000
40
0.0000000000
40
0.0000000000
40
0.0000000000
40
1.0000000000
40
1.0000000000
40
1.0000000000
40
1.0000000000
10
-5.9136466085
20
13.3158476577
30
0.0000000000
10
-5.9277317323
20
13.2968019642
30
0.0000000000
10
-5.9415625682
20
13.2775859079
30
0.0000000000
10
-5.9551429563
20
13.2582074926
30
0.0000000000
11
-5.9136466085
21
13.3158476577
31
0.0000000000
11
-5.9551429563
21
13.2582074926
31
0.0000000000
0
SPLINE
5
37D
100
AcDbEntity
8
0
100
AcDbSpline
62
0
6
CONTINUOUS
70
0
71
3
72
8
73
4
74
2
42
0.0000001000
43
0.0000001000
44
0.0000000001
12
-0.6238885786
22
-0.8902523088
32
0.0000000000
13
-0.3128774777
23
-1.0324653694
33
0.0000000000
40
0.0000000000
40
0.0000000000
40
0.0000000000
40
0.0000000000
40
1.0000000000
40
1.0000000000
40
1.0000000000
40
1.0000000000
10
-5.9551429563
20
13.2582074926
30
0.0000000000
10
-6.1631058159
20
12.9614567230
30
0.0000000000
10
-6.3123381071
20
12.6266324167
30
0.0000000000
10
-6.4166305997
20
12.2824772936
30
0.0000000000
11
-5.9551429563
21
13.2582074926
31
0.0000000000
11
-6.4166305997
21
12.2824772936
31
0.0000000000
0
SPLINE
5
37E
100
AcDbEntity
8
0
100
AcDbSpline
62
0
6
CONTINUOUS
70
0
71
3
72
9
73
5
74
3
42
0.0000001000
43
0.0000001000
44
0.0000000001
12
0.1234967449
22
0.0655335165
32
0.0000000000
13
0.1224953575
23
-0.0612476788
33
0.0000000000
40
0.0000000000
40
0.0000000000
40
0.0000000000
40
0.0000000000
40
0.2141851476
40
1.0000000000
40
1.0000000000
40
1.0000000000
40
1.0000000000
10
-11.4252774639
20
-12.9283267340
30
0.0000000000
10
-11.4164604078
20
-12.9236479654
30
0.0000000000
10
-11.3730102299
20
-12.9069533926
30
0.0000000000
10
-11.3235941619
20
-12.9200452423
30
0.0000000000
10
-11.2915079382
20
-12.9360883542
30
0.0000000000
11
-11.4252774639
21
-12.9283267340
31
0.0000000000
11
-11.3975739554
21
-12.9178629667
31
0.0000000000
11
-11.2915079382
21
-12.9360883542
31
0.0000000000
0
SPLINE
5
37F
100
AcDbEntity
8
0
100
AcDbSpline
62
0
6
CONTINUOUS
70
0
71
3
72
8
73
4
74
2
42
0.0000001000
43
0.0000001000
44
0.0000000001
12
-0.3776906290
22
-0.1888453145
32
0.0000000000
13
-0.3103259526
23
-0.2899865699
33
0.0000000000
40
0.0000000000
40
0.0000000000
40
0.0000000000
40
0.0000000000
40
1.0000000000
40
1.0000000000
40
1.0000000000
40
1.0000000000
10
-11.4256720168
20
-12.9275678180
30
0.0000000000
10
-11.5515688932
20
-12.9905162562
30
0.0000000000
10
-11.6717686659
20
-13.0678349590
30
0.0000000000
10
-11.7752106501
20
-13.1644971489
30
0.0000000000
11
-11.4256720168
21
-12.9275678180
31
0.0000000000
11
-11.7752106501
21
-13.1644971489
31
0.0000000000
0
SPLINE
5
380
100
AcDbEntity
8
0
100
AcDbSpline
62
0
6
CONTINUOUS
70
0
71
3
72
8
73
4
74
2
42
0.0000001000
43
0.0000001000
44
0.0000000001
12
-0.0914366822
22
-0.0854437394
32
0.0000000000
13
-0.0810977607
23
-0.0954292755
33
0.0000000000
40
0.0000000000
40
0.0000000000
40
0.0000000000
40
0.0000000000
40
1.0000000000
40
1.0000000000
40
1.0000000000
40
1.0000000000
10
-11.7752106501
20
-13.1644971489
30
0.0000000000
10
-11.8056895442
20
-13.1929783954
30
0.0000000000
10
-11.8347135775
20
-13.2231389852
30
0.0000000000
10
-11.8617461644
20
-13.2549487437
30
0.0000000000
11
-11.7752106501
21
-13.1644971489
31
0.0000000000
11
-11.8617461644
21
-13.2549487437
31
0.0000000000
0
SPLINE
5
381
100
AcDbEntity
8
0
100
AcDbSpline
62
0
6
CONTINUOUS
70
0
71
3
72
9
73
5
74
3
42
0.0000001000
43
0.0000001000
44
0.0000000001
12
-0.3123444993
22
-0.3675417056
32
0.0000000000
13
-0.0513009773
23
-0.4789751452
33
0.0000000000
40
0.0000000000
40
0.0000000000
40
0.0000000000
40
0.0000000000
40
0.4841322873
40
1.0000000000
40
1.0000000000
40
1.0000000000
40
1.0000000000
10
-11.8617461644
20
-13.2549487437
30
0.0000000000
10
-11.9121515167
20
-13.3142616792
30
0.0000000000
10
-12.0019648142
20
-13.4486190556
30
0.0000000000
10
-12.0473960480
20
-13.6066051290
30
0.0000000000
10
-12.0562175540
20
-13.6889677332
30
0.0000000000
11
-11.8617461644
21
-13.2549487437
31
0.0000000000
11
-11.9887121022
21
-13.4498933573
31
0.0000000000
11
-12.0562175540
21
-13.6889677332
31
0.0000000000
0
SPLINE
5
382
100
AcDbEntity
8
0
100
AcDbSpline
62
0
6
CONTINUOUS
70
0
71
3
72
8
73
4
74
2
42
0.0000001000
43
0.0000001000
44
0.0000000001
12
-0.0077681517
22
-0.0725278894
32
0.0000000000
13
0.0000000000
23
-0.0725622331
33
0.0000000000
40
0.0000000000
40
0.0000000000
40
0.0000000000
40
0.0000000000
40
1.0000000000
40
1.0000000000
40
1.0000000000
40
1.0000000000
10
-12.0562175540
20
-13.6889677332
30
0.0000000000
10
-12.0588069379
20
-13.7131436964
30
0.0000000000
10
-12.0601370883
20
-13.7373939892
30
0.0000000000
10
-12.0601370883
20
-13.7615814002
30
0.0000000000
11
-12.0562175540
21
-13.6889677332
31
0.0000000000
11
-12.0601370883
21
-13.7615814002
31
0.0000000000
0
SPLINE
5
383
100
AcDbEntity
8
0
100
AcDbSpline
62
0
6
CONTINUOUS
70
0
71
3
72
8
73
4
74
2
42
0.0000001000
43
0.0000001000
44
0.0000000001
12
-0.1098191956
22
0.0947788545
32
0.0000000000
13
-0.1216314708
23
0.0806852471
33
0.0000000000
40
0.0000000000
40
0.0000000000
40
0.0000000000
40
0.0000000000
40
1.0000000000
40
1.0000000000
40
1.0000000000
40
1.0000000000
10
-9.3710944775
20
-11.7080422329
30
0.0000000000
10
-9.4077008760
20
-11.6764492814
30
0.0000000000
10
-9.4467659582
20
-11.6474553283
30
0.0000000000
10
-9.4873097818
20
-11.6205602460
30
0.0000000000
11
-9.3710944775
21
-11.7080422329
31
0.0000000000
11
-9.4873097818
21
-11.6205602460
31
0.0000000000
0
SPLINE
5
384
100
AcDbEntity
8
0
100
AcDbSpline
62
0
6
CONTINUOUS
70
0
71
3
72
8
73
4
74
2
42
0.0000001000
43
0.0000001000
44
0.0000000001
12
-0.1983138056
22
0.1315531112
32
0.0000000000
13
-0.2091578254
23
0.1045789127
33
0.0000000000
40
0.0000000000
40
0.0000000000
40
0.0000000000
40
0.0000000000
40
1.0000000000
40
1.0000000000
40
1.0000000000
40
1.0000000000
10
-9.4873097818
20
-11.6205602460
30
0.0000000000
10
-9.5534143837
20
-11.5767092089
30
0.0000000000
10
-9.6234500141
20
-11.5384377282
30
0.0000000000
10
-9.6931692893
20
-11.5035780907
30
0.0000000000
11
-9.4873097818
21
-11.6205602460
31
0.0000000000
11
-9.6931692893
21
-11.5035780907
31
0.0000000000
0
SPLINE
5
385
100
AcDbEntity
8
0
100
AcDbSpline
62
0
6
CONTINUOUS
70
0
71
3
72
9
73
5
74
3
42
0.0000001000
43
0.0000001000
44
0.0000000001
12
0.0080288913
22
-0.2928870541
32
0.0000000000
13
-0.1446312202
23
-0.2516560521
33
0.0000000000
40
0.0000000000
40
0.0000000000
40
0.0000000000
40
0.0000000000
40
0.4949163868
40
1.0000000000
40
1.0000000000
40
1.0000000000
40
1.0000000000
10
-9.1129075934
20
-11.3458080788
30
0.0000000000
10
-9.1115830501
20
-11.3941262796
30
0.0000000000
10
-9.1212433919
20
-11.4910561736
30
0.0000000000
10
-9.1590498962
20
-11.5795797175
30
0.0000000000
10
-9.1834001827
20
-11.6219488335
30
0.0000000000
11
-9.1129075934
21
-11.3458080788
31
0.0000000000
11
-9.1280393568
21
-11.4880115953
31
0.0000000000
11
-9.1834001827
21
-11.6219488335
31
0.0000000000
0
SPLINE
5
386
100
AcDbEntity
8
0
100
AcDbSpline
62
0
6
CONTINUOUS
70
0
71
3
72
8
73
4
74
2
42
0.0000001000
43
0.0000001000
44
0.0000000001
12
-0.2239728503
22
-0.1220611554
32
0.0000000000
13
-0.0851179833
23
-0.2339202494
33
0.0000000000
40
0.0000000000
40
0.0000000000
40
0.0000000000
40
0.0000000000
40
1.0000000000
40
1.0000000000
40
1.0000000000
40
1.0000000000
10
-13.7434416509
20
-8.1081223272
30
0.0000000000
10
-13.8180992676
20
-8.1488093790
30
0.0000000000
10
-13.8806831291
20
-8.2224802001
30
0.0000000000
10
-13.9090557902
20
-8.3004536166
30
0.0000000000
11
-13.7434416509
21
-8.1081223272
31
0.0000000000
11
-13.9090557902
21
-8.3004536166
31
0.0000000000
0
SPLINE
5
387
100
AcDbEntity
8
0
100
AcDbSpline
62
0
6
CONTINUOUS
70
0
71
3
72
9
73
5
74
3
42
0.0000001000
43
0.0000001000
44
0.0000000001
12
-0.4273271146
22
-0.1837107026
32
0.0000000000
13
0.0000000000
23
-0.4602979188
33
0.0000000000
40
0.0000000000
40
0.0000000000
40
0.0000000000
40
0.0000000000
40
0.1707723511
40
1.0000000000
40
1.0000000000
40
1.0000000000
40
1.0000000000
10
4.4951995314
20
-17.2345015748
30
0.0000000000
10
4.4708743128
20
-17.2449591443
30
0.0000000000
10
4.3389235327
20
-17.3232107899
30
0.0000000000
10
4.3001965870
20
-17.5070050380
30
0.0000000000
10
4.3001965870
20
-17.6342356250
30
0.0000000000
11
4.4951995314
21
-17.2345015748
31
0.0000000000
11
4.4285259278
21
-17.2747635389
31
0.0000000000
11
4.3001965870
21
-17.6342356250
31
0.0000000000
0
SPLINE
5
388
100
AcDbEntity
8
0
100
AcDbSpline
62
0
6
CONTINUOUS
70
0
71
3
72
10
73
6
74
4
42
0.0000001000
43
0.0000001000
44
0.0000000001
12
-0.4151283875
22
-0.2062158990
32
0.0000000000
13
-0.4136152832
23
0.2068076416
33
0.0000000000
40
0.0000000000
40
0.0000000000
40
0.0000000000
40
0.0000000000
40
0.2759779329
40
0.6169867526
40
1.0000000000
40
1.0000000000
40
1.0000000000
40
1.0000000000
10
0.5008087435
20
3.1979125294
30
0.0000000000
10
0.4626199854
20
3.1789421836
30
0.0000000000
10
0.3692055136
20
3.1510632246
30
0.0000000000
10
0.2126538412
20
3.1606168616
30
0.0000000000
10
0.1066658849
20
3.2000202766
30
0.0000000000
10
0.0538591739
20
3.2264236321
30
0.0000000000
11
0.5008087435
21
3.1979125294
31
0.0000000000
11
0.3784160605
21
3.1607589725
31
0.0000000000
11
0.2208621590
21
3.1674221400
31
0.0000000000
11
0.0538591739
21
3.2264236321
31
0.0000000000
0
SPLINE
5
389
100
AcDbEntity
8
0
100
AcDbSpline
62
0
6
CONTINUOUS
70
0
71
3
72
9
73
5
74
3
42
0.0000001000
43
0.0000001000
44
0.0000000001
12
-0.4111363359
22
-0.2166250717
32
0.0000000000
13
-0.4072543809
23
0.2036271904
33
0.0000000000
40
0.0000000000
40
0.0000000000
40
0.0000000000
40
0.0000000000
40
0.2121331219
40
1.0000000000
40
1.0000000000
40
1.0000000000
40
1.0000000000
10
-3.6341932445
20
5.2664232221
30
0.0000000000
10
-3.6632651227
20
5.2511054379
30
0.0000000000
10
-3.8077734839
20
5.1958597260
30
0.0000000000
10
-3.9720646909
20
5.2393855645
30
0.0000000000
10
-4.0790187701
20
5.2928626041
30
0.0000000000
11
-3.6341932445
21
5.2664232221
31
0.0000000000
11
-3.7254653795
21
5.2321113126
31
0.0000000000
11
-4.0790187701
21
5.2928626041
31
0.0000000000
0
SPLINE
5
38A
100
AcDbEntity
8
0
100
AcDbSpline
62
0
6
CONTINUOUS
70
0
71
3
72
8
73
4
74
2
42
0.0000001000
43
0.0000001000
44
0.0000000001
12
0.0314169087
22
0.0158661498
32
0.0000000000
13
0.0297498549
23
0.0190387450
33
0.0000000000
40
0.0000000000
40
0.0000000000
40
0.0000000000
40
0.0000000000
40
1.0000000000
40
1.0000000000
40
1.0000000000
40
1.0000000000
10
-6.1769908865
20
9.8716631975
30
0.0000000000
10
-6.1665185836
20
9.8769519141
30
0.0000000000
10
-6.1563174791
20
9.8827965173
30
0.0000000000
10
-6.1464008608
20
9.8891427656
30
0.0000000000
11
-6.1769908865
21
9.8716631975
31
0.0000000000
11
-6.1464008608
21
9.8891427656
31
0.0000000000
0
SPLINE
5
38B
100
AcDbEntity
8
0
100
AcDbSpline
62
0
6
CONTINUOUS
70
0
71
3
72
8
73
4
74
2
42
0.0000001000
43
0.0000001000
44
0.0000000001
12
0.4365883792
22
0.2211542427
32
0.0000000000
13
0.4651804291
23
0.1477951879
33
0.0000000000
40
0.0000000000
40
0.0000000000
40
0.0000000000
40
0.0000000000
40
1.0000000000
40
1.0000000000
40
1.0000000000
40
1.0000000000
10
-6.6584083097
20
15.5440305517
30
0.0000000000
10
-6.5128788500
20
15.6177486326
30
0.0000000000
10
-6.3618400302
20
15.6800357870
30
0.0000000000
10
-6.2067798871
20
15.7293008496
30
0.0000000000
11
-6.6584083097
21
15.5440305517
31
0.0000000000
11
-6.2067798871
21
15.7293008496
31
0.0000000000
0
SPLINE
5
38C
100
AcDbEntity
8
0
100
AcDbSpline
62
0
6
CONTINUOUS
70
0
71
3
72
8
73
4
74
2
42
0.0000001000
43
0.0000001000
44
0.0000000001
12
0.5389852065
22
0.1712441342
32
0.0000000000
13
0.5623139180
23
0.0719792869
33
0.0000000000
40
0.0000000000
40
0.0000000000
40
0.0000000000
40
0.0000000000
40
1.0000000000
40
1.0000000000
40
1.0000000000
40
1.0000000000
10
-6.2067798871
20
15.7293008496
30
0.0000000000
10
-6.0271181516
20
15.7863822277
30
0.0000000000
10
-5.8420578330
20
15.8259815874
30
0.0000000000
10
-5.6546198603
20
15.8499746830
30
0.0000000000
11
-6.2067798871
21
15.7293008496
31
0.0000000000
11
-5.6546198603
21
15.8499746830
31
0.0000000000
0
SPLINE
5
38D
100
AcDbEntity
8
0
100
AcDbSpline
62
0
6
CONTINUOUS
70
0
71
3
72
8
73
4
74
2
42
0.0000001000
43
0.0000001000
44
0.0000000001
12
1.2193091201
22
0.1560783010
32
0.0000000000
13
1.1939866482
23
-0.2268205134
33
0.0000000000
40
0.0000000000
40
0.0000000000
40
0.0000000000
40
0.0000000000
40
1.0000000000
40
1.0000000000
40
1.0000000000
40
1.0000000000
10
-5.6546198603
20
15.8499746830
30
0.0000000000
10
-5.2481834870
20
15.9020007833
30
0.0000000000
10
-4.8305677101
20
15.8806483666
30
0.0000000000
10
-4.4325721607
20
15.8050415288
30
0.0000000000
11
-5.6546198603
21
15.8499746830
31
0.0000000000
11
-4.4325721607
21
15.8050415288
31
0.0000000000
0
SPLINE
5
38E
100
AcDbEntity
8
0
100
AcDbSpline
62
0
6
CONTINUOUS
70
0
71
3
72
10
73
6
74
4
42
0.0000001000
43
0.0000001000
44
0.0000000001
12
-0.1299775545
22
0.4386742465
32
0.0000000000
13
-0.0030029371
23
0.4587061316
33
0.0000000000
40
0.0000000000
40
0.0000000000
40
0.0000000000
40
0.0000000000
40
0.3635086215
40
0.7100473365
40
1.0000000000
40
1.0000000000
40
1.0000000000
40
1.0000000000
10
-1.3920130016
20
8.2910042844
30
0.0000000000
10
-1.4077623221
20
8.3441582413
30
0.0000000000
10
-1.4371883629
20
8.4483833386
30
0.0000000000
10
-1.4699437708
20
8.5975679349
30
0.0000000000
10
-1.4795047569
20
8.6944180044
30
0.0000000000
10
-1.4797949934
20
8.7387523593
30
0.0000000000
11
-1.3920130016
21
8.2910042844
31
0.0000000000
11
-1.4362750091
21
8.4513206365
31
0.0000000000
11
-1.4684513303
21
8.6065715390
31
0.0000000000
11
-1.4797949934
21
8.7387523593
31
0.0000000000
0
SPLINE
5
38F
100
AcDbEntity
8
0
100
AcDbSpline
62
0
6
CONTINUOUS
70
0
71
3
72
10
73
6
74
4
42
0.0000001000
43
0.0000001000
44
0.0000000001
12
0.4901207832
22
-1.6541576432
32
0.0000000000
13
-0.6694917774
23
-1.5900429713
33
0.0000000000
40
0.0000000000
40
0.0000000000
40
0.0000000000
40
0.0000000000
40
0.3659254442
40
0.7048665976
40
1.0000000000
40
1.0000000000
40
1.0000000000
40
1.0000000000
10
-1.3920130016
20
8.2910042844
30
0.0000000000
10
-1.3322304465
20
8.0892381610
30
0.0000000000
10
-1.2488925894
20
7.6898493461
30
0.0000000000
10
-1.2416416862
20
7.1110208860
30
0.0000000000
10
-1.3261498729
20
6.7503729403
30
0.0000000000
10
-1.3920130016
20
6.5939480096
30
0.0000000000
11
-1.3920130016
21
8.2910042844
31
0.0000000000
11
-1.2667849507
21
7.6722396785
31
0.0000000000
11
-1.2667849507
21
7.0874845647
31
0.0000000000
11
-1.3920130016
21
6.5939480096
31
0.0000000000
0
SPLINE
5
390
100
AcDbEntity
8
0
100
AcDbSpline
62
0
6
CONTINUOUS
70
0
71
3
72
8
73
4
74
2
42
0.0000001000
43
0.0000001000
44
0.0000000001
12
-0.0225556809
22
-0.0744315620
32
0.0000000000
13
-0.0146874176
23
-0.0765315261
33
0.0000000000
40
0.0000000000
40
0.0000000000
40
0.0000000000
40
0.0000000000
40
1.0000000000
40
1.0000000000
40
1.0000000000
40
1.0000000000
10
-6.4166305997
20
12.2824772936
30
0.0000000000
10
-6.4241491599
20
12.2576667729
30
0.0000000000
10
-6.4302924631
20
12.2324435588
30
0.0000000000
10
-6.4351882690
20
12.2069330501
30
0.0000000000
11
-6.4166305997
21
12.2824772936
31
0.0000000000
11
-6.4351882690
21
12.2069330501
31
0.0000000000
0
SPLINE
5
391
100
AcDbEntity
8
0
100
AcDbSpline
62
0
6
CONTINUOUS
70
0
71
3
72
8
73
4
74
2
42
0.0000001000
43
0.0000001000
44
0.0000000001
12
-0.0131007111
22
0.1066802926
32
0.0000000000
13
-0.0033633569
23
0.1075908673
33
0.0000000000
40
0.0000000000
40
0.0000000000
40
0.0000000000
40
0.0000000000
40
1.0000000000
40
1.0000000000
40
1.0000000000
40
1.0000000000
10
-6.4417632384
20
9.1820791228
30
0.0000000000
10
-6.4461301421
20
9.2176392204
30
0.0000000000
10
-6.4489710758
20
9.2534104249
30
0.0000000000
10
-6.4500921948
20
9.2892740473
30
0.0000000000
11
-6.4417632384
21
9.1820791228
31
0.0000000000
11
-6.4500921948
21
9.2892740473
31
0.0000000000
0
SPLINE
5
392
100
AcDbEntity
8
0
100
AcDbSpline
62
0
6
CONTINUOUS
70
0
71
3
72
9
73
5
74
3
42
0.0000001000
43
0.0000001000
44
0.0000000001
12
-0.0100664824
22
0.3220180277
32
0.0000000000
13
0.1114038744
23
0.3027772191
33
0.0000000000
40
0.0000000000
40
0.0000000000
40
0.0000000000
40
0.0000000000
40
0.3486986672
40
1.0000000000
40
1.0000000000
40
1.0000000000
40
1.0000000000
10
-6.4500921948
20
9.2892740473
30
0.0000000000
10
-6.4512622511
20
9.3267031330
30
0.0000000000
10
-6.4492456772
20
9.4343311552
30
0.0000000000
10
-6.4300108040
20
9.5416774323
30
0.0000000000
10
-6.4058249734
20
9.6074105011
30
0.0000000000
11
-6.4500921948
21
9.2892740473
31
0.0000000000
11
-6.4477623117
21
9.4017283712
31
0.0000000000
11
-6.4058249734
21
9.6074105011
31
0.0000000000
0
SPLINE
5
393
100
AcDbEntity
8
0
100
AcDbSpline
62
0
6
CONTINUOUS
70
0
71
3
72
8
73
4
74
2
42
0.0000001000
43
0.0000001000
44
0.0000000001
12
0.0325287677
22
0.0884077855
32
0.0000000000
13
0.0477646907
23
0.0822668553
33
0.0000000000
40
0.0000000000
40
0.0000000000
40
0.0000000000
40
0.0000000000
40
1.0000000000
40
1.0000000000
40
1.0000000000
40
1.0000000000
10
-6.4058249734
20
9.6074105011
30
0.0000000000
10
-6.3949820508
20
9.6368797629
30
0.0000000000
10
-6.3817959805
20
9.6655085512
30
0.0000000000
10
-6.3658744169
20
9.6929308363
30
0.0000000000
11
-6.4058249734
21
9.6074105011
31
0.0000000000
11
-6.3658744169
21
9.6929308363
31
0.0000000000
0
SPLINE
5
394
100
AcDbEntity
8
0
100
AcDbSpline
62
0
6
CONTINUOUS
70
0
71
3
72
8
73
4
74
2
42
0.0000001000
43
0.0000001000
44
0.0000000001
12
0.1247940836
22
0.2149373663
32
0.0000000000
13
0.2185507091
23
0.1102103688
33
0.0000000000
40
0.0000000000
40
0.0000000000
40
0.0000000000
40
0.0000000000
40
1.0000000000
40
1.0000000000
40
1.0000000000
40
1.0000000000
10
-6.3658744169
20
9.6929308363
30
0.0000000000
10
-6.3242763890
20
9.7645766251
30
0.0000000000
10
-6.2640055502
20
9.8279866756
30
0.0000000000
10
-6.1911553139
20
9.8647234652
30
0.0000000000
11
-6.3658744169
21
9.6929308363
31
0.0000000000
11
-6.1911553139
21
9.8647234652
31
0.0000000000
0
SPLINE
5
395
100
AcDbEntity
8
0
100
AcDbSpline
62
0
6
CONTINUOUS
70
0
71
3
72
8
73
4
74
2
42
0.0000001000
43
0.0000001000
44
0.0000000001
12
0.0000000000
22
0.2804802106
32
0.0000000000
13
0.0964966248
23
0.2669089271
33
0.0000000000
40
0.0000000000
40
0.0000000000
40
0.0000000000
40
0.0000000000
40
1.0000000000
40
1.0000000000
40
1.0000000000
40
1.0000000000
10
-1.2505916453
20
11.4130700546
30
0.0000000000
10
-1.2505916453
20
11.5065634582
30
0.0000000000
10
-1.2403829710
20
11.6041270091
30
0.0000000000
10
-1.2082174294
20
11.6930966515
30
0.0000000000
11
-1.2505916453
21
11.4130700546
31
0.0000000000
11
-1.2082174294
21
11.6930966515
31
0.0000000000
0
SPLINE
5
396
100
AcDbEntity
8
0
100
AcDbSpline
62
0
6
CONTINUOUS
70
0
71
3
72
9
73
5
74
3
42
0.0000001000
43
0.0000001000
44
0.0000000001
12
0.1168658361
22
0.3232500100
32
0.0000000000
13
0.3067204708
23
0.1616090289
33
0.0000000000
40
0.0000000000
40
0.0000000000
40
0.0000000000
40
0.0000000000
40
0.3433485256
40
1.0000000000
40
1.0000000000
40
1.0000000000
40
1.0000000000
10
-1.2082174294
20
11.6930966515
30
0.0000000000
10
-1.1948421919
20
11.7300924562
30
0.0000000000
10
-1.1448294257
20
11.8335145636
30
0.0000000000
10
-1.0554465395
20
11.9166078474
30
0.0000000000
10
-0.9883103897
20
11.9519814498
30
0.0000000000
11
-1.2082174294
21
11.6930966515
31
0.0000000000
11
-1.1558572998
21
11.7987155838
31
0.0000000000
11
-0.9883103897
21
11.9519814498
31
0.0000000000
0
SPLINE
5
397
100
AcDbEntity
8
0
100
AcDbSpline
62
0
6
CONTINUOUS
70
0
71
3
72
8
73
4
74
2
42
0.0000001000
43
0.0000001000
44
0.0000000001
12
0.0171692839
22
-0.3550121089
32
0.0000000000
13
0.0486224529
23
-0.3522269223
33
0.0000000000
40
0.0000000000
40
0.0000000000
40
0.0000000000
40
0.0000000000
40
1.0000000000
40
1.0000000000
40
1.0000000000
40
1.0000000000
10
10.9159632199
20
-6.7839292767
30
0.0000000000
10
10.9216863145
20
-6.9022666464
30
0.0000000000
10
10.9329998322
20
-7.0203892216
30
0.0000000000
10
10.9492073165
20
-7.1377981957
30
0.0000000000
11
10.9159632199
21
-6.7839292767
31
0.0000000000
11
10.9492073165
21
-7.1377981957
31
0.0000000000
0
SPLINE
5
398
100
AcDbEntity
8
0
100
AcDbSpline
62
0
6
CONTINUOUS
70
0
71
3
72
9
73
5
74
3
42
0.0000001000
43
0.0000001000
44
0.0000000001
12
0.1026566640
22
-0.7436572758
32
0.0000000000
13
0.2203344985
23
-0.7173377299
33
0.0000000000
40
0.0000000000
40
0.0000000000
40
0.0000000000
40
0.0000000000
40
0.4926894091
40
1.0000000000
40
1.0000000000
40
1.0000000000
40
1.0000000000
10
10.9492073165
20
-7.1377981957
30
0.0000000000
10
10.9660666002
20
-7.2599288836
30
0.0000000000
10
11.0110336649
20
-7.5062474245
30
0.0000000000
10
11.0755022964
20
-7.7482491540
30
0.0000000000
10
11.1127616379
20
-7.8695534965
30
0.0000000000
11
10.9492073165
21
-7.1377981957
31
0.0000000000
11
11.0151100592
21
-7.5015980812
31
0.0000000000
11
11.1127616379
21
-7.8695534965
31
0.0000000000
0
SPLINE
5
399
100
AcDbEntity
8
0
100
AcDbSpline
62
0
6
CONTINUOUS
70
0
71
3
72
9
73
5
74
3
42
0.0000001000
43
0.0000001000
44
0.0000000001
12
0.1681683367
22
-0.0840841684
32
0.0000000000
13
0.1037370106
23
-0.1576134752
33
0.0000000000
40
0.0000000000
40
0.0000000000
40
0.0000000000
40
0.0000000000
40
0.7324675103
40
1.0000000000
40
1.0000000000
40
1.0000000000
40
1.0000000000
10
-9.0287662384
20
-14.0674592041
30
0.0000000000
10
-8.9877069574
20
-14.0879888445
30
0.0000000000
10
-8.9393534673
20
-14.1311648772
30
0.0000000000
10
-8.9018627746
20
-14.1819100458
30
0.0000000000
10
-8.8926117677
20
-14.1959656209
30
0.0000000000
11
-9.0287662384
21
-14.0674592041
31
0.0000000000
11
-8.9227002212
21
-14.1552998338
31
0.0000000000
11
-8.8926117677
21
-14.1959656209
31
0.0000000000
0
SPLINE
5
39A
100
AcDbEntity
8
0
100
AcDbSpline
62
0
6
CONTINUOUS
70
0
71
3
72
9
73
5
74
3
42
0.0000001000
43
0.0000001000
44
0.0000000001
12
0.1387014230
22
-0.2107368735
32
0.0000000000
13
0.0000000000
23
-0.2513890884
33
0.0000000000
40
0.0000000000
40
0.0000000000
40
0.0000000000
40
0.0000000000
40
0.4156883344
40
1.0000000000
40
1.0000000000
40
1.0000000000
40
1.0000000000
10
-8.8926117677
20
-14.1959656209
30
0.0000000000
10
-8.8733929132
20
-14.2251659076
30
0.0000000000
10
-8.8352469109
20
-14.3003909979
30
0.0000000000
10
-8.8166342040
20
-14.3843696500
30
0.0000000000
10
-8.8166342040
20
-14.4333328424
30
0.0000000000
11
-8.8926117677
21
-14.1959656209
31
0.0000000000
11
-8.8450545077
21
-14.2892188800
31
0.0000000000
11
-8.8166342040
21
-14.4333328424
31
0.0000000000
0
SPLINE
5
39B
100
AcDbEntity
8
0
100
AcDbSpline
62
0
6
CONTINUOUS
70
0
71
3
72
10
73
6
74
4
42
0.0000001000
43
0.0000001000
44
0.0000000001
12
-2.3040238933
22
1.1520119467
32
0.0000000000
13
-2.4437863785
23
-0.8145954595
33
0.0000000000
40
0.0000000000
40
0.0000000000
40
0.0000000000
40
0.0000000000
40
0.3133156031
40
0.6643727299
40
1.0000000000
40
1.0000000000
40
1.0000000000
40
1.0000000000
10
1.1108676804
20
-16.9055965755
30
0.0000000000
10
0.8702388019
20
-16.7852821362
30
0.0000000000
10
0.3116132841
20
-16.6277403234
30
0.0000000000
10
-0.5505652111
20
-16.5882006848
30
0.0000000000
10
-1.1393458241
20
-16.6895195789
30
0.0000000000
10
-1.4127462744
20
-16.7806530623
30
0.0000000000
11
1.1108676804
21
-16.9055965755
31
0.0000000000
11
0.3401933475
21
-16.6658853620
31
0.0000000000
11
-0.5630154428
21
-16.6211677145
31
0.0000000000
11
-1.4127462744
21
-16.7806530623
31
0.0000000000
0
SPLINE
5
39C
100
AcDbEntity
8
0
100
AcDbSpline
62
0
6
CONTINUOUS
70
0
71
3
72
9
73
5
74
3
42
0.0000001000
43
0.0000001000
44
0.0000000001
12
-0.3958016703
22
-0.2968512527
32
0.0000000000
13
0.0166366977
23
-0.5026881501
33
0.0000000000
40
0.0000000000
40
0.0000000000
40
0.0000000000
40
0.0000000000
40
0.8053651901
40
1.0000000000
40
1.0000000000
40
1.0000000000
40
1.0000000000
10
-13.5085276625
20
-13.8224606890
30
0.0000000000
10
-13.6147826250
20
-13.9021519109
30
0.0000000000
10
-13.7435097456
20
-14.0384079725
30
0.0000000000
10
-13.7575743258
20
-14.2047066933
30
0.0000000000
10
-13.7564949656
20
-14.2373202308
30
0.0000000000
11
-13.5085276625
21
-13.8224606890
31
0.0000000000
11
-13.7477556843
21
-14.1411097509
31
0.0000000000
11
-13.7564949656
21
-14.2373202308
31
0.0000000000
0
SPLINE
5
39D
100
AcDbEntity
8
0
100
AcDbSpline
62
0
6
CONTINUOUS
70
0
71
3
72
10
73
6
74
4
42
0.0000001000
43
0.0000001000
44
0.0000000001
12
-0.0473129778
22
2.3654122994
32
0.0000000000
13
-2.3658558503
23
0.0118304624
33
0.0000000000
40
0.0000000000
40
0.0000000000
40
0.0000000000
40
0.0000000000
40
0.2377820941
40
0.5794177095
40
1.0000000000
40
1.0000000000
40
1.0000000000
40
1.0000000000
10
-8.2309477789
20
-13.5271286181
30
0.0000000000
10
-8.2346978386
20
-13.3396443881
30
0.0000000000
10
-8.5335522220
20
-12.9155770767
30
0.0000000000
10
-9.2763663810
20
-12.6208556577
30
0.0000000000
10
-9.8791677420
20
-12.5388376854
30
0.0000000000
10
-10.2108467662
20
-12.5371791244
30
0.0000000000
11
-8.2309477789
21
-13.5271286181
31
0.0000000000
11
-8.5021401320
21
-13.0342449578
31
0.0000000000
11
-9.2250794457
21
-12.6727753010
31
0.0000000000
11
-10.2108467662
21
-12.5371791244
31
0.0000000000
0
SPLINE
5
39E
100
AcDbEntity
8
0
100
AcDbSpline
62
0
6
CONTINUOUS
70
0
71
3
72
9
73
5
74
3
42
0.0000001000
43
0.0000001000
44
0.0000000001
12
-0.0936043928
22
-0.2111411785
32
0.0000000000
13
0.0267112355
23
-0.2294098723
33
0.0000000000
40
0.0000000000
40
0.0000000000
40
0.0000000000
40
0.0000000000
40
0.4698337709
40
1.0000000000
40
1.0000000000
40
1.0000000000
40
1.0000000000
10
-12.4769567904
20
-3.5609683532
30
0.0000000000
10
-12.4916162920
20
-3.5940354386
30
0.0000000000
10
-12.5098114218
20
-3.6702662646
30
0.0000000000
10
-12.5081648445
20
-3.7478727503
30
0.0000000000
10
-12.5034443795
20
-3.7884145393
30
0.0000000000
11
-12.4769567904
21
-3.5609683532
31
0.0000000000
11
-12.5043337316
21
-3.6659707398
31
0.0000000000
11
-12.5034443795
21
-3.7884145393
31
0.0000000000
0
SPLINE
5
39F
100
AcDbEntity
8
0
100
AcDbSpline
62
0
6
CONTINUOUS
70
0
71
3
72
10
73
6
74
4
42
0.0000001000
43
0.0000001000
44
0.0000000001
12
0.1298564348
22
-0.4227704732
32
0.0000000000
13
-0.3079294113
23
-0.3174540034
33
0.0000000000
40
0.0000000000
40
0.0000000000
40
0.0000000000
40
0.0000000000
40
0.3847726827
40
0.7201195977
40
1.0000000000
40
1.0000000000
40
1.0000000000
40
1.0000000000
10
12.2385151995
20
-11.5346423048
30
0.0000000000
10
12.2551702691
20
-11.5888658145
30
0.0000000000
10
12.2752749763
20
-11.6943971933
30
0.0000000000
10
12.2634011532
20
-11.8434501106
30
0.0000000000
10
12.2202406459
20
-11.9278887469
30
0.0000000000
10
12.1915128434
20
-11.9575051316
30
0.0000000000
11
12.2385151995
21
-11.5346423048
31
0.0000000000
11
12.2684739207
21
-11.7021555824
31
0.0000000000
11
12.2520895502
21
-11.8495597078
31
0.0000000000
11
12.1915128434
21
-11.9575051316
31
0.0000000000
0
SPLINE
5
3A0
100
AcDbEntity
8
0
100
AcDbSpline
62
0
6
CONTINUOUS
70
0
71
3
72
10
73
6
74
4
42
0.0000001000
43
0.0000001000
44
0.0000000001
12
-0.4341185080
22
0.5234945221
32
0.0000000000
13
-0.6254710892
23
-0.3193086078
33
0.0000000000
40
0.0000000000
40
0.0000000000
40
0.0000000000
40
0.0000000000
40
0.4010064553
40
0.8364697812
40
1.0000000000
40
1.0000000000
40
1.0000000000
40
1.0000000000
10
11.4573397942
20
-14.2840921216
30
0.0000000000
10
11.3993116862
20
-14.2141172274
30
0.0000000000
10
11.2593294443
20
-14.0841799164
30
0.0000000000
10
11.0305275843
20
-13.9900617360
30
0.0000000000
10
10.8958598979
20
-14.0326072839
30
0.0000000000
10
10.8617654232
20
-14.0500128194
30
0.0000000000
11
11.4573397942
21
-14.2840921216
31
0.0000000000
11
11.2532817945
21
-14.1013019912
31
0.0000000000
11
10.9695683191
21
-14.0167496939
31
0.0000000000
11
10.8617654232
21
-14.0500128194
31
0.0000000000
0
SPLINE
5
3A1
100
AcDbEntity
8
0
100
AcDbSpline
62
0
6
CONTINUOUS
70
0
71
3
72
9
73
5
74
3
42
0.0000001000
43
0.0000001000
44
0.0000000001
12
0.1111003991
22
-0.2256372545
32
0.0000000000
13
0.2182262868
23
0.1002768042
33
0.0000000000
40
0.0000000000
40
0.0000000000
40
0.0000000000
40
0.0000000000
40
0.6045742359
40
1.0000000000
40
1.0000000000
40
1.0000000000
40
1.0000000000
10
-12.1090462454
20
-6.4722144895
30
0.0000000000
10
-12.0866567658
20
-6.5176859798
30
0.0000000000
10
-12.0383987456
20
-6.5909381725
30
0.0000000000
10
-11.9374266212
20
-6.6108222557
30
0.0000000000
10
-11.9086625224
20
-6.5976049117
30
0.0000000000
11
-12.1090462454
21
-6.4722144895
31
0.0000000000
11
-12.0090381218
21
-6.5867521786
31
0.0000000000
11
-11.9086625224
21
-6.5976049117
31
0.0000000000
0
SPLINE
5
3A2
100
AcDbEntity
8
0
100
AcDbSpline
62
0
6
CONTINUOUS
70
0
71
3
72
10
73
6
74
4
42
0.0000001000
43
0.0000001000
44
0.0000000001
12
0.0000000000
22
-0.3733515443
32
0.0000000000
13
0.3567285649
23
0.1291690499
33
0.0000000000
40
0.0000000000
40
0.0000000000
40
0.0000000000
40
0.0000000000
40
0.4183010046
40
0.8083863594
40
1.0000000000
40
1.0000000000
40
1.0000000000
40
1.0000000000
10
5.8204761665
20
-15.3287753394
30
0.0000000000
10
5.8204761665
20
-15.3808331147
30
0.0000000000
10
5.8559547115
20
-15.4788440491
30
0.0000000000
10
5.9389290410
20
-15.5816373721
30
0.0000000000
10
6.0248287376
20
-15.5867128882
30
0.0000000000
10
6.0476134239
20
-15.5784627042
30
0.0000000000
11
5.8204761665
21
-15.3287753394
31
0.0000000000
11
5.8656532806
21
-15.4782716140
31
0.0000000000
11
5.9723209252
21
-15.5774317021
31
0.0000000000
11
6.0476134239
21
-15.5784627042
31
0.0000000000
0
SPLINE
5
3A3
100
AcDbEntity
8
0
100
AcDbSpline
62
0
6
CONTINUOUS
70
0
71
3
72
9
73
5
74
3
42
0.0000001000
43
0.0000001000
44
0.0000000001
12
-0.2165513519
22
-0.3388190685
32
0.0000000000
13
-0.1064218649
23
-0.3877721443
33
0.0000000000
40
0.0000000000
40
0.0000000000
40
0.0000000000
40
0.0000000000
40
0.5198604135
40
1.0000000000
40
1.0000000000
40
1.0000000000
40
1.0000000000
10
-12.5034443795
20
-3.7884145393
30
0.0000000000
10
-12.5409698713
20
-3.8471274130
30
0.0000000000
10
-12.6066574754
20
-3.9643678495
30
0.0000000000
10
-12.6554258816
20
-4.0900238992
30
0.0000000000
10
-12.6724583316
20
-4.1520854849
30
0.0000000000
11
-12.5034443795
21
-3.7884145393
31
0.0000000000
11
-12.6046941460
21
-3.9712990969
31
0.0000000000
11
-12.6724583316
21
-4.1520854849
31
0.0000000000
0
SPLINE
5
3A4
100
AcDbEntity
8
0
100
AcDbSpline
62
0
6
CONTINUOUS
70
0
71
3
72
10
73
6
74
4
42
0.0000001000
43
0.0000001000
44
0.0000000001
12
0.0000000000
22
0.9987512829
32
0.0000000000
13
-0.6953873693
23
0.7168964581
33
0.0000000000
40
0.0000000000
40
0.0000000000
40
0.0000000000
40
0.0000000000
40
0.3706565551
40
0.7024619151
40
1.0000000000
40
1.0000000000
40
1.0000000000
40
1.0000000000
10
13.5279400815
20
-9.6335027939
30
0.0000000000
10
13.5279400815
20
-9.5101048906
30
0.0000000000
10
13.5076746028
20
-9.2752677398
30
0.0000000000
10
13.4060516029
20
-8.9550079902
30
0.0000000000
10
13.2870098552
20
-8.7775497161
30
0.0000000000
10
13.2180417798
20
-8.7064483831
30
0.0000000000
11
13.5279400815
21
-9.6335027939
31
0.0000000000
11
13.4923208067
21
-9.2650266751
31
0.0000000000
11
13.3872572413
21
-8.9507311750
31
0.0000000000
11
13.2180417798
21
-8.7064483831
31
0.0000000000
0
SPLINE
5
3A5
100
AcDbEntity
8
0
100
AcDbSpline
62
9
6
CONTINUOUS
70
0
71
3
72
8
73
4
74
2
42
0.0000001000
43
0.0000001000
44
0.0000000001
12
-0.6519817635
22
-0.2143436427
32
0.0000000000
13
-0.6174216424
23
-0.3100546958
33
0.0000000000
40
0.0000000000
40
0.0000000000
40
0.0000000000
40
0.0000000000
40
1.0000000000
40
1.0000000000
40
1.0000000000
40
1.0000000000
10
-7.6183254558
20
19.8747563393
30
0.0000000000
10
-7.8356527103
20
19.8033084584
30
0.0000000000
10
-8.0484497246
20
19.7150569566
30
0.0000000000
10
-8.2542569387
20
19.6117053913
30
0.0000000000
11
-7.6183254558
21
19.8747563393
31
0.0000000000
11
-8.2542569387
21
19.6117053913
31
0.0000000000
0
SPLINE
5
3A6
100
AcDbEntity
8
0
100
AcDbSpline
62
9
6
CONTINUOUS
70
0
71
3
72
11
73
7
74
5
42
0.0000001000
43
0.0000001000
44
0.0000000001
12
0.0000000150
22
11.7574097543
32
0.0000000000
13
-7.0699660188
23
9.3942676469
33
0.0000000000
40
0.0000000000
40
0.0000000000
40
0.0000000000
40
0.0000000000
40
0.2346134860
40
0.4852965424
40
0.7435920866
40
1.0000000000
40
1.0000000000
40
1.0000000000
40
1.0000000000
10
6.1740295571
20
4.0130082582
30
0.0000000000
10
6.1740295583
20
4.9324905545
30
0.0000000000
10
5.9782188436
20
6.8369056592
30
0.0000000000
10
5.2031696531
20
9.6576425101
30
0.0000000000
10
3.9796308751
20
12.4080127869
30
0.0000000000
10
2.8929801267
20
14.1183145586
30
0.0000000000
10
2.2887150486
20
14.9212360803
30
0.0000000000
11
6.1740295571
21
4.0130082582
31
0.0000000000
11
5.9122465001
21
6.7590051389
31
0.0000000000
11
5.1424213933
21
9.6040777718
31
0.0000000000
11
3.9101658027
21
12.3797265400
31
0.0000000000
11
2.2887150486
21
14.9212360803
31
0.0000000000
0
SPLINE
5
3A7
100
AcDbEntity
8
0
100
AcDbSpline
62
0
6
CONTINUOUS
70
0
71
3
72
9
73
5
74
3
42
0.0000001000
43
0.0000001000
44
0.0000000001
12
-0.7423144348
22
3.1918801653
32
0.0000000000
13
-1.7652902704
23
2.7609563508
33
0.0000000000
40
0.0000000000
40
0.0000000000
40
0.0000000000
40
0.0000000000
40
0.4933061596
40
1.0000000000
40
1.0000000000
40
1.0000000000
40
1.0000000000
10
1.7941269654
20
8.1770985110
30
0.0000000000
10
1.6720642044
20
8.7019565598
30
0.0000000000
10
1.3269246369
20
9.7446950321
30
0.0000000000
10
0.8157603293
20
10.7164154350
30
0.0000000000
10
0.5176064271
20
11.1827352938
30
0.0000000000
11
1.7941269654
21
8.1770985110
31
0.0000000000
11
1.2911429742
21
9.7134528663
31
0.0000000000
11
0.5176064271
21
11.1827352938
31
0.0000000000
0
SPLINE
5
3A8
100
AcDbEntity
8
0
100
AcDbSpline
62
0
6
CONTINUOUS
70
0
71
3
72
9
73
5
74
3
42
0.0000001000
43
0.0000001000
44
0.0000000001
12
1.9072353265
22
1.0757264988
32
0.0000000000
13
0.6350428227
23
2.0955798014
33
0.0000000000
40
0.0000000000
40
0.0000000000
40
0.0000000000
40
0.0000000000
40
0.4738660890
40
1.0000000000
40
1.0000000000
40
1.0000000000
40
1.0000000000
10
0.5176064271
20
3.2068111339
30
0.0000000000
10
0.8188644754
20
3.3767279035
30
0.0000000000
10
1.3736047348
20
3.8900414226
30
0.0000000000
10
1.6827544441
20
4.5684088461
30
0.0000000000
10
1.7941269654
20
4.9359273783
30
0.0000000000
11
0.5176064271
21
3.2068111339
31
0.0000000000
11
1.2894625399
21
3.9002743437
31
0.0000000000
11
1.7941269654
21
4.9359273783
31
0.0000000000
0
SPLINE
5
3A9
100
AcDbEntity
8
0
100
AcDbSpline
62
9
6
CONTINUOUS
70
0
71
3
72
9
73
5
74
3
42
0.0000001000
43
0.0000001000
44
0.0000000001
12
2.0729594418
22
-2.1876890600
32
0.0000000000
13
1.5393499421
23
-2.5910511432
33
0.0000000000
40
0.0000000000
40
0.0000000000
40
0.0000000000
40
0.0000000000
40
0.4897317605
40
1.0000000000
40
1.0000000000
40
1.0000000000
40
1.0000000000
10
0.4845040533
20
17.3295694643
30
0.0000000000
10
0.8229020790
20
16.9724425261
30
0.0000000000
10
1.4695480994
20
16.2002833695
30
0.0000000000
10
2.0268879203
20
15.3619464487
30
0.0000000000
10
2.2887150486
20
14.9212360803
30
0.0000000000
11
0.4845040533
21
17.3295694643
31
0.0000000000
11
1.4348493184
21
16.2002689103
31
0.0000000000
11
2.2887150486
21
14.9212360803
31
0.0000000000
0
SPLINE
5
3AA
100
AcDbEntity
8
0
100
AcDbSpline
62
0
6
CONTINUOUS
70
0
71
3
72
9
73
5
74
3
42
0.0000001000
43
0.0000001000
44
0.0000000001
12
0.0181914036
22
-0.5496645532
32
0.0000000000
13
0.4606399801
23
-0.3016767754
33
0.0000000000
40
0.0000000000
40
0.0000000000
40
0.0000000000
40
0.0000000000
40
0.4602428234
40
1.0000000000
40
1.0000000000
40
1.0000000000
40
1.0000000000
10
-13.7564949656
20
-14.2373202308
30
0.0000000000
10
-13.7537041446
20
-14.3216466195
30
0.0000000000
10
-13.6921974986
20
-14.5084417734
30
0.0000000000
10
-13.5532256509
20
-14.6302024379
30
0.0000000000
10
-13.4703477392
20
-14.6844798394
30
0.0000000000
11
-13.7564949656
21
-14.2373202308
31
0.0000000000
11
-13.6806792130
21
-14.4798130472
31
0.0000000000
11
-13.4703477392
21
-14.6844798394
31
0.0000000000
0
SPLINE
5
3AB
100
AcDbEntity
8
0
100
AcDbSpline
62
0
6
CONTINUOUS
70
0
71
3
72
8
73
4
74
2
42
0.0000001000
43
0.0000001000
44
0.0000000001
12
0.1441666502
22
-0.0944158823
32
0.0000000000
13
0.1514380090
23
-0.0757190045
33
0.0000000000
40
0.0000000000
40
0.0000000000
40
0.0000000000
40
0.0000000000
40
1.0000000000
40
1.0000000000
40
1.0000000000
40
1.0000000000
10
-13.4703477392
20
-14.6844798394
30
0.0000000000
10
-13.4222921892
20
-14.7159518002
30
0.0000000000
10
-13.3715917291
20
-14.7435762539
30
0.0000000000
10
-13.3211123928
20
-14.7688159221
30
0.0000000000
11
-13.4703477392
21
-14.6844798394
31
0.0000000000
11
-13.3211123928
21
-14.7688159221
31
0.0000000000
0
SPLINE
5
3AC
100
AcDbEntity
8
0
100
AcDbSpline
62
9
6
CONTINUOUS
70
0
71
3
72
11
73
7
74
5
42
0.0000001000
43
0.0000001000
44
0.0000000001
12
-0.2108068291
22
-0.1527811683
32
0.0000000000
13
-0.0121345438
23
-0.2602869358
33
0.0000000000
40
0.0000000000
40
0.0000000000
40
0.0000000000
40
0.0000000000
40
0.2731299102
40
0.5455575750
40
0.8183275080
40
1.0000000000
40
1.0000000000
40
1.0000000000
40
1.0000000000
10
-1.5005916453
20
16.1044862570
30
0.0000000000
10
-1.5197841954
20
16.0905765547
30
0.0000000000
10
-1.5530105912
20
16.0553016756
30
0.0000000000
10
-1.5844269169
20
15.9908136173
30
0.0000000000
10
-1.5991296439
20
15.9290852235
30
0.0000000000
10
-1.6028610634
20
15.8897259442
30
0.0000000000
10
-1.6035959010
20
15.8739636188
30
0.0000000000
11
-1.5005916453
21
16.1044862570
31
0.0000000000
11
-1.5499749626
21
16.0533218930
31
0.0000000000
11
-1.5819412174
21
15.9900076406
31
0.0000000000
11
-1.5990049210
21
15.9210727850
31
0.0000000000
11
-1.6035959010
21
15.8739636188
31
0.0000000000
0
SPLINE
5
3AD
100
AcDbEntity
8
0
100
AcDbSpline
62
9
6
CONTINUOUS
70
0
71
3
72
8
73
4
74
2
42
0.0000001000
43
0.0000001000
44
0.0000000001
12
-0.0011131862
22
-0.0238779329
32
0.0000000000
13
0.0000000000
23
-0.0238836270
33
0.0000000000
40
0.0000000000
40
0.0000000000
40
0.0000000000
40
0.0000000000
40
1.0000000000
40
1.0000000000
40
1.0000000000
40
1.0000000000
10
-1.6035959010
20
15.8739636188
30
0.0000000000
10
-1.6039669631
20
15.8660043078
30
0.0000000000
10
-1.6041450359
20
15.8580379434
30
0.0000000000
10
-1.6041450359
20
15.8500767344
30
0.0000000000
11
-1.6035959010
21
15.8739636188
31
0.0000000000
11
-1.6041450359
21
15.8500767344
31
0.0000000000
0
SPLINE
5
3AE
100
AcDbEntity
8
0
100
AcDbSpline
62
9
6
CONTINUOUS
70
0
71
3
72
9
73
5
74
3
42
0.0000001000
43
0.0000001000
44
0.0000000001
12
0.0063005036
22
-0.0920432051
32
0.0000000000
13
0.0909729537
23
-0.0095751850
33
0.0000000000
40
0.0000000000
40
0.0000000000
40
0.0000000000
40
0.0000000000
40
0.1618975839
40
1.0000000000
40
1.0000000000
40
1.0000000000
40
1.0000000000
10
-6.6614196165
20
8.6694661967
30
0.0000000000
10
-6.6610796044
20
8.6644990059
30
0.0000000000
10
-6.6540725412
20
8.6358514091
30
0.0000000000
10
-6.6107419328
20
8.6337584114
30
0.0000000000
10
-6.5853270487
20
8.6310834162
30
0.0000000000
11
-6.6614196165
21
8.6694661967
31
0.0000000000
11
-6.6578586810
21
8.6559190705
31
0.0000000000
11
-6.5853270487
21
8.6310834162
31
0.0000000000
0
SPLINE
5
3AF
100
AcDbEntity
8
0
100
AcDbSpline
62
0
6
CONTINUOUS
70
0
71
3
72
10
73
6
74
4
42
0.0000001000
43
0.0000001000
44
0.0000000001
12
5.9418746207
22
-0.4408574596
32
0.0000000000
13
4.5460864086
23
-3.8621592940
33
0.0000000000
40
0.0000000000
40
0.0000000000
40
0.0000000000
40
0.0000000000
40
0.3298548336
40
0.6990848982
40
1.0000000000
40
1.0000000000
40
1.0000000000
40
1.0000000000
10
-0.4762008618
20
22.6542704913
30
0.0000000000
10
0.1771178262
20
22.6057975033
30
0.0000000000
10
1.5482743071
20
22.2796448550
30
0.0000000000
10
3.3253620346
20
21.3634688670
30
0.0000000000
10
4.3954128866
20
20.5628474104
30
0.0000000000
10
4.8514082381
20
20.1754533914
30
0.0000000000
11
-0.4762008618
21
22.6542704913
31
0.0000000000
11
1.4423657149
21
22.2280349471
31
0.0000000000
11
3.4100757040
21
21.2442191604
31
0.0000000000
11
4.8514082381
21
20.1754533914
31
0.0000000000
0
SPLINE
5
3B0
100
AcDbEntity
8
0
100
AcDbSpline
62
0
6
CONTINUOUS
70
0
71
3
72
8
73
4
74
2
42
0.0000001000
43
0.0000001000
44
0.0000000001
12
0.4868297274
22
-0.4135895773
32
0.0000000000
13
0.4682045160
23
-0.4334660763
33
0.0000000000
40
0.0000000000
40
0.0000000000
40
0.0000000000
40
0.0000000000
40
1.0000000000
40
1.0000000000
40
1.0000000000
40
1.0000000000
10
4.8514082381
20
20.1754533914
30
0.0000000000
10
5.0136848139
20
20.0375901989
30
0.0000000000
10
5.1728599234
20
19.8961947048
30
0.0000000000
10
5.3289280955
20
19.7517060127
30
0.0000000000
11
4.8514082381
21
20.1754533914
31
0.0000000000
11
5.3289280955
21
19.7517060127
31
0.0000000000
0
SPLINE
5
3B1
100
AcDbEntity
8
0
100
AcDbSpline
62
9
6
CONTINUOUS
70
0
71
3
72
9
73
5
74
3
42
0.0000001000
43
0.0000001000
44
0.0000000001
12
-0.0542776782
22
0.0378421151
32
0.0000000000
13
0.0600738929
23
0.0416884701
33
0.0000000000
40
0.0000000000
40
0.0000000000
40
0.0000000000
40
0.0000000000
40
0.0955272699
40
1.0000000000
40
1.0000000000
40
1.0000000000
40
1.0000000000
10
-6.5723529362
20
11.1768752464
30
0.0000000000
10
-6.5740812690
20
11.1780802311
30
0.0000000000
10
-6.5888484647
20
11.1922353588
30
0.0000000000
10
-6.5569347481
20
11.2227366804
30
0.0000000000
10
-6.5388230155
20
11.2353053752
30
0.0000000000
11
-6.5723529362
21
11.1768752464
31
0.0000000000
11
-6.5764766240
21
11.1809337990
31
0.0000000000
11
-6.5388230155
21
11.2353053752
31
0.0000000000
0
SPLINE
5
3B2
100
AcDbEntity
8
0
100
AcDbSpline
62
9
6
CONTINUOUS
70
0
71
3
72
11
73
7
74
5
42
0.0000001000
43
0.0000001000
44
0.0000000001
12
0.0000000000
22
11.3943802765
32
0.0000000000
13
-6.9058069747
23
9.0632075951
33
0.0000000000
40
0.0000000000
40
0.0000000000
40
0.0000000000
40
0.0000000000
40
0.2346462022
40
0.4854141786
40
0.7438409149
40
1.0000000000
40
1.0000000000
40
1.0000000000
40
1.0000000000
10
5.4669227759
20
4.0130082582
30
0.0000000000
10
5.4669227759
20
4.9042242777
30
0.0000000000
10
5.2753176263
20
6.7503085009
30
0.0000000000
10
4.5177856631
20
9.4833298287
30
0.0000000000
10
3.3227910840
20
12.1447150718
30
0.0000000000
10
2.2617188938
20
13.7968207813
30
0.0000000000
10
1.6720571615
20
14.5706951033
30
0.0000000000
11
5.4669227759
21
4.0130082582
31
0.0000000000
11
5.2109393528
21
6.6743737774
31
0.0000000000
11
4.4585313027
21
9.4308763601
31
0.0000000000
11
3.2542772609
21
12.1179779612
31
0.0000000000
11
1.6720571615
21
14.5706951033
31
0.0000000000
0
SPLINE
5
3B3
100
AcDbEntity
8
0
100
AcDbSpline
62
0
6
CONTINUOUS
70
0
71
3
72
9
73
5
74
3
42
0.0000001000
43
0.0000001000
44
0.0000000001
12
1.2234621678
22
-0.9621636006
32
0.0000000000
13
1.3604204892
23
-0.7581411787
33
0.0000000000
40
0.0000000000
40
0.0000000000
40
0.0000000000
40
0.0000000000
40
0.3761004064
40
1.0000000000
40
1.0000000000
40
1.0000000000
40
1.0000000000
10
0.8154764652
20
3.3512683459
30
0.0000000000
10
0.9688580047
20
3.2306449722
30
0.0000000000
10
1.3852195805
20
2.9205837052
30
0.0000000000
10
1.8243848497
20
2.6415858391
30
0.0000000000
10
2.1073067798
20
2.4839178480
30
0.0000000000
11
0.8154764652
21
3.3512683459
31
0.0000000000
11
1.2852711374
21
3.0018106003
31
0.0000000000
11
2.1073067798
21
2.4839178480
31
0.0000000000
0
SPLINE
5
3B4
100
AcDbEntity
8
0
100
AcDbSpline
62
0
6
CONTINUOUS
70
0
71
3
72
8
73
4
74
2
42
0.0000001000
43
0.0000001000
44
0.0000000001
12
0.0037776757
22
-0.3187629111
32
0.0000000000
13
0.1752123179
23
-0.2622127294
33
0.0000000000
40
0.0000000000
40
0.0000000000
40
0.0000000000
40
0.0000000000
40
1.0000000000
40
1.0000000000
40
1.0000000000
40
1.0000000000
10
-12.0596307584
20
-14.6266140170
30
0.0000000000
10
-12.0583715332
20
-14.7328683207
30
0.0000000000
10
-12.0206227223
20
-14.8412433249
30
0.0000000000
10
-11.9622186163
20
-14.9286475680
30
0.0000000000
11
-12.0596307584
21
-14.6266140170
31
0.0000000000
11
-11.9622186163
21
-14.9286475680
31
0.0000000000
0
SPLINE
5
3B5
100
AcDbEntity
8
0
100
AcDbSpline
62
9
6
CONTINUOUS
70
0
71
3
72
9
73
5
74
3
42
0.0000001000
43
0.0000001000
44
0.0000000001
12
-0.0593811754
22
-0.2088732695
32
0.0000000000
13
0.1601216051
23
-0.1432683105
33
0.0000000000
40
0.0000000000
40
0.0000000000
40
0.0000000000
40
0.0000000000
40
0.4078234770
40
1.0000000000
40
1.0000000000
40
1.0000000000
40
1.0000000000
10
-6.6600678977
20
11.6401870526
30
0.0000000000
10
-6.6681402435
20
11.6117925783
30
0.0000000000
10
-6.6644862276
20
11.5343635592
30
0.0000000000
10
-6.6169338005
20
11.4754629682
30
0.0000000000
10
-6.5853270487
20
11.4471829249
30
0.0000000000
11
-6.6600678977
21
11.6401870526
31
0.0000000000
11
-6.6578586733
21
11.5517194827
31
0.0000000000
11
-6.5853270487
21
11.4471829249
31
0.0000000000
0
SPLINE
5
3B6
100
AcDbEntity
8
0
100
AcDbSpline
62
9
6
CONTINUOUS
70
0
71
3
72
17
73
13
74
11
42
0.0000001000
43
0.0000001000
44
0.0000000001
12
-2.0073291983
22
-1.0044790666
32
0.0000000000
13
1.2586596562
23
-1.8569274240
33
0.0000000000
40
0.0000000000
40
0.0000000000
40
0.0000000000
40
0.0000000000
40
0.0511021920
40
0.1083146145
40
0.1693787927
40
0.2385850532
40
0.3206043318
40
0.4183403936
40
0.5340618091
40
0.6697389153
40
0.8256965716
40
1.0000000000
40
1.0000000000
40
1.0000000000
40
1.0000000000
10
0.8362702127
20
7.5466611990
30
0.0000000000
10
0.8020772387
20
7.5295508383
30
0.0000000000
10
0.7331261300
20
7.4857243158
30
0.0000000000
10
0.6421121733
20
7.3963694082
30
0.0000000000
10
0.5633391047
20
7.2793448372
30
0.0000000000
10
0.5002012281
20
7.1327936150
30
0.0000000000
10
0.4567737670
20
6.9508792028
30
0.0000000000
10
0.4404491310
20
6.7296468001
30
0.0000000000
10
0.4604875655
20
6.4684162969
30
0.0000000000
10
0.5272539579
20
6.1701410692
30
0.0000000000
10
0.6513601769
20
5.8433620630
30
0.0000000000
10
0.7732561135
20
5.6271115960
30
0.0000000000
10
0.8463856779
20
5.5192219906
30
0.0000000000
11
0.8362702127
21
7.5466611990
31
0.0000000000
11
0.7394084878
21
7.4852330284
31
0.0000000000
11
0.6474247410
21
7.3957268154
31
0.0000000000
11
0.5702735985
21
7.2825336260
31
0.0000000000
11
0.5079069093
21
7.1403607533
31
0.0000000000
11
0.4639757267
21
6.9616882997
31
0.0000000000
11
0.4464836315
21
6.7431356846
31
0.0000000000
11
0.4650156195
21
6.4841999276
31
0.0000000000
11
0.5303970609
21
6.1869405340
31
0.0000000000
11
0.6540395540
21
5.8596568156
31
0.0000000000
11
0.8463856779
21
5.5192219906
31
0.0000000000
0
SPLINE
5
3B7
100
AcDbEntity
8
0
100
AcDbSpline
62
9
6
CONTINUOUS
70
0
71
3
72
10
73
6
74
4
42
0.0000001000
43
0.0000001000
44
0.0000000001
12
-0.3541280486
22
-0.2019955145
32
0.0000000000
13
0.1885818719
23
-0.3601428413
33
0.0000000000
40
0.0000000000
40
0.0000000000
40
0.0000000000
40
0.0000000000
40
0.2832634041
40
0.6243749961
40
1.0000000000
40
1.0000000000
40
1.0000000000
40
1.0000000000
10
-5.4114557930
20
13.3168771384
30
0.0000000000
10
-5.4448929652
20
13.2978044927
30
0.0000000000
10
-5.5060633121
20
13.2305136776
30
0.0000000000
10
-5.5281032646
20
13.0909154401
30
0.0000000000
10
-5.4998310621
20
12.9946227112
30
0.0000000000
10
-5.4762190400
20
12.9495298259
30
0.0000000000
11
-5.4114557930
21
13.3168771384
31
0.0000000000
11
-5.4906380901
21
13.2326583176
31
0.0000000000
11
-5.5173608239
21
13.0965856544
31
0.0000000000
11
-5.4762190400
21
12.9495298259
31
0.0000000000
0
SPLINE
5
3B8
100
AcDbEntity
8
0
100
AcDbSpline
62
0
6
CONTINUOUS
70
0
71
3
72
9
73
5
74
3
42
0.0000001000
43
0.0000001000
44
0.0000000001
12
-0.5115601397
22
-0.2583708276
32
0.0000000000
13
-0.1624497880
23
-0.5535752238
33
0.0000000000
40
0.0000000000
40
0.0000000000
40
0.0000000000
40
0.0000000000
40
0.7206499681
40
1.0000000000
40
1.0000000000
40
1.0000000000
40
1.0000000000
10
1.3306670514
20
7.7938417589
30
0.0000000000
10
1.2077817853
20
7.7317767826
30
0.0000000000
10
1.0718277121
20
7.5748371385
30
0.0000000000
10
1.0021306508
20
7.3946080923
30
0.0000000000
10
0.9870038664
20
7.3430610069
30
0.0000000000
11
1.3306670514
21
7.7938417589
31
0.0000000000
11
1.0462408648
21
7.4934846499
31
0.0000000000
11
0.9870038664
21
7.3430610069
31
0.0000000000
0
SPLINE
5
3B9
100
AcDbEntity
8
0
100
AcDbSpline
62
0
6
CONTINUOUS
70
0
71
3
72
10
73
6
74
4
42
0.0000001000
43
0.0000001000
44
0.0000000001
12
-0.4691505034
22
-1.5987099651
32
0.0000000000
13
0.9284612230
23
-1.3697786226
33
0.0000000000
40
0.0000000000
40
0.0000000000
40
0.0000000000
40
0.0000000000
40
0.2182787907
40
0.5955402699
40
1.0000000000
40
1.0000000000
40
1.0000000000
40
1.0000000000
10
0.9870038664
20
7.3430610069
30
0.0000000000
10
0.9528686649
20
7.2267395142
30
0.0000000000
10
0.9200766872
20
6.8927006109
30
0.0000000000
10
1.0226148213
20
6.3440823834
30
0.0000000000
10
1.2161853662
20
5.9513827947
30
0.0000000000
10
1.3413604247
20
5.7667093640
30
0.0000000000
11
0.9870038664
21
7.3430610069
31
0.0000000000
11
0.9414393763
21
6.9828567392
31
0.0000000000
11
1.0462408648
21
6.3674273402
31
0.0000000000
11
1.3413604247
21
5.7667093640
31
0.0000000000
0
SPLINE
5
3BA
100
AcDbEntity
8
0
100
AcDbSpline
62
0
6
CONTINUOUS
70
0
71
3
72
9
73
5
74
3
42
0.0000001000
43
0.0000001000
44
0.0000000001
12
0.2055681679
22
0.1083125359
32
0.0000000000
13
0.2036271904
23
-0.1018135952
33
0.0000000000
40
0.0000000000
40
0.0000000000
40
0.0000000000
40
0.0000000000
40
0.2121331219
40
1.0000000000
40
1.0000000000
40
1.0000000000
40
1.0000000000
10
-0.7658976269
20
11.5057490569
30
0.0000000000
10
-0.7513616878
20
11.5134079490
30
0.0000000000
10
-0.6791075073
20
11.5410308050
30
0.0000000000
10
-0.5969619038
20
11.5192678857
30
0.0000000000
10
-0.5434848642
20
11.4925293659
30
0.0000000000
11
-0.7658976269
21
11.5057490569
31
0.0000000000
11
-0.7202615594
21
11.5229050117
31
0.0000000000
11
-0.5434848642
21
11.4925293659
31
0.0000000000
0
SPLINE
5
3BB
100
AcDbEntity
8
0
100
AcDbSpline
62
9
6
CONTINUOUS
70
0
71
3
72
11
73
7
74
5
42
0.0000001000
43
0.0000001000
44
0.0000000001
12
0.2078439414
22
0.1042909719
32
0.0000000000
13
0.2076826094
23
-0.1038413047
33
0.0000000000
40
0.0000000000
40
0.0000000000
40
0.0000000000
40
0.0000000000
40
0.1652897843
40
0.3964144286
40
0.6691430849
40
1.0000000000
40
1.0000000000
40
1.0000000000
40
1.0000000000
10
-5.3952670915
20
13.3255167705
30
0.0000000000
10
-5.3838155981
20
13.3312628479
30
0.0000000000
10
-5.3548583228
20
13.3422613571
30
0.0000000000
10
-5.3028873843
20
13.3487002094
30
0.0000000000
10
-5.2382210000
20
13.3399826584
30
0.0000000000
10
-5.1942419642
20
13.3229331691
30
0.0000000000
10
-5.1713375550
20
13.3114809645
30
0.0000000000
11
-5.3952670915
21
13.3255167705
31
0.0000000000
11
-5.3593490241
21
13.3391857794
31
0.0000000000
11
-5.3061394862
21
13.3461724371
31
0.0000000000
11
-5.2432922297
21
13.3383958178
31
0.0000000000
11
-5.1713375550
21
13.3114809645
31
0.0000000000
0
SPLINE
5
3BC
100
AcDbEntity
8
0
100
AcDbSpline
62
0
6
CONTINUOUS
70
0
71
3
72
10
73
6
74
4
42
0.0000001000
43
0.0000001000
44
0.0000000001
12
0.2075641938
22
0.1031079495
32
0.0000000000
13
0.2068076416
23
-0.1034038208
33
0.0000000000
40
0.0000000000
40
0.0000000000
40
0.0000000000
40
0.0000000000
40
0.2759779329
40
0.6169867526
40
1.0000000000
40
1.0000000000
40
1.0000000000
40
1.0000000000
10
-4.8998375930
20
13.5732238893
30
0.0000000000
10
-4.8807432139
20
13.5827090622
30
0.0000000000
10
-4.8340359780
20
13.5966485417
30
0.0000000000
10
-4.7557601418
20
13.5918717232
30
0.0000000000
10
-4.7027661636
20
13.5721700157
30
0.0000000000
10
-4.6763628082
20
13.5589683379
30
0.0000000000
11
-4.8998375930
21
13.5732238893
31
0.0000000000
11
-4.8386412514
21
13.5918006677
31
0.0000000000
11
-4.7598643007
21
13.5884690840
31
0.0000000000
11
-4.6763628082
21
13.5589683379
31
0.0000000000
0
SPLINE
5
3BD
100
AcDbEntity
8
0
100
AcDbSpline
62
9
6
CONTINUOUS
70
0
71
3
72
10
73
6
74
4
42
0.0000001000
43
0.0000001000
44
0.0000000001
12
0.1728610584
22
0.0868871713
32
0.0000000000
13
0.1807983869
23
-0.0678053262
33
0.0000000000
40
0.0000000000
40
0.0000000000
40
0.0000000000
40
0.0000000000
40
0.1844943904
40
0.6375718430
40
1.0000000000
40
1.0000000000
40
1.0000000000
40
1.0000000000
10
-1.2623231816
20
11.2590406175
30
0.0000000000
10
-1.2516925498
20
11.2643840161
30
0.0000000000
10
-1.2132538216
20
11.2794462294
30
0.0000000000
10
-1.1475033175
20
11.2825215668
30
0.0000000000
10
-1.0964192345
20
11.2690495231
30
0.0000000000
10
-1.0745770924
20
11.2608580033
30
0.0000000000
11
-1.2623231816
21
11.2590406175
31
0.0000000000
11
-1.2291549318
21
11.2720040783
31
0.0000000000
11
-1.1423258066
21
11.2778678367
31
0.0000000000
11
-1.0745770924
21
11.2608580033
31
0.0000000000
0
SPLINE
5
3BE
100
AcDbEntity
8
0
100
AcDbSpline
62
9
6
CONTINUOUS
70
0
71
3
72
8
73
4
74
2
42
0.0000001000
43
0.0000001000
44
0.0000000001
12
0.0370058511
22
-0.0138784081
32
0.0000000000
13
0.0351642925
23
-0.0175821462
33
0.0000000000
40
0.0000000000
40
0.0000000000
40
0.0000000000
40
0.0000000000
40
1.0000000000
40
1.0000000000
40
1.0000000000
40
1.0000000000
10
-1.0745770924
20
11.2608580033
30
0.0000000000
10
-1.0622418087
20
11.2562318672
30
0.0000000000
10
-1.0501810418
20
11.2509027079
30
0.0000000000
10
-1.0384596110
20
11.2450419925
30
0.0000000000
11
-1.0745770924
21
11.2608580033
31
0.0000000000
11
-1.0384596110
21
11.2450419925
31
0.0000000000
0
SPLINE
5
3BF
100
AcDbEntity
8
0
100
AcDbSpline
62
0
6
CONTINUOUS
70
0
71
3
72
9
73
5
74
3
42
0.0000001000
43
0.0000001000
44
0.0000000001
12
0.1051284248
22
0.0483073906
32
0.0000000000
13
-0.0000000000
23
0.1211608008
33
0.0000000000
40
0.0000000000
40
0.0000000000
40
0.0000000000
40
0.0000000000
40
0.0617312591
40
1.0000000000
40
1.0000000000
40
1.0000000000
40
1.0000000000
10
-11.9086625224
20
-6.5976049117
30
0.0000000000
10
-11.9064992858
20
-6.5966108863
30
0.0000000000
10
-11.8724792468
20
-6.5785770217
30
0.0000000000
10
-11.8571933631
20
-6.5278343719
30
0.0000000000
10
-11.8571933631
20
-6.4899405745
30
0.0000000000
11
-11.9086625224
21
-6.5976049117
31
0.0000000000
11
-11.9023704772
21
-6.5942597351
31
0.0000000000
11
-11.8571933631
21
-6.4899405745
31
0.0000000000
0
SPLINE
5
3C0
100
AcDbEntity
8
0
100
AcDbSpline
62
9
6
CONTINUOUS
70
0
71
3
72
8
73
4
74
2
42
0.0000001000
43
0.0000001000
44
0.0000000001
12
0.0000000000
22
-0.0427607079
32
0.0000000000
13
0.0052414477
23
-0.0424734766
33
0.0000000000
40
0.0000000000
40
0.0000000000
40
0.0000000000
40
0.0000000000
40
1.0000000000
40
1.0000000000
40
1.0000000000
40
1.0000000000
10
-11.5036399725
20
-3.0901676356
30
0.0000000000
10
-11.5036399725
20
-3.1044212049
30
0.0000000000
10
-11.5026864499
20
-3.1186851486
30
0.0000000000
10
-11.5009393006
20
-3.1328429741
30
0.0000000000
11
-11.5036399725
21
-3.0901676356
31
0.0000000000
11
-11.5009393006
21
-3.1328429741
31
0.0000000000
0
SPLINE
5
3C1
100
AcDbEntity
8
0
100
AcDbSpline
62
9
6
CONTINUOUS
70
0
71
3
72
14
73
10
74
8
42
0.0000001000
43
0.0000001000
44
0.0000000001
12
0.0445346593
22
-0.3608815540
32
0.0000000000
13
0.3013392599
23
-0.2044169398
33
0.0000000000
40
0.0000000000
40
0.0000000000
40
0.0000000000
40
0.0000000000
40
0.1347591119
40
0.2852639448
40
0.4483565755
40
0.6183178066
40
0.7878253355
40
0.9494308338
40
1.0000000000
40
1.0000000000
40
1.0000000000
40
1.0000000000
10
-11.5009393006
20
-3.1328429741
30
0.0000000000
10
-11.4989388169
20
-3.1490536667
30
0.0000000000
10
-11.4925016109
20
-3.1830746633
30
0.0000000000
10
-11.4761575096
20
-3.2349904516
30
0.0000000000
10
-11.4520241889
20
-3.2885050206
30
0.0000000000
10
-11.4203064969
20
-3.3406417791
30
0.0000000000
10
-11.3820911902
20
-3.3880409603
30
0.0000000000
10
-11.3479856563
20
-3.4195008191
30
0.0000000000
10
-11.3271175192
20
-3.4346263685
30
0.0000000000
10
-11.3220380275
20
-3.4380720999
30
0.0000000000
11
-11.5009393006
21
-3.1328429741
31
0.0000000000
11
-11.4919728374
21
-3.1809758929
31
0.0000000000
11
-11.4756445429
21
-3.2331628437
31
0.0000000000
11
-11.4513124264
21
-3.2871917327
31
0.0000000000
11
-11.4191584760
21
-3.3399104951
31
0.0000000000
11
-11.3803527037
21
-3.3877323069
31
0.0000000000
11
-11.3369563905
21
-3.4272821819
31
0.0000000000
11
-11.3220380275
21
-3.4380720999
31
0.0000000000
0
SPLINE
5
3C2
100
AcDbEntity
8
0
100
AcDbSpline
62
9
6
CONTINUOUS
70
0
71
3
72
8
73
4
74
2
42
0.0000001000
43
0.0000001000
44
0.0000000001
12
0.0293694159
22
-0.0199230798
32
0.0000000000
13
0.0316720625
23
-0.0158360313
33
0.0000000000
40
0.0000000000
40
0.0000000000
40
0.0000000000
40
0.0000000000
40
1.0000000000
40
1.0000000000
40
1.0000000000
40
1.0000000000
10
-11.3220380275
20
-3.4380720999
30
0.0000000000
10
-11.3122482222
20
-3.4447131265
30
0.0000000000
10
-11.3020652924
20
-3.4507625969
30
0.0000000000
10
-11.2915079382
20
-3.4560412740
30
0.0000000000
11
-11.3220380275
21
-3.4380720999
31
0.0000000000
11
-11.2915079382
21
-3.4560412740
31
0.0000000000
0
SPLINE
5
3C3
100
AcDbEntity
8
0
100
AcDbSpline
62
0
6
CONTINUOUS
70
0
71
3
72
9
73
5
74
3
42
0.0000001000
43
0.0000001000
44
0.0000000001
12
0.4111363359
22
0.2166250717
32
0.0000000000
13
0.4072543809
23
-0.2036271904
33
0.0000000000
40
0.0000000000
40
0.0000000000
40
0.0000000000
40
0.0000000000
40
0.2121331219
40
1.0000000000
40
1.0000000000
40
1.0000000000
40
1.0000000000
10
-0.9883103897
20
11.9519814498
30
0.0000000000
10
-0.9592385115
20
11.9672992340
30
0.0000000000
10
-0.8147301504
20
12.0225449459
30
0.0000000000
10
-0.6504389434
20
11.9790191074
30
0.0000000000
10
-0.5434848642
20
11.9255420678
30
0.0000000000
11
-0.9883103897
21
11.9519814498
31
0.0000000000
11
-0.8970382547
21
11.9862933593
31
0.0000000000
11
-0.5434848642
21
11.9255420678
31
0.0000000000
0
SPLINE
5
3C4
100
AcDbEntity
8
0
100
AcDbSpline
62
9
6
CONTINUOUS
70
0
71
3
72
11
73
7
74
5
42
0.0000001000
43
0.0000001000
44
0.0000000001
12
-7.7355455097
22
-2.4166141253
32
0.0000000000
13
-0.1092395034
23
-8.1085062258
33
0.0000000000
40
0.0000000000
40
0.0000000000
40
0.0000000000
40
0.0000000000
40
0.2230656022
40
0.4592035938
40
0.7238805969
40
1.0000000000
40
1.0000000000
40
1.0000000000
40
1.0000000000
10
-7.7087743581
20
19.2611108631
30
0.0000000000
10
-8.2839523974
20
19.0814230347
30
0.0000000000
10
-9.4049705769
20
18.4611352219
30
0.0000000000
10
-10.6338002491
20
16.8858820600
30
0.0000000000
10
-11.3425370118
20
14.8813386503
30
0.0000000000
10
-11.4924349671
20
13.4161386737
30
0.0000000000
10
-11.5024893492
20
12.6698333740
30
0.0000000000
11
-7.7087743581
21
19.2611108631
31
0.0000000000
11
-9.2924762096
21
18.3893621158
31
0.0000000000
11
-10.4979136131
21
16.9030109065
31
0.0000000000
11
-11.2498366422
21
14.8941154237
31
0.0000000000
11
-11.5024893492
21
12.6698333740
31
0.0000000000
0
SPLINE
5
3C5
100
AcDbEntity
8
0
100
AcDbSpline
62
9
6
CONTINUOUS
70
0
71
3
72
8
73
4
74
2
42
0.0000001000
43
0.0000001000
44
0.0000000001
12
-0.0023116210
22
-0.1715843865
32
0.0000000000
13
0.0000000000
23
-0.1714940854
33
0.0000000000
40
0.0000000000
40
0.0000000000
40
0.0000000000
40
0.0000000000
40
1.0000000000
40
1.0000000000
40
1.0000000000
40
1.0000000000
10
-11.5024893492
20
12.6698333740
30
0.0000000000
10
-11.5032598895
20
12.6126385785
30
0.0000000000
10
-11.5036399725
20
12.5554543276
30
0.0000000000
10
-11.5036399725
20
12.4982896325
30
0.0000000000
11
-11.5024893492
21
12.6698333740
31
0.0000000000
11
-11.5036399725
21
12.4982896325
31
0.0000000000
0
SPLINE
5
3C6
100
AcDbEntity
8
0
100
AcDbSpline
62
9
6
CONTINUOUS
70
0
71
3
72
11
73
7
74
5
42
0.0000001000
43
0.0000001000
44
0.0000000001
12
0.0000000000
22
0.3764910426
32
0.0000000000
13
-0.1888426208
23
0.3257053418
33
0.0000000000
40
0.0000000000
40
0.0000000000
40
0.0000000000
40
0.0000000000
40
0.2689009997
40
0.5295156667
40
0.7735722925
40
1.0000000000
40
1.0000000000
40
1.0000000000
40
1.0000000000
10
-4.4325721607
20
17.2642902968
30
0.0000000000
10
-4.4325721607
20
17.2980365694
30
0.0000000000
10
-4.4388626838
20
17.3645726509
30
0.0000000000
10
-4.4621477386
20
17.4590864420
30
0.0000000000
10
-4.4949203922
20
17.5449978868
30
0.0000000000
10
-4.5218724840
20
17.5976703053
30
0.0000000000
10
-4.5361255513
20
17.6222532099
30
0.0000000000
11
-4.4325721607
21
17.2642902968
31
0.0000000000
11
-4.4414492716
21
17.3651391694
31
0.0000000000
11
-4.4646279947
21
17.4604811967
31
0.0000000000
11
-4.4972879897
21
17.5463660177
31
0.0000000000
11
-4.5361255513
21
17.6222532099
31
0.0000000000
0
SPLINE
5
3C7
100
AcDbEntity
8
0
100
AcDbSpline
62
0
6
CONTINUOUS
70
0
71
3
72
9
73
5
74
3
42
0.0000001000
43
0.0000001000
44
0.0000000001
12
0.2799904430
22
0.1475251504
32
0.0000000000
13
0.0000000000
23
0.3100831148
33
0.0000000000
40
0.0000000000
40
0.0000000000
40
0.0000000000
40
0.0000000000
40
0.3596702216
40
1.0000000000
40
1.0000000000
40
1.0000000000
40
1.0000000000
10
5.8307568949
20
-19.1675544923
30
0.0000000000
10
5.8643249698
20
-19.1498676912
30
0.0000000000
10
5.9459183302
20
-19.0740158079
30
0.0000000000
10
5.9618975228
20
-18.9642839455
30
0.0000000000
10
5.9618975228
20
-18.8980987948
30
0.0000000000
11
5.8307568949
21
-19.1675544923
31
0.0000000000
11
5.9145303500
21
-19.0909215594
31
0.0000000000
11
5.9618975228
21
-18.8980987948
31
0.0000000000
0
SPLINE
5
3C8
100
AcDbEntity
8
0
100
AcDbSpline
62
9
6
CONTINUOUS
70
0
71
3
72
14
73
10
74
8
42
0.0000001000
43
0.0000001000
44
0.0000000001
12
0.0000000000
22
-0.2184107999
32
0.0000000000
13
-0.1953525583
23
0.0976762791
33
0.0000000000
40
0.0000000000
40
0.0000000000
40
0.0000000000
40
0.0000000000
40
0.1229828399
40
0.2483946707
40
0.3751155694
40
0.5040533029
40
0.6412938515
40
0.8007252997
40
1.0000000000
40
1.0000000000
40
1.0000000000
40
1.0000000000
10
-4.6447041950
20
5.7346239392
30
0.0000000000
10
-4.6447041950
20
5.7256703457
30
0.0000000000
10
-4.6458438715
20
5.7075559686
30
0.0000000000
10
-4.6518360445
20
5.6807665720
30
0.0000000000
10
-4.6634624126
20
5.6552843339
30
0.0000000000
10
-4.6825072105
20
5.6332390152
30
0.0000000000
10
-4.7108391976
20
5.6186104181
30
0.0000000000
10
-4.7479188459
20
5.6169026384
30
0.0000000000
10
-4.7731492771
20
5.6256413994
30
0.0000000000
10
-4.7861255513
20
5.6321295365
30
0.0000000000
11
-4.6447041950
21
5.7346239392
31
0.0000000000
11
-4.6465260239
21
5.7078250126
31
0.0000000000
11
-4.6527218661
21
5.6811436565
31
0.0000000000
11
-4.6645230348
21
5.6561084707
31
0.0000000000
11
-4.6832349606
21
5.6350626179
31
0.0000000000
11
-4.7098824260
21
5.6213366462
31
0.0000000000
11
-4.7446261712
21
5.6190101623
31
0.0000000000
11
-4.7861255513
21
5.6321295365
31
0.0000000000
0
SPLINE
5
3C9
100
AcDbEntity
8
0
100
AcDbSpline
62
0
6
CONTINUOUS
70
0
71
3
72
12
73
8
74
6
42
0.0000001000
43
0.0000001000
44
0.0000000001
12
-0.5636854094
22
-0.2818427047
32
0.0000000000
13
-0.2445610678
23
-0.5808325361
33
0.0000000000
40
0.0000000000
40
0.0000000000
40
0.0000000000
40
0.0000000000
40
0.1839744349
40
0.3978580827
40
0.6037936216
40
0.8038654908
40
1.0000000000
40
1.0000000000
40
1.0000000000
40
1.0000000000
10
-4.2204401263
20
10.3678598494
30
0.0000000000
10
-4.2550080279
20
10.3505758986
30
0.0000000000
10
-4.3258663144
20
10.3055722987
30
0.0000000000
10
-4.4251824826
20
10.2263347882
30
0.0000000000
10
-4.5161397322
20
10.1325511419
30
0.0000000000
10
-4.5906338200
20
10.0297619259
30
0.0000000000
10
-4.6287152400
20
9.9553236493
30
0.0000000000
10
-4.6447041950
20
9.9173498812
30
0.0000000000
11
-4.2204401263
21
10.3678598494
31
0.0000000000
11
-4.3193814622
21
10.3074141299
31
0.0000000000
11
-4.4245550427
21
10.2231061128
31
0.0000000000
11
-4.5145959963
21
10.1296359879
31
0.0000000000
11
-4.5883324960
21
10.0273549505
31
0.0000000000
11
-4.6447041950
21
9.9173498812
31
0.0000000000
0
SPLINE
5
3CA
100
AcDbEntity
8
0
100
AcDbSpline
62
0
6
CONTINUOUS
70
0
71
3
72
9
73
5
74
3
42
0.0000001000
43
0.0000001000
44
0.0000000001
12
-0.1654883195
22
-0.1241162396
32
0.0000000000
13
-0.1368864158
23
-0.1550913730
33
0.0000000000
40
0.0000000000
40
0.0000000000
40
0.0000000000
40
0.0000000000
40
0.4957709153
40
1.0000000000
40
1.0000000000
40
1.0000000000
40
1.0000000000
10
-3.5739424978
20
10.7557764931
30
0.0000000000
10
-3.6012905963
20
10.7352654192
30
0.0000000000
10
-3.6542871043
20
10.6909310949
30
0.0000000000
10
-3.7024580088
20
10.6414144165
30
0.0000000000
10
-3.7254653795
20
10.6153472228
30
0.0000000000
11
-3.5739424978
21
10.7557764931
31
0.0000000000
11
-3.6526527716
21
10.6900323176
31
0.0000000000
11
-3.7254653795
21
10.6153472228
31
0.0000000000
0
SPLINE
5
3CB
100
AcDbEntity
8
0
100
AcDbSpline
62
0
6
CONTINUOUS
70
0
71
3
72
9
73
5
74
3
42
0.0000001000
43
0.0000001000
44
0.0000000001
12
0.1396558937
22
-0.2978850663
32
0.0000000000
13
0.1632284148
23
-0.2856497260
33
0.0000000000
40
0.0000000000
40
0.0000000000
40
0.0000000000
40
0.0000000000
40
0.4951554826
40
1.0000000000
40
1.0000000000
40
1.0000000000
40
1.0000000000
10
-3.7254653795
20
8.0172710115
30
0.0000000000
10
-3.7024149190
20
7.9681045369
30
0.0000000000
10
-3.6538751146
20
7.8697297440
30
0.0000000000
10
-3.6014108212
20
7.7733884255
30
0.0000000000
10
-3.5739424978
20
7.7253188595
30
0.0000000000
11
-3.7254653795
21
8.0172710115
31
0.0000000000
11
-3.6533832164
21
7.8711814659
31
0.0000000000
11
-3.5739424978
21
7.7253188595
31
0.0000000000
0
SPLINE
5
3CC
100
AcDbEntity
8
0
100
AcDbSpline
62
0
6
CONTINUOUS
70
0
71
3
72
12
73
8
74
6
42
0.0000001000
43
0.0000001000
44
0.0000000001
12
0.1923397277
22
-0.6491465809
32
0.0000000000
13
0.6055647640
23
0.3027823820
33
0.0000000000
40
0.0000000000
40
0.0000000000
40
0.0000000000
40
0.0000000000
40
0.2425833623
40
0.4690994459
40
0.6732167989
40
0.8533915750
40
1.0000000000
40
1.0000000000
40
1.0000000000
40
1.0000000000
10
-4.6447041950
20
8.2202936063
30
0.0000000000
10
-4.6291513891
20
8.1678028862
30
0.0000000000
10
-4.5933676640
20
8.0678532649
30
0.0000000000
10
-4.5215833727
20
7.9330045283
30
0.0000000000
10
-4.4328531935
20
7.8262699261
30
0.0000000000
10
-4.3319766484
20
7.7563333118
30
0.0000000000
10
-4.2500337584
20
7.7549868220
30
0.0000000000
10
-4.2204401263
20
7.7697836381
30
0.0000000000
11
-4.6447041950
21
8.2202936063
31
0.0000000000
11
-4.5883351065
21
8.0660307947
31
0.0000000000
11
-4.5145913386
21
7.9315636156
31
0.0000000000
11
-4.4245241742
21
7.8267492776
31
0.0000000000
11
-4.3195641449
21
7.7645886044
31
0.0000000000
11
-4.2204401263
21
7.7697836381
31
0.0000000000
0
SPLINE
5
3CD
100
AcDbEntity
8
0
100
AcDbSpline
62
0
6
CONTINUOUS
70
0
71
3
72
10
73
6
74
4
42
0.0000001000
43
0.0000001000
44
0.0000000001
12
-0.4901207832
22
1.6541576432
32
0.0000000000
13
0.6694917774
23
1.5900429713
33
0.0000000000
40
0.0000000000
40
0.0000000000
40
0.0000000000
40
0.0000000000
40
0.3659254442
40
0.7048665976
40
1.0000000000
40
1.0000000000
40
1.0000000000
40
1.0000000000
10
-4.6447041950
20
8.2202936063
30
0.0000000000
10
-4.7044867501
20
8.4220597298
30
0.0000000000
10
-4.7878246072
20
8.8214485446
30
0.0000000000
10
-4.7950755104
20
9.4002770047
30
0.0000000000
10
-4.7105673237
20
9.7609249505
30
0.0000000000
10
-4.6447041950
20
9.9173498812
30
0.0000000000
11
-4.6447041950
21
8.2202936063
31
0.0000000000
11
-4.7699322459
21
8.8390582122
31
0.0000000000
11
-4.7699322459
21
9.4238133260
31
0.0000000000
11
-4.6447041950
21
9.9173498812
31
0.0000000000
0
SPLINE
5
3CE
100
AcDbEntity
8
0
100
AcDbSpline
62
0
6
CONTINUOUS
70
0
71
3
72
10
73
6
74
4
42
0.0000001000
43
0.0000001000
44
0.0000000001
12
0.4151283875
22
0.2062158990
32
0.0000000000
13
0.4136152832
23
-0.2068076416
33
0.0000000000
40
0.0000000000
40
0.0000000000
40
0.0000000000
40
0.0000000000
40
0.2759779329
40
0.6169867526
40
1.0000000000
40
1.0000000000
40
1.0000000000
40
1.0000000000
10
-5.1233123778
20
14.0204921425
30
0.0000000000
10
-5.0851236197
20
14.0394624884
30
0.0000000000
10
-4.9917091478
20
14.0673414473
30
0.0000000000
10
-4.8351574754
20
14.0577878103
30
0.0000000000
10
-4.7291695191
20
14.0183843953
30
0.0000000000
10
-4.6763628082
20
13.9919810398
30
0.0000000000
11
-5.1233123778
21
14.0204921425
31
0.0000000000
11
-5.0009196947
21
14.0576456994
31
0.0000000000
11
-4.8433657932
21
14.0509825319
31
0.0000000000
11
-4.6763628082
21
13.9919810398
31
0.0000000000
0
SPLINE
5
3CF
100
AcDbEntity
8
0
100
AcDbSpline
62
9
6
CONTINUOUS
70
0
71
3
72
12
73
8
74
6
42
0.0000001000
43
0.0000001000
44
0.0000000001
12
0.4357031346
22
0.2176375628
32
0.0000000000
13
0.0742447194
23
0.4805927696
33
0.0000000000
40
0.0000000000
40
0.0000000000
40
0.0000000000
40
0.0000000000
40
0.0193824066
40
0.2393131640
40
0.4726175292
40
0.7250682742
40
1.0000000000
40
1.0000000000
40
1.0000000000
40
1.0000000000
10
5.9141354443
20
-11.9431158734
30
0.0000000000
10
5.9169504361
20
-11.9417097601
30
0.0000000000
10
5.9514850573
20
-11.9239069233
30
0.0000000000
10
6.0139702111
20
-11.8780193772
30
0.0000000000
10
6.0852297029
20
-11.7871552205
30
0.0000000000
10
6.1368243683
20
-11.6743037383
30
0.0000000000
10
6.1565605837
20
-11.5907983095
30
0.0000000000
10
6.1633646600
20
-11.5467549097
30
0.0000000000
11
5.9141354443
21
-11.9431158734
31
0.0000000000
11
5.9225254900
21
-11.9387903558
31
0.0000000000
11
6.0088690011
21
-11.8759382538
31
0.0000000000
11
6.0795814259
21
-11.7874248449
31
0.0000000000
11
6.1316254672
21
-11.6764323011
31
0.0000000000
11
6.1633646600
21
-11.5467549097
31
0.0000000000
0
SPLINE
5
3D0
100
AcDbEntity
8
0
100
AcDbSpline
62
9
6
CONTINUOUS
70
0
71
3
72
8
73
4
74
2
42
0.0000001000
43
0.0000001000
44
0.0000000001
12
0.0221550637
22
0.1434117271
32
0.0000000000
13
0.0000000000
23
0.1449039804
33
0.0000000000
40
0.0000000000
40
0.0000000000
40
0.0000000000
40
0.0000000000
40
1.0000000000
40
1.0000000000
40
1.0000000000
40
1.0000000000
10
6.1633646600
20
-11.5467549097
30
0.0000000000
10
6.1707496812
20
-11.4989510007
30
0.0000000000
10
6.1740295571
20
-11.4505452559
30
0.0000000000
10
6.1740295571
20
-11.4022439291
30
0.0000000000
11
6.1633646600
21
-11.5467549097
31
0.0000000000
11
6.1740295571
21
-11.4022439291
31
0.0000000000
0
SPLINE
5
3D1
100
AcDbEntity
8
0
100
AcDbSpline
62
0
6
CONTINUOUS
70
0
71
3
72
11
73
7
74
5
42
0.0000001000
43
0.0000001000
44
0.0000000001
12
-1.3260013051
22
-0.6696564444
32
0.0000000000
13
0.8333134128
23
-1.2294050312
33
0.0000000000
40
0.0000000000
40
0.0000000000
40
0.0000000000
40
0.0000000000
40
0.1849740094
40
0.4193486116
40
0.7001359779
40
1.0000000000
40
1.0000000000
40
1.0000000000
40
1.0000000000
10
1.5544872522
20
7.3467414744
30
0.0000000000
10
1.4727286596
20
7.3054517953
30
0.0000000000
10
1.3248507401
20
7.1350325753
30
0.0000000000
10
1.2740565919
20
6.7812476805
30
0.0000000000
10
1.3492163466
20
6.3799527416
30
0.0000000000
10
1.4783132287
20
6.1181999063
30
0.0000000000
10
1.5616067992
20
5.9953151271
30
0.0000000000
11
1.5544872522
21
7.3467414744
31
0.0000000000
11
1.3651241130
21
7.1470375651
31
0.0000000000
11
1.2949927669
21
6.8060800439
31
0.0000000000
11
1.3651241130
21
6.3949911766
31
0.0000000000
11
1.5616067992
21
5.9953151271
31
0.0000000000
0
SPLINE
5
3D2
100
AcDbEntity
8
0
100
AcDbSpline
62
9
6
CONTINUOUS
70
0
71
3
72
10
73
6
74
4
42
0.0000001000
43
0.0000001000
44
0.0000000001
12
-0.0803461891
22
0.0401730946
32
0.0000000000
13
-0.0579743567
23
0.0687284996
33
0.0000000000
40
0.0000000000
40
0.0000000000
40
0.0000000000
40
0.0000000000
40
0.2820333971
40
0.6133863236
40
1.0000000000
40
1.0000000000
40
1.0000000000
40
1.0000000000
10
-5.3834695894
20
5.9308015556
30
0.0000000000
10
-5.3910230256
20
5.9345782737
30
0.0000000000
10
-5.4068222809
20
5.9440840820
30
0.0000000000
10
-5.4301998842
20
5.9629300883
30
0.0000000000
10
-5.4450664033
20
5.9785404061
30
0.0000000000
10
-5.4525376297
20
5.9873975321
30
0.0000000000
11
-5.3834695894
21
5.9308015556
31
0.0000000000
11
-5.4052433249
21
5.9437540235
31
0.0000000000
11
-5.4284995309
21
5.9623315739
31
0.0000000000
11
-5.4525376297
21
5.9873975321
31
0.0000000000
0
SPLINE
5
3D3
100
AcDbEntity
8
0
100
AcDbSpline
62
9
6
CONTINUOUS
70
0
71
3
72
8
73
4
74
2
42
0.0000001000
43
0.0000001000
44
0.0000000001
12
-0.0258123439
22
0.0306004891
32
0.0000000000
13
-0.0215448452
23
0.0336966549
33
0.0000000000
40
0.0000000000
40
0.0000000000
40
0.0000000000
40
0.0000000000
40
1.0000000000
40
1.0000000000
40
1.0000000000
40
1.0000000000
10
-5.4525376297
20
5.9873975321
30
0.0000000000
10
-5.4611417443
20
5.9975976951
30
0.0000000000
10
-5.4690374249
20
6.0083962882
30
0.0000000000
10
-5.4762190400
20
6.0196285066
30
0.0000000000
11
-5.4525376297
21
5.9873975321
31
0.0000000000
11
-5.4762190400
21
6.0196285066
31
0.0000000000
0
SPLINE
5
3D4
100
AcDbEntity
8
0
100
AcDbSpline
62
0
6
CONTINUOUS
70
0
71
3
72
9
73
5
74
3
42
0.0000001000
43
0.0000001000
44
0.0000000001
12
-0.2799904430
22
0.1475251504
32
0.0000000000
13
0.0000000000
23
0.3100831148
33
0.0000000000
40
0.0000000000
40
0.0000000000
40
0.0000000000
40
0.0000000000
40
0.3596702216
40
1.0000000000
40
1.0000000000
40
1.0000000000
40
1.0000000000
10
4.0070731461
20
-11.3092171997
30
0.0000000000
10
3.9735050712
20
-11.2915303986
30
0.0000000000
10
3.8919117108
20
-11.2156785153
30
0.0000000000
10
3.8759325183
20
-11.1059466529
30
0.0000000000
10
3.8759325183
20
-11.0397615022
30
0.0000000000
11
4.0070731461
21
-11.3092171997
31
0.0000000000
11
3.9232996910
21
-11.2325842667
31
0.0000000000
11
3.8759325183
21
-11.0397615022
31
0.0000000000
0
SPLINE
5
3D5
100
AcDbEntity
8
0
100
AcDbSpline
62
0
6
CONTINUOUS
70
0
71
3
72
8
73
4
74
2
42
0.0000001000
43
0.0000001000
44
0.0000000001
12
-0.3948923923
22
-0.2663212308
32
0.0000000000
13
-0.3516643115
23
-0.3216807549
33
0.0000000000
40
0.0000000000
40
0.0000000000
40
0.0000000000
40
0.0000000000
40
1.0000000000
40
1.0000000000
40
1.0000000000
40
1.0000000000
10
-6.2987262636
20
15.6978096578
30
0.0000000000
10
-6.4303570611
20
15.6090359143
30
0.0000000000
10
-6.5555633357
20
15.5102561217
30
0.0000000000
10
-6.6727847729
20
15.4030292034
30
0.0000000000
11
-6.2987262636
21
15.6978096578
31
0.0000000000
11
-6.6727847729
21
15.4030292034
31
0.0000000000
0
SPLINE
5
3D6
100
AcDbEntity
8
0
100
AcDbSpline
62
0
6
CONTINUOUS
70
0
71
3
72
9
73
5
74
3
42
0.0000001000
43
0.0000001000
44
0.0000000001
12
-0.9920663057
22
-0.9074808778
32
0.0000000000
13
-0.6064391592
23
-1.1887697010
33
0.0000000000
40
0.0000000000
40
0.0000000000
40
0.0000000000
40
0.0000000000
40
0.0742943743
40
1.0000000000
40
1.0000000000
40
1.0000000000
40
1.0000000000
10
-6.6727847729
20
15.4030292034
30
0.0000000000
10
-6.6973530880
20
15.3805556288
30
0.0000000000
10
-7.0233207173
20
15.0730675295
30
0.0000000000
10
-7.2831393680
20
14.7009542395
30
0.0000000000
10
-7.4702674151
20
14.3341373062
30
0.0000000000
11
-6.6727847729
21
15.4030292034
31
0.0000000000
11
-6.7454230907
21
15.3345096482
31
0.0000000000
11
-7.4702674151
21
14.3341373062
31
0.0000000000
0
SPLINE
5
3D7
100
AcDbEntity
8
0
100
AcDbSpline
62
9
6
CONTINUOUS
70
0
71
3
72
8
73
4
74
2
42
0.0000001000
43
0.0000001000
44
0.0000000001
12
-0.1722114822
22
0.2693428913
32
0.0000000000
13
-0.1620357847
23
0.2757605761
33
0.0000000000
40
0.0000000000
40
0.0000000000
40
0.0000000000
40
0.0000000000
40
1.0000000000
40
1.0000000000
40
1.0000000000
40
1.0000000000
10
-5.4762190400
20
6.0196285066
30
0.0000000000
10
-5.5336228674
20
6.1094094703
30
0.0000000000
10
-5.5893448291
20
6.2003028689
30
0.0000000000
10
-5.6433567574
20
6.2922230609
30
0.0000000000
11
-5.4762190400
21
6.0196285066
31
0.0000000000
11
-5.6433567574
21
6.2922230609
31
0.0000000000
0
SPLINE
5
3D8
100
AcDbEntity
8
0
100
AcDbSpline
62
9
6
CONTINUOUS
70
0
71
3
72
10
73
6
74
4
42
0.0000001000
43
0.0000001000
44
0.0000000001
12
-1.1249120264
22
1.9144313653
32
0.0000000000
13
-0.5890059523
23
2.1409836959
33
0.0000000000
40
0.0000000000
40
0.0000000000
40
0.0000000000
40
0.0000000000
40
0.2870637376
40
0.7184024451
40
1.0000000000
40
1.0000000000
40
1.0000000000
40
1.0000000000
10
-5.6433567574
20
6.2922230609
30
0.0000000000
10
-5.7509972409
20
6.4754110019
30
0.0000000000
10
-6.0033803361
20
6.9440607998
30
0.0000000000
10
-6.2935392439
20
7.6260534057
30
0.0000000000
10
-6.4537321734
20
8.1295147302
30
0.0000000000
10
-6.5090197187
20
8.3304799882
30
0.0000000000
11
-5.6433567574
21
6.2922230609
31
0.0000000000
11
-5.9456802469
21
6.8533432427
31
0.0000000000
11
-6.3199039273
21
7.7344878826
31
0.0000000000
11
-6.5090197187
21
8.3304799882
31
0.0000000000
0
SPLINE
5
3D9
100
AcDbEntity
8
0
100
AcDbSpline
62
9
6
CONTINUOUS
70
0
71
3
72
8
73
4
74
2
42
0.0000001000
43
0.0000001000
44
0.0000000001
12
-0.0822906158
22
0.2991189921
32
0.0000000000
13
-0.0702379997
23
0.3020165950
33
0.0000000000
40
0.0000000000
40
0.0000000000
40
0.0000000000
40
0.0000000000
40
1.0000000000
40
1.0000000000
40
1.0000000000
40
1.0000000000
10
-6.5090197187
20
8.3304799882
30
0.0000000000
10
-6.5364499240
20
8.4301863189
30
0.0000000000
10
-6.5619143821
20
8.5304112178
30
0.0000000000
10
-6.5853270487
20
8.6310834162
30
0.0000000000
11
-6.5090197187
21
8.3304799882
31
0.0000000000
11
-6.5853270487
21
8.6310834162
31
0.0000000000
0
SPLINE
5
3DA
100
AcDbEntity
8
0
100
AcDbSpline
62
0
6
CONTINUOUS
70
0
71
3
72
17
73
13
74
11
42
0.0000001000
43
0.0000001000
44
0.0000000001
12
-18.9083576049
22
-9.4500837270
32
0.0000000000
13
18.8108427538
23
9.5286495964
33
0.0000000000
40
0.0000000000
40
0.0000000000
40
0.0000000000
40
0.0000000000
40
0.0410239015
40
0.1295744964
40
0.2343965291
40
0.3553520977
40
0.4862735904
40
0.6181679805
40
0.7417934481
40
0.8501734143
40
0.9416417414
40
1.0000000000
40
1.0000000000
40
1.0000000000
40
1.0000000000
10
0.6241130694
20
0.9709094727
30
0.0000000000
10
0.3655482026
20
0.8416830379
30
0.0000000000
10
-0.5053604977
20
0.5417739469
30
0.0000000000
10
-2.1898055602
20
0.7162506108
30
0.0000000000
10
-4.1457955327
20
1.7633134711
30
0.0000000000
10
-5.9523915526
20
3.4950576989
30
0.0000000000
10
-7.4373782687
20
5.7326248739
30
0.0000000000
10
-8.4488230937
20
8.2398268423
30
0.0000000000
10
-8.8782940170
20
10.7548126816
30
0.0000000000
10
-8.6748983820
20
13.0237619532
30
0.0000000000
10
-7.8743596169
20
14.6972473104
30
0.0000000000
10
-7.0243309848
20
15.3586720860
30
0.0000000000
10
-6.6584083097
20
15.5440305517
30
0.0000000000
11
0.6241130694
21
0.9709094727
31
0.0000000000
11
-0.1919591626
21
0.6915082958
31
0.0000000000
11
-2.0338026631
21
0.8090306485
31
0.0000000000
11
-3.9890452404
21
1.7837279934
31
0.0000000000
11
-5.8324873050
21
3.5033387823
31
0.0000000000
11
-7.3519520557
21
5.7698306439
31
0.0000000000
11
-8.3726231529
21
8.3222924526
31
0.0000000000
11
-8.7771211337
21
10.8669703481
31
0.0000000000
11
-8.5189948960
21
13.1110503420
31
0.0000000000
11
-7.6280251151
21
14.7964398175
31
0.0000000000
11
-6.6584083097
21
15.5440305517
31
0.0000000000
0
SPLINE
5
3DB
100
AcDbEntity
8
0
100
AcDbSpline
62
0
6
CONTINUOUS
70
0
71
3
72
10
73
6
74
4
42
0.0000001000
43
0.0000001000
44
0.0000000001
12
0.0000000000
22
-0.5613655984
32
0.0000000000
13
-0.4490924787
23
-0.3368193590
33
0.0000000000
40
0.0000000000
40
0.0000000000
40
0.0000000000
40
0.0000000000
40
0.3756377981
40
0.7059610016
40
1.0000000000
40
1.0000000000
40
1.0000000000
40
1.0000000000
10
-3.3719119889
20
11.2608527654
30
0.0000000000
10
-3.3719119889
20
11.1905627196
30
0.0000000000
10
-3.3849193759
20
11.0577124019
30
0.0000000000
10
-3.4515405686
20
10.8800778202
30
0.0000000000
10
-3.5299255969
20
10.7887891688
30
0.0000000000
10
-3.5739424978
20
10.7557764931
30
0.0000000000
11
-3.3719119889
21
11.2608527654
31
0.0000000000
11
-3.3953874855
21
11.0512934280
31
0.0000000000
11
-3.4642552321
21
10.8791240614
31
0.0000000000
11
-3.5739424978
21
10.7557764931
31
0.0000000000
0
SPLINE
5
3DC
100
AcDbEntity
8
0
100
AcDbSpline
62
0
6
CONTINUOUS
70
0
71
3
72
10
73
6
74
4
42
0.0000001000
43
0.0000001000
44
0.0000000001
12
0.0000000000
22
1.4646900155
32
0.0000000000
13
-1.3100585763
23
0.6550292881
33
0.0000000000
40
0.0000000000
40
0.0000000000
40
0.0000000000
40
0.0000000000
40
0.3342904765
40
0.6865843886
40
1.0000000000
40
1.0000000000
40
1.0000000000
40
1.0000000000
10
-3.3719119889
20
12.4737302264
30
0.0000000000
10
-3.3719119889
20
12.6369408675
30
0.0000000000
10
-3.4463685135
20
12.9728811803
30
0.0000000000
10
-3.6913940262
20
13.4009666282
30
0.0000000000
10
-3.9421545002
20
13.6248768858
30
0.0000000000
10
-4.0790187701
20
13.6933090208
30
0.0000000000
11
-3.3719119889
21
12.4737302264
31
0.0000000000
11
-3.4666463344
21
12.9541101011
31
0.0000000000
11
-3.7254653795
21
13.4005069217
31
0.0000000000
11
-4.0790187701
21
13.6933090208
31
0.0000000000
0
SPLINE
5
3DD
100
AcDbEntity
8
0
100
AcDbSpline
62
9
6
CONTINUOUS
70
0
71
3
72
13
73
9
74
7
42
0.0000001000
43
0.0000001000
44
0.0000000001
12
-0.0417752245
22
0.1796294187
32
0.0000000000
13
0.1665645337
23
0.0791716714
33
0.0000000000
40
0.0000000000
40
0.0000000000
40
0.0000000000
40
0.0000000000
40
0.1560487742
40
0.3197486560
40
0.4879920734
40
0.6572002185
40
0.8261240539
40
1.0000000000
40
1.0000000000
40
1.0000000000
40
1.0000000000
10
-6.5853270487
20
8.6310834162
30
0.0000000000
10
-6.5875000396
20
8.6404270664
30
0.0000000000
10
-6.5909988094
20
8.6598122428
30
0.0000000000
10
-6.5928753033
20
8.6898326936
30
0.0000000000
10
-6.5903253135
20
8.7206733624
30
0.0000000000
10
-6.5818707413
20
8.7508943181
30
0.0000000000
10
-6.5656375019
20
8.7784130807
30
0.0000000000
10
-6.5484768708
20
8.7918682496
30
0.0000000000
10
-6.5388230155
20
8.7964569327
30
0.0000000000
11
-6.5853270487
21
8.6310834162
31
0.0000000000
11
-6.5903746067
21
8.6594163185
31
0.0000000000
11
-6.5921366259
21
8.6895549027
31
0.0000000000
11
-6.5893565298
21
8.7204580845
31
0.0000000000
11
-6.5805951210
21
8.7504088079
31
0.0000000000
11
-6.5642665927
21
8.7769402529
31
0.0000000000
11
-6.5388230155
21
8.7964569327
31
0.0000000000
0
SPLINE
5
3DE
100
AcDbEntity
8
0
100
AcDbSpline
62
9
6
CONTINUOUS
70
0
71
3
72
9
73
5
74
3
42
0.0000001000
43
0.0000001000
44
0.0000000001
12
-0.2151324891
22
-0.1075662446
32
0.0000000000
13
-0.1093549408
23
-0.2150217415
33
0.0000000000
40
0.0000000000
40
0.0000000000
40
0.0000000000
40
0.0000000000
40
0.5725673673
40
1.0000000000
40
1.0000000000
40
1.0000000000
40
1.0000000000
10
-1.0384596110
20
11.2450419925
30
0.0000000000
10
-1.0795188920
20
11.2245123520
30
0.0000000000
10
-1.1413759982
20
11.1692786049
30
0.0000000000
10
-1.1854558281
20
11.1016577520
30
0.0000000000
10
-1.2010364515
20
11.0710219823
30
0.0000000000
11
-1.0384596110
21
11.2450419925
31
0.0000000000
11
-1.1445256282
21
11.1572013628
31
0.0000000000
11
-1.2010364515
21
11.0710219823
31
0.0000000000
0
SPLINE
5
3DF
100
AcDbEntity
8
0
100
AcDbSpline
62
9
6
CONTINUOUS
70
0
71
3
72
9
73
5
74
3
42
0.0000001000
43
0.0000001000
44
0.0000000001
12
-0.0691437293
22
-0.1359554948
32
0.0000000000
13
-0.0201989382
23
-0.1513160673
33
0.0000000000
40
0.0000000000
40
0.0000000000
40
0.0000000000
40
0.0000000000
40
0.3418700578
40
1.0000000000
40
1.0000000000
40
1.0000000000
40
1.0000000000
10
-1.2010364515
20
11.0710219823
30
0.0000000000
10
-1.2089158418
20
11.0555289447
30
0.0000000000
10
-1.2295245748
20
11.0089144455
30
0.0000000000
10
-1.2429845025
20
10.9590963134
30
0.0000000000
10
-1.2474156779
20
10.9259011019
30
0.0000000000
11
-1.2010364515
21
11.0710219823
31
0.0000000000
11
-1.2221713417
21
11.0232823166
31
0.0000000000
11
-1.2474156779
21
10.9259011019
31
0.0000000000
0
SPLINE
5
3E0
100
AcDbEntity
8
0
100
AcDbSpline
62
9
6
CONTINUOUS
70
0
71
3
72
8
73
4
74
2
42
0.0000001000
43
0.0000001000
44
0.0000000001
12
-0.0062158834
22
-0.0465649736
32
0.0000000000
13
0.0000000000
23
-0.0468004160
33
0.0000000000
40
0.0000000000
40
0.0000000000
40
0.0000000000
40
0.0000000000
40
1.0000000000
40
1.0000000000
40
1.0000000000
40
1.0000000000
10
-1.2474156779
20
10.9259011019
30
0.0000000000
10
-1.2494876390
20
10.9103794440
30
0.0000000000
10
-1.2505916453
20
10.8947684929
30
0.0000000000
10
-1.2505916453
20
10.8791683542
30
0.0000000000
11
-1.2474156779
21
10.9259011019
31
0.0000000000
11
-1.2505916453
21
10.8791683542
31
0.0000000000
0
SPLINE
5
3E1
100
AcDbEntity
8
0
100
AcDbSpline
62
9
6
CONTINUOUS
70
0
71
3
72
8
73
4
74
2
42
0.0000001000
43
0.0000001000
44
0.0000000001
12
0.1364530422
22
0.0648590380
32
0.0000000000
13
0.1191556807
23
0.0934737534
33
0.0000000000
40
0.0000000000
40
0.0000000000
40
0.0000000000
40
0.0000000000
40
1.0000000000
40
1.0000000000
40
1.0000000000
40
1.0000000000
10
-6.5388230155
20
8.7964569327
30
0.0000000000
10
-6.4933386680
20
8.8180766121
30
0.0000000000
10
-6.4501575705
20
8.8449462042
30
0.0000000000
10
-6.4104390103
20
8.8761041221
30
0.0000000000
11
-6.5388230155
21
8.7964569327
31
0.0000000000
11
-6.4104390103
21
8.8761041221
31
0.0000000000
0
SPLINE
5
3E2
100
AcDbEntity
8
0
100
AcDbSpline
62
9
6
CONTINUOUS
70
0
71
3
72
9
73
5
74
3
42
0.0000001000
43
0.0000001000
44
0.0000000001
12
0.1710246612
22
0.1341632805
32
0.0000000000
13
0.1260985701
23
0.1768077392
33
0.0000000000
40
0.0000000000
40
0.0000000000
40
0.0000000000
40
0.0000000000
40
0.7102442741
40
1.0000000000
40
1.0000000000
40
1.0000000000
40
1.0000000000
10
-6.4104390103
20
8.8761041221
30
0.0000000000
10
-6.3699492482
20
8.9078670227
30
0.0000000000
10
-6.3180073192
20
8.9588626789
30
0.0000000000
10
-6.2737807826
20
9.0162216774
30
0.0000000000
10
-6.2616015217
20
9.0332986956
30
0.0000000000
11
-6.4104390103
21
8.8761041221
31
0.0000000000
11
-6.3000583389
21
8.9835157368
31
0.0000000000
11
-6.2616015217
21
9.0332986956
31
0.0000000000
0
SPLINE
5
3E3
100
AcDbEntity
8
0
100
AcDbSpline
62
9
6
CONTINUOUS
70
0
71
3
72
11
73
7
74
5
42
0.0000001000
43
0.0000001000
44
0.0000000001
12
0.3439152912
22
0.4822170866
32
0.0000000000
13
0.0637211329
23
0.5885282334
33
0.0000000000
40
0.0000000000
40
0.0000000000
40
0.0000000000
40
0.0000000000
40
0.1717293803
40
0.4867680793
40
0.8600996469
40
1.0000000000
40
1.0000000000
40
1.0000000000
40
1.0000000000
10
-6.2616015217
20
9.0332986956
30
0.0000000000
10
-6.2419147351
20
9.0609023095
30
0.0000000000
10
-6.1908199092
20
9.1425288999
30
0.0000000000
10
-6.1233868248
20
9.2990713803
30
0.0000000000
10
-6.0853038796
20
9.4586320355
30
0.0000000000
10
-6.0718222623
20
9.5590330086
30
0.0000000000
10
-6.0688507259
20
9.5864781112
30
0.0000000000
11
-6.2616015217
21
9.0332986956
31
0.0000000000
11
-6.2074722389
21
9.1193644526
31
0.0000000000
11
-6.1326317714
21
9.2899955862
31
0.0000000000
11
-6.0799237609
21
9.5044107187
31
0.0000000000
11
-6.0688507259
21
9.5864781112
31
0.0000000000
0
SPLINE
5
3E4
100
AcDbEntity
8
0
100
AcDbSpline
62
9
6
CONTINUOUS
70
0
71
3
72
8
73
4
74
2
42
0.0000001000
43
0.0000001000
44
0.0000000001
12
0.0094417594
22
0.0872040680
32
0.0000000000
13
0.0048797548
23
0.0875925199
33
0.0000000000
40
0.0000000000
40
0.0000000000
40
0.0000000000
40
0.0000000000
40
1.0000000000
40
1.0000000000
40
1.0000000000
40
1.0000000000
10
-6.0688507259
20
9.5864781112
30
0.0000000000
10
-6.0657034728
20
9.6155461339
30
0.0000000000
10
-6.0633452426
20
9.6447006465
30
0.0000000000
10
-6.0617186577
20
9.6738981532
30
0.0000000000
11
-6.0688507259
21
9.5864781112
31
0.0000000000
11
-6.0617186577
21
9.6738981532
31
0.0000000000
0
SPLINE
5
3E5
100
AcDbEntity
8
0
100
AcDbSpline
62
9
6
CONTINUOUS
70
0
71
3
72
10
73
6
74
4
42
0.0000001000
43
0.0000001000
44
0.0000000001
12
0.0357385664
22
0.6415140173
32
0.0000000000
13
-0.1519896838
23
0.6241531867
33
0.0000000000
40
0.0000000000
40
0.0000000000
40
0.0000000000
40
0.0000000000
40
0.1444682137
40
0.6298083039
40
1.0000000000
40
1.0000000000
40
1.0000000000
40
1.0000000000
10
-6.0617186577
20
9.6738981532
30
0.0000000000
10
-6.0599976288
20
9.7047909479
30
0.0000000000
10
-6.0560655638
20
9.8396777292
30
0.0000000000
10
-6.0724879154
20
10.0537466248
30
0.0000000000
10
-6.1076988343
20
10.2337090595
30
0.0000000000
10
-6.1264539406
20
10.3107278351
30
0.0000000000
11
-6.0617186577
21
9.6738981532
31
0.0000000000
11
-6.0589448305
21
9.7666694114
31
0.0000000000
11
-6.0811890898
21
10.0773728106
31
0.0000000000
11
-6.1264539406
21
10.3107278351
31
0.0000000000
0
SPLINE
5
3E6
100
AcDbEntity
8
0
100
AcDbSpline
62
9
6
CONTINUOUS
70
0
71
3
72
9
73
5
74
3
42
0.0000001000
43
0.0000001000
44
0.0000000001
12
-0.0951937755
22
0.3909179681
32
0.0000000000
13
-0.1507752185
23
0.3730434245
33
0.0000000000
40
0.0000000000
40
0.0000000000
40
0.0000000000
40
0.0000000000
40
0.3174241684
40
1.0000000000
40
1.0000000000
40
1.0000000000
40
1.0000000000
10
-6.1264539406
20
10.3107278351
30
0.0000000000
10
-6.1365262090
20
10.3520901054
30
0.0000000000
10
-6.1714550462
20
10.4816223076
30
0.0000000000
10
-6.2157766729
20
10.6083230167
30
0.0000000000
10
-6.2500818463
20
10.6931998252
30
0.0000000000
11
-6.1264539406
21
10.3107278351
31
0.0000000000
11
-6.1596471228
21
10.4340381127
31
0.0000000000
11
-6.2500818463
21
10.6931998252
31
0.0000000000
0
SPLINE
5
3E7
100
AcDbEntity
8
0
100
AcDbSpline
62
9
6
CONTINUOUS
70
0
71
3
72
9
73
5
74
3
42
0.0000001000
43
0.0000001000
44
0.0000000001
12
-0.1695587515
22
0.4195170661
32
0.0000000000
13
-0.2322258348
23
0.3883853475
33
0.0000000000
40
0.0000000000
40
0.0000000000
40
0.0000000000
40
0.0000000000
40
0.3215611779
40
1.0000000000
40
1.0000000000
40
1.0000000000
40
1.0000000000
10
-6.2500818463
20
10.6931998252
30
0.0000000000
10
-6.2682563502
20
10.7381666259
30
0.0000000000
10
-6.3283130078
20
10.8766038131
30
0.0000000000
10
-6.3989035781
20
11.0102690765
30
0.0000000000
10
-6.4514205854
20
11.0981009757
30
0.0000000000
11
-6.2500818463
21
10.6931998252
31
0.0000000000
11
-6.3079693527
21
10.8267052513
31
0.0000000000
11
-6.4514205854
21
11.0981009757
31
0.0000000000
0
SPLINE
5
3E8
100
AcDbEntity
8
0
100
AcDbSpline
62
9
6
CONTINUOUS
70
0
71
3
72
8
73
4
74
2
42
0.0000001000
43
0.0000001000
44
0.0000000001
12
-0.0835346024
22
0.1397071760
32
0.0000000000
13
-0.0912370316
23
0.1346039367
33
0.0000000000
40
0.0000000000
40
0.0000000000
40
0.0000000000
40
0.0000000000
40
1.0000000000
40
1.0000000000
40
1.0000000000
40
1.0000000000
10
-6.4514205854
20
11.0981009757
30
0.0000000000
10
-6.4792654529
20
11.1446700344
30
0.0000000000
10
-6.5084106716
20
11.1904373963
30
0.0000000000
10
-6.5388230155
20
11.2353053752
30
0.0000000000
11
-6.4514205854
21
11.0981009757
31
0.0000000000
11
-6.5388230155
21
11.2353053752
31
0.0000000000
0
SPLINE
5
3E9
100
AcDbEntity
8
0
100
AcDbSpline
62
9
6
CONTINUOUS
70
0
71
3
72
10
73
6
74
4
42
0.0000001000
43
0.0000001000
44
0.0000000001
12
-0.3930175729
22
-0.1965087865
32
0.0000000000
13
0.0000000000
23
-0.4394070047
33
0.0000000000
40
0.0000000000
40
0.0000000000
40
0.0000000000
40
0.0000000000
40
0.3134155914
40
0.6657095443
40
1.0000000000
40
1.0000000000
40
1.0000000000
40
1.0000000000
10
-0.4411155729
20
10.9463699735
30
0.0000000000
10
-0.4821748512
20
10.9258403343
30
0.0000000000
10
-0.5574029964
20
10.8586672563
30
0.0000000000
10
-0.6309106505
20
10.7302416211
30
0.0000000000
10
-0.6532476073
20
10.6294595244
30
0.0000000000
10
-0.6532476073
20
10.5804963352
30
0.0000000000
11
-0.4411155729
21
10.9463699735
31
0.0000000000
11
-0.5471815844
21
10.8585293506
31
0.0000000000
11
-0.6248273069
21
10.7246102889
31
0.0000000000
11
-0.6532476073
21
10.5804963352
31
0.0000000000
0
SPLINE
5
3EA
100
AcDbEntity
8
0
100
AcDbSpline
62
9
6
CONTINUOUS
70
0
71
3
72
10
73
6
74
4
42
0.0000001000
43
0.0000001000
44
0.0000000001
12
-0.3775694245
22
-0.1887847123
32
0.0000000000
13
-0.3122536240
23
-0.2840704352
33
0.0000000000
40
0.0000000000
40
0.0000000000
40
0.0000000000
40
0.0000000000
40
0.3387615159
40
0.7040683010
40
1.0000000000
40
1.0000000000
40
1.0000000000
40
1.0000000000
10
-0.2092419510
20
10.7243026033
30
0.0000000000
10
-0.2518772812
20
10.7029849382
30
0.0000000000
10
-0.3379992811
20
10.6536862764
30
0.0000000000
10
-0.4553796721
20
10.5761071129
30
0.0000000000
10
-0.5296962415
20
10.5196911997
30
0.0000000000
10
-0.5604981566
20
10.4916693842
30
0.0000000000
11
-0.2092419510
21
10.7243026033
31
0.0000000000
11
-0.3339470356
21
10.6543128190
31
0.0000000000
11
-0.4625157947
21
10.5691631120
31
0.0000000000
11
-0.5604981566
21
10.4916693842
31
0.0000000000
0
SPLINE
5
3EB
100
AcDbEntity
8
0
100
AcDbSpline
62
9
6
CONTINUOUS
70
0
71
3
72
12
73
8
74
6
42
0.0000001000
43
0.0000001000
44
0.0000000001
12
-0.0943736363
22
0.1392314363
32
0.0000000000
13
-0.0036964483
23
0.1683953640
33
0.0000000000
40
0.0000000000
40
0.0000000000
40
0.0000000000
40
0.0000000000
40
0.1811292427
40
0.3824911115
40
0.6025567816
40
0.8374263778
40
1.0000000000
40
1.0000000000
40
1.0000000000
40
1.0000000000
10
-6.5388230155
20
11.2353053752
30
0.0000000000
10
-6.5445209572
20
11.2437116700
30
0.0000000000
10
-6.5556978286
20
11.2620577900
30
0.0000000000
10
-6.5703778555
20
11.2925495856
30
0.0000000000
10
-6.5826588234
20
11.3273237017
30
0.0000000000
10
-6.5900027023
20
11.3612777093
30
0.0000000000
10
-6.5918938893
20
11.3835346241
30
0.0000000000
10
-6.5920942043
20
11.3926601722
30
0.0000000000
11
-6.5388230155
21
11.2353053752
31
0.0000000000
11
-6.5546898844
21
11.2613137099
31
0.0000000000
11
-6.5693785394
21
11.2918322093
31
0.0000000000
11
-6.5816558255
21
11.3267522295
31
0.0000000000
11
-6.5898722750
21
11.3653937846
31
0.0000000000
11
-6.5920942043
21
11.3926601722
31
0.0000000000
0
SPLINE
5
3EC
100
AcDbEntity
8
0
100
AcDbSpline
62
9
6
CONTINUOUS
70
0
71
3
72
9
73
5
74
3
42
0.0000001000
43
0.0000001000
44
0.0000000001
12
-0.0012093774
22
0.0550943840
32
0.0000000000
13
0.0159598225
23
0.0526658681
33
0.0000000000
40
0.0000000000
40
0.0000000000
40
0.0000000000
40
0.0000000000
40
0.2491803841
40
1.0000000000
40
1.0000000000
40
1.0000000000
40
1.0000000000
10
-6.5920942043
20
11.3926601722
30
0.0000000000
10
-6.5921946553
20
11.3972363188
30
0.0000000000
10
-6.5920192466
20
11.4156226963
30
0.0000000000
10
-6.5893213646
20
11.4340020693
30
0.0000000000
10
-6.5853270487
20
11.4471829249
30
0.0000000000
11
-6.5920942043
21
11.3926601722
31
0.0000000000
11
-6.5919506160
21
11.4063989331
31
0.0000000000
11
-6.5853270487
21
11.4471829249
31
0.0000000000
0
SPLINE
5
3ED
100
AcDbEntity
8
0
100
AcDbSpline
62
0
6
CONTINUOUS
70
0
71
3
72
9
73
5
74
3
42
0.0000001000
43
0.0000001000
44
0.0000000001
12
0.0000000000
22
-0.6201662296
32
0.0000000000
13
-0.5599808860
23
-0.2950503009
33
0.0000000000
40
0.0000000000
40
0.0000000000
40
0.0000000000
40
0.0000000000
40
0.6403297784
40
1.0000000000
40
1.0000000000
40
1.0000000000
40
1.0000000000
10
-3.3719119889
20
5.8053346173
30
0.0000000000
10
-3.3719119889
20
5.6729643158
30
0.0000000000
10
-3.4038703740
20
5.4535005910
30
0.0000000000
10
-3.5670570948
20
5.3017968245
30
0.0000000000
10
-3.6341932445
20
5.2664232221
30
0.0000000000
11
-3.3719119889
21
5.8053346173
31
0.0000000000
11
-3.4666463344
21
5.4196890881
31
0.0000000000
11
-3.6341932445
21
5.2664232221
31
0.0000000000
0
SPLINE
5
3EE
100
AcDbEntity
8
0
100
AcDbSpline
62
0
6
CONTINUOUS
70
0
71
3
72
10
73
6
74
4
42
0.0000001000
43
0.0000001000
44
0.0000000001
12
0.0000000000
22
0.7424554594
32
0.0000000000
13
-0.3683610634
23
0.6446318610
33
0.0000000000
40
0.0000000000
40
0.0000000000
40
0.0000000000
40
0.0000000000
40
0.3154590423
40
0.6530986656
40
1.0000000000
40
1.0000000000
40
1.0000000000
40
1.0000000000
10
-3.3719119889
20
7.0182120783
30
0.0000000000
10
-3.3719119889
20
7.0962835077
30
0.0000000000
10
-3.3895595080
20
7.2581515464
30
0.0000000000
10
-3.4587623188
20
7.4967621217
30
0.0000000000
10
-3.5313475163
20
7.6507776419
30
0.0000000000
10
-3.5739424978
20
7.7253188595
30
0.0000000000
11
-3.3719119889
21
7.0182120783
31
0.0000000000
11
-3.3953874855
21
7.2512469123
31
0.0000000000
11
-3.4642552321
21
7.4922840255
31
0.0000000000
11
-3.5739424978
21
7.7253188595
31
0.0000000000
0
SPLINE
5
3EF
100
AcDbEntity
8
0
100
AcDbSpline
62
9
6
CONTINUOUS
70
0
71
3
72
8
73
4
74
2
42
0.0000001000
43
0.0000001000
44
0.0000000001
12
0.0686333514
22
0.2264834114
32
0.0000000000
13
0.0841458519
23
0.2216991698
33
0.0000000000
40
0.0000000000
40
0.0000000000
40
0.0000000000
40
0.0000000000
40
1.0000000000
40
1.0000000000
40
1.0000000000
40
1.0000000000
10
-6.5853270487
20
11.4471829249
30
0.0000000000
10
-6.5624492649
20
11.5226773954
30
0.0000000000
10
-6.5370683707
20
11.5975496546
30
0.0000000000
10
-6.5090197534
20
11.6714493779
30
0.0000000000
11
-6.5853270487
21
11.4471829249
31
0.0000000000
11
-6.5090197534
21
11.6714493779
31
0.0000000000
0
SPLINE
5
3F0
100
AcDbEntity
8
0
100
AcDbSpline
62
9
6
CONTINUOUS
70
0
71
3
72
8
73
4
74
2
42
0.0000001000
43
0.0000001000
44
0.0000000001
12
0.1593421568
22
0.4198189582
32
0.0000000000
13
0.2200923433
23
0.3917580543
33
0.0000000000
40
0.0000000000
40
0.0000000000
40
0.0000000000
40
0.0000000000
40
1.0000000000
40
1.0000000000
40
1.0000000000
40
1.0000000000
10
-6.5090197534
20
11.6714493779
30
0.0000000000
10
-6.4559057012
20
11.8113890306
30
0.0000000000
10
-6.3932255093
20
11.9478412845
30
0.0000000000
10
-6.3198613948
20
12.0784273026
30
0.0000000000
11
-6.5090197534
21
11.6714493779
31
0.0000000000
11
-6.3198613948
21
12.0784273026
31
0.0000000000
0
SPLINE
5
3F1
100
AcDbEntity
8
0
100
AcDbSpline
62
9
6
CONTINUOUS
70
0
71
3
72
8
73
4
74
2
42
0.0000001000
43
0.0000001000
44
0.0000000001
12
0.3094503553
22
0.5508127511
32
0.0000000000
13
0.4404412417
23
0.4538848068
33
0.0000000000
40
0.0000000000
40
0.0000000000
40
0.0000000000
40
0.0000000000
40
1.0000000000
40
1.0000000000
40
1.0000000000
40
1.0000000000
10
-6.3198613948
20
12.0784273026
30
0.0000000000
10
-6.2167112764
20
12.2620315530
30
0.0000000000
10
-6.0924407242
20
12.4340391782
30
0.0000000000
10
-5.9456269769
20
12.5853341138
30
0.0000000000
11
-6.3198613948
21
12.0784273026
31
0.0000000000
11
-5.9456269769
21
12.5853341138
31
0.0000000000
0
SPLINE
5
3F2
100
AcDbEntity
8
0
100
AcDbSpline
62
9
6
CONTINUOUS
70
0
71
3
72
8
73
4
74
2
42
0.0000001000
43
0.0000001000
44
0.0000000001
12
0.4153038635
22
0.4279801617
32
0.0000000000
13
0.5174858754
23
0.2918744537
33
0.0000000000
40
0.0000000000
40
0.0000000000
40
0.0000000000
40
0.0000000000
40
1.0000000000
40
1.0000000000
40
1.0000000000
40
1.0000000000
10
-5.9456269769
20
12.5853341138
30
0.0000000000
10
-5.8071923558
20
12.7279941677
30
0.0000000000
10
-5.6487143318
20
12.8522383413
30
0.0000000000
10
-5.4762190400
20
12.9495298259
30
0.0000000000
11
-5.9456269769
21
12.5853341138
31
0.0000000000
11
-5.4762190400
21
12.9495298259
31
0.0000000000
0
SPLINE
5
3F3
100
AcDbEntity
8
0
100
AcDbSpline
62
9
6
CONTINUOUS
70
0
71
3
72
10
73
6
74
4
42
0.0000001000
43
0.0000001000
44
0.0000000001
12
-0.3813646752
22
-0.1906823376
32
0.0000000000
13
-0.4240363555
23
0.0446311390
33
0.0000000000
40
0.0000000000
40
0.0000000000
40
0.0000000000
40
0.0000000000
40
0.3336519323
40
0.6964625650
40
1.0000000000
40
1.0000000000
40
1.0000000000
40
1.0000000000
10
0.9626457610
20
7.9650294839
30
0.0000000000
10
0.9202314074
20
7.9438223071
30
0.0000000000
10
0.8262948139
20
7.9103747576
30
0.0000000000
10
0.6870519784
20
7.8815468112
30
0.0000000000
10
0.5915134880
20
7.8756987340
30
0.0000000000
10
0.5486098521
20
7.8802144745
30
0.0000000000
11
0.9626457610
21
7.9650294839
31
0.0000000000
11
0.8295297593
21
7.9148435721
31
0.0000000000
11
0.6779820874
21
7.8837991218
31
0.0000000000
11
0.5486098521
21
7.8802144745
31
0.0000000000
0
SPLINE
5
3F4
100
AcDbEntity
8
0
100
AcDbSpline
62
9
6
CONTINUOUS
70
0
71
3
72
10
73
6
74
4
42
0.0000001000
43
0.0000001000
44
0.0000000001
12
-0.3734043592
22
-0.1867021796
32
0.0000000000
13
-0.1839049365
23
0.3747899327
33
0.0000000000
40
0.0000000000
40
0.0000000000
40
0.0000000000
40
0.0000000000
40
0.2992391548
40
0.6333008703
40
1.0000000000
40
1.0000000000
40
1.0000000000
40
1.0000000000
10
0.8463856779
20
7.5515956927
30
0.0000000000
10
0.8091399429
20
7.5329728252
30
0.0000000000
10
0.7144536413
20
7.5221897476
30
0.0000000000
10
0.5858417157
20
7.5890491661
30
0.0000000000
10
0.5245850789
20
7.6690292440
30
0.0000000000
10
0.5021058189
20
7.7148409580
30
0.0000000000
11
0.8463856779
21
7.5515956927
31
0.0000000000
11
0.7226152101
21
7.5346435543
31
0.0000000000
11
0.5966000341
21
7.5943954692
31
0.0000000000
11
0.5021058189
21
7.7148409580
31
0.0000000000
0
SPLINE
5
3F5
100
AcDbEntity
8
0
100
AcDbSpline
62
9
6
CONTINUOUS
70
0
71
3
72
10
73
6
74
4
42
0.0000001000
43
0.0000001000
44
0.0000000001
12
-0.3781794735
22
-0.1890897368
32
0.0000000000
13
-0.3473693922
23
-0.2410583915
33
0.0000000000
40
0.0000000000
40
0.0000000000
40
0.0000000000
40
0.0000000000
40
0.3379545122
40
0.7028670733
40
1.0000000000
40
1.0000000000
40
1.0000000000
40
1.0000000000
10
0.8463856779
20
5.5192219906
30
0.0000000000
10
0.8037831914
20
5.4979207473
30
0.0000000000
10
0.7191771955
20
5.4463399219
30
0.0000000000
10
0.5999922717
20
5.3698414892
30
0.0000000000
10
0.5365107802
20
5.2998679773
30
0.0000000000
10
0.5021058189
20
5.2759925156
30
0.0000000000
11
0.8463856779
21
5.5192219906
31
0.0000000000
11
0.7226152148
21
5.4478125667
31
0.0000000000
11
0.5966000317
21
5.3587843939
31
0.0000000000
11
0.5021058189
21
5.2759925156
31
0.0000000000
0
SPLINE
5
3F6
100
AcDbEntity
8
0
100
AcDbSpline
62
0
6
CONTINUOUS
70
0
71
3
72
10
73
6
74
4
42
0.0000001000
43
0.0000001000
44
0.0000000001
12
-0.3494666484
22
0.5465742255
32
0.0000000000
13
-0.5802553385
23
0.2901276692
33
0.0000000000
40
0.0000000000
40
0.0000000000
40
0.0000000000
40
0.0000000000
40
0.3571638572
40
0.6934348329
40
1.0000000000
40
1.0000000000
40
1.0000000000
40
1.0000000000
10
0.5176064271
20
11.1827352938
30
0.0000000000
10
0.4760008084
20
11.2478074800
30
0.0000000000
10
0.3858884470
20
11.3685481632
30
0.0000000000
10
0.2300773354
20
11.5197925550
30
0.0000000000
10
0.1131545322
20
11.5972223697
30
0.0000000000
10
0.0538591739
20
11.6268700488
30
0.0000000000
11
0.5176064271
21
11.1827352938
31
0.0000000000
11
0.3784160605
21
11.3679778218
31
0.0000000000
11
0.2208621590
21
11.5188685558
31
0.0000000000
11
0.0538591739
21
11.6268700488
31
0.0000000000
0
SPLINE
5
3F7
100
AcDbEntity
8
0
100
AcDbSpline
62
0
6
CONTINUOUS
70
0
71
3
72
10
73
6
74
4
42
0.0000001000
43
0.0000001000
44
0.0000000001
12
0.2058831328
22
-0.8852775281
32
0.0000000000
13
-0.8119694491
23
-0.4094585316
33
0.0000000000
40
0.0000000000
40
0.0000000000
40
0.0000000000
40
0.0000000000
40
0.3980230366
40
0.7308387535
40
1.0000000000
40
1.0000000000
40
1.0000000000
40
1.0000000000
10
1.7941269654
20
8.1770985110
30
0.0000000000
10
1.8214423753
20
8.0596448944
30
0.0000000000
10
1.8450635525
20
7.8362496458
30
0.0000000000
10
1.7762971623
20
7.5322340643
30
0.0000000000
10
1.6415019160
20
7.3904179963
30
0.0000000000
10
1.5686516796
20
7.3536812067
30
0.0000000000
11
1.7941269654
21
8.1770985110
31
0.0000000000
11
1.8252586775
21
7.8166763007
31
0.0000000000
11
1.7433707827
21
7.5254738356
31
0.0000000000
11
1.5686516796
21
7.3536812067
31
0.0000000000
0
SPLINE
5
3F8
100
AcDbEntity
8
0
100
AcDbSpline
62
0
6
CONTINUOUS
70
0
71
3
72
10
73
6
74
4
42
0.0000001000
43
0.0000001000
44
0.0000000001
12
0.3228868826
22
1.0654954360
32
0.0000000000
13
-0.6246694064
23
0.9215880835
33
0.0000000000
40
0.0000000000
40
0.0000000000
40
0.0000000000
40
0.0000000000
40
0.2970857478
40
0.6401701979
40
1.0000000000
40
1.0000000000
40
1.0000000000
40
1.0000000000
10
1.7941269654
20
4.9359273783
30
0.0000000000
10
1.8261019957
20
5.0414418811
30
0.0000000000
10
1.8414046640
20
5.2848920112
30
0.0000000000
10
1.7561734113
20
5.6493602084
30
0.0000000000
10
1.6365316888
20
5.8847768412
30
0.0000000000
10
1.5616067992
20
5.9953151271
30
0.0000000000
11
1.7941269654
21
4.9359273783
31
0.0000000000
11
1.8252586775
21
5.2652178766
31
0.0000000000
11
1.7433707827
21
5.6383082365
31
0.0000000000
11
1.5616067992
21
5.9953151271
31
0.0000000000
0
SPLINE
5
3F9
100
AcDbEntity
8
0
100
AcDbSpline
62
9
6
CONTINUOUS
70
0
71
3
72
10
73
6
74
4
42
0.0000001000
43
0.0000001000
44
0.0000000001
12
-0.3938092790
22
-0.1969046395
32
0.0000000000
13
-0.3281222662
23
0.2935863820
33
0.0000000000
40
0.0000000000
40
0.0000000000
40
0.0000000000
40
0.0000000000
40
0.3093450374
40
0.6590836186
40
1.0000000000
40
1.0000000000
40
1.0000000000
40
1.0000000000
10
0.9626457629
20
4.9895281224
30
0.0000000000
10
0.9220381142
20
4.9692242981
30
0.0000000000
10
0.8228068942
20
4.9517346785
30
0.0000000000
10
0.6766641879
20
4.9795497105
30
0.0000000000
10
0.5858972706
20
5.0307521635
30
0.0000000000
10
0.5486098521
20
5.0641149658
30
0.0000000000
11
0.9626457629
21
4.9895281224
31
0.0000000000
11
0.8295297911
21
4.9606980027
31
0.0000000000
11
0.6779820562
21
4.9879986978
31
0.0000000000
11
0.5486098521
21
5.0641149658
31
0.0000000000
0
SPLINE
5
3FA
100
AcDbEntity
8
0
100
AcDbSpline
62
9
6
CONTINUOUS
70
0
71
3
72
11
73
7
74
5
42
0.0000001000
43
0.0000001000
44
0.0000000001
12
0.0840310979
22
0.0473955560
32
0.0000000000
13
0.0862905054
23
-0.0431452527
33
0.0000000000
40
0.0000000000
40
0.0000000000
40
0.0000000000
40
0.0000000000
40
0.1963949589
40
0.4188363178
40
0.6813277553
40
1.0000000000
40
1.0000000000
40
1.0000000000
40
1.0000000000
10
-5.4762190400
20
12.9495298259
30
0.0000000000
10
-5.4707179453
20
12.9526325753
30
0.0000000000
10
-5.4580842994
20
12.9577684584
30
0.0000000000
10
-5.4360980147
20
12.9604945788
30
0.0000000000
10
-5.4102306259
20
12.9570097341
30
0.0000000000
10
-5.3926357190
20
12.9501903911
30
0.0000000000
10
-5.3834695894
20
12.9456073262
30
0.0000000000
11
-5.4762190400
21
12.9495298259
31
0.0000000000
11
-5.4586760042
21
12.9566883009
31
0.0000000000
11
-5.4373986432
21
12.9594835928
31
0.0000000000
11
-5.4122659462
21
12.9563763364
31
0.0000000000
11
-5.3834695894
21
12.9456073262
31
0.0000000000
0
SPLINE
5
3FB
100
AcDbEntity
8
0
100
AcDbSpline
62
0
6
CONTINUOUS
70
0
71
3
72
10
73
6
74
4
42
0.0000001000
43
0.0000001000
44
0.0000000001
12
0.6550292881
22
-0.3275146441
32
0.0000000000
13
0.0000000000
23
-0.7323450078
33
0.0000000000
40
0.0000000000
40
0.0000000000
40
0.0000000000
40
0.0000000000
40
0.3134156114
40
0.6657095235
40
1.0000000000
40
1.0000000000
40
1.0000000000
40
1.0000000000
10
-4.0790187701
20
13.2602963189
30
0.0000000000
10
-4.0105866351
20
13.2260802514
30
0.0000000000
10
-3.8852063982
20
13.1141251226
30
0.0000000000
10
-3.7626936418
20
12.9000823986
30
0.0000000000
10
-3.7254653795
20
12.7321122422
30
0.0000000000
10
-3.7254653795
20
12.6505069217
30
0.0000000000
11
-4.0790187701
21
13.2602963189
31
0.0000000000
11
-3.9022420748
21
13.1138952694
31
0.0000000000
11
-3.7728325522
21
12.8906968590
31
0.0000000000
11
-3.7254653795
21
12.6505069217
31
0.0000000000
0
SPLINE
5
3FC
100
AcDbEntity
8
0
100
AcDbSpline
62
9
6
CONTINUOUS
70
0
71
3
72
10
73
6
74
4
42
0.0000001000
43
0.0000001000
44
0.0000000001
12
-0.3299334659
22
-0.1649667330
32
0.0000000000
13
-0.2159995403
23
0.3018994658
33
0.0000000000
40
0.0000000000
40
0.0000000000
40
0.0000000000
40
0.0000000000
40
0.3413559536
40
0.7241988806
40
1.0000000000
40
1.0000000000
40
1.0000000000
40
1.0000000000
10
-0.2092419463
20
3.4021427115
30
0.0000000000
10
-0.2467835306
20
3.3833719193
30
0.0000000000
10
-0.3422165903
20
3.3725232975
30
0.0000000000
10
-0.4565765093
20
3.4293938919
30
0.0000000000
10
-0.5132463302
20
3.4894970279
30
0.0000000000
10
-0.5331039686
20
3.5172517648
30
0.0000000000
11
-0.2092419463
21
3.4021427115
31
0.0000000000
11
-0.3339470613
21
3.3847055957
31
0.0000000000
11
-0.4625157718
21
3.4431325367
31
0.0000000000
11
-0.5331039686
21
3.5172517648
31
0.0000000000
0
SPLINE
5
3FD
100
AcDbEntity
8
0
100
AcDbSpline
62
9
6
CONTINUOUS
70
0
71
3
72
8
73
4
74
2
42
0.0000001000
43
0.0000001000
44
0.0000000001
12
-0.0305252322
22
0.0426646802
32
0.0000000000
13
-0.0241821953
23
0.0461817695
33
0.0000000000
40
0.0000000000
40
0.0000000000
40
0.0000000000
40
0.0000000000
40
1.0000000000
40
1.0000000000
40
1.0000000000
40
1.0000000000
10
-0.5331039686
20
3.5172517648
30
0.0000000000
10
-0.5432790460
20
3.5314733249
30
0.0000000000
10
-0.5524374248
20
3.5463741417
30
0.0000000000
10
-0.5604981566
20
3.5617680649
30
0.0000000000
11
-0.5331039686
21
3.5172517648
31
0.0000000000
11
-0.5604981566
21
3.5617680649
31
0.0000000000
0
SPLINE
5
3FE
100
AcDbEntity
8
0
100
AcDbSpline
62
9
6
CONTINUOUS
70
0
71
3
72
9
73
5
74
3
42
0.0000001000
43
0.0000001000
44
0.0000000001
12
-0.2640968260
22
-0.1320484130
32
0.0000000000
13
-0.2945084575
23
0.0391641662
33
0.0000000000
40
0.0000000000
40
0.0000000000
40
0.0000000000
40
0.0000000000
40
0.4740683673
40
1.0000000000
40
1.0000000000
40
1.0000000000
40
1.0000000000
10
-4.2204401263
20
5.7346239392
30
0.0000000000
10
-4.2621734434
20
5.7137572806
30
0.0000000000
10
-4.3596571801
20
5.6889351911
30
0.0000000000
10
-4.4585874362
20
5.6889351911
30
0.0000000000
10
-4.5102178742
20
5.6958010824
30
0.0000000000
11
-4.2204401263
21
5.7346239392
31
0.0000000000
11
-4.3549264471
21
5.6958010824
31
0.0000000000
11
-4.5102178742
21
5.6958010824
31
0.0000000000
0
SPLINE
5
3FF
100
AcDbEntity
8
0
100
AcDbSpline
62
9
6
CONTINUOUS
70
0
71
3
72
8
73
4
74
2
42
0.0000001000
43
0.0000001000
44
0.0000000001
12
-0.0962882919
22
0.0128045582
32
0.0000000000
13
-0.0912712065
23
0.0321891474
33
0.0000000000
40
0.0000000000
40
0.0000000000
40
0.0000000000
40
0.0000000000
40
1.0000000000
40
1.0000000000
40
1.0000000000
40
1.0000000000
10
-4.5102178742
20
5.6958010824
30
0.0000000000
10
-4.5423139715
20
5.7000692684
30
0.0000000000
10
-4.5742554452
20
5.7069907753
30
0.0000000000
10
-4.6046791807
20
5.7177204911
30
0.0000000000
11
-4.5102178742
21
5.6958010824
31
0.0000000000
11
-4.6046791807
21
5.7177204911
31
0.0000000000
0
SPLINE
5
400
100
AcDbEntity
8
0
100
AcDbSpline
62
9
6
CONTINUOUS
70
0
71
3
72
8
73
4
74
2
42
0.0000001000
43
0.0000001000
44
0.0000000001
12
-0.0410712091
22
0.0144848223
32
0.0000000000
13
-0.0388546132
23
0.0194273066
33
0.0000000000
40
0.0000000000
40
0.0000000000
40
0.0000000000
40
0.0000000000
40
1.0000000000
40
1.0000000000
40
1.0000000000
40
1.0000000000
10
-4.6046791807
20
5.7177204911
30
0.0000000000
10
-4.6183695838
20
5.7225487652
30
0.0000000000
10
-4.6317526573
20
5.7281481703
30
0.0000000000
10
-4.6447041950
20
5.7346239392
30
0.0000000000
11
-4.6046791807
21
5.7177204911
31
0.0000000000
11
-4.6447041950
21
5.7346239392
31
0.0000000000
0
SPLINE
5
401
100
AcDbEntity
8
0
100
AcDbSpline
62
9
6
CONTINUOUS
70
0
71
3
72
10
73
6
74
4
42
0.0000001000
43
0.0000001000
44
0.0000000001
12
-0.3286406725
22
-0.1643203362
32
0.0000000000
13
0.1153938500
23
-0.3513175022
33
0.0000000000
40
0.0000000000
40
0.0000000000
40
0.0000000000
40
0.0000000000
40
0.3415473003
40
0.7238827193
40
1.0000000000
40
1.0000000000
40
1.0000000000
40
1.0000000000
10
-6.4588388058
20
9.1718342324
30
0.0000000000
10
-6.4962542506
20
9.1531265100
30
0.0000000000
10
-6.5619759015
20
9.0835163734
30
0.0000000000
10
-6.5840584789
20
8.9580755230
30
0.0000000000
10
-6.5691548179
20
8.8771730755
30
0.0000000000
10
-6.5585340725
20
8.8448381311
30
0.0000000000
11
-6.4588388058
21
9.1718342324
31
0.0000000000
11
-6.5472003711
21
9.0827203543
31
0.0000000000
11
-6.5764766241
21
8.9453227248
31
0.0000000000
11
-6.5585340725
21
8.8448381311
31
0.0000000000
0
SPLINE
5
402
100
AcDbEntity
8
0
100
AcDbSpline
62
9
6
CONTINUOUS
70
0
71
3
72
8
73
4
74
2
42
0.0000001000
43
0.0000001000
44
0.0000000001
12
0.0163622229
22
-0.0498149190
32
0.0000000000
13
0.0229506482
23
-0.0467723817
33
0.0000000000
40
0.0000000000
40
0.0000000000
40
0.0000000000
40
0.0000000000
40
1.0000000000
40
1.0000000000
40
1.0000000000
40
1.0000000000
10
-6.5585340725
20
8.8448381311
30
0.0000000000
10
-6.5530799982
20
8.8282331581
30
0.0000000000
10
-6.5464732315
20
8.8120477266
30
0.0000000000
10
-6.5388230155
20
8.7964569327
30
0.0000000000
11
-6.5585340725
21
8.8448381311
31
0.0000000000
11
-6.5388230155
21
8.7964569327
31
0.0000000000
0
SPLINE
5
403
100
AcDbEntity
8
0
100
AcDbSpline
62
9
6
CONTINUOUS
70
0
71
3
72
9
73
5
74
3
42
0.0000001000
43
0.0000001000
44
0.0000000001
12
-0.2151324891
22
-0.1075662446
32
0.0000000000
13
-0.1093549408
23
-0.2150217415
33
0.0000000000
40
0.0000000000
40
0.0000000000
40
0.0000000000
40
0.0000000000
40
0.5725673673
40
1.0000000000
40
1.0000000000
40
1.0000000000
40
1.0000000000
10
-5.1713375550
20
13.3114809645
30
0.0000000000
10
-5.2123968360
20
13.2909513240
30
0.0000000000
10
-5.2742539423
20
13.2357175769
30
0.0000000000
10
-5.3183337722
20
13.1680967240
30
0.0000000000
10
-5.3339143956
20
13.1374609543
30
0.0000000000
11
-5.1713375550
21
13.3114809645
31
0.0000000000
11
-5.2774035722
21
13.2236403348
31
0.0000000000
11
-5.3339143956
21
13.1374609543
31
0.0000000000
0
SPLINE
5
404
100
AcDbEntity
8
0
100
AcDbSpline
62
9
6
CONTINUOUS
70
0
71
3
72
9
73
5
74
3
42
0.0000001000
43
0.0000001000
44
0.0000000001
12
-0.0691437293
22
-0.1359554948
32
0.0000000000
13
-0.0201989382
23
-0.1513160673
33
0.0000000000
40
0.0000000000
40
0.0000000000
40
0.0000000000
40
0.0000000000
40
0.3418700578
40
1.0000000000
40
1.0000000000
40
1.0000000000
40
1.0000000000
10
-5.3339143956
20
13.1374609543
30
0.0000000000
10
-5.3417937858
20
13.1219679167
30
0.0000000000
10
-5.3624025188
20
13.0753534175
30
0.0000000000
10
-5.3758624466
20
13.0255352854
30
0.0000000000
10
-5.3802936219
20
12.9923400739
30
0.0000000000
11
-5.3339143956
21
13.1374609543
31
0.0000000000
11
-5.3550492857
21
13.0897212886
31
0.0000000000
11
-5.3802936219
21
12.9923400739
31
0.0000000000
0
SPLINE
5
405
100
AcDbEntity
8
0
100
AcDbSpline
62
9
6
CONTINUOUS
70
0
71
3
72
8
73
4
74
2
42
0.0000001000
43
0.0000001000
44
0.0000000001
12
-0.0062158834
22
-0.0465649736
32
0.0000000000
13
0.0000000000
23
-0.0468004160
33
0.0000000000
40
0.0000000000
40
0.0000000000
40
0.0000000000
40
0.0000000000
40
1.0000000000
40
1.0000000000
40
1.0000000000
40
1.0000000000
10
-5.3802936219
20
12.9923400739
30
0.0000000000
10
-5.3823655830
20
12.9768184160
30
0.0000000000
10
-5.3834695894
20
12.9612074649
30
0.0000000000
10
-5.3834695894
20
12.9456073262
30
0.0000000000
11
-5.3802936219
21
12.9923400739
31
0.0000000000
11
-5.3834695894
21
12.9456073262
31
0.0000000000
0
SPLINE
5
406
100
AcDbEntity
8
0
100
AcDbSpline
62
9
6
CONTINUOUS
70
0
71
3
72
10
73
6
74
4
42
0.0000001000
43
0.0000001000
44
0.0000000001
12
-0.3930175729
22
-0.1965087865
32
0.0000000000
13
0.0000000000
23
-0.4394070047
33
0.0000000000
40
0.0000000000
40
0.0000000000
40
0.0000000000
40
0.0000000000
40
0.3134155946
40
0.6657095410
40
1.0000000000
40
1.0000000000
40
1.0000000000
40
1.0000000000
10
-4.5739935169
20
13.0128089455
30
0.0000000000
10
-4.6150527957
20
12.9922793061
30
0.0000000000
10
-4.6902809404
20
12.9251062282
30
0.0000000000
10
-4.7637885944
20
12.7966805931
30
0.0000000000
10
-4.7861255513
20
12.6958984969
30
0.0000000000
10
-4.7861255513
20
12.6469353072
30
0.0000000000
11
-4.5739935169
21
13.0128089455
31
0.0000000000
11
-4.6800595293
21
12.9249683215
31
0.0000000000
11
-4.7577052504
21
12.7910492623
31
0.0000000000
11
-4.7861255513
21
12.6469353072
31
0.0000000000
0
SPLINE
5
407
100
AcDbEntity
8
0
100
AcDbSpline
62
9
6
CONTINUOUS
70
0
71
3
72
10
73
6
74
4
42
0.0000001000
43
0.0000001000
44
0.0000000001
12
-0.3892967771
22
-0.1946483886
32
0.0000000000
13
-0.3892967771
23
0.1946483886
33
0.0000000000
40
0.0000000000
40
0.0000000000
40
0.0000000000
40
0.0000000000
40
0.3216054138
40
0.6783945862
40
1.0000000000
40
1.0000000000
40
1.0000000000
40
1.0000000000
10
-4.2204401263
20
12.4030195483
30
0.0000000000
10
-4.2621734434
20
12.3821528898
30
0.0000000000
10
-4.3596571801
20
12.3573308002
30
0.0000000000
10
-4.5054871412
20
12.3573308002
30
0.0000000000
10
-4.6029708780
20
12.3821528898
30
0.0000000000
10
-4.6447041950
20
12.4030195483
30
0.0000000000
11
-4.2204401263
21
12.4030195483
31
0.0000000000
11
-4.3549264471
21
12.3641966915
31
0.0000000000
11
-4.5102178742
21
12.3641966915
31
0.0000000000
11
-4.6447041950
21
12.4030195483
31
0.0000000000
0
SPLINE
5
408
100
AcDbEntity
8
0
100
AcDbSpline
62
0
6
CONTINUOUS
70
0
71
3
72
9
73
5
74
3
42
0.0000001000
43
0.0000001000
44
0.0000000001
12
0.0000000000
22
-0.3100831148
32
0.0000000000
13
-0.2799904430
23
-0.1475251504
33
0.0000000000
40
0.0000000000
40
0.0000000000
40
0.0000000000
40
0.0000000000
40
0.6403297784
40
1.0000000000
40
1.0000000000
40
1.0000000000
40
1.0000000000
10
-3.7254653795
20
5.9821113126
30
0.0000000000
10
-3.7254653795
20
5.9159261618
30
0.0000000000
10
-3.7414445720
20
5.8061942994
30
0.0000000000
10
-3.8230379324
20
5.7303424162
30
0.0000000000
10
-3.8566060073
20
5.7126556150
30
0.0000000000
11
-3.7254653795
21
5.9821113126
31
0.0000000000
11
-3.7728325522
21
5.7892885480
31
0.0000000000
11
-3.8566060073
21
5.7126556150
31
0.0000000000
0
SPLINE
5
409
100
AcDbEntity
8
0
100
AcDbSpline
62
0
6
CONTINUOUS
70
0
71
3
72
10
73
6
74
4
42
0.0000001000
43
0.0000001000
44
0.0000000001
12
-0.3762222475
22
1.2248577272
32
0.0000000000
13
0.0000000000
23
1.2813350972
33
0.0000000000
40
0.0000000000
40
0.0000000000
40
0.0000000000
40
0.0000000000
40
0.3463302334
40
0.6807479029
40
1.0000000000
40
1.0000000000
40
1.0000000000
40
1.0000000000
10
6.7286995945
20
-10.0615845182
30
0.0000000000
10
6.6852672149
20
-9.9201827641
30
0.0000000000
10
6.6120410626
20
-9.6382973766
30
0.0000000000
10
6.5438435708
20
-9.2160552802
30
0.0000000000
10
6.5275829477
20
-8.9366859445
30
0.0000000000
10
6.5275829477
20
-8.8003296389
30
0.0000000000
11
6.7286995945
21
-10.0615845182
31
0.0000000000
11
6.6176964235
21
-9.6319268113
31
0.0000000000
11
6.5502211298
21
-9.2087716684
31
0.0000000000
11
6.5275829477
21
-8.8003296389
31
0.0000000000
0
SPLINE
5
40A
100
AcDbEntity
8
0
100
AcDbSpline
62
0
6
CONTINUOUS
70
0
71
3
72
10
73
6
74
4
42
0.0000001000
43
0.0000001000
44
0.0000000001
12
-0.5849754492
22
-1.9303623185
32
0.0000000000
13
-1.7568670992
23
-0.9909152097
33
0.0000000000
40
0.0000000000
40
0.0000000000
40
0.0000000000
40
0.0000000000
40
0.3588989899
40
0.6885682603
40
1.0000000000
40
1.0000000000
40
1.0000000000
40
1.0000000000
10
1.4576205078
20
5.2370154896
30
0.0000000000
10
1.3876381419
20
5.0060804609
30
0.0000000000
10
1.2108290630
20
4.5735888198
30
0.0000000000
10
0.8130166490
20
4.0229785675
30
0.0000000000
10
0.4681141929
20
3.7524975674
30
0.0000000000
10
0.2857328005
20
3.6496300849
30
0.0000000000
11
1.4576205078
21
5.2370154896
31
0.0000000000
11
1.1769405884
21
4.5697258568
31
0.0000000000
11
0.7819990263
21
4.0347561088
31
0.0000000000
11
0.2857328005
21
3.6496300849
31
0.0000000000
0
SPLINE
5
40B
100
AcDbEntity
8
0
100
AcDbSpline
62
0
6
CONTINUOUS
70
0
71
3
72
10
73
6
74
4
42
0.0000001000
43
0.0000001000
44
0.0000000001
12
0.3123347032
22
-0.4607940418
32
0.0000000000
13
-0.1614434413
23
-0.5327477180
33
0.0000000000
40
0.0000000000
40
0.0000000000
40
0.0000000000
40
0.0000000000
40
0.3598298021
40
0.7029142522
40
1.0000000000
40
1.0000000000
40
1.0000000000
40
1.0000000000
10
1.3413604247
20
5.7667093640
30
0.0000000000
10
1.3788228695
20
5.7114402211
30
0.0000000000
10
1.4386437308
20
5.5937319046
30
0.0000000000
10
1.4812593571
20
5.4114978061
30
0.0000000000
10
1.4736080230
20
5.2897727410
30
0.0000000000
10
1.4576205078
20
5.2370154896
30
0.0000000000
11
1.3413604247
21
5.7667093640
31
0.0000000000
11
1.4322424165
21
5.5882059187
31
0.0000000000
11
1.4731863639
21
5.4016607387
31
0.0000000000
11
1.4576205078
21
5.2370154896
31
0.0000000000
0
SPLINE
5
40C
100
AcDbEntity
8
0
100
AcDbSpline
62
0
6
CONTINUOUS
70
0
71
3
72
9
73
5
74
3
42
0.0000001000
43
0.0000001000
44
0.0000000001
12
0.0000000000
22
-0.1734715451
32
0.0000000000
13
0.0000000000
23
-0.1734715451
33
0.0000000000
40
0.0000000000
40
0.0000000000
40
0.0000000000
40
0.0000000000
40
0.5001280390
40
1.0000000000
40
1.0000000000
40
1.0000000000
40
1.0000000000
10
10.9116449911
20
-6.6082986172
30
0.0000000000
10
10.9116449911
20
-6.6372179451
30
0.0000000000
10
10.9116449911
20
-6.6950417935
30
0.0000000000
10
10.9116449911
20
-6.7528656418
30
0.0000000000
10
10.9116449911
20
-6.7817701623
30
0.0000000000
11
10.9116449911
21
-6.6082986172
31
0.0000000000
11
10.9116449911
21
-6.6950566009
31
0.0000000000
11
10.9116449911
21
-6.7817701623
31
0.0000000000
0
SPLINE
5
40D
100
AcDbEntity
8
0
100
AcDbSpline
62
0
6
CONTINUOUS
70
0
71
3
72
10
73
6
74
4
42
0.0000001000
43
0.0000001000
44
0.0000000001
12
0.1029415664
22
-0.4426387640
32
0.0000000000
13
-0.4059847246
23
-0.2047292658
33
0.0000000000
40
0.0000000000
40
0.0000000000
40
0.0000000000
40
0.0000000000
40
0.3980230366
40
0.7308387535
40
1.0000000000
40
1.0000000000
40
1.0000000000
40
1.0000000000
10
1.4576205078
20
8.2125168573
30
0.0000000000
10
1.4712782128
20
8.1537900490
30
0.0000000000
10
1.4830888014
20
8.0420924247
30
0.0000000000
10
1.4487056063
20
7.8900846340
30
0.0000000000
10
1.3813079831
20
7.8191766000
30
0.0000000000
10
1.3448828649
20
7.8008082052
30
0.0000000000
11
1.4576205078
21
8.2125168573
31
0.0000000000
11
1.4731863639
21
8.0323057522
31
0.0000000000
11
1.4322424165
21
7.8867045196
31
0.0000000000
11
1.3448828649
21
7.8008082052
31
0.0000000000
0
SPLINE
5
40E
100
AcDbEntity
8
0
100
AcDbSpline
62
0
6
CONTINUOUS
70
0
71
3
72
10
73
6
74
4
42
0.0000001000
43
0.0000001000
44
0.0000000001
12
1.6216737111
22
-2.5363366052
32
0.0000000000
13
0.6819228682
23
-2.9322022785
33
0.0000000000
40
0.0000000000
40
0.0000000000
40
0.0000000000
40
0.0000000000
40
0.3359959479
40
0.6715945304
40
1.0000000000
40
1.0000000000
40
1.0000000000
40
1.0000000000
10
0.2857328005
20
10.9717899694
30
0.0000000000
10
0.4673580658
20
10.6877236955
30
0.0000000000
10
0.7985366076
20
10.0988547188
30
0.0000000000
10
1.1921127033
20
9.1737951438
30
0.0000000000
10
1.3829714413
20
8.5335006127
30
0.0000000000
10
1.4576205078
20
8.2125168573
30
0.0000000000
11
0.2857328005
21
10.9717899694
31
0.0000000000
11
0.7819990263
21
10.0903977197
31
0.0000000000
11
1.1769405884
21
9.1604864097
31
0.0000000000
11
1.4576205078
21
8.2125168573
31
0.0000000000
0
SPLINE
5
40F
100
AcDbEntity
8
0
100
AcDbSpline
62
0
6
CONTINUOUS
70
0
71
3
72
10
73
6
74
4
42
0.0000001000
43
0.0000001000
44
0.0000000001
12
0.2901276692
22
-0.1450638346
32
0.0000000000
13
0.1747333242
23
-0.2732871127
33
0.0000000000
40
0.0000000000
40
0.0000000000
40
0.0000000000
40
0.0000000000
40
0.3065651671
40
0.6428361428
40
1.0000000000
40
1.0000000000
40
1.0000000000
40
1.0000000000
10
0.0538591739
20
11.1938573469
30
0.0000000000
10
0.0835068531
20
11.1790335073
30
0.0000000000
10
0.1419682547
20
11.1403186000
30
0.0000000000
10
0.2198738105
20
11.0646964041
30
0.0000000000
10
0.2649299912
20
11.0043260625
30
0.0000000000
10
0.2857328005
20
10.9717899694
30
0.0000000000
11
0.0538591739
21
11.1938573469
31
0.0000000000
11
0.1373606665
21
11.1398566004
31
0.0000000000
11
0.2161376172
21
11.0644112334
31
0.0000000000
11
0.2857328005
21
10.9717899694
31
0.0000000000
0
SPLINE
5
410
100
AcDbEntity
8
0
100
AcDbSpline
62
9
6
CONTINUOUS
70
0
71
3
72
11
73
7
74
5
42
0.0000001000
43
0.0000001000
44
0.0000000001
12
-0.0000000000
22
-0.2514105888
32
0.0000000000
13
-0.1770557323
23
-0.1799876106
33
0.0000000000
40
0.0000000000
40
0.0000000000
40
0.0000000000
40
0.0000000000
40
0.2669446580
40
0.5392852181
40
0.8144630278
40
1.0000000000
40
1.0000000000
40
1.0000000000
40
1.0000000000
10
-4.2204401263
20
5.7346239392
30
0.0000000000
10
-4.2204401263
20
5.7122530346
30
0.0000000000
10
-4.2232856734
20
5.6669832976
30
0.0000000000
10
-4.2382539566
20
5.6000272282
30
0.0000000000
10
-4.2639873683
20
5.5435971990
30
0.0000000000
10
-4.2880627886
20
5.5128622647
30
0.0000000000
10
-4.2990129167
20
5.5017308126
30
0.0000000000
11
-4.2204401263
21
5.7346239392
31
0.0000000000
11
-4.2249884039
21
5.6676655229
31
0.0000000000
11
-4.2404676252
21
5.6009689051
31
0.0000000000
11
-4.2699532995
21
5.5383843283
31
0.0000000000
11
-4.2990129167
21
5.5017308126
31
0.0000000000
0
SPLINE
5
411
100
AcDbEntity
8
0
100
AcDbSpline
62
9
6
CONTINUOUS
70
0
71
3
72
9
73
5
74
3
42
0.0000001000
43
0.0000001000
44
0.0000000001
12
-0.0440691867
22
-0.0447989314
32
0.0000000000
13
-0.0562184143
23
-0.0284987273
33
0.0000000000
40
0.0000000000
40
0.0000000000
40
0.0000000000
40
0.0000000000
40
0.3794770992
40
1.0000000000
40
1.0000000000
40
1.0000000000
40
1.0000000000
10
-4.2990129167
20
5.5017308126
30
0.0000000000
10
-4.3045873325
20
5.4960640897
30
0.0000000000
10
-4.3201338514
20
5.4819820279
30
0.0000000000
10
-4.3379134374
20
5.4705809445
30
0.0000000000
10
-4.3495417086
20
5.4646862402
30
0.0000000000
11
-4.2990129167
21
5.5017308126
31
0.0000000000
11
-4.3167079963
21
5.4857625184
31
0.0000000000
11
-4.3495417086
21
5.4646862402
31
0.0000000000
0
SPLINE
5
412
100
AcDbEntity
8
0
100
AcDbSpline
62
9
6
CONTINUOUS
70
0
71
3
72
10
73
6
74
4
42
0.0000001000
43
0.0000001000
44
0.0000000001
12
0.6488279567
22
-0.3244139784
32
0.0000000000
13
0.6488279567
23
0.3244139784
33
0.0000000000
40
0.0000000000
40
0.0000000000
40
0.0000000000
40
0.0000000000
40
0.3216054154
40
0.6783945926
40
1.0000000000
40
1.0000000000
40
1.0000000000
40
1.0000000000
10
5.4669227759
20
4.0130082582
30
0.0000000000
10
5.5364783041
20
3.9782304942
30
0.0000000000
10
5.6989511997
20
3.9368603421
30
0.0000000000
10
5.9420011294
20
3.9368603546
30
0.0000000000
10
6.1044740307
20
3.9782304744
30
0.0000000000
10
6.1740295571
20
4.0130082376
30
0.0000000000
11
5.4669227759
21
4.0130082582
31
0.0000000000
11
5.6910666433
21
3.9483034971
31
0.0000000000
11
5.9498856899
21
3.9483034971
31
0.0000000000
11
6.1740295571
21
4.0130082376
31
0.0000000000
0
SPLINE
5
413
100
AcDbEntity
8
0
100
AcDbSpline
62
0
6
CONTINUOUS
70
0
71
3
72
10
73
6
74
4
42
0.0000001000
43
0.0000001000
44
0.0000000001
12
0.4380319847
22
0.4616880295
32
0.0000000000
13
0.5908777974
23
0.2364133769
33
0.0000000000
40
0.0000000000
40
0.0000000000
40
0.0000000000
40
0.0000000000
40
0.3196412839
40
0.6754257752
40
1.0000000000
40
1.0000000000
40
1.0000000000
40
1.0000000000
10
1.7639407829
20
14.5672174015
30
0.0000000000
10
1.8106118182
20
14.6164089197
30
0.0000000000
10
1.9197989745
20
14.7103599494
30
0.0000000000
10
2.0966047080
20
14.8278740427
30
0.0000000000
10
2.2247871561
20
14.8956581728
30
0.0000000000
10
2.2887150571
20
14.9212360690
30
0.0000000000
11
1.7639407829
21
14.5672174015
31
0.0000000000
11
1.9162477373
21
14.7020673575
31
0.0000000000
11
2.1042807909
21
14.8282143019
31
0.0000000000
11
2.2887150571
21
14.9212360690
31
0.0000000000
0
SPLINE
5
414
100
AcDbEntity
8
0
100
AcDbSpline
62
9
6
CONTINUOUS
70
0
71
3
72
10
73
6
74
4
42
0.0000001000
43
0.0000001000
44
0.0000000001
12
0.6488279618
22
-0.3244139809
32
0.0000000000
13
0.6488279618
23
0.3244139809
33
0.0000000000
40
0.0000000000
40
0.0000000000
40
0.0000000000
40
0.0000000000
40
0.3216054138
40
0.6783945862
40
1.0000000000
40
1.0000000000
40
1.0000000000
40
1.0000000000
10
5.4669227759
20
-11.4022439291
30
0.0000000000
10
5.5364783043
20
-11.4370216933
30
0.0000000000
10
5.6989511989
20
-11.4783918426
30
0.0000000000
10
5.9420011341
20
-11.4783918426
30
0.0000000000
10
6.1044740287
20
-11.4370216933
30
0.0000000000
10
6.1740295571
20
-11.4022439291
30
0.0000000000
11
5.4669227759
21
-11.4022439291
31
0.0000000000
11
5.6910666440
21
-11.4669486904
31
0.0000000000
11
5.9498856891
21
-11.4669486904
31
0.0000000000
11
6.1740295571
21
-11.4022439291
31
0.0000000000
0
SPLINE
5
415
100
AcDbEntity
8
0
100
AcDbSpline
62
9
6
CONTINUOUS
70
0
71
3
72
9
73
5
74
3
42
0.0000001000
43
0.0000001000
44
0.0000000001
12
0.0000000000
22
-0.3095003074
32
0.0000000000
13
0.2790959231
23
-0.1480815459
33
0.0000000000
40
0.0000000000
40
0.0000000000
40
0.0000000000
40
0.0000000000
40
0.6415355042
40
1.0000000000
40
1.0000000000
40
1.0000000000
40
1.0000000000
10
5.1133693853
20
-11.6584799357
30
0.0000000000
10
5.1133693853
20
-11.7246650810
30
0.0000000000
10
5.1293185415
20
-11.8341906985
30
0.0000000000
10
5.2106354539
20
-11.9099635788
30
0.0000000000
10
5.2439841137
20
-11.9276575711
30
0.0000000000
11
5.1133693853
21
-11.6584799357
31
0.0000000000
11
5.1607365490
21
-11.8513026856
31
0.0000000000
11
5.2439841137
21
-11.9276575711
31
0.0000000000
0
SPLINE
5
416
100
AcDbEntity
8
0
100
AcDbSpline
62
9
6
CONTINUOUS
70
0
71
3
72
10
73
6
74
4
42
0.0000001000
43
0.0000001000
44
0.0000000001
12
-0.5855045838
22
-0.2326092278
32
0.0000000000
13
-0.2959460762
23
-0.5561821559
33
0.0000000000
40
0.0000000000
40
0.0000000000
40
0.0000000000
40
0.0000000000
40
0.3198857166
40
0.6710171142
40
1.0000000000
40
1.0000000000
40
1.0000000000
40
1.0000000000
10
0.4844857595
20
17.3293182788
30
0.0000000000
10
0.4220542417
20
17.3045154890
30
0.0000000000
10
0.2994081787
20
17.2314933943
30
0.0000000000
10
0.1435279942
20
17.0894621013
30
0.0000000000
10
0.0579057927
20
16.9730839072
30
0.0000000000
10
0.0254520613
20
16.9120924370
30
0.0000000000
11
0.4844857595
21
17.3293182788
31
0.0000000000
11
0.3092206868
21
17.2298295384
31
0.0000000000
11
0.1455114983
21
17.0810438167
31
0.0000000000
11
0.0254520613
21
16.9120924370
31
0.0000000000
0
SPLINE
5
417
100
AcDbEntity
8
0
100
AcDbSpline
62
0
6
CONTINUOUS
70
0
71
3
72
9
73
5
74
3
42
0.0000001000
43
0.0000001000
44
0.0000000001
12
-0.1290631633
22
0.2942551034
32
0.0000000000
13
0.0769934627
23
0.3142816712
33
0.0000000000
40
0.0000000000
40
0.0000000000
40
0.0000000000
40
0.0000000000
40
0.6249157298
40
1.0000000000
40
1.0000000000
40
1.0000000000
40
1.0000000000
10
-1.5165111281
20
16.1945112971
30
0.0000000000
10
-1.5433956618
20
16.2558061780
30
0.0000000000
10
-1.5712771092
20
16.3619310870
30
0.0000000000
10
-1.5631214794
20
16.4709338998
30
0.0000000000
10
-1.5534951338
20
16.5102279369
30
0.0000000000
11
-1.5165111281
21
16.1945112971
31
0.0000000000
11
-1.5641695844
21
16.3895683059
31
0.0000000000
11
-1.5534951338
21
16.5102279369
31
0.0000000000
0
SPLINE
5
418
100
AcDbEntity
8
0
100
AcDbSpline
62
0
6
CONTINUOUS
70
0
71
3
72
9
73
5
74
3
42
0.0000001000
43
0.0000001000
44
0.0000000001
12
0.0501496148
22
0.2047070515
32
0.0000000000
13
0.1686454610
23
0.1239365810
33
0.0000000000
40
0.0000000000
40
0.0000000000
40
0.0000000000
40
0.0000000000
40
0.2670669316
40
1.0000000000
40
1.0000000000
40
1.0000000000
40
1.0000000000
10
-1.5534951338
20
16.5102279369
30
0.0000000000
10
-1.5490306992
20
16.5284514316
30
0.0000000000
10
-1.5270251243
20
16.5954056243
30
0.0000000000
10
-1.4831213469
20
16.6547698155
30
0.0000000000
10
-1.4419194018
20
16.6850488884
30
0.0000000000
11
-1.5534951338
21
16.5102279369
31
0.0000000000
11
-1.5357148927
21
16.5636725783
31
0.0000000000
11
-1.4419194018
21
16.6850488884
31
0.0000000000
0
SPLINE
5
419
100
AcDbEntity
8
0
100
AcDbSpline
62
9
6
CONTINUOUS
70
0
71
3
72
8
73
4
74
2
42
0.0000001000
43
0.0000001000
44
0.0000000001
12
-0.0395704643
22
0.0682489554
32
0.0000000000
13
-0.0307106710
23
0.0731696136
33
0.0000000000
40
0.0000000000
40
0.0000000000
40
0.0000000000
40
0.0000000000
40
1.0000000000
40
1.0000000000
40
1.0000000000
40
1.0000000000
10
-1.5005916453
20
16.1044862570
30
0.0000000000
10
-1.5137818001
20
16.1272359088
30
0.0000000000
10
-1.5255969130
20
16.1509111155
30
0.0000000000
10
-1.5358338033
20
16.1753009867
30
0.0000000000
11
-1.5005916453
21
16.1044862570
31
0.0000000000
11
-1.5358338033
21
16.1753009867
31
0.0000000000
0
SPLINE
5
41A
100
AcDbEntity
8
0
100
AcDbSpline
62
9
6
CONTINUOUS
70
0
71
3
72
9
73
5
74
3
42
0.0000001000
43
0.0000001000
44
0.0000000001
12
-0.1411894489
22
0.3363904825
32
0.0000000000
13
0.1302109975
23
0.3440296299
33
0.0000000000
40
0.0000000000
40
0.0000000000
40
0.0000000000
40
0.0000000000
40
0.4202045864
40
1.0000000000
40
1.0000000000
40
1.0000000000
40
1.0000000000
10
-1.5358338033
20
16.1753009867
30
0.0000000000
10
-1.5556099546
20
16.2224185946
30
0.0000000000
10
-1.5886561097
20
16.3408960525
30
0.0000000000
10
-1.5800484656
20
16.4658677015
30
0.0000000000
10
-1.5548832193
20
16.5323566353
30
0.0000000000
11
-1.5358338033
21
16.1753009867
31
0.0000000000
11
-1.5760273562
21
16.3231348286
31
0.0000000000
11
-1.5548832193
21
16.5323566353
31
0.0000000000
0
SPLINE
5
41B
100
AcDbEntity
8
0
100
AcDbSpline
62
9
6
CONTINUOUS
70
0
71
3
72
8
73
4
74
2
42
0.0000001000
43
0.0000001000
44
0.0000000001
12
0.0681893619
22
0.1801626697
32
0.0000000000
13
0.1531369458
23
0.1123602423
33
0.0000000000
40
0.0000000000
40
0.0000000000
40
0.0000000000
40
0.0000000000
40
1.0000000000
40
1.0000000000
40
1.0000000000
40
1.0000000000
10
-1.5548832193
20
16.5323566353
30
0.0000000000
10
-1.5321534320
20
16.5924108585
30
0.0000000000
10
-1.4929650504
20
16.6475954743
30
0.0000000000
10
-1.4419194018
20
16.6850488884
30
0.0000000000
11
-1.5548832193
21
16.5323566353
31
0.0000000000
11
-1.4419194018
21
16.6850488884
31
0.0000000000
0
SPLINE
5
41C
100
AcDbEntity
8
0
100
AcDbSpline
62
9
6
CONTINUOUS
70
0
71
3
72
9
73
5
74
3
42
0.0000001000
43
0.0000001000
44
0.0000000001
12
-0.2109931099
22
0.1054965549
32
0.0000000000
13
0.0000000000
23
0.2454472409
33
0.0000000000
40
0.0000000000
40
0.0000000000
40
0.0000000000
40
0.0000000000
40
0.7257081148
40
1.0000000000
40
1.0000000000
40
1.0000000000
40
1.0000000000
10
-1.6041450359
20
15.8500767344
30
0.0000000000
10
-1.6551848399
20
15.8755966364
30
0.0000000000
10
-1.7306763617
20
15.9225962873
30
0.0000000000
10
-1.7469259448
20
16.0044120342
30
0.0000000000
10
-1.7469259448
20
16.0268534297
30
0.0000000000
11
-1.6041450359
21
15.8500767344
31
0.0000000000
11
-1.7335545585
21
15.9621486684
31
0.0000000000
11
-1.7469259448
21
16.0268534297
31
0.0000000000
0
SPLINE
5
41D
100
AcDbEntity
8
0
100
AcDbSpline
62
9
6
CONTINUOUS
70
0
71
3
72
9
73
5
74
3
42
0.0000001000
43
0.0000001000
44
0.0000000001
12
-0.2109931098
22
0.1054965549
32
0.0000000000
13
0.0000000000
23
0.2454472410
33
0.0000000000
40
0.0000000000
40
0.0000000000
40
0.0000000000
40
0.0000000000
40
0.7257081113
40
1.0000000000
40
1.0000000000
40
1.0000000000
40
1.0000000000
10
-11.5036399725
20
12.4982896325
30
0.0000000000
10
-11.5546797763
20
12.5238095344
30
0.0000000000
10
-11.6301712980
20
12.5708091850
30
0.0000000000
10
-11.6464208812
20
12.6526249320
30
0.0000000000
10
-11.6464208812
20
12.6750663277
30
0.0000000000
11
-11.5036399725
21
12.4982896325
31
0.0000000000
11
-11.6330494946
21
12.6103615656
31
0.0000000000
11
-11.6464208812
21
12.6750663277
31
0.0000000000
0
SPLINE
5
41E
100
AcDbEntity
8
0
100
AcDbSpline
62
9
6
CONTINUOUS
70
0
71
3
72
9
73
5
74
3
42
0.0000001000
43
0.0000001000
44
0.0000000001
12
-0.2109931098
22
0.1054965549
32
0.0000000000
13
0.0000000000
23
0.2454472412
33
0.0000000000
40
0.0000000000
40
0.0000000000
40
0.0000000000
40
0.0000000000
40
0.7257081078
40
1.0000000000
40
1.0000000000
40
1.0000000000
40
1.0000000000
10
-11.5036399725
20
-3.0901676356
30
0.0000000000
10
-11.5546797760
20
-3.0646477339
30
0.0000000000
10
-11.6301712978
20
-3.0176480835
30
0.0000000000
10
-11.6464208811
20
-2.9358323364
30
0.0000000000
10
-11.6464208811
20
-2.9133909403
30
0.0000000000
11
-11.5036399725
21
-3.0901676356
31
0.0000000000
11
-11.6330494942
21
-2.9780957032
31
0.0000000000
11
-11.6464208811
21
-2.9133909403
31
0.0000000000
0
SPLINE
5
41F
100
AcDbEntity
8
0
100
AcDbSpline
62
9
6
CONTINUOUS
70
0
71
3
72
9
73
5
74
3
42
0.0000001000
43
0.0000001000
44
0.0000000001
12
0.0000000000
22
-0.3095003086
32
0.0000000000
13
0.2790959231
23
-0.1480815427
33
0.0000000000
40
0.0000000000
40
0.0000000000
40
0.0000000000
40
0.0000000000
40
0.6415355547
40
1.0000000000
40
1.0000000000
40
1.0000000000
40
1.0000000000
10
-11.2915079382
20
-3.4560412740
30
0.0000000000
10
-11.2915079382
20
-3.5222264247
30
0.0000000000
10
-11.2755587788
20
-3.6317520443
30
0.0000000000
10
-11.1942418655
20
-3.7075249210
30
0.0000000000
10
-11.1608932104
20
-3.7252189103
30
0.0000000000
11
-11.2915079382
21
-3.4560412740
31
0.0000000000
11
-11.2441407654
21
-3.6488640385
31
0.0000000000
11
-11.1608932104
21
-3.7252189103
31
0.0000000000
0
SPLINE
5
420
100
AcDbEntity
8
0
100
AcDbSpline
62
9
6
CONTINUOUS
70
0
71
3
72
14
73
10
74
8
42
0.0000001000
43
0.0000001000
44
0.0000000001
12
0.6579367356
22
-0.3289683678
32
0.0000000000
13
0.0000000001
23
-0.7355956329
33
0.0000000000
40
0.0000000000
40
0.0000000000
40
0.0000000000
40
0.0000000000
40
0.0895604218
40
0.1959876504
40
0.3218157842
40
0.4685193944
40
0.6348315585
40
0.8152402200
40
1.0000000000
40
1.0000000000
40
1.0000000000
40
1.0000000000
10
-4.5739935169
20
13.0128089455
30
0.0000000000
10
-4.5543518197
20
13.0029880969
30
0.0000000000
10
-4.5130780648
20
12.9779827083
30
0.0000000000
10
-4.4518736286
20
12.9277996365
30
0.0000000000
10
-4.3885438015
20
12.8594034638
30
0.0000000000
10
-4.3266766333
20
12.7709489322
30
0.0000000000
10
-4.2718753768
20
12.6625672806
30
0.0000000000
10
-4.2317397987
20
12.5380140866
30
0.0000000000
10
-4.2204401263
20
12.4483223774
30
0.0000000000
10
-4.2204401263
20
12.4030195483
30
0.0000000000
11
-4.5739935169
21
13.0128089455
31
0.0000000000
11
-4.5174653725
21
12.9789743936
31
0.0000000000
11
-4.4566884464
21
12.9296278337
31
0.0000000000
11
-4.3935508773
21
12.8619466208
31
0.0000000000
11
-4.3314978244
21
12.7736575191
31
0.0000000000
11
-4.2762767142
21
12.6644909585
31
0.0000000000
11
-4.2360411336
21
12.5380296423
31
0.0000000000
11
-4.2204401263
21
12.4030195483
31
0.0000000000
0
SPLINE
5
421
100
AcDbEntity
8
0
100
AcDbSpline
62
0
6
CONTINUOUS
70
0
71
3
72
10
73
6
74
4
42
0.0000001000
43
0.0000001000
44
0.0000000001
12
-0.5314006208
22
-0.2712641825
32
0.0000000000
13
0.1526032634
23
-0.5767868935
33
0.0000000000
40
0.0000000000
40
0.0000000000
40
0.0000000000
40
0.0000000000
40
0.2952158304
40
0.6293214626
40
1.0000000000
40
1.0000000000
40
1.0000000000
40
1.0000000000
10
-7.6183254725
20
19.8747563338
30
0.0000000000
10
-7.6706180977
20
19.8480625068
30
0.0000000000
10
-7.7643617541
20
19.7535483488
30
0.0000000000
10
-7.8187424159
20
19.5562466494
30
0.0000000000
10
-7.8051087813
20
19.4135566935
30
0.0000000000
10
-7.7862531965
20
19.3422891862
30
0.0000000000
11
-7.6183254725
21
19.8747563338
31
0.0000000000
11
-7.7454708081
21
19.7528638604
31
0.0000000000
11
-7.8050766812
21
19.5626456986
31
0.0000000000
11
-7.7862531965
21
19.3422891862
31
0.0000000000
0
SPLINE
5
422
100
AcDbEntity
8
0
100
AcDbSpline
62
9
6
CONTINUOUS
70
0
71
3
72
10
73
6
74
4
42
0.0000001000
43
0.0000001000
44
0.0000000001
12
-0.0466449334
22
0.6038393425
32
0.0000000000
13
0.5311322235
23
0.2910262230
33
0.0000000000
40
0.0000000000
40
0.0000000000
40
0.0000000000
40
0.0000000000
40
0.3650589419
40
0.7062435264
40
1.0000000000
40
1.0000000000
40
1.0000000000
40
1.0000000000
10
-5.5474716795
20
19.6985543476
30
0.0000000000
10
-5.5531477295
20
19.7720333315
30
0.0000000000
10
-5.5421597602
20
19.9168478758
30
0.0000000000
10
-5.4660955938
20
20.1072831333
30
0.0000000000
10
-5.3724893540
20
20.2032000176
30
0.0000000000
10
-5.3204815110
20
20.2316969632
30
0.0000000000
11
-5.5474716795
21
19.6985543476
31
0.0000000000
11
-5.5303708741
21
19.9189856746
31
0.0000000000
11
-5.4494050598
21
20.1090970310
31
0.0000000000
11
-5.3204815110
21
20.2316969632
31
0.0000000000
0
SPLINE
5
423
100
AcDbEntity
8
0
100
AcDbSpline
62
9
6
CONTINUOUS
70
0
71
3
72
10
73
6
74
4
42
0.0000001000
43
0.0000001000
44
0.0000000001
12
0.5468132923
22
0.3410021150
32
0.0000000000
13
0.6247723308
23
0.1579454135
33
0.0000000000
40
0.0000000000
40
0.0000000000
40
0.0000000000
40
0.0000000000
40
0.3123488605
40
0.6702106581
40
1.0000000000
40
1.0000000000
40
1.0000000000
40
1.0000000000
10
-5.2023558084
20
19.4021968280
30
0.0000000000
10
-5.1454236388
20
19.4377007020
30
0.0000000000
10
-5.0171866131
20
19.5040236453
30
0.0000000000
10
-4.8188264208
20
19.5866976324
30
0.0000000000
10
-4.6780397233
20
19.6324977200
30
0.0000000000
10
-4.6093586381
20
19.6498606246
30
0.0000000000
11
-5.2023558084
21
19.4021968280
31
0.0000000000
11
-5.0248728286
21
19.4971492631
31
0.0000000000
11
-4.8120706279
21
19.5860256299
31
0.0000000000
11
-4.6093586381
21
19.6498606246
31
0.0000000000
0
SPLINE
5
424
100
AcDbEntity
8
0
100
AcDbSpline
62
9
6
CONTINUOUS
70
0
71
3
72
10
73
6
74
4
42
0.0000001000
43
0.0000001000
44
0.0000000001
12
0.5253467020
22
0.3276141572
32
0.0000000000
13
0.5999890776
23
0.1527524144
33
0.0000000000
40
0.0000000000
40
0.0000000000
40
0.0000000000
40
0.0000000000
40
0.3092264894
40
0.6647814055
40
1.0000000000
40
1.0000000000
40
1.0000000000
40
1.0000000000
10
-4.5254115328
20
17.7326312255
30
0.0000000000
10
-4.4712611607
20
17.7664002174
30
0.0000000000
10
-4.3492485243
20
17.8298858776
30
0.0000000000
10
-4.1592950387
20
17.9108352035
30
0.0000000000
10
-4.0233870562
20
17.9550061825
30
0.0000000000
10
-3.9563445577
20
17.9720746658
30
0.0000000000
11
-4.5254115328
21
17.7326312255
31
0.0000000000
11
-4.3568287548
21
17.8233688445
31
0.0000000000
11
-4.1541886971
21
17.9093692915
31
0.0000000000
11
-3.9563445577
21
17.9720746658
31
0.0000000000
0
SPLINE
5
425
100
AcDbEntity
8
0
100
AcDbSpline
62
0
6
CONTINUOUS
70
0
71
3
72
9
73
5
74
3
42
0.0000001000
43
0.0000001000
44
0.0000000001
12
0.0241112911
22
0.0082911328
32
0.0000000000
13
0.0240722087
23
0.0084039282
33
0.0000000000
40
0.0000000000
40
0.0000000000
40
0.0000000000
40
0.0000000000
40
0.5088039898
40
1.0000000000
40
1.0000000000
40
1.0000000000
40
1.0000000000
10
-3.9563445577
20
17.9720746658
30
0.0000000000
10
-3.9522552507
20
17.9734808529
30
0.0000000000
10
-3.9432904489
20
17.9732437760
30
0.0000000000
10
-3.9363279067
20
17.9788503509
30
0.0000000000
10
-3.9323865158
20
17.9802263429
30
0.0000000000
11
-3.9563445577
21
17.9720746658
31
0.0000000000
11
-3.9436509448
21
17.9747524149
31
0.0000000000
11
-3.9323865158
21
17.9802263429
31
0.0000000000
0
SPLINE
5
426
100
AcDbEntity
8
0
100
AcDbSpline
62
9
6
CONTINUOUS
70
0
71
3
72
10
73
6
74
4
42
0.0000001000
43
0.0000001000
44
0.0000000001
12
0.5481997280
22
0.3973049413
32
0.0000000000
13
0.6032819345
23
0.3072866181
33
0.0000000000
40
0.0000000000
40
0.0000000000
40
0.0000000000
40
0.0000000000
40
0.2913206239
40
0.6544029626
40
1.0000000000
40
1.0000000000
40
1.0000000000
40
1.0000000000
10
-4.5361255513
20
17.6222532099
30
0.0000000000
10
-4.4828915890
20
17.6608342511
30
0.0000000000
10
-4.3588384387
20
17.7412270747
30
0.0000000000
10
-4.1649392566
20
17.8566892720
30
0.0000000000
10
-4.0245507249
20
17.9334676177
30
0.0000000000
10
-3.9550532418
20
17.9688667326
30
0.0000000000
11
-4.5361255513
21
17.6222532099
31
0.0000000000
11
-4.3718802458
21
17.7314532230
31
0.0000000000
11
-4.1607676572
21
17.8573832955
31
0.0000000000
11
-3.9550532418
21
17.9688667326
31
0.0000000000
0
SPLINE
5
427
100
AcDbEntity
8
0
100
AcDbSpline
62
0
6
CONTINUOUS
70
0
71
3
72
10
73
6
74
4
42
0.0000001000
43
0.0000001000
44
0.0000000001
12
0.5303387722
22
0.3233773946
32
0.0000000000
13
0.5884145225
23
0.1989987498
33
0.0000000000
40
0.0000000000
40
0.0000000000
40
0.0000000000
40
0.0000000000
40
0.3098553533
40
0.6661490970
40
1.0000000000
40
1.0000000000
40
1.0000000000
40
1.0000000000
10
-4.5102022489
20
17.6913471166
30
0.0000000000
10
-4.4554261464
20
17.7247471889
30
0.0000000000
10
-4.3349527390
20
17.7922515827
30
0.0000000000
10
-4.1491883526
20
17.8831764440
30
0.0000000000
10
-4.0205341484
20
17.9467214285
30
0.0000000000
10
-3.9550532418
20
17.9688667326
30
0.0000000000
11
-4.5102022489
21
17.6913471166
31
0.0000000000
11
-4.3426429224
21
17.7860453120
31
0.0000000000
11
-4.1448993610
21
17.8854285904
31
0.0000000000
11
-3.9550532418
21
17.9688667326
31
0.0000000000
0
SPLINE
5
428
100
AcDbEntity
8
0
100
AcDbSpline
62
9
6
CONTINUOUS
70
0
71
3
72
11
73
7
74
5
42
0.0000001000
43
0.0000001000
44
0.0000000001
12
0.2902985421
22
-0.1451492710
32
0.0000000000
13
0.1748362347
23
-0.2734480672
33
0.0000000000
40
0.0000000000
40
0.0000000000
40
0.0000000000
40
0.0000000000
40
0.1951672506
40
0.4245076146
40
0.6920818268
40
1.0000000000
40
1.0000000000
40
1.0000000000
40
1.0000000000
10
-0.4411155729
20
10.9463699735
30
0.0000000000
10
-0.4222299835
20
10.9369271788
30
0.0000000000
10
-0.3827230046
20
10.9131585237
30
0.0000000000
10
-0.3242682498
20
10.8660298690
30
0.0000000000
10
-0.2640579001
20
10.8028016633
30
0.0000000000
10
-0.2271870310
20
10.7523691391
30
0.0000000000
10
-0.2092419463
20
10.7243025960
30
0.0000000000
11
-0.4411155729
21
10.9463699735
31
0.0000000000
11
-0.3866752899
21
10.9139856820
31
0.0000000000
11
-0.3285191163
21
10.8675259201
31
0.0000000000
11
-0.2684125424
21
10.8048423545
31
0.0000000000
11
-0.2092419463
21
10.7243025960
31
0.0000000000
0
SPLINE
5
429
100
AcDbEntity
8
0
100
AcDbSpline
62
9
6
CONTINUOUS
70
0
71
3
72
10
73
6
74
4
42
0.0000001000
43
0.0000001000
44
0.0000000001
12
1.6216737094
22
-2.5363365999
32
0.0000000000
13
0.6819228653
23
-2.9322022737
33
0.0000000000
40
0.0000000000
40
0.0000000000
40
0.0000000000
40
0.0000000000
40
0.3360265910
40
0.6715679170
40
1.0000000000
40
1.0000000000
40
1.0000000000
40
1.0000000000
10
-0.2092419463
20
10.7243025960
30
0.0000000000
10
-0.0276001169
20
10.4402104156
30
0.0000000000
10
0.3035625147
20
9.8513627132
30
0.0000000000
10
0.6971374737
20
8.9263036795
30
0.0000000000
10
0.8879906453
20
8.2860392507
30
0.0000000000
10
0.9626457610
20
7.9650294839
30
0.0000000000
11
-0.2092419463
21
10.7243025960
31
0.0000000000
11
0.2870650676
21
9.8428274468
31
0.0000000000
11
0.6819386740
21
8.9130745469
31
0.0000000000
11
0.9626457610
21
7.9650294839
31
0.0000000000
0
SPLINE
5
42A
100
AcDbEntity
8
0
100
AcDbSpline
62
9
6
CONTINUOUS
70
0
71
3
72
13
73
9
74
7
42
0.0000001000
43
0.0000001000
44
0.0000000001
12
0.1035488059
22
-0.4452498349
32
0.0000000000
13
-0.4088236014
23
-0.2055114493
33
0.0000000000
40
0.0000000000
40
0.0000000000
40
0.0000000000
40
0.0000000000
40
0.1572862116
40
0.3223780947
40
0.4920602870
40
0.6627183761
40
0.8331015164
40
1.0000000000
40
1.0000000000
40
1.0000000000
40
1.0000000000
10
0.9626457610
20
7.9650294839
30
0.0000000000
10
0.9680746941
20
7.9416855973
30
0.0000000000
10
0.9768208973
20
7.8932407132
30
0.0000000000
10
0.9815169430
20
7.8182089236
30
0.0000000000
10
0.9751537283
20
7.7411093776
30
0.0000000000
10
0.9540259729
20
7.6655564945
30
0.0000000000
10
0.9141366353
20
7.5978693723
30
0.0000000000
10
0.8726611767
20
7.5647556461
30
0.0000000000
10
0.8499171636
20
7.5533224630
30
0.0000000000
11
0.9626457610
21
7.9650294839
31
0.0000000000
11
0.9752595483
21
7.8942439941
31
0.0000000000
11
0.9796711729
21
7.8189042463
31
0.0000000000
11
0.9727314042
21
7.7416481336
31
0.0000000000
11
0.9508409293
21
7.6667690242
31
0.0000000000
11
0.9100381086
21
7.6004244021
31
0.0000000000
11
0.8499171636
21
7.5533224630
31
0.0000000000
0
SPLINE
5
42B
100
AcDbEntity
8
0
100
AcDbSpline
62
9
6
CONTINUOUS
70
0
71
3
72
10
73
6
74
4
42
0.0000001000
43
0.0000001000
44
0.0000000001
12
0.6488279620
22
-0.3244139810
32
0.0000000000
13
0.6488279620
23
0.3244139810
33
0.0000000000
40
0.0000000000
40
0.0000000000
40
0.0000000000
40
0.0000000000
40
0.3216053791
40
0.6783946208
40
1.0000000000
40
1.0000000000
40
1.0000000000
40
1.0000000000
10
-4.4325721607
20
17.2642902968
30
0.0000000000
10
-4.3630166398
20
17.2295125363
30
0.0000000000
10
-4.2005437385
20
17.1881423821
30
0.0000000000
10
-3.9574938016
20
17.1881423820
30
0.0000000000
10
-3.7950209004
20
17.2295125365
30
0.0000000000
10
-3.7254653795
20
17.2642902969
30
0.0000000000
11
-4.4325721607
21
17.2642902968
31
0.0000000000
11
-4.2084283178
21
17.1995855389
31
0.0000000000
11
-3.9496092224
21
17.1995855389
31
0.0000000000
11
-3.7254653795
21
17.2642902969
31
0.0000000000
0
SPLINE
5
42C
100
AcDbEntity
8
0
100
AcDbSpline
62
0
6
CONTINUOUS
70
0
71
3
72
9
73
5
74
3
42
0.0000001000
43
0.0000001000
44
0.0000000001
12
0.0000000000
22
-0.6201662296
32
0.0000000000
13
-0.5599808860
23
-0.2950503009
33
0.0000000000
40
0.0000000000
40
0.0000000000
40
0.0000000000
40
0.0000000000
40
0.6403297784
40
1.0000000000
40
1.0000000000
40
1.0000000000
40
1.0000000000
10
6.5275829477
20
-11.2254672338
30
0.0000000000
10
6.5275829477
20
-11.3578375353
30
0.0000000000
10
6.4956245626
20
-11.5773012601
30
0.0000000000
10
6.3324378419
20
-11.7290050266
30
0.0000000000
10
6.2653016921
20
-11.7643786290
30
0.0000000000
11
6.5275829477
21
-11.2254672338
31
0.0000000000
11
6.4328486022
21
-11.6111127630
31
0.0000000000
11
6.2653016921
21
-11.7643786290
31
0.0000000000
0
SPLINE
5
42D
100
AcDbEntity
8
0
100
AcDbSpline
62
9
6
CONTINUOUS
70
0
71
3
72
13
73
9
74
7
42
0.0000001000
43
0.0000001000
44
0.0000000001
12
0.3131262341
22
-0.4619618042
32
0.0000000000
13
-0.1618525776
23
-0.5340978282
33
0.0000000000
40
0.0000000000
40
0.0000000000
40
0.0000000000
40
0.0000000000
40
0.1363849276
40
0.2880877674
40
0.4538886438
40
0.6308475035
40
0.8147765770
40
1.0000000000
40
1.0000000000
40
1.0000000000
40
1.0000000000
10
0.8463856779
20
5.5192219906
30
0.0000000000
10
0.8606209108
20
5.4982204482
30
0.0000000000
10
0.8885544538
20
5.4523743115
30
0.0000000000
10
0.9252493070
20
5.3761683331
30
0.0000000000
10
0.9559581973
20
5.2892437709
30
0.0000000000
10
0.9767475239
20
5.1931575304
30
0.0000000000
10
0.9827430668
20
5.0913109222
30
0.0000000000
10
0.9726387238
20
5.0225039255
30
0.0000000000
10
0.9626457610
20
4.9895281162
30
0.0000000000
11
0.8463856779
21
5.5192219906
31
0.0000000000
11
0.8860286170
21
5.4542466327
31
0.0000000000
11
0.9227512119
21
5.3779626944
31
0.0000000000
11
0.9534499502
21
5.2906728792
31
0.0000000000
11
0.9740000327
21
5.1940768798
31
0.0000000000
11
0.9792143515
21
5.0915616967
31
0.0000000000
11
0.9626457610
21
4.9895281162
31
0.0000000000
0
SPLINE
5
42E
100
AcDbEntity
8
0
100
AcDbSpline
62
9
6
CONTINUOUS
70
0
71
3
72
10
73
6
74
4
42
0.0000001000
43
0.0000001000
44
0.0000000001
12
-0.4642082291
22
-1.5318421950
32
0.0000000000
13
-1.2224089408
23
-1.0450313143
33
0.0000000000
40
0.0000000000
40
0.0000000000
40
0.0000000000
40
0.0000000000
40
0.4523072930
40
0.8676714921
40
1.0000000000
40
1.0000000000
40
1.0000000000
40
1.0000000000
10
0.9626457610
20
4.9895281162
30
0.0000000000
10
0.8926575052
20
4.7585736507
30
0.0000000000
10
0.7158510201
20
4.3260986083
30
0.0000000000
10
0.4001662029
20
3.8891642532
30
0.0000000000
10
0.1859662722
20
3.6877800469
30
0.0000000000
10
0.1320464218
20
3.6416842354
30
0.0000000000
11
0.9626457610
21
4.9895281162
31
0.0000000000
11
0.6819357973
21
4.3221850214
31
0.0000000000
11
0.2870613149
21
3.7873069723
31
0.0000000000
11
0.1320464218
21
3.6416842354
31
0.0000000000
0
SPLINE
5
42F
100
AcDbEntity
8
0
100
AcDbSpline
62
9
6
CONTINUOUS
70
0
71
3
72
8
73
4
74
2
42
0.0000001000
43
0.0000001000
44
0.0000000001
12
-0.1595143295
22
-0.1363680057
32
0.0000000000
13
-0.1714543406
23
-0.1204282327
33
0.0000000000
40
0.0000000000
40
0.0000000000
40
0.0000000000
40
0.0000000000
40
1.0000000000
40
1.0000000000
40
1.0000000000
40
1.0000000000
10
0.1320464218
20
3.6416842354
30
0.0000000000
10
0.0788749787
20
3.5962282335
30
0.0000000000
10
0.0235964488
20
3.5532624376
30
0.0000000000
10
-0.0335549981
20
3.5131196934
30
0.0000000000
11
0.1320464218
21
3.6416842354
31
0.0000000000
11
-0.0335549981
21
3.5131196934
31
0.0000000000
0
SPLINE
5
430
100
AcDbEntity
8
0
100
AcDbSpline
62
9
6
CONTINUOUS
70
0
71
3
72
8
73
4
74
2
42
0.0000001000
43
0.0000001000
44
0.0000000001
12
-0.0646985899
22
-0.0454438004
32
0.0000000000
13
-0.0662609986
23
-0.0429782272
33
0.0000000000
40
0.0000000000
40
0.0000000000
40
0.0000000000
40
0.0000000000
40
1.0000000000
40
1.0000000000
40
1.0000000000
40
1.0000000000
10
-0.0335549981
20
3.5131196934
30
0.0000000000
10
-0.0551211947
20
3.4979717599
30
0.0000000000
10
-0.0769540841
20
3.4832258130
30
0.0000000000
10
-0.0990410836
20
3.4688997372
30
0.0000000000
11
-0.0335549981
21
3.5131196934
31
0.0000000000
11
-0.0990410836
21
3.4688997372
31
0.0000000000
0
SPLINE
5
431
100
AcDbEntity
8
0
100
AcDbSpline
62
9
6
CONTINUOUS
70
0
71
3
72
8
73
4
74
2
42
0.0000001000
43
0.0000001000
44
0.0000000001
12
-0.1082221123
22
-0.0701950564
32
0.0000000000
13
-0.1121247925
23
-0.0632410738
33
0.0000000000
40
0.0000000000
40
0.0000000000
40
0.0000000000
40
0.0000000000
40
1.0000000000
40
1.0000000000
40
1.0000000000
40
1.0000000000
10
-0.0990410836
20
3.4688997372
30
0.0000000000
10
-0.1351151210
20
3.4455013851
30
0.0000000000
10
-0.1718670155
20
3.4232230694
30
0.0000000000
10
-0.2092419463
20
3.4021427115
30
0.0000000000
11
-0.0990410836
21
3.4688997372
31
0.0000000000
11
-0.2092419463
21
3.4021427115
31
0.0000000000
0
SPLINE
5
432
100
AcDbEntity
8
0
100
AcDbSpline
62
0
6
CONTINUOUS
70
0
71
3
72
10
73
6
74
4
42
0.0000001000
43
0.0000001000
44
0.0000000001
12
0.9560240461
22
-0.0709322157
32
0.0000000000
13
0.4808463045
23
-0.8293371976
33
0.0000000000
40
0.0000000000
40
0.0000000000
40
0.0000000000
40
0.0000000000
40
0.2841046902
40
0.6226670235
40
1.0000000000
40
1.0000000000
40
1.0000000000
40
1.0000000000
10
-0.4762008618
20
22.6542704913
30
0.0000000000
10
-0.3856638900
20
22.6475530996
30
0.0000000000
10
-0.1916263450
20
22.5777595624
30
0.0000000000
10
0.0581593423
20
22.3730240834
30
0.0000000000
10
0.1955245741
20
22.1868541830
30
0.0000000000
10
0.2560042965
20
22.0825420919
30
0.0000000000
11
-0.4762008618
21
22.6542704913
31
0.0000000000
11
-0.2166125384
21
22.5718538553
31
0.0000000000
11
0.0392033423
21
22.3721049156
31
0.0000000000
11
0.2560042965
21
22.0825420919
31
0.0000000000
0
SPLINE
5
433
100
AcDbEntity
8
0
100
AcDbSpline
62
9
6
CONTINUOUS
70
0
71
3
72
14
73
10
74
8
42
0.0000001000
43
0.0000001000
44
0.0000000001
12
-0.4218880845
22
0.8612265277
32
0.0000000000
13
-0.9577963677
23
0.0482369765
33
0.0000000000
40
0.0000000000
40
0.0000000000
40
0.0000000000
40
0.0000000000
40
0.1662772200
40
0.3254941072
40
0.4773077512
40
0.6206152124
40
0.7550277292
40
0.8809959369
40
1.0000000000
40
1.0000000000
40
1.0000000000
40
1.0000000000
10
-4.6098257736
20
19.6507996126
30
0.0000000000
10
-4.6332092328
20
19.6985337302
30
0.0000000000
10
-4.6841968015
20
19.7895353066
30
0.0000000000
10
-4.7736794387
20
19.9135374874
30
0.0000000000
10
-4.8727218234
20
20.0203187595
30
0.0000000000
10
-4.9791555350
20
20.1077987204
30
0.0000000000
10
-5.0906013371
20
20.1739951995
30
0.0000000000
10
-5.2045905929
20
20.2172685994
30
0.0000000000
10
-5.2825355135
20
20.2301661935
30
0.0000000000
10
-5.3205293999
20
20.2320796589
30
0.0000000000
11
-4.6098257736
21
19.6507996126
31
0.0000000000
11
-4.6879212856
21
19.7898286756
31
0.0000000000
11
-4.7775547570
21
19.9134420610
31
0.0000000000
11
-4.8769030391
21
20.0198686196
31
0.0000000000
11
-4.9834508741
21
20.1066757509
31
0.0000000000
11
-5.0946248093
21
20.1719163459
31
0.0000000000
11
-5.2078308583
21
20.2140849501
31
0.0000000000
11
-5.3205293999
21
20.2320796589
31
0.0000000000
0
SPLINE
5
434
100
AcDbEntity
8
0
100
AcDbSpline
62
0
6
CONTINUOUS
70
0
71
3
72
10
73
6
74
4
42
0.0000001000
43
0.0000001000
44
0.0000000001
12
0.3774915091
22
-0.6510765442
32
0.0000000000
13
0.0000000000
23
-0.7525958450
33
0.0000000000
40
0.0000000000
40
0.0000000000
40
0.0000000000
40
0.0000000000
40
0.3467703055
40
0.6845363157
40
1.0000000000
40
1.0000000000
40
1.0000000000
40
1.0000000000
10
1.1585966639
20
20.5258005353
30
0.0000000000
10
1.2022309458
20
20.4505425313
30
0.0000000000
10
1.2766139965
20
20.2947826706
30
0.0000000000
10
1.3475718522
20
20.0531285812
30
0.0000000000
10
1.3657034451
20
19.8890135951
30
0.0000000000
10
1.3657034451
20
19.8098747091
30
0.0000000000
11
1.1585966639
21
20.5258005353
31
0.0000000000
11
1.2709690996
21
20.2902545837
31
0.0000000000
11
1.3416093658
21
20.0460656167
31
0.0000000000
11
1.3657034451
21
19.8098747091
31
0.0000000000
0
SPLINE
5
435
100
AcDbEntity
8
0
100
AcDbSpline
62
9
6
CONTINUOUS
70
0
71
3
72
11
73
7
74
5
42
0.0000001000
43
0.0000001000
44
0.0000000001
12
-0.0000000000
22
0.7529844464
32
0.0000000000
13
-0.3776719692
23
0.6514211082
33
0.0000000000
40
0.0000000000
40
0.0000000000
40
0.0000000000
40
0.0000000000
40
0.2681959667
40
0.5277999331
40
0.7710022997
40
1.0000000000
40
1.0000000000
40
1.0000000000
40
1.0000000000
10
-3.7254653795
20
17.2642902968
30
0.0000000000
10
-3.7254653795
20
17.3316060940
30
0.0000000000
10
-3.7379656638
20
17.4642479746
30
0.0000000000
10
-3.7842689514
20
17.6526728419
30
0.0000000000
10
-3.8496990836
20
17.8247257798
30
0.0000000000
10
-3.9037434899
20
17.9304914778
30
0.0000000000
10
-3.9325721607
20
17.9802161231
30
0.0000000000
11
-3.7254653795
21
17.2642902968
31
0.0000000000
11
-3.7431259941
21
17.4654639820
31
0.0000000000
11
-3.7891883813
21
17.6554371559
31
0.0000000000
11
-3.8541059774
21
17.8266721504
31
0.0000000000
11
-3.9325721607
21
17.9802161231
31
0.0000000000
0
SPLINE
5
436
100
AcDbEntity
8
0
100
AcDbSpline
62
0
6
CONTINUOUS
70
0
71
3
72
10
73
6
74
4
42
0.0000001000
43
0.0000001000
44
0.0000000001
12
0.0641807768
22
-0.0320903884
32
0.0000000000
13
0.0612652411
23
0.0373568652
33
0.0000000000
40
0.0000000000
40
0.0000000000
40
0.0000000000
40
0.0000000000
40
0.3611732465
40
0.6901892109
40
1.0000000000
40
1.0000000000
40
1.0000000000
40
1.0000000000
10
-4.5790187701
20
17.6962330691
30
0.0000000000
10
-4.5712919769
20
17.6923696725
30
0.0000000000
10
-4.5559215872
20
17.6860615487
30
0.0000000000
10
-4.5317760096
20
17.6827795738
30
0.0000000000
10
-4.5165291265
20
17.6874892633
30
0.0000000000
10
-4.5102022489
20
17.6913471166
30
0.0000000000
11
-4.5790187701
21
17.6962330691
31
0.0000000000
11
-4.5548509312
21
17.6868747542
31
0.0000000000
11
-4.5313594942
21
17.6845219661
31
0.0000000000
11
-4.5102022489
21
17.6913471166
31
0.0000000000
0
SPLINE
5
437
100
AcDbEntity
8
0
100
AcDbSpline
62
0
6
CONTINUOUS
70
0
71
3
72
10
73
6
74
4
42
0.0000001000
43
0.0000001000
44
0.0000000001
12
0.0294905506
22
-0.1114639536
32
0.0000000000
13
0.1031267396
23
-0.0515633698
33
0.0000000000
40
0.0000000000
40
0.0000000000
40
0.0000000000
40
0.0000000000
40
0.3445993936
40
0.6749311671
40
1.0000000000
40
1.0000000000
40
1.0000000000
40
1.0000000000
10
-7.7862531965
20
19.3422891862
30
0.0000000000
10
-7.7828657212
20
19.3294857159
30
0.0000000000
10
-7.7704782599
20
19.3057091787
30
0.0000000000
10
-7.7417779392
20
19.2795159216
30
0.0000000000
10
-7.7199487878
20
19.2666980779
30
0.0000000000
10
-7.7087743581
20
19.2611108631
30
0.0000000000
11
-7.7862531965
21
19.3422891862
31
0.0000000000
11
-7.7683959856
21
19.3067961646
31
0.0000000000
11
-7.7408599852
21
19.2804829088
31
0.0000000000
11
-7.7087743581
21
19.2611108631
31
0.0000000000
0
SPLINE
5
438
100
AcDbEntity
8
0
100
AcDbSpline
62
9
6
CONTINUOUS
70
0
71
3
72
9
73
5
74
3
42
0.0000001000
43
0.0000001000
44
0.0000000001
12
-2.2759653641
22
0.0648451062
32
0.0000000000
13
-2.1436861536
23
-0.7673544823
33
0.0000000000
40
0.0000000000
40
0.0000000000
40
0.0000000000
40
0.0000000000
40
0.5026304382
40
1.0000000000
40
1.0000000000
40
1.0000000000
40
1.0000000000
10
-5.5474717901
20
19.6985543263
30
0.0000000000
10
-5.9287949462
20
19.7094187011
30
0.0000000000
10
-6.6912764263
20
19.6606095057
30
0.0000000000
10
-7.4308517822
20
19.4695087737
30
0.0000000000
10
-7.7862531965
20
19.3422891862
30
0.0000000000
11
-5.5474717901
21
19.6985543263
31
0.0000000000
11
-6.6895008044
21
19.6244045687
31
0.0000000000
11
-7.7862531965
21
19.3422891862
31
0.0000000000
0
SPLINE
5
439
100
AcDbEntity
8
0
100
AcDbSpline
62
9
6
CONTINUOUS
70
0
71
3
72
14
73
10
74
8
42
0.0000001000
43
0.0000001000
44
0.0000000001
12
-0.1802914110
22
0.4446480485
32
0.0000000000
13
-0.4796171874
23
0.0135732636
33
0.0000000000
40
0.0000000000
40
0.0000000000
40
0.0000000000
40
0.0000000000
40
0.1670365440
40
0.3249847462
40
0.4750767237
40
0.6168470049
40
0.7506191604
40
0.8775915023
40
1.0000000000
40
1.0000000000
40
1.0000000000
40
1.0000000000
10
-5.2023558084
20
19.4021968280
30
0.0000000000
10
-5.2123942264
20
19.4269543191
30
0.0000000000
10
-5.2348090869
20
19.4740237205
30
0.0000000000
10
-5.2760134688
20
19.5381100126
30
0.0000000000
10
-5.3229648018
20
19.5929462297
30
0.0000000000
10
-5.3747370108
20
19.6375884042
30
0.0000000000
10
-5.4301754701
20
19.6709976746
30
0.0000000000
10
-5.4880448907
20
19.6923030578
30
0.0000000000
10
-5.5279020503
20
19.6980004987
30
0.0000000000
10
-5.5474717901
20
19.6985543263
30
0.0000000000
11
-5.2023558084
21
19.4021968280
31
0.0000000000
11
-5.2369606952
21
19.4744867348
31
0.0000000000
11
-5.2781241523
21
19.5381179881
31
0.0000000000
11
-5.3251652726
21
19.5926465785
31
0.0000000000
11
-5.3768838682
21
19.6368311098
31
0.0000000000
11
-5.4320251037
21
19.6696818756
31
0.0000000000
11
-5.4893024268
21
19.6904390232
31
0.0000000000
11
-5.5474717901
21
19.6985543263
31
0.0000000000
0
SPLINE
5
43A
100
AcDbEntity
8
0
100
AcDbSpline
62
9
6
CONTINUOUS
70
0
71
3
72
9
73
5
74
3
42
0.0000001000
43
0.0000001000
44
0.0000000001
12
-0.0138888779
22
0.0417527941
32
0.0000000000
13
-0.0165355603
23
0.0407771013
33
0.0000000000
40
0.0000000000
40
0.0000000000
40
0.0000000000
40
0.0000000000
40
0.5053118314
40
1.0000000000
40
1.0000000000
40
1.0000000000
40
1.0000000000
10
-4.5102022489
20
17.6913471166
30
0.0000000000
10
-4.5125416537
20
17.6983798435
30
0.0000000000
10
-4.5173930128
20
17.7122247074
30
0.0000000000
10
-4.5226848842
20
17.7259072423
30
0.0000000000
10
-4.5254115328
20
17.7326312255
30
0.0000000000
11
-4.5102022489
21
17.6913471166
31
0.0000000000
11
-4.5175570324
21
17.7123303415
31
0.0000000000
11
-4.5254115328
21
17.7326312255
31
0.0000000000
0
SPLINE
5
43B
100
AcDbEntity
8
0
100
AcDbSpline
62
0
6
CONTINUOUS
70
0
71
3
72
9
73
5
74
3
42
0.0000001000
43
0.0000001000
44
0.0000000001
12
0.0339893784
22
-0.0774934367
32
0.0000000000
13
0.0756862501
23
-0.0378431251
33
0.0000000000
40
0.0000000000
40
0.0000000000
40
0.0000000000
40
0.0000000000
40
0.4867322745
40
1.0000000000
40
1.0000000000
40
1.0000000000
40
1.0000000000
10
-1.5162809144
20
16.1946986310
30
0.0000000000
10
-1.5107663386
20
16.1821257788
30
0.0000000000
10
-1.4946508114
20
16.1580062623
30
0.0000000000
10
-1.4706475297
20
16.1420474489
30
0.0000000000
10
-1.4576984265
20
16.1355728973
30
0.0000000000
11
-1.5162809144
21
16.1946986310
31
0.0000000000
11
-1.4932097696
21
16.1605796229
31
0.0000000000
11
-1.4576984265
21
16.1355728973
31
0.0000000000
0
SPLINE
5
43C
100
AcDbEntity
8
0
100
AcDbSpline
62
9
6
CONTINUOUS
70
0
71
3
72
9
73
5
74
3
42
0.0000001000
43
0.0000001000
44
0.0000000001
12
0.0252743559
22
0.0215824627
32
0.0000000000
13
0.0275168274
23
0.0186392053
33
0.0000000000
40
0.0000000000
40
0.0000000000
40
0.0000000000
40
0.0000000000
40
0.4957391069
40
1.0000000000
40
1.0000000000
40
1.0000000000
40
1.0000000000
10
-1.5162809144
20
16.1946986310
30
0.0000000000
10
-1.5121044189
20
16.1982650546
30
0.0000000000
10
-1.5034760365
20
16.2052223589
30
0.0000000000
10
-1.4945028469
20
16.2117312650
30
0.0000000000
10
-1.4898776269
20
16.2148642725
30
0.0000000000
11
-1.5162809144
21
16.1946986310
31
0.0000000000
11
-1.5034648269
21
16.2050528732
31
0.0000000000
11
-1.4898776269
21
16.2148642725
31
0.0000000000
0
SPLINE
5
43D
100
AcDbEntity
8
0
100
AcDbSpline
62
9
6
CONTINUOUS
70
0
71
3
72
14
73
10
74
8
42
0.0000001000
43
0.0000001000
44
0.0000000001
12
0.3556866377
22
0.2417766040
32
0.0000000000
13
0.2949193097
23
-0.3130359584
33
0.0000000000
40
0.0000000000
40
0.0000000000
40
0.0000000000
40
0.0000000000
40
0.1596703802
40
0.3022712248
40
0.4349154959
40
0.5666436977
40
0.7034683866
40
0.8474970530
40
1.0000000000
40
1.0000000000
40
1.0000000000
40
1.0000000000
10
-0.3616371677
20
16.9818375076
30
0.0000000000
10
-0.3427062941
20
16.9947056950
30
0.0000000000
10
-0.3037589297
20
17.0149318182
30
0.0000000000
10
-0.2424240984
20
17.0290754394
30
0.0000000000
10
-0.1835938539
20
17.0285608100
30
0.0000000000
10
-0.1271142785
20
17.0157850191
30
0.0000000000
10
-0.0727063687
20
16.9917417083
30
0.0000000000
10
-0.0208712132
20
16.9570064204
30
0.0000000000
10
0.0104599876
20
16.9280053956
30
0.0000000000
10
0.0254520089
20
16.9120924269
30
0.0000000000
11
-0.3616371677
21
16.9818375076
31
0.0000000000
11
-0.3005324049
21
17.0131731415
31
0.0000000000
11
-0.2407592667
21
17.0269032146
31
0.0000000000
11
-0.1837128595
21
17.0265245169
31
0.0000000000
11
-0.1284071850
21
17.0142394879
31
0.0000000000
11
-0.0744735018
21
16.9907031341
31
0.0000000000
11
-0.0228610450
21
16.9564511724
31
0.0000000000
11
0.0254520089
21
16.9120924269
31
0.0000000000
0
SPLINE
5
43E
100
AcDbEntity
8
0
100
AcDbSpline
62
9
6
CONTINUOUS
70
0
71
3
72
9
73
5
74
3
42
0.0000001000
43
0.0000001000
44
0.0000000001
12
2.0051852822
22
-2.1277316070
32
0.0000000000
13
1.4761283537
23
-2.5236986530
33
0.0000000000
40
0.0000000000
40
0.0000000000
40
0.0000000000
40
0.0000000000
40
0.4924247419
40
1.0000000000
40
1.0000000000
40
1.0000000000
40
1.0000000000
10
0.0254520089
20
16.9120924269
30
0.0000000000
10
0.3545862905
20
16.5628431977
30
0.0000000000
10
0.9786957519
20
15.8109288690
30
0.0000000000
10
1.5141920395
20
14.9942063999
30
0.0000000000
10
1.7639407829
20
14.5672174015
30
0.0000000000
11
0.0254520089
21
16.9120924269
31
0.0000000000
11
0.9477530606
21
15.8066059436
31
0.0000000000
11
1.7639407829
21
14.5672174015
31
0.0000000000
0
SPLINE
5
43F
100
AcDbEntity
8
0
100
AcDbSpline
62
0
6
CONTINUOUS
70
0
71
3
72
10
73
6
74
4
42
0.0000001000
43
0.0000001000
44
0.0000000001
12
0.0873496489
22
-0.0436748245
32
0.0000000000
13
0.0672170653
23
0.0708471424
33
0.0000000000
40
0.0000000000
40
0.0000000000
40
0.0000000000
40
0.0000000000
40
0.3663566097
40
0.6937356677
40
1.0000000000
40
1.0000000000
40
1.0000000000
40
1.0000000000
10
1.6720571615
20
14.5706951033
30
0.0000000000
10
1.6827242019
20
14.5653615831
30
0.0000000000
10
1.7035606784
20
14.5565987933
30
0.0000000000
10
1.7364291564
20
14.5507305464
30
0.0000000000
10
1.7570787197
20
14.5599847506
30
0.0000000000
10
1.7639407829
20
14.5672174015
30
0.0000000000
11
1.6720571615
21
14.5706951033
31
0.0000000000
11
1.7052795347
21
14.5574149067
31
0.0000000000
11
1.7370758289
21
14.5540695270
31
0.0000000000
11
1.7639407829
21
14.5672174015
31
0.0000000000
0
SPLINE
5
440
100
AcDbEntity
8
0
100
AcDbSpline
62
9
6
CONTINUOUS
70
0
71
3
72
14
73
10
74
8
42
0.0000001000
43
0.0000001000
44
0.0000000001
12
0.2631737710
22
-0.1315868855
32
0.0000000000
13
0.0000000000
23
-0.2942372209
33
0.0000000000
40
0.0000000000
40
0.0000000000
40
0.0000000000
40
0.0000000000
40
0.0896181502
40
0.1960711459
40
0.3219346896
40
0.4686789081
40
0.6350264647
40
0.8154556748
40
1.0000000000
40
1.0000000000
40
1.0000000000
40
1.0000000000
10
-4.7861255513
20
12.6469353072
30
0.0000000000
10
-4.7782638358
20
12.6430044494
30
0.0000000000
10
-4.7617479970
20
12.6329968077
30
0.0000000000
10
-4.7372591424
20
12.6129140022
30
0.0000000000
10
-4.7119234903
20
12.5855453652
30
0.0000000000
10
-4.6871758857
20
12.5501509706
30
0.0000000000
10
-4.6652564507
20
12.5067869278
30
0.0000000000
10
-4.6492227221
20
12.4569758515
30
0.0000000000
10
-4.6447041950
20
12.4211194848
30
0.0000000000
10
-4.6447041950
20
12.4030195483
30
0.0000000000
11
-4.7861255513
21
12.6469353072
31
0.0000000000
11
-4.7635005608
21
12.6333915364
31
0.0000000000
11
-4.7391858828
21
12.6136458714
31
0.0000000000
11
-4.7139269323
21
12.5865629753
31
0.0000000000
11
-4.6891039537
21
12.5512341509
31
0.0000000000
11
-4.6670179626
21
12.5075548087
31
0.0000000000
11
-4.6509343218
21
12.4569607646
31
0.0000000000
11
-4.6447041950
21
12.4030195483
31
0.0000000000
0
SPLINE
5
441
100
AcDbEntity
8
0
100
AcDbSpline
62
0
6
CONTINUOUS
70
0
71
3
72
10
73
6
74
4
42
0.0000001000
43
0.0000001000
44
0.0000000001
12
0.0000000000
22
0.4548257105
32
0.0000000000
13
0.4362649758
23
0.1286052015
33
0.0000000000
40
0.0000000000
40
0.0000000000
40
0.0000000000
40
0.0000000000
40
0.3239585207
40
0.6705558736
40
1.0000000000
40
1.0000000000
40
1.0000000000
40
1.0000000000
10
-11.9622186163
20
-14.0626221642
30
0.0000000000
10
-11.9622186163
20
-14.0135072761
30
0.0000000000
10
-11.9332881456
20
-13.9115184325
30
0.0000000000
10
-11.8374801906
20
-13.7902886860
30
0.0000000000
10
-11.7457174507
20
-13.7370099899
30
0.0000000000
10
-11.6978091395
20
-13.7228872472
30
0.0000000000
11
-11.9622186163
21
-14.0626221642
31
0.0000000000
11
-11.9260224087
21
-13.9197925991
31
0.0000000000
11
-11.8287418416
21
-13.7957470500
31
0.0000000000
11
-11.6978091395
21
-13.7228872472
31
0.0000000000
0
SPLINE
5
442
100
AcDbEntity
8
0
100
AcDbSpline
62
0
6
CONTINUOUS
70
0
71
3
72
10
73
6
74
4
42
0.0000001000
43
0.0000001000
44
0.0000000001
12
-0.3299268714
22
-0.2798011607
32
0.0000000000
13
-0.0000000000
23
-0.4325973070
33
0.0000000000
40
0.0000000000
40
0.0000000000
40
0.0000000000
40
0.0000000000
40
0.2920448988
40
0.6499730751
40
1.0000000000
40
1.0000000000
40
1.0000000000
40
1.0000000000
10
-10.6023640244
20
-14.2706098047
30
0.0000000000
10
-10.6344818444
20
-14.2978479719
30
0.0000000000
10
-10.6903479845
20
-14.3759337077
30
0.0000000000
10
-10.7449168732
20
-14.5099074817
30
0.0000000000
10
-10.7622186163
20
-14.6121485959
30
0.0000000000
10
-10.7622186163
20
-14.6626221642
30
0.0000000000
11
-10.6023640244
21
-14.2706098047
31
0.0000000000
11
-10.6805671615
21
-14.3698343901
31
0.0000000000
11
-10.7398956947
21
-14.5128559561
31
0.0000000000
11
-10.7622186163
21
-14.6626221642
31
0.0000000000
0
SPLINE
5
443
100
AcDbEntity
8
0
100
AcDbSpline
62
0
6
CONTINUOUS
70
0
71
3
72
9
73
5
74
3
42
0.0000001000
43
0.0000001000
44
0.0000000001
12
0.7711058028
22
-0.4217600306
32
0.0000000000
13
0.0245939488
23
-0.8971661139
33
0.0000000000
40
0.0000000000
40
0.0000000000
40
0.0000000000
40
0.0000000000
40
0.6559921804
40
1.0000000000
40
1.0000000000
40
1.0000000000
40
1.0000000000
10
-9.6312271543
20
-10.6699439063
30
0.0000000000
10
-9.4626140287
20
-10.7621676670
30
0.0000000000
10
-9.2043855015
20
-10.9393156233
30
0.0000000000
10
-9.1157277636
20
-11.2429306925
30
0.0000000000
10
-9.1129075934
20
-11.3458080788
30
0.0000000000
11
-9.6312271543
21
-10.6699439063
31
0.0000000000
11
-9.1967929150
21
-11.0490050692
31
0.0000000000
11
-9.1129075934
21
-11.3458080788
31
0.0000000000
0
SPLINE
5
444
100
AcDbEntity
8
0
100
AcDbSpline
62
0
6
CONTINUOUS
70
0
71
3
72
10
73
6
74
4
42
0.0000001000
43
0.0000001000
44
0.0000000001
12
2.3764254822
22
0.7921418274
32
0.0000000000
13
2.2782659269
23
-1.0413410168
33
0.0000000000
40
0.0000000000
40
0.0000000000
40
0.0000000000
40
0.0000000000
40
0.3343986985
40
0.6851753253
40
1.0000000000
40
1.0000000000
40
1.0000000000
40
1.0000000000
10
-1.4127462744
20
-15.9146276586
30
0.0000000000
10
-1.1478550783
20
-15.8263305932
30
0.0000000000
10
-0.5774245279
20
-15.7256265542
30
0.0000000000
10
0.2612935471
20
-15.7561755458
30
0.0000000000
10
0.8070004651
20
-15.8993201553
30
0.0000000000
10
1.0460852416
20
-16.0086001042
30
0.0000000000
11
-1.4127462744
21
-15.9146276586
31
0.0000000000
11
-0.5900501365
21
-15.7570062055
31
0.0000000000
11
0.2879629156
21
-15.7913829846
31
0.0000000000
11
1.0460852416
21
-16.0086001042
31
0.0000000000
0
SPLINE
5
445
100
AcDbEntity
8
0
100
AcDbSpline
62
9
6
CONTINUOUS
70
0
71
3
72
9
73
5
74
3
42
0.0000001000
43
0.0000001000
44
0.0000000001
12
-0.1466528960
22
-0.1024807174
32
0.0000000000
13
-0.0482185557
23
-0.1717609184
33
0.0000000000
40
0.0000000000
40
0.0000000000
40
0.0000000000
40
0.0000000000
40
0.6787169351
40
1.0000000000
40
1.0000000000
40
1.0000000000
40
1.0000000000
10
-0.2995617240
20
17.4615664821
30
0.0000000000
10
-0.3327403254
20
17.4383813492
30
0.0000000000
10
-0.3732317899
20
17.3901246479
30
0.0000000000
10
-0.3945762041
20
17.3343941748
30
0.0000000000
10
-0.3997401392
20
17.3159995500
30
0.0000000000
11
-0.2995617240
21
17.4615664821
31
0.0000000000
11
-0.3788845942
21
17.3694332255
31
0.0000000000
11
-0.3997401392
21
17.3159995500
31
0.0000000000
0
SPLINE
5
446
100
AcDbEntity
8
0
100
AcDbSpline
62
9
6
CONTINUOUS
70
0
71
3
72
8
73
4
74
2
42
0.0000001000
43
0.0000001000
44
0.0000000001
12
-0.0165031432
22
-0.0587863943
32
0.0000000000
13
-0.0059965145
23
-0.0610953902
33
0.0000000000
40
0.0000000000
40
0.0000000000
40
0.0000000000
40
0.0000000000
40
1.0000000000
40
1.0000000000
40
1.0000000000
40
1.0000000000
10
-0.3997401392
20
17.3159995500
30
0.0000000000
10
-0.4052411869
20
17.2964040853
30
0.0000000000
10
-0.4088202211
20
17.2762532735
30
0.0000000000
10
-0.4108190592
20
17.2558881434
30
0.0000000000
11
-0.3997401392
21
17.3159995500
31
0.0000000000
11
-0.4108190592
21
17.2558881434
31
0.0000000000
0
SPLINE
5
447
100
AcDbEntity
8
0
100
AcDbSpline
62
9
6
CONTINUOUS
70
0
71
3
72
9
73
5
74
3
42
0.0000001000
43
0.0000001000
44
0.0000000001
12
-0.0276337201
22
-0.2815457074
32
0.0000000000
13
0.1107329487
23
-0.2563558465
33
0.0000000000
40
0.0000000000
40
0.0000000000
40
0.0000000000
40
0.0000000000
40
0.2299085593
40
1.0000000000
40
1.0000000000
40
1.0000000000
40
1.0000000000
10
-0.4108190592
20
17.2558881434
30
0.0000000000
10
-0.4129368021
20
17.2343115541
30
0.0000000000
10
-0.4144328449
20
17.1394165911
30
0.0000000000
10
-0.3900619997
20
17.0476433220
30
0.0000000000
10
-0.3616371677
20
16.9818375076
30
0.0000000000
11
-0.4108190592
21
17.2558881434
31
0.0000000000
11
-0.4122574376
21
17.1908422320
31
0.0000000000
11
-0.3616371677
21
16.9818375076
31
0.0000000000
0
SPLINE
5
448
100
AcDbEntity
8
0
100
AcDbSpline
62
9
6
CONTINUOUS
70
0
71
3
72
9
73
5
74
3
42
0.0000001000
43
0.0000001000
44
0.0000000001
12
-0.1466530939
22
-0.1024808453
32
0.0000000000
13
-0.0482186246
23
-0.1717611316
33
0.0000000000
40
0.0000000000
40
0.0000000000
40
0.0000000000
40
0.0000000000
40
0.6787171810
40
1.0000000000
40
1.0000000000
40
1.0000000000
40
1.0000000000
10
-1.4278022602
20
16.6945931947
30
0.0000000000
10
-1.4609809183
20
16.6714080246
30
0.0000000000
10
-1.5014724665
20
16.6231513077
30
0.0000000000
10
-1.5228169167
20
16.5674207711
30
0.0000000000
10
-1.5279808552
20
16.5490261376
30
0.0000000000
11
-1.4278022602
21
16.6945931947
31
0.0000000000
11
-1.5071252922
21
16.6024598314
31
0.0000000000
11
-1.5279808552
21
16.5490261376
31
0.0000000000
0
SPLINE
5
449
100
AcDbEntity
8
0
100
AcDbSpline
62
9
6
CONTINUOUS
70
0
71
3
72
9
73
5
74
3
42
0.0000001000
43
0.0000001000
44
0.0000000001
12
-0.0925545129
22
-0.3296914423
32
0.0000000000
13
0.1347624908
23
-0.3119846824
33
0.0000000000
40
0.0000000000
40
0.0000000000
40
0.0000000000
40
0.0000000000
40
0.3672214944
40
1.0000000000
40
1.0000000000
40
1.0000000000
40
1.0000000000
10
-1.5279808552
20
16.5490261376
30
0.0000000000
10
-1.5393101907
20
16.5086695428
30
0.0000000000
10
-1.5479620222
20
16.3923580013
30
0.0000000000
10
-1.5183025627
20
16.2806700062
30
0.0000000000
10
-1.4898776269
20
16.2148642725
30
0.0000000000
11
-1.5279808552
21
16.5490261376
31
0.0000000000
11
-1.5404981278
21
16.4238688394
31
0.0000000000
11
-1.4898776269
21
16.2148642725
31
0.0000000000
0
SPLINE
5
44A
100
AcDbEntity
8
0
100
AcDbSpline
62
9
6
CONTINUOUS
70
0
71
3
72
14
73
10
74
8
42
0.0000001000
43
0.0000001000
44
0.0000000001
12
0.0000000000
22
0.2184107999
32
0.0000000000
13
0.1953525583
23
-0.0976762791
33
0.0000000000
40
0.0000000000
40
0.0000000000
40
0.0000000000
40
0.0000000000
40
0.1229828399
40
0.2483946707
40
0.3751155694
40
0.5040533029
40
0.6412938515
40
0.8007252997
40
1.0000000000
40
1.0000000000
40
1.0000000000
40
1.0000000000
10
-1.3920130016
20
10.7766739516
30
0.0000000000
10
-1.3920130016
20
10.7856275451
30
0.0000000000
10
-1.3908733251
20
10.8037419221
30
0.0000000000
10
-1.3848811521
20
10.8305313188
30
0.0000000000
10
-1.3732547840
20
10.8560135569
30
0.0000000000
10
-1.3542099861
20
10.8780588756
30
0.0000000000
10
-1.3258779990
20
10.8926874727
30
0.0000000000
10
-1.2887983507
20
10.8943952524
30
0.0000000000
10
-1.2635679195
20
10.8856564913
30
0.0000000000
10
-1.2505916453
20
10.8791683542
30
0.0000000000
11
-1.3920130016
21
10.7766739516
31
0.0000000000
11
-1.3901911727
21
10.8034728782
31
0.0000000000
11
-1.3839953305
21
10.8301542342
31
0.0000000000
11
-1.3721941618
21
10.8551894200
31
0.0000000000
11
-1.3534822360
21
10.8762352728
31
0.0000000000
11
-1.3268347706
21
10.8899612445
31
0.0000000000
11
-1.2920910254
21
10.8922877284
31
0.0000000000
11
-1.2505916453
21
10.8791683542
31
0.0000000000
0
SPLINE
5
44B
100
AcDbEntity
8
0
100
AcDbSpline
62
9
6
CONTINUOUS
70
0
71
3
72
11
73
7
74
5
42
0.0000001000
43
0.0000001000
44
0.0000000001
12
0.1161193065
22
-0.0580596532
32
0.0000000000
13
0.0699344274
23
-0.1093791229
33
0.0000000000
40
0.0000000000
40
0.0000000000
40
0.0000000000
40
0.0000000000
40
0.1951467792
40
0.4244191173
40
0.6919279106
40
1.0000000000
40
1.0000000000
40
1.0000000000
40
1.0000000000
10
-0.6532476073
20
10.5804963352
30
0.0000000000
10
-0.6456941710
20
10.5767196171
30
0.0000000000
10
-0.6298949158
20
10.5672138087
30
0.0000000000
10
-0.6065173124
20
10.5483678025
30
0.0000000000
10
-0.5824315229
20
10.5230769574
30
0.0000000000
10
-0.5676797717
20
10.5029016025
30
0.0000000000
10
-0.5604981566
20
10.4916693842
30
0.0000000000
11
-0.6532476073
21
10.5804963352
31
0.0000000000
11
-0.6314738717
21
10.5675438672
31
0.0000000000
11
-0.6082176657
21
10.5489663168
31
0.0000000000
11
-0.5841795669
21
10.5239003586
31
0.0000000000
11
-0.5604981566
21
10.4916693842
31
0.0000000000
0
SPLINE
5
44C
100
AcDbEntity
8
0
100
AcDbSpline
62
9
6
CONTINUOUS
70
0
71
3
72
10
73
6
74
4
42
0.0000001000
43
0.0000001000
44
0.0000000001
12
1.5347992039
22
-2.4004627909
32
0.0000000000
13
0.6453916518
23
-2.7751215870
33
0.0000000000
40
0.0000000000
40
0.0000000000
40
0.0000000000
40
0.0000000000
40
0.3358172849
40
0.6718152099
40
1.0000000000
40
1.0000000000
40
1.0000000000
40
1.0000000000
10
-0.5604981566
20
10.4916693842
30
0.0000000000
10
-0.3886941228
20
10.2229637518
30
0.0000000000
10
-0.0751322411
20
9.6654734013
30
0.0000000000
10
0.2973604410
20
8.7899626100
30
0.0000000000
10
0.4780072775
20
8.1837987064
30
0.0000000000
10
0.5486098521
20
7.8802144745
30
0.0000000000
11
-0.5604981566
21
10.4916693842
31
0.0000000000
11
-0.0910369497
21
9.6579546480
31
0.0000000000
11
0.2831867306
21
8.7768100082
31
0.0000000000
11
0.5486098521
21
7.8802144745
31
0.0000000000
0
SPLINE
5
44D
100
AcDbEntity
8
0
100
AcDbSpline
62
9
6
CONTINUOUS
70
0
71
3
72
13
73
9
74
7
42
0.0000001000
43
0.0000001000
44
0.0000000001
12
0.0417752245
22
-0.1796294187
32
0.0000000000
13
-0.1665645337
23
-0.0791716714
33
0.0000000000
40
0.0000000000
40
0.0000000000
40
0.0000000000
40
0.0000000000
40
0.1560487742
40
0.3197486560
40
0.4879920734
40
0.6572002185
40
0.8261240539
40
1.0000000000
40
1.0000000000
40
1.0000000000
40
1.0000000000
10
0.5486098521
20
7.8802144745
30
0.0000000000
10
0.5507828430
20
7.8708708243
30
0.0000000000
10
0.5542816128
20
7.8514856479
30
0.0000000000
10
0.5561581066
20
7.8214651971
30
0.0000000000
10
0.5536081169
20
7.7906245283
30
0.0000000000
10
0.5451535446
20
7.7604035727
30
0.0000000000
10
0.5289203053
20
7.7328848101
30
0.0000000000
10
0.5117596741
20
7.7194296411
30
0.0000000000
10
0.5021058189
20
7.7148409580
30
0.0000000000
11
0.5486098521
21
7.8802144745
31
0.0000000000
11
0.5536574101
21
7.8518815722
31
0.0000000000
11
0.5554194293
21
7.8217429881
31
0.0000000000
11
0.5526393332
21
7.7908398062
31
0.0000000000
11
0.5438779244
21
7.7608890828
31
0.0000000000
11
0.5275493961
21
7.7343576378
31
0.0000000000
11
0.5021058189
21
7.7148409580
31
0.0000000000
0
SPLINE
5
44E
100
AcDbEntity
8
0
100
AcDbSpline
62
9
6
CONTINUOUS
70
0
71
3
72
17
73
13
74
11
42
0.0000001000
43
0.0000001000
44
0.0000000001
12
-2.4434763926
22
-1.1614363863
32
0.0000000000
13
1.5179645428
23
-2.2394854336
33
0.0000000000
40
0.0000000000
40
0.0000000000
40
0.0000000000
40
0.0000000000
40
0.0558438144
40
0.1127719294
40
0.1735376083
40
0.2424066899
40
0.3240188926
40
0.4212653813
40
0.5364024385
40
0.6713860967
40
0.8265339759
40
1.0000000000
40
1.0000000000
40
1.0000000000
40
1.0000000000
10
0.5021058189
20
7.7148409580
30
0.0000000000
10
0.4566214714
20
7.6932212787
30
0.0000000000
10
0.3694208436
20
7.6389603765
30
0.0000000000
10
0.2569622575
20
7.5285505491
30
0.0000000000
10
0.1624321364
20
7.3881053251
30
0.0000000000
10
0.0866696282
20
7.2122265104
30
0.0000000000
10
0.0345654460
20
6.9939194071
30
0.0000000000
10
0.0149889337
20
6.7284463167
30
0.0000000000
10
0.0390356180
20
6.4149926006
30
0.0000000000
10
0.1191644601
20
6.0571166275
30
0.0000000000
10
0.2680533621
20
5.6649841683
30
0.0000000000
10
0.4143340609
20
5.4054840603
30
0.0000000000
10
0.5021058189
20
5.2759925156
30
0.0000000000
11
0.5021058189
21
7.7148409580
31
0.0000000000
11
0.3737218137
21
7.6351937687
31
0.0000000000
11
0.2633411423
21
7.5277821539
31
0.0000000000
11
0.1707550423
21
7.3919334381
31
0.0000000000
11
0.0959145748
21
7.2213023045
31
0.0000000000
11
0.0432065643
21
7.0068871720
31
0.0000000000
11
0.0222276339
21
6.7446284794
31
0.0000000000
11
0.0444718932
21
6.4339250802
31
0.0000000000
11
0.1229299262
21
6.0772597780
31
0.0000000000
11
0.2712521561
21
5.6845926394
31
0.0000000000
11
0.5021058189
21
5.2759925156
31
0.0000000000
0
SPLINE
5
44F
100
AcDbEntity
8
0
100
AcDbSpline
62
9
6
CONTINUOUS
70
0
71
3
72
13
73
9
74
7
42
0.0000001000
43
0.0000001000
44
0.0000000001
12
0.1252501239
22
-0.1847841762
32
0.0000000000
13
-0.0647408399
23
-0.2136385006
33
0.0000000000
40
0.0000000000
40
0.0000000000
40
0.0000000000
40
0.0000000000
40
0.1364775119
40
0.2881999309
40
0.4540153160
40
0.6309851837
40
0.8149089852
40
1.0000000000
40
1.0000000000
40
1.0000000000
40
1.0000000000
10
0.5021058189
20
5.2759925156
30
0.0000000000
10
0.5078037606
20
5.2675862207
30
0.0000000000
10
0.5189806320
20
5.2492401007
30
0.0000000000
10
0.5336606589
20
5.2187483051
30
0.0000000000
10
0.5459416268
20
5.1839741890
30
0.0000000000
10
0.5542550627
20
5.1455374897
30
0.0000000000
10
0.5566426396
20
5.1048079865
30
0.0000000000
10
0.5526041680
20
5.0772958214
30
0.0000000000
10
0.5486098521
20
5.0641149658
30
0.0000000000
11
0.5021058189
21
5.2759925156
31
0.0000000000
11
0.5179726878
21
5.2499841809
31
0.0000000000
11
0.5326613428
21
5.2194656815
31
0.0000000000
11
0.5449386289
21
5.1845456612
31
0.0000000000
11
0.5531550784
21
5.1459041061
31
0.0000000000
11
0.5552334193
21
5.1048989576
31
0.0000000000
11
0.5486098521
21
5.0641149658
31
0.0000000000
0
SPLINE
5
450
100
AcDbEntity
8
0
100
AcDbSpline
62
9
6
CONTINUOUS
70
0
71
3
72
10
73
6
74
4
42
0.0000001000
43
0.0000001000
44
0.0000000001
12
-0.4391860358
22
-1.4492713762
32
0.0000000000
13
-1.1562881689
23
-0.9889546507
33
0.0000000000
40
0.0000000000
40
0.0000000000
40
0.0000000000
40
0.0000000000
40
0.4522010323
40
0.8682751627
40
1.0000000000
40
1.0000000000
40
1.0000000000
40
1.0000000000
10
0.5486098521
20
5.0641149658
30
0.0000000000
10
0.4824097258
20
4.8456609617
30
0.0000000000
10
0.3150548007
20
4.4362090482
30
0.0000000000
10
0.0163807348
20
4.0228028481
30
0.0000000000
10
-0.1863091822
20
3.8322429163
30
0.0000000000
10
-0.2370798058
20
3.7888196195
30
0.0000000000
11
0.5486098521
21
5.0641149658
31
0.0000000000
11
0.2831441982
21
4.4328705881
31
0.0000000000
11
-0.0910902197
21
3.9259637769
31
0.0000000000
11
-0.2370798058
21
3.7888196195
31
0.0000000000
0
SPLINE
5
451
100
AcDbEntity
8
0
100
AcDbSpline
62
9
6
CONTINUOUS
70
0
71
3
72
8
73
4
74
2
42
0.0000001000
43
0.0000001000
44
0.0000000001
12
-0.1506459929
22
-0.1288450918
32
0.0000000000
13
-0.1619071890
23
-0.1138256165
33
0.0000000000
40
0.0000000000
40
0.0000000000
40
0.0000000000
40
0.0000000000
40
1.0000000000
40
1.0000000000
40
1.0000000000
40
1.0000000000
10
-0.2370798058
20
3.7888196195
30
0.0000000000
10
-0.2872951368
20
3.7458712555
30
0.0000000000
10
-0.3394976749
20
3.7052698249
30
0.0000000000
10
-0.3934667379
20
3.6673279527
30
0.0000000000
11
-0.2370798058
21
3.7888196195
31
0.0000000000
11
-0.3934667379
21
3.6673279527
31
0.0000000000
0
SPLINE
5
452
100
AcDbEntity
8
0
100
AcDbSpline
62
9
6
CONTINUOUS
70
0
71
3
72
8
73
4
74
2
42
0.0000001000
43
0.0000001000
44
0.0000000001
12
-0.1619499041
22
-0.1138556465
32
0.0000000000
13
-0.1718920765
23
-0.0969512566
33
0.0000000000
40
0.0000000000
40
0.0000000000
40
0.0000000000
40
0.0000000000
40
1.0000000000
40
1.0000000000
40
1.0000000000
40
1.0000000000
10
-0.3934667379
20
3.6673279527
30
0.0000000000
10
-0.4474500393
20
3.6293760706
30
0.0000000000
10
-0.5032007978
20
3.5940851504
30
0.0000000000
10
-0.5604981566
20
3.5617680649
30
0.0000000000
11
-0.3934667379
21
3.6673279527
31
0.0000000000
11
-0.5604981566
21
3.5617680649
31
0.0000000000
0
SPLINE
5
453
100
AcDbEntity
8
0
100
AcDbSpline
62
9
6
CONTINUOUS
70
0
71
3
72
11
73
7
74
5
42
0.0000001000
43
0.0000001000
44
0.0000000001
12
-0.0840310979
22
-0.0473955560
32
0.0000000000
13
-0.0862905054
23
0.0431452527
33
0.0000000000
40
0.0000000000
40
0.0000000000
40
0.0000000000
40
0.0000000000
40
0.1963949589
40
0.4188363178
40
0.6813277553
40
1.0000000000
40
1.0000000000
40
1.0000000000
40
1.0000000000
10
-0.5604981566
20
3.5617680649
30
0.0000000000
10
-0.5659992513
20
3.5586653154
30
0.0000000000
10
-0.5786328972
20
3.5535294323
30
0.0000000000
10
-0.6006191819
20
3.5508033119
30
0.0000000000
10
-0.6264865707
20
3.5542881566
30
0.0000000000
10
-0.6440814776
20
3.5611074997
30
0.0000000000
10
-0.6532476073
20
3.5656905645
30
0.0000000000
11
-0.5604981566
21
3.5617680649
31
0.0000000000
11
-0.5780411924
21
3.5546095899
31
0.0000000000
11
-0.5993185534
21
3.5518142979
31
0.0000000000
11
-0.6244512504
21
3.5549215543
31
0.0000000000
11
-0.6532476073
21
3.5656905645
31
0.0000000000
0
SPLINE
5
454
100
AcDbEntity
8
0
100
AcDbSpline
62
9
6
CONTINUOUS
70
0
71
3
72
10
73
6
74
4
42
0.0000001000
43
0.0000001000
44
0.0000000001
12
-0.0731017796
22
0.0365508898
32
0.0000000000
13
-0.0545142498
23
0.0609870200
33
0.0000000000
40
0.0000000000
40
0.0000000000
40
0.0000000000
40
0.0000000000
40
0.3226343688
40
0.7058758775
40
1.0000000000
40
1.0000000000
40
1.0000000000
40
1.0000000000
10
-1.2505916453
20
3.8643625836
30
0.0000000000
10
-1.2584533608
20
3.8682934413
30
0.0000000000
10
-1.2749691996
20
3.8783010830
30
0.0000000000
10
-1.2960985450
20
3.8956288243
30
0.0000000000
10
-1.3090043715
20
3.9088623780
30
0.0000000000
10
-1.3143490235
20
3.9148416292
30
0.0000000000
11
-1.2505916453
21
3.8643625836
31
0.0000000000
11
-1.2732166358
21
3.8779063544
31
0.0000000000
11
-1.2975313138
21
3.8976520193
31
0.0000000000
11
-1.3143490235
21
3.9148416292
31
0.0000000000
0
SPLINE
5
455
100
AcDbEntity
8
0
100
AcDbSpline
62
9
6
CONTINUOUS
70
0
71
3
72
12
73
8
74
6
42
0.0000001000
43
0.0000001000
44
0.0000000001
12
-0.1417425414
22
0.1585723959
32
0.0000000000
13
0.0000000000
23
0.2125069467
33
0.0000000000
40
0.0000000000
40
0.0000000000
40
0.0000000000
40
0.0000000000
40
0.0611504439
40
0.2643325597
40
0.4946574668
40
0.7444798383
40
1.0000000000
40
1.0000000000
40
1.0000000000
40
1.0000000000
10
-1.3143490235
20
3.9148416292
30
0.0000000000
10
-1.3172382300
20
3.9180738867
30
0.0000000000
10
-1.3293997584
20
3.9323401702
30
0.0000000000
10
-1.3495413109
20
3.9611469201
30
0.0000000000
10
-1.3714607459
20
4.0045109629
30
0.0000000000
10
-1.3874944745
20
4.0543220392
30
0.0000000000
10
-1.3920130016
20
4.0901784060
30
0.0000000000
10
-1.3920130016
20
4.1082783424
30
0.0000000000
11
-1.3143490235
21
3.9148416292
31
0.0000000000
11
-1.3227902643
21
3.9247349154
31
0.0000000000
11
-1.3476132429
21
3.9600637398
31
0.0000000000
11
-1.3696992341
21
4.0037430821
31
0.0000000000
11
-1.3857828748
21
4.0543371261
31
0.0000000000
11
-1.3920130016
21
4.1082783424
31
0.0000000000
0
SPLINE
5
456
100
AcDbEntity
8
0
100
AcDbSpline
62
0
6
CONTINUOUS
70
0
71
3
72
10
73
6
74
4
42
0.0000001000
43
0.0000001000
44
0.0000000001
12
1.7280179200
22
-0.8640089600
32
0.0000000000
13
1.8328397839
23
0.6109465946
33
0.0000000000
40
0.0000000000
40
0.0000000000
40
0.0000000000
40
0.0000000000
40
0.3133156031
40
0.6643727299
40
1.0000000000
40
1.0000000000
40
1.0000000000
40
1.0000000000
10
-9.4033248398
20
-16.7277096985
30
0.0000000000
10
-9.2228531809
20
-16.8179455280
30
0.0000000000
10
-8.8038840426
20
-16.9361018876
30
0.0000000000
10
-8.1572501712
20
-16.9657566165
30
0.0000000000
10
-7.7156647115
20
-16.8897674460
30
0.0000000000
10
-7.5106143737
20
-16.8214173334
30
0.0000000000
11
-9.4033248398
21
-16.7277096985
31
0.0000000000
11
-8.8253190902
21
-16.9074931086
31
0.0000000000
11
-8.1479124974
21
-16.9410313443
31
0.0000000000
11
-7.5106143737
21
-16.8214173334
31
0.0000000000
0
SPLINE
5
457
100
AcDbEntity
8
0
100
AcDbSpline
62
0
6
CONTINUOUS
70
0
71
3
72
10
73
6
74
4
42
0.0000001000
43
0.0000001000
44
0.0000000001
12
-0.0592225363
22
0.2181957618
32
0.0000000000
13
-0.2022210657
23
0.1011105328
33
0.0000000000
40
0.0000000000
40
0.0000000000
40
0.0000000000
40
0.0000000000
40
0.3510310055
40
0.6947906952
40
1.0000000000
40
1.0000000000
40
1.0000000000
40
1.0000000000
10
-14.1557787995
20
-7.3914429872
30
0.0000000000
10
-14.1627084483
20
-7.3659118279
30
0.0000000000
10
-14.1831342185
20
-7.3169934776
30
0.0000000000
10
-14.2279747775
20
-7.2556742626
30
0.0000000000
10
-14.2672005507
20
-7.2247040312
30
0.0000000000
10
-14.2877738010
20
-7.2144174061
30
0.0000000000
11
-14.1557787995
21
-7.3914429872
31
0.0000000000
11
-14.1860866782
21
-7.3180933205
31
0.0000000000
11
-14.2325444852
21
-7.2557862620
31
0.0000000000
11
-14.2877738010
21
-7.2144174061
31
0.0000000000
0
SPLINE
5
458
100
AcDbEntity
8
0
100
AcDbSpline
62
0
6
CONTINUOUS
70
0
71
3
72
11
73
7
74
5
42
0.0000001000
43
0.0000001000
44
0.0000000001
12
0.0000000000
22
1.4283348283
32
0.0000000000
13
-1.2851580530
23
-0.7003879111
33
0.0000000000
40
0.0000000000
40
0.0000000000
40
0.0000000000
40
0.0000000000
40
0.3531379954
40
0.6986943927
40
0.9573942218
40
1.0000000000
40
1.0000000000
40
1.0000000000
40
1.0000000000
10
-12.8824981959
20
-9.0428882336
30
0.0000000000
10
-12.8824981959
20
-8.8747551342
30
0.0000000000
10
-12.9842881370
20
-8.5414308137
30
0.0000000000
10
-13.2601997568
20
-8.1773412980
30
0.0000000000
10
-13.5910116476
20
-8.0417730096
30
0.0000000000
10
-13.7251899312
20
-8.0981754699
30
0.0000000000
10
-13.7434416509
20
-8.1081223272
30
0.0000000000
11
-12.8824981959
21
-9.0428882336
31
0.0000000000
11
-13.0108275367
21
-8.5550868066
31
0.0000000000
11
-13.3293422882
21
-8.1780457845
31
0.0000000000
11
-13.6868451231
21
-8.0846148185
31
0.0000000000
11
-13.7434416509
21
-8.1081223272
31
0.0000000000
0
SPLINE
5
459
100
AcDbEntity
8
0
100
AcDbSpline
62
9
6
CONTINUOUS
70
0
71
3
72
9
73
5
74
3
42
0.0000001000
43
0.0000001000
44
0.0000000001
12
-0.1674575538
22
0.0888489256
32
0.0000000000
13
-0.0000000000
23
0.1857001852
33
0.0000000000
40
0.0000000000
40
0.0000000000
40
0.0000000000
40
0.0000000000
40
0.3584644453
40
1.0000000000
40
1.0000000000
40
1.0000000000
40
1.0000000000
10
-0.5748787706
20
3.4041839827
30
0.0000000000
10
-0.5948879637
20
3.4148003763
30
0.0000000000
10
-0.6436781116
20
3.4602641023
30
0.0000000000
10
-0.6532476073
20
3.5259794741
30
0.0000000000
10
-0.6532476073
20
3.5656905645
30
0.0000000000
11
-0.5748787706
21
3.4041839827
31
0.0000000000
11
-0.6248273036
21
3.4499969058
31
0.0000000000
11
-0.6532476073
21
3.5656905645
31
0.0000000000
0
SPLINE
5
45A
100
AcDbEntity
8
0
100
AcDbSpline
62
0
6
CONTINUOUS
70
0
71
3
72
9
73
5
74
3
42
0.0000001000
43
0.0000001000
44
0.0000000001
12
-0.0821525420
22
0.0410762710
32
0.0000000000
13
-0.0837044153
23
-0.0409124518
33
0.0000000000
40
0.0000000000
40
0.0000000000
40
0.0000000000
40
0.0000000000
40
0.6199498956
40
1.0000000000
40
1.0000000000
40
1.0000000000
40
1.0000000000
10
5.7054721921
20
-17.2110404026
30
0.0000000000
10
5.6884953722
20
-17.2025519927
30
0.0000000000
10
5.6577993604
20
-17.1929296490
30
0.0000000000
10
5.6266024424
20
-17.2003722173
30
0.0000000000
10
5.6159984851
20
-17.2055551445
30
0.0000000000
11
5.7054721921
21
-17.2110404026
31
0.0000000000
11
5.6502428763
21
-17.1971799427
31
0.0000000000
11
5.6159984851
21
-17.2055551445
31
0.0000000000
0
SPLINE
5
45B
100
AcDbEntity
8
0
100
AcDbSpline
62
9
6
CONTINUOUS
70
0
71
3
72
16
73
12
74
10
42
0.0000001000
43
0.0000001000
44
0.0000000001
12
0.4893654916
22
-0.2446827458
32
0.0000000000
13
-0.0000000000
23
0.5471272525
33
0.0000000000
40
0.0000000000
40
0.0000000000
40
0.0000000000
40
0.0000000000
40
0.1278000641
40
0.2368377679
40
0.3365014490
40
0.4323721953
40
0.5299691330
40
0.6335006383
40
0.7455297037
40
0.8675362298
40
1.0000000000
40
1.0000000000
40
1.0000000000
40
1.0000000000
10
5.1133693853
20
-11.6584799357
30
0.0000000000
10
5.1342163657
20
-11.6689034259
30
0.0000000000
10
5.1746732986
20
-11.6849673739
30
0.0000000000
10
5.2356788307
20
-11.6952098018
30
0.0000000000
10
5.2916838429
20
-11.6910353490
30
0.0000000000
10
5.3426303164
20
-11.6726327351
30
0.0000000000
10
5.3868765650
20
-11.6401476122
30
0.0000000000
10
5.4225107970
20
-11.5947194539
30
0.0000000000
10
5.4483128806
20
-11.5382958165
30
0.0000000000
10
5.4637701838
20
-11.4729117252
30
0.0000000000
10
5.4669227759
20
-11.4264021087
30
0.0000000000
10
5.4669227759
20
-11.4022439291
30
0.0000000000
11
5.1133693853
21
-11.6584799357
31
0.0000000000
11
5.1786004973
21
-11.6836615497
31
0.0000000000
11
5.2375256799
21
-11.6929803526
31
0.0000000000
11
5.2918692366
21
-11.6884905070
31
0.0000000000
11
5.3411510126
21
-11.6705273224
31
0.0000000000
11
5.3843260136
21
-11.6391066325
31
0.0000000000
11
5.4196863919
21
-11.5948540704
31
0.0000000000
11
5.4457130105
21
-11.5393600299
31
0.0000000000
11
5.4615867307
21
-11.4745217637
31
0.0000000000
11
5.4669227759
21
-11.4022439291
31
0.0000000000
0
SPLINE
5
45C
100
AcDbEntity
8
0
100
AcDbSpline
62
0
6
CONTINUOUS
70
0
71
3
72
10
73
6
74
4
42
0.0000001000
43
0.0000001000
44
0.0000000001
12
1.9576579250
22
-0.3270300640
32
0.0000000000
13
1.7752460594
23
0.8876230297
33
0.0000000000
40
0.0000000000
40
0.0000000000
40
0.0000000000
40
0.0000000000
40
0.3490043804
40
0.6934975468
40
1.0000000000
40
1.0000000000
40
1.0000000000
40
1.0000000000
10
-10.7622186163
20
-15.5286475680
30
0.0000000000
10
-10.5344748859
20
-15.5666925430
30
0.0000000000
10
-10.0733678891
20
-15.5970240630
30
0.0000000000
10
-9.4130832816
20
-15.5231528924
30
0.0000000000
10
-8.9980066281
20
-15.3900444582
30
0.0000000000
10
-8.8166342040
20
-15.2993582461
30
0.0000000000
11
-10.7622186163
21
-15.5286475680
31
0.0000000000
11
-10.0711791361
21
-15.5765649805
31
0.0000000000
11
-9.3921334519
21
-15.4965386791
31
0.0000000000
11
-8.8166342040
21
-15.2993582461
31
0.0000000000
0
SPLINE
5
45D
100
AcDbEntity
8
0
100
AcDbSpline
62
0
6
CONTINUOUS
70
0
71
3
72
10
73
6
74
4
42
0.0000001000
43
0.0000001000
44
0.0000000001
12
-0.3044073747
22
1.1409761735
32
0.0000000000
13
-1.0962994992
23
-0.4713062764
33
0.0000000000
40
0.0000000000
40
0.0000000000
40
0.0000000000
40
0.0000000000
40
0.4159482568
40
0.7923244958
40
1.0000000000
40
1.0000000000
40
1.0000000000
40
1.0000000000
10
5.3267541813
20
-17.9183586024
30
0.0000000000
10
5.2845482757
20
-17.7601629189
30
0.0000000000
10
5.1379114347
20
-17.4808798596
30
0.0000000000
10
4.8335682883
20
-17.1896589123
30
0.0000000000
10
4.5710910485
20
-17.2018753186
30
0.0000000000
10
4.4951995314
20
-17.2345015748
30
0.0000000000
11
5.3267541813
21
-17.9183586024
31
0.0000000000
11
5.1045435142
21
-17.4803091371
31
0.0000000000
11
4.7470406793
21
-17.2162372682
31
0.0000000000
11
4.4951995314
21
-17.2345015748
31
0.0000000000
0
SPLINE
5
45E
100
AcDbEntity
8
0
100
AcDbSpline
62
9
6
CONTINUOUS
70
0
71
3
72
10
73
6
74
4
42
0.0000001000
43
0.0000001000
44
0.0000000001
12
1.5896598006
22
-0.2285891789
32
0.0000000000
13
1.4364598970
23
0.7182299485
33
0.0000000000
40
0.0000000000
40
0.0000000000
40
0.0000000000
40
0.0000000000
40
0.3122893541
40
0.6579896187
40
1.0000000000
40
1.0000000000
40
1.0000000000
40
1.0000000000
10
-10.6023640244
20
-14.2706098047
30
0.0000000000
10
-10.4368860803
20
-14.2944051270
30
0.0000000000
10
-10.0833911368
20
-14.3151987228
30
0.0000000000
10
-9.5489867567
20
-14.2597534764
30
0.0000000000
10
-9.1925276374
20
-14.1493399036
30
0.0000000000
10
-9.0287662384
20
-14.0674592041
30
0.0000000000
11
-10.6023640244
21
-14.2706098047
31
0.0000000000
11
-10.1017601605
21
-14.3012411228
31
0.0000000000
11
-9.5498087235
21
-14.2412836315
31
0.0000000000
11
-9.0287662384
21
-14.0674592041
31
0.0000000000
0
SPLINE
5
45F
100
AcDbEntity
8
0
100
AcDbSpline
62
9
6
CONTINUOUS
70
0
71
3
72
9
73
5
74
3
42
0.0000001000
43
0.0000001000
44
0.0000000001
12
-0.6014825960
22
-0.3007412980
32
0.0000000000
13
-0.1427158897
23
-0.6632238361
33
0.0000000000
40
0.0000000000
40
0.0000000000
40
0.0000000000
40
0.0000000000
40
0.5330320147
40
1.0000000000
40
1.0000000000
40
1.0000000000
40
1.0000000000
10
-11.2915079382
20
-12.9360883542
30
0.0000000000
10
-11.3983777648
20
-12.9895232675
30
0.0000000000
10
-11.5890820161
20
-13.1107237746
30
0.0000000000
10
-11.7269402774
20
-13.3049674930
30
0.0000000000
10
-11.7491548612
20
-13.4082022591
30
0.0000000000
11
-11.2915079382
21
-12.9360883542
31
0.0000000000
11
-11.5866659393
21
-13.1394840342
31
0.0000000000
11
-11.7491548612
21
-13.4082022591
31
0.0000000000
0
SPLINE
5
460
100
AcDbEntity
8
0
100
AcDbSpline
62
9
6
CONTINUOUS
70
0
71
3
72
8
73
4
74
2
42
0.0000001000
43
0.0000001000
44
0.0000000001
12
-0.0676668206
22
-0.3144586662
32
0.0000000000
13
0.1589752242
23
-0.2763872337
33
0.0000000000
40
0.0000000000
40
0.0000000000
40
0.0000000000
40
0.0000000000
40
1.0000000000
40
1.0000000000
40
1.0000000000
40
1.0000000000
10
-11.7491548612
20
-13.4082022591
30
0.0000000000
10
-11.7717104680
20
-13.5130218145
30
0.0000000000
10
-11.7508008809
20
-13.6307581693
30
0.0000000000
10
-11.6978091395
20
-13.7228872472
30
0.0000000000
11
-11.7491548612
21
-13.4082022591
31
0.0000000000
11
-11.6978091395
21
-13.7228872472
31
0.0000000000
0
SPLINE
5
461
100
AcDbEntity
8
0
100
AcDbSpline
62
9
6
CONTINUOUS
70
0
71
3
72
10
73
6
74
4
42
0.0000001000
43
0.0000001000
44
0.0000000001
12
1.9574595218
22
-0.3269969204
32
0.0000000000
13
1.7750661431
23
0.8875330715
33
0.0000000000
40
0.0000000000
40
0.0000000000
40
0.0000000000
40
0.0000000000
40
0.3087145083
40
0.6545346213
40
1.0000000000
40
1.0000000000
40
1.0000000000
40
1.0000000000
10
-10.7622186163
20
-14.6626221642
30
0.0000000000
10
-10.5607865651
20
-14.6962717287
30
0.0000000000
10
-10.1265839406
20
-14.7296425102
30
0.0000000000
10
-9.4653251124
20
-14.6695113153
30
0.0000000000
10
-9.0210421698
20
-14.5355368253
30
0.0000000000
10
-8.8166342040
20
-14.4333328424
30
0.0000000000
11
-10.7622186163
21
-14.6626221642
31
0.0000000000
11
-10.1515072010
21
-14.7115716009
31
0.0000000000
11
-9.4683027583
21
-14.6463646025
31
0.0000000000
11
-8.8166342040
21
-14.4333328424
31
0.0000000000
0
SPLINE
5
462
100
AcDbEntity
8
0
100
AcDbSpline
62
9
6
CONTINUOUS
70
0
71
3
72
9
73
5
74
3
42
0.0000001000
43
0.0000001000
44
0.0000000001
12
-0.1674575539
22
0.0888489266
32
0.0000000000
13
-0.0000000000
23
0.1857001848
33
0.0000000000
40
0.0000000000
40
0.0000000000
40
0.0000000000
40
0.0000000000
40
0.3584644710
40
1.0000000000
40
1.0000000000
40
1.0000000000
40
1.0000000000
10
-1.1722228085
20
3.7028560020
30
0.0000000000
10
-1.1922320030
20
3.7134723965
30
0.0000000000
10
-1.2410221507
20
3.7589361236
30
0.0000000000
10
-1.2505916453
20
3.8246514948
30
0.0000000000
10
-1.2505916453
20
3.8643625836
30
0.0000000000
11
-1.1722228085
21
3.7028560020
31
0.0000000000
11
-1.2221713445
21
3.7486689293
31
0.0000000000
11
-1.2505916453
21
3.8643625836
31
0.0000000000
0
SPLINE
5
463
100
AcDbEntity
8
0
100
AcDbSpline
62
9
6
CONTINUOUS
70
0
71
3
72
9
73
5
74
3
42
0.0000001000
43
0.0000001000
44
0.0000000001
12
0.0000000000
22
-0.1472683445
32
0.0000000000
13
0.1265958659
23
-0.0632979330
33
0.0000000000
40
0.0000000000
40
0.0000000000
40
0.0000000000
40
0.0000000000
40
0.2742918852
40
1.0000000000
40
1.0000000000
40
1.0000000000
40
1.0000000000
10
-1.4776815469
20
4.2143443596
30
0.0000000000
10
-1.4776815469
20
4.2008795223
30
0.0000000000
10
-1.4679317971
20
4.1517900741
30
0.0000000000
10
-1.4226368840
20
4.1235902836
30
0.0000000000
10
-1.3920130016
20
4.1082783424
30
0.0000000000
11
-1.4776815469
21
4.2143443596
31
0.0000000000
11
-1.4696587151
21
4.1755215028
31
0.0000000000
11
-1.3920130016
21
4.1082783424
31
0.0000000000
0
SPLINE
5
464
100
AcDbEntity
8
0
100
AcDbSpline
62
9
6
CONTINUOUS
70
0
71
3
72
15
73
11
74
9
42
0.0000001000
43
0.0000001000
44
0.0000000001
12
21.6258464988
22
10.6826930049
32
0.0000000000
13
0.3028847047
23
-23.9749373532
33
0.0000000000
40
0.0000000000
40
0.0000000000
40
0.0000000000
40
0.0000000000
40
0.0822562626
40
0.1839988312
40
0.3013572520
40
0.4342219449
40
0.5781490607
40
0.7265740791
40
0.8721448955
40
1.0000000000
40
1.0000000000
40
1.0000000000
40
1.0000000000
10
-2.7306025372
20
22.3744683574
30
0.0000000000
10
-2.1376487678
20
22.6673744911
30
0.0000000000
10
-0.6647641055
20
23.0362108874
30
0.0000000000
10
1.7653131141
20
22.6248522963
30
0.0000000000
10
4.2847082822
20
21.3011015500
30
0.0000000000
10
6.6671787037
20
19.2047795361
30
0.0000000000
10
8.7485254098
20
16.4955068591
30
0.0000000000
10
10.3747996298
20
13.3770004693
30
0.0000000000
10
11.4022380986
20
10.1493180636
30
0.0000000000
10
11.6754710248
20
7.9635385262
30
0.0000000000
10
11.6883794766
20
6.9417658196
30
0.0000000000
11
-2.7306025372
21
22.3744683574
31
0.0000000000
11
-0.8185827213
21
22.8732417181
31
0.0000000000
11
1.5965998438
21
22.5329677487
31
0.0000000000
11
4.1124232746
21
21.2736881812
31
0.0000000000
11
6.5269808906
21
19.1964634744
31
0.0000000000
11
8.6428149102
21
16.4710498038
31
0.0000000000
11
10.2896302014
21
13.3169526886
31
0.0000000000
11
11.3340739985
21
9.9872028955
31
0.0000000000
11
11.6883794766
21
6.9417658196
31
0.0000000000
0
SPLINE
5
465
100
AcDbEntity
8
0
100
AcDbSpline
62
9
6
CONTINUOUS
70
0
71
3
72
8
73
4
74
2
42
0.0000001000
43
0.0000001000
44
0.0000000001
12
0.0021609108
22
-0.1710475963
32
0.0000000000
13
-0.0000000002
23
-0.1710310188
33
0.0000000000
40
0.0000000000
40
0.0000000000
40
0.0000000000
40
0.0000000000
40
1.0000000000
40
1.0000000000
40
1.0000000000
40
1.0000000000
10
11.6883794766
20
6.9417658196
30
0.0000000000
10
11.6890997802
20
6.8847499542
30
0.0000000000
10
11.6894624504
20
6.8277350445
30
0.0000000000
10
11.6894624504
20
6.7707247049
30
0.0000000000
11
11.6883794766
21
6.9417658196
31
0.0000000000
11
11.6894624504
21
6.7707247049
31
0.0000000000
0
SPLINE
5
466
100
AcDbEntity
8
0
100
AcDbSpline
62
9
6
CONTINUOUS
70
0
71
3
72
9
73
5
74
3
42
0.0000001000
43
0.0000001000
44
0.0000000001
12
-0.0000000000
22
-0.2454472409
32
0.0000000000
13
-0.2109931099
23
-0.1054965549
33
0.0000000000
40
0.0000000000
40
0.0000000000
40
0.0000000000
40
0.0000000000
40
0.2742918865
40
1.0000000000
40
1.0000000000
40
1.0000000000
40
1.0000000000
10
11.8322433592
20
6.9475014002
30
0.0000000000
10
11.8322433592
20
6.9250600046
30
0.0000000000
10
11.8159937761
20
6.8432442576
30
0.0000000000
10
11.7405022543
20
6.7962446068
30
0.0000000000
10
11.6894624504
20
6.7707247049
30
0.0000000000
11
11.8322433592
21
6.9475014002
31
0.0000000000
11
11.8188719728
21
6.8827966386
31
0.0000000000
11
11.6894624504
21
6.7707247049
31
0.0000000000
0
SPLINE
5
467
100
AcDbEntity
8
0
100
AcDbSpline
62
0
6
CONTINUOUS
70
0
71
3
72
9
73
5
74
3
42
0.0000001000
43
0.0000001000
44
0.0000000001
12
0.0335424859
22
0.2545376894
32
0.0000000000
13
-0.0753828137
23
0.2454220143
33
0.0000000000
40
0.0000000000
40
0.0000000000
40
0.0000000000
40
0.0000000000
40
0.4734693663
40
1.0000000000
40
1.0000000000
40
1.0000000000
40
1.0000000000
10
7.8809407453
20
-13.9806071017
30
0.0000000000
10
7.8862345251
20
-13.9404351689
30
0.0000000000
10
7.8857415192
20
-13.8539539143
30
0.0000000000
10
7.8676836097
20
-13.7697473961
30
0.0000000000
10
7.8544531562
20
-13.7266733265
30
0.0000000000
11
7.8809407453
21
-13.9806071017
31
0.0000000000
11
7.8818300974
21
-13.8590526543
31
0.0000000000
11
7.8544531562
21
-13.7266733265
31
0.0000000000
0
SPLINE
5
468
100
AcDbEntity
8
0
100
AcDbSpline
62
9
6
CONTINUOUS
70
0
71
3
72
9
73
5
74
3
42
0.0000001000
43
0.0000001000
44
0.0000000001
12
-0.1674575538
22
0.0888489256
32
0.0000000000
13
-0.0000000000
23
0.1857001852
33
0.0000000000
40
0.0000000000
40
0.0000000000
40
0.0000000000
40
0.0000000000
40
0.3584644453
40
1.0000000000
40
1.0000000000
40
1.0000000000
40
1.0000000000
10
-4.7077567146
20
5.4706229547
30
0.0000000000
10
-4.7277659077
20
5.4812393483
30
0.0000000000
10
-4.7765560556
20
5.5267030743
30
0.0000000000
10
-4.7861255513
20
5.5924184461
30
0.0000000000
10
-4.7861255513
20
5.6321295365
30
0.0000000000
11
-4.7077567146
21
5.4706229547
31
0.0000000000
11
-4.7577052476
21
5.5164358778
31
0.0000000000
11
-4.7861255513
21
5.6321295365
31
0.0000000000
0
SPLINE
5
469
100
AcDbEntity
8
0
100
AcDbSpline
62
0
6
CONTINUOUS
70
0
71
3
72
9
73
5
74
3
42
0.0000001000
43
0.0000001000
44
0.0000000001
12
0.0629493399
22
-0.0314746699
32
0.0000000000
13
0.0608763186
23
-0.0353178151
33
0.0000000000
40
0.0000000000
40
0.0000000000
40
0.0000000000
40
0.0000000000
40
0.5033674109
40
1.0000000000
40
1.0000000000
40
1.0000000000
40
1.0000000000
10
-9.6931692893
20
-10.6375526869
30
0.0000000000
10
-9.6826070739
20
-10.6428337946
30
0.0000000000
10
-9.6617832061
20
-10.6536470889
30
0.0000000000
10
-9.6413048756
20
-10.6651014460
30
0.0000000000
10
-9.6312271543
20
-10.6709481053
30
0.0000000000
11
-9.6931692893
21
-10.6375526869
31
0.0000000000
11
-9.6617305128
21
-10.6538823462
31
0.0000000000
11
-9.6312271543
21
-10.6709481053
31
0.0000000000
0
SPLINE
5
46A
100
AcDbEntity
8
0
100
AcDbSpline
62
0
6
CONTINUOUS
70
0
71
3
72
9
73
5
74
3
42
0.0000001000
43
0.0000001000
44
0.0000000001
12
0.0656577569
22
-0.0280177671
32
0.0000000000
13
0.0638494248
23
-0.0319247124
33
0.0000000000
40
0.0000000000
40
0.0000000000
40
0.0000000000
40
0.0000000000
40
0.5001774917
40
1.0000000000
40
1.0000000000
40
1.0000000000
40
1.0000000000
10
1.0460852416
20
-16.0096043033
30
0.0000000000
10
1.0570320856
20
-16.0142755888
30
0.0000000000
10
1.0787815329
20
-16.0239381088
30
0.0000000000
10
1.1002298872
20
-16.0342522751
30
0.0000000000
10
1.1108676804
20
-16.0395711717
30
0.0000000000
11
1.0460852416
21
-16.0096043033
31
0.0000000000
11
1.0787139269
21
-16.0241045661
31
0.0000000000
11
1.1108676804
21
-16.0395711717
31
0.0000000000
0
SPLINE
5
46B
100
AcDbEntity
8
0
100
AcDbSpline
62
0
6
CONTINUOUS
70
0
71
3
72
9
73
5
74
3
42
0.0000001000
43
0.0000001000
44
0.0000000001
12
1.9241322307
22
-1.4033289227
32
0.0000000000
13
2.2987969187
23
-0.6222134948
33
0.0000000000
40
0.0000000000
40
0.0000000000
40
0.0000000000
40
0.0000000000
40
0.5225486407
40
1.0000000000
40
1.0000000000
40
1.0000000000
40
1.0000000000
10
-3.3719119889
20
2.2019986381
30
0.0000000000
10
-3.0367610950
20
1.9575627645
30
0.0000000000
10
-2.3600202797
20
1.5354417201
30
0.0000000000
10
-1.6164462166
20
1.2403640260
30
0.0000000000
10
-1.2505916453
20
1.1413384664
30
0.0000000000
11
-3.3719119889
21
2.2019986381
31
0.0000000000
11
-2.3112518171
21
1.5510952951
31
0.0000000000
11
-1.2505916453
21
1.1413384664
31
0.0000000000
0
SPLINE
5
46C
100
AcDbEntity
8
0
100
AcDbSpline
62
9
6
CONTINUOUS
70
0
71
3
72
9
73
5
74
3
42
0.0000001000
43
0.0000001000
44
0.0000000001
12
-0.1674575539
22
0.0888489268
32
0.0000000000
13
0.0000000000
23
0.1857001847
33
0.0000000000
40
0.0000000000
40
0.0000000000
40
0.0000000000
40
0.0000000000
40
0.3584644758
40
1.0000000000
40
1.0000000000
40
1.0000000000
40
1.0000000000
10
-5.3051007525
20
5.7692949741
30
0.0000000000
10
-5.3251099473
20
5.7799113688
30
0.0000000000
10
-5.3739000949
20
5.8253750961
30
0.0000000000
10
-5.3834695894
20
5.8910904671
30
0.0000000000
10
-5.3834695894
20
5.9308015556
30
0.0000000000
11
-5.3051007525
21
5.7692949741
31
0.0000000000
11
-5.3550492890
21
5.8151079022
31
0.0000000000
11
-5.3834695894
21
5.9308015556
31
0.0000000000
0
SPLINE
5
46D
100
AcDbEntity
8
0
100
AcDbSpline
62
9
6
CONTINUOUS
70
0
71
3
72
9
73
5
74
3
42
0.0000001000
43
0.0000001000
44
0.0000000001
12
-0.0000000000
22
-0.1472683445
32
0.0000000000
13
0.1265958659
23
-0.0632979330
33
0.0000000000
40
0.0000000000
40
0.0000000000
40
0.0000000000
40
0.0000000000
40
0.2742918852
40
1.0000000000
40
1.0000000000
40
1.0000000000
40
1.0000000000
10
-1.4776815469
20
10.8827399687
30
0.0000000000
10
-1.4776815469
20
10.8692751315
30
0.0000000000
10
-1.4679317971
20
10.8201856833
30
0.0000000000
10
-1.4226368840
20
10.7919858928
30
0.0000000000
10
-1.3920130016
20
10.7766739516
30
0.0000000000
11
-1.4776815469
21
10.8827399687
31
0.0000000000
11
-1.4696587151
21
10.8439171120
31
0.0000000000
11
-1.3920130016
21
10.7766739516
31
0.0000000000
0
SPLINE
5
46E
100
AcDbEntity
8
0
100
AcDbSpline
62
9
6
CONTINUOUS
70
0
71
3
72
9
73
5
74
3
42
0.0000001000
43
0.0000001000
44
0.0000000001
12
-0.0189456475
22
0.0112609658
32
0.0000000000
13
0.0163910228
23
0.0212735263
33
0.0000000000
40
0.0000000000
40
0.0000000000
40
0.0000000000
40
0.0000000000
40
0.1925221635
40
1.0000000000
40
1.0000000000
40
1.0000000000
40
1.0000000000
10
-5.5144284611
20
5.9681474106
30
0.0000000000
10
-5.5156442801
20
5.9688700724
30
0.0000000000
10
-5.5208237194
20
5.9730354692
30
0.0000000000
10
-5.5185089455
20
5.9793898343
30
0.0000000000
10
-5.5140971496
20
5.9851158013
30
0.0000000000
11
-5.5144284611
21
5.9681474106
31
0.0000000000
11
-5.5173608224
21
5.9705550685
31
0.0000000000
11
-5.5140971496
21
5.9851158013
31
0.0000000000
0
SPLINE
5
46F
100
AcDbEntity
8
0
100
AcDbSpline
62
9
6
CONTINUOUS
70
0
71
3
72
8
73
4
74
2
42
0.0000001000
43
0.0000001000
44
0.0000000001
12
0.0261727929
22
0.0339690577
32
0.0000000000
13
0.0314598187
23
0.0286203384
33
0.0000000000
40
0.0000000000
40
0.0000000000
40
0.0000000000
40
0.0000000000
40
1.0000000000
40
1.0000000000
40
1.0000000000
40
1.0000000000
10
-5.5140971496
20
5.9851158013
30
0.0000000000
10
-5.5053728853
20
5.9964388205
30
0.0000000000
10
-5.4867056462
20
6.0100883938
30
0.0000000000
10
-5.4762190400
20
6.0196285066
30
0.0000000000
11
-5.5140971496
21
5.9851158013
31
0.0000000000
11
-5.4762190400
21
6.0196285066
31
0.0000000000
0
SPLINE
5
470
100
AcDbEntity
8
0
100
AcDbSpline
62
0
6
CONTINUOUS
70
0
71
3
72
9
73
5
74
3
42
0.0000001000
43
0.0000001000
44
0.0000000001
12
-1.3300133514
22
-2.6071528365
32
0.0000000000
13
0.0000000000
23
-2.9268039613
33
0.0000000000
40
0.0000000000
40
0.0000000000
40
0.0000000000
40
0.0000000000
40
0.4698665802
40
1.0000000000
40
1.0000000000
40
1.0000000000
40
1.0000000000
10
-7.4702674151
20
14.3341373062
30
0.0000000000
10
-7.6785770234
20
13.9257993104
30
0.0000000000
10
-7.9881478368
20
12.9868428145
30
0.0000000000
10
-8.0741720838
20
12.0078613336
30
0.0000000000
10
-8.0741720838
20
11.4906624693
30
0.0000000000
11
-7.4702674151
21
14.3341373062
31
0.0000000000
11
-7.9201375778
21
13.0345942549
31
0.0000000000
11
-8.0741720838
21
11.4906624693
31
0.0000000000
0
SPLINE
5
471
100
AcDbEntity
8
0
100
AcDbSpline
62
0
6
CONTINUOUS
70
0
71
3
72
9
73
5
74
3
42
0.0000001000
43
0.0000001000
44
0.0000000001
12
0.0000000000
22
-3.5112692216
32
0.0000000000
13
1.1237540814
23
-3.3265880886
33
0.0000000000
40
0.0000000000
40
0.0000000000
40
0.0000000000
40
0.0000000000
40
0.4855619569
40
1.0000000000
40
1.0000000000
40
1.0000000000
40
1.0000000000
10
-8.0741720838
20
11.4906624693
30
0.0000000000
10
-8.0741720838
20
10.9223495512
30
0.0000000000
10
-7.9599072936
20
9.7506769781
30
0.0000000000
10
-7.6629680319
20
8.6137241192
30
0.0000000000
10
-7.4702674151
20
8.0432829637
30
0.0000000000
11
-8.0741720838
21
11.4906624693
31
0.0000000000
11
-7.9201375778
21
9.7926961777
31
0.0000000000
11
-7.4702674151
21
8.0432829637
31
0.0000000000
0
SPLINE
5
472
100
AcDbEntity
8
0
100
AcDbSpline
62
0
6
CONTINUOUS
70
0
71
3
72
9
73
5
74
3
42
0.0000001000
43
0.0000001000
44
0.0000000001
12
1.1970893367
22
-3.5436784564
32
0.0000000000
13
2.1483108155
23
-3.0619341146
33
0.0000000000
40
0.0000000000
40
0.0000000000
40
0.0000000000
40
0.0000000000
40
0.5002931000
40
1.0000000000
40
1.0000000000
40
1.0000000000
40
1.0000000000
10
-7.4702674151
20
8.0432829637
30
0.0000000000
10
-7.2706355700
20
7.4523236702
30
0.0000000000
10
-6.7847077685
20
6.2990098450
30
0.0000000000
10
-6.1429633920
20
5.2245336626
30
0.0000000000
10
-5.7851214794
20
4.7145104612
30
0.0000000000
11
-7.4702674151
21
8.0432829637
31
0.0000000000
11
-6.7454230907
21
6.3180662973
31
0.0000000000
11
-5.7851214794
21
4.7145104612
31
0.0000000000
0
SPLINE
5
473
100
AcDbEntity
8
0
100
AcDbSpline
62
0
6
CONTINUOUS
70
0
71
3
72
8
73
4
74
2
42
0.0000001000
43
0.0000001000
44
0.0000000001
12
1.0112841938
22
-1.4413582756
32
0.0000000000
13
1.2165551763
23
-1.2772312347
33
0.0000000000
40
0.0000000000
40
0.0000000000
40
0.0000000000
40
0.0000000000
40
1.0000000000
40
1.0000000000
40
1.0000000000
40
1.0000000000
10
-5.7851214794
20
4.7145104612
30
0.0000000000
10
-5.4480267481
20
4.2340577026
30
0.0000000000
10
-5.0771804718
20
3.7762409739
30
0.0000000000
10
-4.6716620797
20
3.3504972290
30
0.0000000000
11
-5.7851214794
21
4.7145104612
31
0.0000000000
11
-4.6716620797
21
3.3504972290
31
0.0000000000
0
SPLINE
5
474
100
AcDbEntity
8
0
100
AcDbSpline
62
0
6
CONTINUOUS
70
0
71
3
72
8
73
4
74
2
42
0.0000001000
43
0.0000001000
44
0.0000000001
12
0.0192327895
22
-0.0201920307
32
0.0000000000
13
0.0192847943
23
-0.0201438225
33
0.0000000000
40
0.0000000000
40
0.0000000000
40
0.0000000000
40
0.0000000000
40
1.0000000000
40
1.0000000000
40
1.0000000000
40
1.0000000000
10
-4.6716620797
20
3.3504972290
30
0.0000000000
10
-4.6652511498
20
3.3437665521
30
0.0000000000
10
-4.6588315544
20
3.3370438913
30
0.0000000000
10
-4.6524032896
20
3.3303292838
30
0.0000000000
11
-4.6716620797
21
3.3504972290
31
0.0000000000
11
-4.6524032896
21
3.3303292838
31
0.0000000000
0
SPLINE
5
475
100
AcDbEntity
8
0
100
AcDbSpline
62
0
6
CONTINUOUS
70
0
71
3
72
8
73
4
74
2
42
0.0000001000
43
0.0000001000
44
0.0000000001
12
1.1823974091
22
-1.2350665088
32
0.0000000000
13
1.3789099641
23
-1.0056815241
33
0.0000000000
40
0.0000000000
40
0.0000000000
40
0.0000000000
40
0.0000000000
40
1.0000000000
40
1.0000000000
40
1.0000000000
40
1.0000000000
10
-4.6524032896
20
3.3303292838
30
0.0000000000
10
-4.2582708199
20
2.9186404475
30
0.0000000000
10
-3.8315486436
20
2.5372258129
30
0.0000000000
10
-3.3719119889
20
2.2019986381
30
0.0000000000
11
-4.6524032896
21
3.3303292838
31
0.0000000000
11
-3.3719119889
21
2.2019986381
31
0.0000000000
0
SPLINE
5
476
100
AcDbEntity
8
0
100
AcDbSpline
62
0
6
CONTINUOUS
70
0
71
3
72
9
73
5
74
3
42
0.0000001000
43
0.0000001000
44
0.0000000001
12
1.6241854766
22
-0.4396169637
32
0.0000000000
13
1.6734996776
23
0.2698672216
33
0.0000000000
40
0.0000000000
40
0.0000000000
40
0.0000000000
40
0.0000000000
40
0.7663602359
40
1.0000000000
40
1.0000000000
40
1.0000000000
40
1.0000000000
10
-1.2505916453
20
1.1413384664
30
0.0000000000
10
-0.8356879237
20
1.0290368130
30
0.0000000000
10
-0.2701639781
20
0.9511381180
30
0.0000000000
10
0.2933124055
20
1.0086673779
30
0.0000000000
10
0.4236444288
20
1.0296846159
30
0.0000000000
11
-1.2505916453
21
1.1413384664
31
0.0000000000
11
0.0298996554
21
0.9891778113
31
0.0000000000
11
0.4236444288
21
1.0296846159
31
0.0000000000
0
SPLINE
5
477
100
AcDbEntity
8
0
100
AcDbSpline
62
0
6
CONTINUOUS
70
0
71
3
72
8
73
4
74
2
42
0.0000001000
43
0.0000001000
44
0.0000000001
12
0.3823671557
22
0.0616602222
32
0.0000000000
13
0.3714160151
23
0.1056473538
33
0.0000000000
40
0.0000000000
40
0.0000000000
40
0.0000000000
40
0.0000000000
40
1.0000000000
40
1.0000000000
40
1.0000000000
40
1.0000000000
10
0.4236444288
20
1.0296846159
30
0.0000000000
10
0.5511001474
20
1.0502380233
30
0.0000000000
10
0.6772949524
20
1.0780368405
30
0.0000000000
10
0.8011002907
20
1.1132526251
30
0.0000000000
11
0.4236444288
21
1.0296846159
31
0.0000000000
11
0.8011002907
21
1.1132526251
31
0.0000000000
0
SPLINE
5
478
100
AcDbEntity
8
0
100
AcDbSpline
62
0
6
CONTINUOUS
70
0
71
3
72
9
73
5
74
3
42
0.0000001000
43
0.0000001000
44
0.0000000001
12
0.3539647318
22
0.2439791389
32
0.0000000000
13
0.2789405558
23
0.3271223286
33
0.0000000000
40
0.0000000000
40
0.0000000000
40
0.0000000000
40
0.0000000000
40
0.4910844003
40
1.0000000000
40
1.0000000000
40
1.0000000000
40
1.0000000000
10
7.5649469026
20
-14.2707881020
30
0.0000000000
10
7.6228890886
20
-14.2308499857
30
0.0000000000
10
7.7343743201
20
-14.1399438789
30
0.0000000000
10
7.8336216785
20
-14.0360996537
30
0.0000000000
10
7.8809407453
20
-13.9806071017
30
0.0000000000
11
7.5649469026
21
-14.2707881020
31
0.0000000000
11
7.7294350716
21
-14.1384446369
31
0.0000000000
11
7.8809407453
21
-13.9806071017
31
0.0000000000
0
SPLINE
5
479
100
AcDbEntity
8
0
100
AcDbSpline
62
9
6
CONTINUOUS
70
0
71
3
72
9
73
5
74
3
42
0.0000001000
43
0.0000001000
44
0.0000000001
12
0.1198704113
22
0.0595160815
32
0.0000000000
13
0.1318282508
23
0.0218704086
33
0.0000000000
40
0.0000000000
40
0.0000000000
40
0.0000000000
40
0.0000000000
40
0.4208366234
40
1.0000000000
40
1.0000000000
40
1.0000000000
40
1.0000000000
10
-0.2086907160
20
17.5151047117
30
0.0000000000
10
-0.1918754297
20
17.5234535607
30
0.0000000000
10
-0.1506883986
20
17.5408568391
30
0.0000000000
10
-0.1073452814
20
17.5518435565
30
0.0000000000
10
-0.0818952498
20
17.5560657364
30
0.0000000000
11
-0.2086907160
21
17.5151047117
31
0.0000000000
11
-0.1568275572
21
17.5369650393
31
0.0000000000
11
-0.0818952498
21
17.5560657364
31
0.0000000000
0
SPLINE
5
47A
100
AcDbEntity
8
0
100
AcDbSpline
62
9
6
CONTINUOUS
70
0
71
3
72
9
73
5
74
3
42
0.0000001000
43
0.0000001000
44
0.0000000001
12
0.0733489325
22
0.0121686445
32
0.0000000000
13
0.0743142583
23
0.0004645230
33
0.0000000000
40
0.0000000000
40
0.0000000000
40
0.0000000000
40
0.0000000000
40
0.5044709625
40
1.0000000000
40
1.0000000000
40
1.0000000000
40
1.0000000000
10
-0.0818952498
20
17.5560657364
30
0.0000000000
10
-0.0695611143
20
17.5581119790
30
0.0000000000
10
-0.0449497771
20
17.5611713986
30
0.0000000000
10
-0.0201860698
20
17.5622599882
30
0.0000000000
10
-0.0079111122
20
17.5623367165
30
0.0000000000
11
-0.0818952498
21
17.5560657364
31
0.0000000000
11
-0.0446909275
21
17.5606971973
31
0.0000000000
11
-0.0079111122
21
17.5623367165
31
0.0000000000
0
SPLINE
5
47B
100
AcDbEntity
8
0
100
AcDbSpline
62
9
6
CONTINUOUS
70
0
71
3
72
12
73
8
74
6
42
0.0000001000
43
0.0000001000
44
0.0000000001
12
0.5591740531
22
0.0034952813
32
0.0000000000
13
0.3965160322
23
-0.3927247310
33
0.0000000000
40
0.0000000000
40
0.0000000000
40
0.0000000000
40
0.0000000000
40
0.1300779225
40
0.3290611912
40
0.5391580999
40
0.7625093710
40
1.0000000000
40
1.0000000000
40
1.0000000000
40
1.0000000000
10
-0.0079111122
20
17.5623367165
30
0.0000000000
10
0.0163342875
20
17.5624882694
30
0.0000000000
10
0.0777061647
20
17.5583050788
30
0.0000000000
10
0.1757043984
20
17.5342389519
30
0.0000000000
10
0.2835875453
20
17.4859139473
30
0.0000000000
10
0.3884049806
20
17.4173423426
30
0.0000000000
10
0.4531110012
20
17.3606572248
30
0.0000000000
10
0.4845006151
20
17.3295677436
30
0.0000000000
11
-0.0079111122
21
17.5623367165
31
0.0000000000
11
0.0646109509
21
17.5575395122
31
0.0000000000
11
0.1726025715
21
17.5316595688
31
0.0000000000
11
0.2798642165
21
17.4843002731
31
0.0000000000
11
0.3844839082
21
17.4165357357
31
0.0000000000
11
0.4845006151
21
17.3295677436
31
0.0000000000
0
SPLINE
5
47C
100
AcDbEntity
8
0
100
AcDbSpline
62
0
6
CONTINUOUS
70
0
71
3
72
10
73
6
74
4
42
0.0000001000
43
0.0000001000
44
0.0000000001
12
0.6751533367
22
0.3259435211
32
0.0000000000
13
0.5442161711
23
-0.5038380457
33
0.0000000000
40
0.0000000000
40
0.0000000000
40
0.0000000000
40
0.0000000000
40
0.2231037878
40
0.5762256361
40
1.0000000000
40
1.0000000000
40
1.0000000000
40
1.0000000000
10
4.6512775705
20
19.9446356878
30
0.0000000000
10
4.7014873261
20
19.9688754325
30
0.0000000000
10
4.8467371566
20
20.0038569466
30
0.0000000000
10
5.0937207212
20
19.9370011562
30
0.0000000000
10
5.2520531415
20
19.8228772285
30
0.0000000000
10
5.3289280955
20
19.7517060127
30
0.0000000000
11
4.6512775705
21
19.9446356878
31
0.0000000000
11
4.8135238913
21
19.9849446411
31
0.0000000000
11
5.0693397721
21
19.9288777001
31
0.0000000000
11
5.3289280955
21
19.7517060127
31
0.0000000000
0
SPLINE
5
47D
100
AcDbEntity
8
0
100
AcDbSpline
62
9
6
CONTINUOUS
70
0
71
3
72
8
73
4
74
2
42
0.0000001000
43
0.0000001000
44
0.0000000001
12
0.0068587451
22
-0.3187385334
32
0.0000000000
13
0.1734945275
23
-0.2596419826
33
0.0000000000
40
0.0000000000
40
0.0000000000
40
0.0000000000
40
0.0000000000
40
1.0000000000
40
1.0000000000
40
1.0000000000
40
1.0000000000
10
-12.0581877222
20
-13.7615394530
30
0.0000000000
10
-12.0559014738
20
-13.8677856308
30
0.0000000000
10
-12.0200501255
20
-13.9760748367
30
0.0000000000
10
-11.9622186163
20
-14.0626221642
30
0.0000000000
11
-12.0581877222
21
-13.7615394530
31
0.0000000000
11
-11.9622186163
21
-14.0626221642
31
0.0000000000
0
SPLINE
5
47E
100
AcDbEntity
8
0
100
AcDbSpline
62
9
6
CONTINUOUS
70
0
71
3
72
9
73
5
74
3
42
0.0000001000
43
0.0000001000
44
0.0000000001
12
-2.3343778969
22
0.0702509988
32
0.0000000000
13
-2.2024665049
23
-0.7767861116
33
0.0000000000
40
0.0000000000
40
0.0000000000
40
0.0000000000
40
0.0000000000
40
0.4994827637
40
1.0000000000
40
1.0000000000
40
1.0000000000
40
1.0000000000
10
-5.3205263726
20
20.2320811749
30
0.0000000000
10
-5.7091868804
20
20.2437775626
30
0.0000000000
10
-6.4912257802
20
20.1964174835
30
0.0000000000
10
-7.2508679731
20
20.0043546185
30
0.0000000000
10
-7.6183254558
20
19.8747563393
30
0.0000000000
11
-5.3205263726
21
20.2320811749
31
0.0000000000
11
-6.4848291841
21
20.1603655865
31
0.0000000000
11
-7.6183254558
21
19.8747563393
31
0.0000000000
0
ENDSEC
0
SECTION
2
OBJECTS
0
DICTIONARY
5
C
100
AcDbDictionary
280
0
281
1
3
ACAD_GROUP
350
D
3
ACAD_MLINESTYLE
350
17
3
ACAD_LAYOUT
350
1A
3
ACAD_PLOTSETTINGS
350
19
3
ACAD_PLOTSTYLENAME
350
E
0
DICTIONARY
5
D
102
{ACAD_REACTORS
330
C
102
}
100
AcDbDictionary
280
0
281
1
0
ACDBDICTIONARYWDFLT
5
E
102
{ACAD_REACTORS
330
C
102
}
100
AcDbDictionary
281
1
3
Normal
350
F
100
AcDbDictionaryWithDefault
340
F
0
DICTIONARY
5
17
102
{ACAD_REACTORS
330
C
102
}
100
AcDbDictionary
280
0
281
1
3
Standard
350
18
0
DICTIONARY
5
19
102
{ACAD_REACTORS
330
C
102
}
100
AcDbDictionary
281
1
0
DICTIONARY
5
1A
102
{ACAD_REACTORS
330
C
102
}
100
AcDbDictionary
281
1
3
Layout1
350
1E
3
Model
350
22
0
ACDBPLACEHOLDER
5
F
102
{ACAD_REACTORS
330
E
102
}
0
MLINESTYLE
5
18
102
{ACAD_REACTORS
330
17
102
}
100
AcDbMlineStyle
2
STANDARD
70
0
3

62
256
51
90.0
52
90.0
71
2
49
0.5
62
256
6
BYLAYER
49
-0.5
62
256
6
BYLAYER
0
LAYOUT
5
1E
102
{ACAD_REACTORS
330
1A
102
}
100
AcDbPlotSettings
1

2

4

6

40
0.0
41
0.0
42
0.0
43
0.0
44
0.0
45
0.0
46
0.0
47
0.0
48
0.0
49
0.0
140
0.0
141
0.0
142
1.0
143
1.0
70
0
72
0
73
0
74
0
7

75
0
147
1.0
148
0.0
149
0.0
100
AcDbLayout
1
Layout1
70
0
71
0
10
0.0
20
0.0
11
0.0
21
0.0
12
0.0
22
0.0
32
0.0
14
0.0
24
0.0
34
0.0
15
0.0
25
0.0
35
0.0
146
0.0
13
0.0
23
0.0
33
0.0
16
0.0
26
0.0
36
0.0
17
0.0
27
0.0
37
0.0
76
0
330
1B
331
0
345
0
346
0
0
LAYOUT
5
22
102
{ACAD_REACTORS
330
1A
102
}
100
AcDbPlotSettings
1

2

4

6

40
0.0
41
0.0
42
0.0
43
0.0
44
0.0
45
0.0
46
0.0
47
0.0
48
0.0
49
0.0
140
0.0
141
0.0
142
1.0
143
1.0
70
0
72
0
73
0
74
0
7

75
0
147
1.0
148
0.0
149
0.0
100
AcDbLayout
1
Model
70
0
71
0
10
0.0
20
0.0
11
0.0
21
0.0
12
0.0
22
0.0
32
0.0
14
0.0
24
0.0
34
0.0
15
0.0
25
0.0
35
0.0
146
0.0
13
0.0
23
0.0
33
0.0
16
0.0
26
0.0
36
0.0
17
0.0
27
0.0
37
0.0
76
0
330
1F
331
0
345
0
346
0
0
ENDSEC
0
EOF
