  0
SECTION
  2
HEADER
  9
$ACADVER
  1
AC1024
  9
$DWGCODEPAGE
  3
ANSI_1252
  9
$EXTMAX
 10
297.0
 20
210.0
 30
0.0
  9
$EXTMIN
 10
0.0
 20
0.0
 30
0.0
  9
$LIMMIN
 10
0.0
 20
0.0
  9
$LIMMAX
 10
297.0
 20
210.0
  9
$VIEWCTR
 10
148.5
 20
105.0
  9
$VIEWSIZE
 40
210.0
  9
$CLAYER
  8
0
  9
$LTSCALE
 40
16.335
  9
$CELTYPE
  6
BYLAYER
  9
$DIMSCALE
 40
1.0
  9
$DIMASZ
 40
3.0
  9
$DIMEXO
 40
0.5
  9
$DIMDLI
 40
11.286
  9
$DIMEXE
 40
1.5
  9
$DIMCEN
 40
2.673
  9
$DIMLFAC
 40
1.0
  9
$DIMBLK
  1
_FILLED
  9
$DIMALT
 70
0
  9
$DIMALTF
 40
0.0393700787
  9
$DIMTXT
 40
3.0
  9
$DIMTOL
 70
1
  9
$DIMLIM
 70
0
  9
$DIMTFAC
 40
1.0
  9
$DIMTP
 40
0.01
  9
$DIMTM
 40
0.01
  9
$DIMGAP
 40
0.625
  9
$DIMDSEP
 70
44
  9
$AUNITS
 70
0
  9
$PDMODE
 70
3
  9
$PDSIZE
 40
3.0
  9
$HANDSEED
  5
2C8
  9
$TILEMODE
 70
1
  9
$MEASUREMENT
 70
1
  9
$INSUNITS
 70
4
  0
ENDSEC
  0
SECTION
  2
CLASSES
  0
CLASS
  1
ACDBDICTIONARYWDFLT
  2
AcDbDictionaryWithDefault
  3
AutoCAD 2000
 90
0
 91
1
280
0
281
0
  0
CLASS
  1
ACDBPLACEHOLDER
  2
AcDbPlaceHolder
  3
AutoCAD 2000
 90
0
 91
1
280
0
281
0
  0
CLASS
  1
LAYOUT
  2
AcDbLayout
  3
AutoCAD 2000
 90
0
 91
0
280
0
281
0
  0
ENDSEC
  0
SECTION
  2
TABLES
  0
TABLE
  2
VPORT
  5
8
100
AcDbSymbolTable
 70
2
  0
VPORT
  5
1F4
100
AcDbSymbolTableRecord
100
AcDbViewportTableRecord
  2
*ACTIVE
 70
0
 10
0.0
 20
0.0
 11
1.0
 21
1.0
 12
148.5
 22
105.0
 13
0.0
 23
0.0
 14
1.0
 24
1.0
 15
0.0
 25
0.0
 16
0.0
 26
0.0
 36
1.0
 17
0.0
 27
0.0
 37
0.0
 40
210.0
 41
1.4142857143
 42
50.0
 43
0.0
 44
0.0
 50
0.0
 51
0.0
 71
0
 72
100
 73
1
 74
1
 75
0
 76
0
 77
0
 78
0
  0
ENDTAB
  0
TABLE
  2
LTYPE
  5
5
100
AcDbSymbolTable
 70
6
  0
LTYPE
  5
14
100
AcDbSymbolTableRecord
100
AcDbLinetypeTableRecord
  2
BYBLOCK
 70
0
  3

 72
65
 73
0
 40
0.0
  0
LTYPE
  5
15
100
AcDbSymbolTableRecord
100
AcDbLinetypeTableRecord
  2
BYLAYER
 70
0
  3

 72
65
 73
0
 40
0.0
  0
LTYPE
  5
16
100
AcDbSymbolTableRecord
100
AcDbLinetypeTableRecord
  2
CONTINUOUS
 70
64
  3
Solid line
 72
65
 73
0
 40
0.0
  0
LTYPE
  5
1F5
100
AcDbSymbolTableRecord
100
AcDbLinetypeTableRecord
  2
CENTER
 70
64
  3
____ _ ____ _ ____ _ ____ _ ____ _ ____ _ ____
 72
65
 73
4
 40
0.6
 49
0.375
 74
0
 49
-0.075
 74
0
 49
0.075
 74
0
 49
-0.075
 74
0
  0
LTYPE
  5
1F6
100
AcDbSymbolTableRecord
100
AcDbLinetypeTableRecord
  2
HIDDEN
 70
64
  3
- - - - - - - - - - - - - - - - - - - -
 72
65
 73
2
 40
0.2
 49
0.1
 74
0
 49
-0.1
 74
0
  0
LTYPE
  5
1F7
100
AcDbSymbolTableRecord
100
AcDbLinetypeTableRecord
  2
PHANTOM
 70
64
  3
_____ _ _ _____ _ _ _____ _ _ _____
 72
65
 73
6
 40
0.8
 49
0.45
 74
0
 49
-0.05
 74
0
 49
0.1
 74
0
 49
-0.05
 74
0
 49
0.1
 74
0
 49
-0.05
 74
0
  0
LTYPE
  5
1F8
100
AcDbSymbolTableRecord
100
AcDbLinetypeTableRecord
  2
DOT
 70
64
  3
. . . . . . . . . . . . . . . . . . . .
 72
65
 73
2
 40
0.2
 49
0.1
 74
0
 49
-0.1
 74
0
  0
LTYPE
  5
1F9
100
AcDbSymbolTableRecord
100
AcDbLinetypeTableRecord
  2
DASHED
 70
64
  3
- - - - - - - - - - - - - - - - - - - -
 72
65
 73
2
 40
0.2
 49
0.1
 74
0
 49
-0.1
 74
0
  0
ENDTAB
  0
TABLE
  2
LAYER
  5
2
100
AcDbSymbolTable
 70
36
  0
LAYER
  5
10
100
AcDbSymbolTableRecord
100
AcDbLayerTableRecord
  2
0
 70
0
 62
7
  6
CONTINUOUS
370
-3
390
F
  0
LAYER
  5
1FA
100
AcDbSymbolTableRecord
100
AcDbLayerTableRecord
  2
DEFAULT_1
 70
0
 62
7
  6
CENTER
370
-3
390
F
  0
LAYER
  5
1FB
100
AcDbSymbolTableRecord
100
AcDbLayerTableRecord
  2
DEFAULT_2
 70
0
 62
7
  6
HIDDEN
370
-3
390
F
  0
LAYER
  5
1FC
100
AcDbSymbolTableRecord
100
AcDbLayerTableRecord
  2
DEFAULT_3
 70
0
 62
7
  6
PHANTOM
370
-3
390
F
  0
LAYER
  5
1FD
100
AcDbSymbolTableRecord
100
AcDbLayerTableRecord
  2
ASSI
 70
0
 62
7
  6
CONTINUOUS
370
-3
390
F
  0
LAYER
  5
1FE
100
AcDbSymbolTableRecord
100
AcDbLayerTableRecord
  2
CESTINO
 70
0
 62
7
  6
CONTINUOUS
370
-3
390
F
  0
LAYER
  5
1FF
100
AcDbSymbolTableRecord
100
AcDbLayerTableRecord
  2
COLOR5
 70
0
 62
7
  6
CONTINUOUS
370
-3
390
F
  0
LAYER
  5
200
100
AcDbSymbolTableRecord
100
AcDbLayerTableRecord
  2
COORDINATE
 70
0
 62
7
  6
CONTINUOUS
370
-3
390
F
  0
LAYER
  5
201
100
AcDbSymbolTableRecord
100
AcDbLayerTableRecord
  2
COORD_ORIGINE
 70
0
 62
7
  6
CONTINUOUS
370
-3
390
F
  0
LAYER
  5
202
100
AcDbSymbolTableRecord
100
AcDbLayerTableRecord
  2
COPY-PUBBLISH
 70
0
 62
7
  6
CONTINUOUS
370
-3
390
F
  0
LAYER
  5
203
100
AcDbSymbolTableRecord
100
AcDbLayerTableRecord
  2
COSMETICI
 70
0
 62
7
  6
CONTINUOUS
370
-3
390
F
  0
LAYER
  5
204
100
AcDbSymbolTableRecord
100
AcDbLayerTableRecord
  2
CURVE
 70
0
 62
7
  6
CONTINUOUS
370
-3
390
F
  0
LAYER
  5
205
100
AcDbSymbolTableRecord
100
AcDbLayerTableRecord
  2
DRAFT
 70
0
 62
7
  6
CONTINUOUS
370
-3
390
F
  0
LAYER
  5
206
100
AcDbSymbolTableRecord
100
AcDbLayerTableRecord
  2
NOTE
 70
0
 62
7
  6
CONTINUOUS
370
-3
390
F
  0
LAYER
  5
207
100
AcDbSymbolTableRecord
100
AcDbLayerTableRecord
  2
PIANI
 70
0
 62
7
  6
CONTINUOUS
370
-3
390
F
  0
LAYER
  5
208
100
AcDbSymbolTableRecord
100
AcDbLayerTableRecord
  2
PIANI_ORIGINE
 70
0
 62
7
  6
CONTINUOUS
370
-3
390
F
  0
LAYER
  5
209
100
AcDbSymbolTableRecord
100
AcDbLayerTableRecord
  2
PUNTI
 70
0
 62
7
  6
CONTINUOUS
370
-3
390
F
  0
LAYER
  5
20A
100
AcDbSymbolTableRecord
100
AcDbLayerTableRecord
  2
RACCORDO
 70
0
 62
7
  6
CONTINUOUS
370
-3
390
F
  0
LAYER
  5
20B
100
AcDbSymbolTableRecord
100
AcDbLayerTableRecord
  2
SIMBOLI
 70
0
 62
7
  6
CONTINUOUS
370
-3
390
F
  0
LAYER
  5
20C
100
AcDbSymbolTableRecord
100
AcDbLayerTableRecord
  2
SMUSSO
 70
0
 62
7
  6
CONTINUOUS
370
-3
390
F
  0
LAYER
  5
20D
100
AcDbSymbolTableRecord
100
AcDbLayerTableRecord
  2
SNAPLINE
 70
0
 62
7
  6
CONTINUOUS
370
-3
390
F
  0
LAYER
  5
20E
100
AcDbSymbolTableRecord
100
AcDbLayerTableRecord
  2
SUPERFICI
 70
0
 62
7
  6
CONTINUOUS
370
-3
390
F
  0
LAYER
  5
20F
100
AcDbSymbolTableRecord
100
AcDbLayerTableRecord
  2
TRASH
 70
0
 62
7
  6
CONTINUOUS
370
-3
390
F
  0
LAYER
  5
210
100
AcDbSymbolTableRecord
100
AcDbLayerTableRecord
  2
XSEC_DATUMS
 70
0
 62
7
  6
CONTINUOUS
370
-3
390
F
  0
ENDTAB
  0
TABLE
  2
STYLE
  5
3
100
AcDbSymbolTable
 70
1
  0
STYLE
  5
11
100
AcDbSymbolTableRecord
100
AcDbTextStyleTableRecord
  2
STANDARD
 70
0
 40
0.0
 41
0.8
 50
0.0
 71
0
 42
0.2
  3
txt
  4

  0
STYLE
  5
211
100
AcDbSymbolTableRecord
100
AcDbTextStyleTableRecord
  2
TEXTSTYLE_1
 70
0
 40
0.0
 41
0.8
 50
0.0
 71
0
 42
0.2
  3
gdt
  4

  0
ENDTAB
  0
TABLE
  2
VIEW
  5
6
100
AcDbSymbolTable
 70
0
  0
ENDTAB
  0
TABLE
  2
UCS
  5
7
100
AcDbSymbolTable
 70
0
  0
ENDTAB
  0
TABLE
  2
APPID
  5
9
100
AcDbSymbolTable
 70
1
  0
APPID
  5
212
100
AcDbSymbolTableRecord
100
AcDbRegAppTableRecord
  2
ACAD
 70
0
  0
ENDTAB
  0
TABLE
  2
BLOCK_RECORD
  5
1
100
AcDbSymbolTable
 70
0
  0
BLOCK_RECORD
  5
213
100
AcDbSymbolTableRecord
100
AcDbBlockTableRecord
  2
*Model_Space
  0
BLOCK_RECORD
  5
214
100
AcDbSymbolTableRecord
100
AcDbBlockTableRecord
  2
*Paper_Space
  0
BLOCK_RECORD
  5
215
100
AcDbSymbolTableRecord
100
AcDbBlockTableRecord
  2
_FILLED
  0
ENDTAB
  0
TABLE
  2
DIMSTYLE
  5
A
100
AcDbSymbolTable
 70
1
100
AcDbDimStyleTable
 71
0
  0
DIMSTYLE
105
216
100
AcDbSymbolTableRecord
100
AcDbDimStyleTableRecord
  2
STANDARD
 70
0
  3

  4

 40
1.0
 41
3.0
 42
0.5
 43
0.38
 44
1.5
 45
0.0
 46
0.0
 47
0.01
 48
0.01
140
3.0
141
0.09
142
0.0
143
25.4
144
1.0
145
0.0
146
1.0
147
0.625
 71
1.0
 72
0.0
 73
0
 74
0
 75
0
 76
0
 77
1
 78
8
 79
2
170
0
171
1
172
0
173
0
174
0
175
0
176
0
177
0
178
0
270
2
179
2
271
2
272
2
273
2
274
2
275
0
280
0
281
0
282
0
283
1
284
8
285
0
286
0
287
3
288
0
340
11
278
44
341
215
342
215
343
215
344
215
  0
ENDTAB
  0
ENDSEC
  0
SECTION
  2
BLOCKS
  0
BLOCK
  5
20
100
AcDbEntity
  8
0
100
AcDbBlockBegin
  2
*Model_Space
 70
0
 10
0.0
 20
0.0
 30
0.0
  3
*Model_Space
  1

  0
ENDBLK
  5
21
100
AcDbEntity
  8
0
100
AcDbBlockEnd
  0
BLOCK
  5
1C
100
AcDbEntity
  8
0
100
AcDbBlockBegin
  2
*Paper_Space
 70
0
 10
0.0
 20
0.0
 30
0.0
  3
*Paper_Space
  1

  0
ENDBLK
  5
1D
100
AcDbEntity
  8
0
100
AcDbBlockEnd
  0
BLOCK
  5
217
100
AcDbEntity
  8
0
100
AcDbBlockBegin
  2
_FILLED
 70
64
 10
0.0
 20
0.0
  3
_FILLED
  1

  0
SOLID
  5
218
100
AcDbEntity
  8
0
  6
BYBLOCK
 62
0
100
AcDbTrace
 10
0.0
 20
0.0
 11
-1.0
 21
0.3166666667
 12
-1.0
 22
-0.3166666667
 13
-1.0
 23
-0.3166666667
  0
ENDBLK
  5
219
100
AcDbEntity
  8
0
  6
BYBLOCK
 62
0
100
AcDbBlockEnd
  0
ENDSEC
  0
SECTION
  2
ENTITIES
  0
LWPOLYLINE
  5
21A
100
AcDbEntity
  8
RACCORDO
100
AcDbPolyline
 62
7
  6
CONTINUOUS
 90
13
 70
0
 10
-39.7335619322
 20
50.2909033351
 10
-40.0341946857
 20
50.0981212122
 10
-40.3202249188
 20
49.8744232007
 10
-40.5889303909
 20
49.6202105161
 10
-40.8370653179
 20
49.3369859517
 10
-41.0629699568
 20
49.0250644763
 10
-41.2660922201
 20
48.6825643243
 10
-41.4448264612
 20
48.3077226304
 10
-41.5954279277
 20
47.9031700673
 10
-41.7148096773
 20
47.4730462293
 10
-41.8014897688
 20
47.0193204803
 10
-41.8544929644
 20
46.5417691071
 10
-41.8724680277
 20
46.0413276898
  0
LINE
  5
21B
100
AcDbEntity
  8
ASSI
100
AcDbLine
 62
7
  6
CONTINUOUS
 10
-38.3193483698
 20
51.1074525217
 11
-39.7335619322
 21
50.2909033351
  0
LINE
  5
21C
100
AcDbEntity
  8
RACCORDO
100
AcDbLine
 62
250
  6
CONTINUOUS
 10
-34.5691671688
 20
50.7358936891
 11
-35.9833807311
 21
49.9193445025
  0
LWPOLYLINE
  5
21D
100
AcDbEntity
  8
ASSI
100
AcDbPolyline
 62
7
  6
CONTINUOUS
 90
4
 70
0
 10
34.6742503055
 20
-46.9472644899
 10
34.7390245827
 20
-46.9465711667
 10
34.7973090026
 20
-46.9347133781
 10
34.8471610846
 20
-46.9128236624
  0
LWPOLYLINE
  5
21E
100
AcDbEntity
  8
RACCORDO
100
AcDbPolyline
 62
7
  6
CONTINUOUS
 90
22
 70
0
 10
-41.8724680277
 20
-2.1304186729
 10
-41.8577898074
 20
-2.5955669239
 10
-41.8145660241
 20
-3.0648838099
 10
-41.7439650691
 20
-3.5367133348
 10
-41.646950635
 20
-4.0100789693
 10
-41.524561984
 20
-4.4831140158
 10
-41.3782975617
 20
-4.9526576743
 10
-41.2096387448
 20
-5.4163560807
 10
-41.0194757014
 20
-5.8735033788
 10
-40.8086841417
 20
-6.3230285987
 10
-40.5783678395
 20
-6.7632417949
 10
-40.3294670401
 20
-7.1927671252
 10
-40.0624878537
 20
-7.6108194206
 10
-39.7781844363
 20
-8.0160123046
 10
-39.4775677494
 20
-8.4065645159
 10
-39.1613253248
 20
-8.7811094471
 10
-38.8299656477
 20
-9.1383656806
 10
-38.4845822319
 20
-9.4763476035
 10
-38.1264874076
 20
-9.7929528501
 10
-37.7565096277
 20
-10.086568042
 10
-37.3752161597
 20
-10.3556952876
 10
-36.9834290514
 20
-10.5985383356
  0
LWPOLYLINE
  5
21F
100
AcDbEntity
  8
RACCORDO
100
AcDbPolyline
 62
250
  6
CONTINUOUS
 90
25
 70
0
 10
-41.28668159
 20
-2.9469678276
 10
-41.2781480894
 20
-3.2470465403
 10
-41.2533140824
 20
-3.552979222
 10
-41.2121795689
 20
-3.8647658726
 10
-41.1544404305
 20
-4.1838222793
 10
-41.0804007857
 20
-4.5087326549
 10
-40.9909729897
 20
-4.8352496384
 10
-40.8859330785
 20
-5.1634080106
 10
-40.765505016
 20
-5.4931729907
 10
-40.6312730498
 20
-5.8201928749
 10
-40.4830796223
 20
-6.1443675034
 10
-40.3210822911
 20
-6.465797036
 10
-40.1473379756
 20
-6.7804302482
 10
-39.9617079384
 20
-7.0881794552
 10
-39.7643309169
 20
-7.3891323418
 10
-39.5576800437
 20
-7.6795007376
 10
-39.3415895131
 20
-7.9592016633
 10
-39.1162251308
 20
-8.2283180982
 10
-38.8845574454
 20
-8.4833108105
 10
-38.646485113
 20
-8.7239824946
 10
-38.4021094775
 20
-8.9505304561
 10
-38.1547051198
 20
-9.1600073803
 10
-37.9053635667
 20
-9.3514308287
 10
-37.6529932912
 20
-9.5257832397
 10
-37.3975942935
 20
-9.6830646133
  0
LINE
  5
220
100
AcDbEntity
  8
RACCORDO
100
AcDbLine
 62
7
  6
CONTINUOUS
 10
-41.8724680277
 20
46.0413276898
 11
-41.8724680277
 21
-2.13041867
  0
LINE
  5
221
100
AcDbEntity
  8
RACCORDO
100
AcDbLine
 62
250
  6
CONTINUOUS
 10
-41.28668159
 20
45.2247785032
 11
-41.28668159
 21
-2.9469678276
  0
LWPOLYLINE
  5
222
100
AcDbEntity
  8
RACCORDO
100
AcDbPolyline
 62
250
  6
CONTINUOUS
 90
16
 70
0
 10
-37.3975942935
 20
47.4698547622
 10
-37.3898471887
 20
47.6450155313
 10
-37.3666907063
 20
47.8272035922
 10
-37.3283785023
 20
48.0144228948
 10
-37.2753302797
 20
48.2046222637
 10
-37.2081271977
 20
48.3957178462
 10
-37.1275055118
 20
48.585615943
 10
-37.0343484886
 20
48.7722359949
 10
-36.9296767444
 20
48.9535333368
 10
-36.8146370823
 20
49.1275215791
 10
-36.6904898808
 20
49.2922944509
 10
-36.558595313
 20
49.4460466327
 10
-36.4203984779
 20
49.5870935096
 10
-36.2774135057
 20
49.7138897037
 10
-36.131206963
 20
49.8250459949
 10
-35.983380729
 20
49.9193445012
  0
LWPOLYLINE
  5
223
100
AcDbEntity
  8
RACCORDO
100
AcDbPolyline
 62
250
  6
CONTINUOUS
 90
9
 70
0
 10
-37.3975942935
 20
-9.6830646133
 10
-37.3898470836
 20
-9.8492802381
 10
-37.3666903341
 20
-10.0047284859
 10
-37.3283777551
 20
-10.1477062333
 10
-37.2753291072
 20
-10.2766469861
 10
-37.2081256025
 20
-10.3901380425
 10
-37.1275035368
 20
-10.4869359706
 10
-37.0343462221
 20
-10.5659802322
 10
-36.9834290514
 20
-10.5985383356
  0
LWPOLYLINE
  5
224
100
AcDbEntity
  8
DRAFT
100
AcDbPolyline
 62
7
  6
CONTINUOUS
 90
31
 70
0
 10
-33.6852836923
 20
16.7499534595
 10
-33.675275228
 20
16.4920365843
 10
-33.6471654688
 20
16.2292686281
 10
-33.6009544147
 20
15.9616495907
 10
-33.5360180265
 20
15.6870795853
 10
-33.4529803433
 20
15.4076584989
 10
-33.3537134831
 20
15.1296859919
 10
-33.2378487819
 20
14.8531949703
 10
-33.1057549038
 20
14.5781525281
 10
-32.9604099581
 20
14.3107596074
 10
-32.8015129321
 20
14.0511899758
 10
-32.6293648385
 20
13.7992698657
 10
-32.4478468252
 20
13.5606789172
 10
-32.256746044
 20
13.3357199169
 10
-32.056275343
 20
13.1240900782
 10
-31.8509544147
 20
12.9305606806
 10
-31.6406730808
 20
12.7555428958
 10
-31.4255415194
 20
12.5986255521
 10
-31.2104099581
 20
12.4633464141
 10
-30.9952783968
 20
12.3501970176
 10
-30.7801468355
 20
12.2586858267
 10
-30.5698655015
 20
12.1908759979
 10
-30.3645445732
 20
12.1473059341
 10
-30.1640738723
 20
12.1274372323
 10
-29.972973091
 20
12.1317178405
 10
-29.7914550777
 20
12.1606963372
 10
-29.6193069841
 20
12.2138241439
 10
-29.4604099581
 20
12.2899034728
 10
-29.3150650124
 20
12.3894556933
 10
-29.1829711343
 20
12.5119594361
 10
-29.1606248387
 20
12.5364666962
  0
LWPOLYLINE
  5
225
100
AcDbEntity
  8
RACCORDO
100
AcDbPolyline
 62
250
  6
CONTINUOUS
 90
10
 70
0
 10
-32.360462789
 20
17.1915888794
 10
-32.3533635042
 20
17.3911730032
 10
-32.3321004798
 20
17.581324639
 10
-32.2967982697
 20
17.7608033862
 10
-32.2476767784
 20
17.9284221194
 10
-32.1850399363
 20
18.0830990631
 10
-32.1092621549
 20
18.2238533142
 10
-32.020775174
 20
18.3497952567
 10
-31.9201608462
 20
18.4600179752
 10
-31.9146520609
 20
18.464625707
  0
LWPOLYLINE
  5
226
100
AcDbEntity
  8
RACCORDO
100
AcDbPolyline
 62
250
  6
CONTINUOUS
 90
10
 70
0
 10
-31.9983307546
 20
17.1640615931
 10
-31.9917565631
 20
17.3457651127
 10
-31.9726883528
 20
17.5170804519
 10
-31.9411261238
 20
17.6780076106
 10
-31.8967239302
 20
17.8295555895
 10
-31.8398277178
 20
17.9707153879
 10
-31.7714753245
 20
18.0984600038
 10
-31.6914003028
 20
18.2124655029
 10
-31.5998691002
 20
18.3130558196
 10
-31.5581243052
 20
18.3481849059
  0
LWPOLYLINE
  5
227
100
AcDbEntity
  8
DRAFT
100
AcDbPolyline
 62
7
  6
CONTINUOUS
 90
8
 70
0
 10
-29.1606248387
 20
12.5364666962
 10
-29.0671064332
 20
12.6546528051
 10
-28.967839573
 20
12.8179944302
 10
-28.8848018898
 20
13.0015256815
 10
-28.8198655015
 20
13.2011087733
 10
-28.7736544474
 20
13.4153644437
 10
-28.7455446882
 20
13.6456719547
 10
-28.735536224
 20
13.8920313062
  0
LWPOLYLINE
  5
228
100
AcDbEntity
  8
ASSI
100
AcDbPolyline
 62
7
  6
CONTINUOUS
 90
20
 70
0
 10
-31.0833565604
 20
17.8769425216
 10
-31.1308739433
 20
17.8470237472
 10
-31.2259587626
 20
17.7687674772
 10
-31.310191253
 20
17.6728004936
 10
-31.381151826
 20
17.5618794594
 10
-31.4384555588
 20
17.4355706648
 10
-31.4824873743
 20
17.2943078195
 10
-31.5119824534
 20
17.1421487155
 10
-31.5265191898
 20
16.9787773306
 10
-31.5265191898
 20
16.8045096869
 10
-31.5119824534
 20
16.6243516431
 10
-31.4824873743
 20
16.4381323611
 10
-31.4384555588
 20
16.246022679
 10
-31.381151826
 20
16.0535409702
 10
-31.310191253
 20
15.8606764449
 10
-31.2259587626
 20
15.6674398928
 10
-31.1308739433
 20
15.4793820568
 10
-31.0257433243
 20
15.2983531846
 10
-30.9097603763
 20
15.1225030284
 10
-30.7829250993
 20
14.9518315883
  0
LWPOLYLINE
  5
229
100
AcDbEntity
  8
DRAFT
100
AcDbPolyline
 62
7
  6
CONTINUOUS
 90
3
 70
0
 10
-28.735536224
 20
13.8920313062
 10
-28.7455446882
 20
14.1499481814
 10
-28.7736544474
 20
14.4127161376
  0
LWPOLYLINE
  5
22A
100
AcDbEntity
  8
ASSI
100
AcDbPolyline
 62
7
  6
CONTINUOUS
 90
4
 70
0
 10
-28.9333002998
 20
14.1531758615
 10
-28.8857829169
 20
14.1830946358
 10
-28.7906980976
 20
14.2613509058
 10
-28.7610727524
 20
14.2951033806
  0
LINE
  5
22B
100
AcDbEntity
  8
ASSI
100
AcDbLine
 62
7
  6
CONTINUOUS
 10
-29.2156213138
 20
15.8567731511
 11
-30.7829250993
 21
14.9518315883
  0
LINE
  5
22C
100
AcDbEntity
  8
ASSI
100
AcDbLine
 62
7
  6
CONTINUOUS
 10
-28.7646142805
 20
14.3282093243
 11
-29.2337317609
 21
14.0573467706
  0
LWPOLYLINE
  5
22D
100
AcDbEntity
  8
ASSI
100
AcDbPolyline
 62
7
  6
CONTINUOUS
 90
3
 70
0
 10
34.5561384877
 20
-46.387217051
 10
34.5892987045
 20
-46.4030899122
 10
34.6190544503
 20
-46.4124285475
  0
LWPOLYLINE
  5
22E
100
AcDbEntity
  8
RACCORDO
100
AcDbPolyline
 62
7
  6
CONTINUOUS
 90
13
 70
0
 10
34.4343558762
 20
-51.8342722777
 10
34.8778096569
 20
-52.0694620599
 10
35.3183131355
 20
-52.2624268208
 10
35.7543382463
 20
-52.4140331633
 10
36.1852578639
 20
-52.5253487853
 10
36.6089505929
 20
-52.5969852383
 10
37.0212641776
 20
-52.6297671633
 10
37.4181142003
 20
-52.6255448644
 10
37.8001879746
 20
-52.5865113565
 10
38.1696071078
 20
-52.5138281888
 10
38.5254426874
 20
-52.4084073874
 10
38.8643904597
 20
-52.2720768702
 10
39.1845853698
 20
-52.1067487389
  0
LWPOLYLINE
  5
22F
100
AcDbEntity
  8
RACCORDO
100
AcDbPolyline
 62
250
  6
CONTINUOUS
 90
25
 70
0
 10
34.0201906063
 20
-50.9187985394
 10
34.2758076044
 20
-51.0565352701
 10
34.5283434107
 20
-51.1736713622
 10
34.7777980252
 20
-51.2702068155
 10
35.0252455211
 20
-51.3464106321
 10
35.2696118253
 20
-51.4020138101
 10
35.5076747183
 20
-51.4362093434
 10
35.7393523294
 20
-51.4486913578
 10
35.9647265293
 20
-51.4397657276
 10
36.1808207109
 20
-51.4095430694
 10
36.3874693442
 20
-51.3577458826
 10
36.5848379591
 20
-51.2846516679
 10
36.7704465385
 20
-51.1912035441
 10
36.9441497672
 20
-51.0771574127
 10
37.1060929604
 20
-50.9427573723
 10
37.2542320463
 20
-50.7896788366
 10
37.3884122496
 20
-50.6176409909
 10
37.5087883457
 20
-50.4269246499
 10
37.6137805891
 20
-50.2200476723
 10
37.7031674257
 20
-49.9967651173
 10
37.7771704095
 20
-49.7573219255
 10
37.8348744574
 20
-49.5049707779
 10
37.8759745418
 20
-49.2407959013
 10
37.9007756902
 20
-48.9637130687
 10
37.9092779029
 20
-48.6737222803
  0
LINE
  5
230
100
AcDbEntity
  8
RACCORDO
100
AcDbLine
 62
7
  6
CONTINUOUS
 10
-36.9834290514
 20
-10.5985383356
 11
34.4343558736
 21
-51.8342722762
  0
LINE
  5
231
100
AcDbEntity
  8
RACCORDO
100
AcDbLine
 62
250
  6
CONTINUOUS
 10
-37.3975942935
 20
-9.6830646133
 11
34.0201906063
 21
-50.9187985394
  0
LWPOLYLINE
  5
232
100
AcDbEntity
  8
ASSI
100
AcDbPolyline
 62
7
  6
CONTINUOUS
 90
4
 70
0
 10
29.8096844682
 20
-20.0335817723
 10
29.9365197452
 20
-20.0093765308
 10
30.0525026932
 20
-19.9674605757
 10
30.1101159292
 20
-19.9377526814
  0
LWPOLYLINE
  5
233
100
AcDbEntity
  8
RACCORDO
100
AcDbPolyline
 62
250
  6
CONTINUOUS
 90
16
 70
0
 10
37.9092779029
 20
-48.6737222803
 10
38.0648506831
 20
-48.7546017701
 10
38.2342133952
 20
-48.8256488435
 10
38.4155104658
 20
-48.8860850939
 10
38.6067555661
 20
-48.9352483692
 10
38.805853375
 20
-48.9726000261
 10
39.0106225352
 20
-48.9977308321
 10
39.2188195528
 20
-49.0103654489
 10
39.4281633777
 20
-49.0103654489
 10
39.6363603953
 20
-48.9977308321
 10
39.8411295554
 20
-48.9726000261
 10
40.0402273643
 20
-48.9352483692
 10
40.2314724647
 20
-48.8860850939
 10
40.4127695353
 20
-48.8256488435
 10
40.5821322473
 20
-48.7546017701
 10
40.7377050276
 20
-48.6737222803
  0
LINE
  5
234
100
AcDbEntity
  8
ASSI
100
AcDbLine
 62
7
  6
CONTINUOUS
 10
31.9113683751
 20
-46.1903797058
 11
32.2649352008
 21
-46.3945190444
  0
LINE
  5
235
100
AcDbEntity
  8
ASSI
100
AcDbLine
 62
7
  6
CONTINUOUS
 10
30.6342543324
 20
-45.4529900635
 11
30.9878119656
 21
-45.6571240945
  0
LINE
  5
236
100
AcDbEntity
  8
ASSI
100
AcDbLine
 62
7
  6
CONTINUOUS
 10
29.2392868024
 20
-44.6475581935
 11
29.592853628
 21
-44.8516983486
  0
LINE
  5
237
100
AcDbEntity
  8
ASSI
100
AcDbLine
 62
7
  6
CONTINUOUS
 10
34.652365989
 20
-47.77299166
 11
35.0506042856
 21
-48.0029245625
  0
LINE
  5
238
100
AcDbEntity
  8
ASSI
100
AcDbLine
 62
7
  6
CONTINUOUS
 10
28.0824028327
 20
-43.9795878886
 11
28.4359830933
 21
-44.1837358009
  0
LINE
  5
239
100
AcDbEntity
  8
ASSI
100
AcDbLine
 62
7
  6
CONTINUOUS
 10
29.9464112612
 20
-45.0558380949
 11
30.2999780868
 21
-45.2599831488
  0
LINE
  5
23A
100
AcDbEntity
  8
ASSI
100
AcDbLine
 62
7
  6
CONTINUOUS
 10
31.3220924538
 20
-45.8501391741
 11
31.6756585723
 21
-46.0542838197
  0
LINE
  5
23B
100
AcDbEntity
  8
ASSI
100
AcDbLine
 62
7
  6
CONTINUOUS
 10
33.6358519078
 20
-47.1860691694
 11
33.9894229761
 21
-47.3902166729
  0
LINE
  5
23C
100
AcDbEntity
  8
ASSI
100
AcDbLine
 62
7
  6
CONTINUOUS
 10
33.0465710367
 20
-46.8458257798
 11
33.4001421049
 21
-47.0499789987
  0
LINE
  5
23D
100
AcDbEntity
  8
ASSI
100
AcDbLine
 62
7
  6
CONTINUOUS
 10
32.3765562488
 20
-46.0575402293
 11
32.9349542313
 21
-46.379952226
  0
LINE
  5
23E
100
AcDbEntity
  8
ASSI
100
AcDbLine
 62
7
  6
CONTINUOUS
 10
32.8271027695
 20
-45.9298412493
 11
32.484403468
 21
-45.7319709676
  0
LINE
  5
23F
100
AcDbEntity
  8
ASSI
100
AcDbLine
 62
7
  6
CONTINUOUS
 10
33.9894625741
 20
-46.6009683338
 11
34.298048216
 21
-46.7791467148
  0
LINE
  5
240
100
AcDbEntity
  8
ASSI
100
AcDbLine
 62
7
  6
CONTINUOUS
 10
32.7816930899
 20
-45.7403124321
 11
32.6258248242
 21
-45.650316049
  0
LINE
  5
241
100
AcDbEntity
  8
ASSI
100
AcDbLine
 62
7
  6
CONTINUOUS
 10
34.4147162133
 20
-46.4688714395
 11
33.9845481819
 21
-46.2204978095
  0
LINE
  5
242
100
AcDbEntity
  8
ASSI
100
AcDbLine
 62
7
  6
CONTINUOUS
 10
34.5561384877
 20
-46.387217051
 11
34.1259695382
 21
-46.1388428908
  0
LINE
  5
243
100
AcDbEntity
  8
ASSI
100
AcDbLine
 62
7
  6
CONTINUOUS
 10
33.9845439393
 20
-45.7237654575
 11
34.4147082965
 21
-45.9721369661
  0
LINE
  5
244
100
AcDbEntity
  8
ASSI
100
AcDbLine
 62
7
  6
CONTINUOUS
 10
31.6756585723
 20
-44.0130158666
 11
31.1411615061
 21
-43.7044039594
  0
LINE
  5
245
100
AcDbEntity
  8
ASSI
100
AcDbLine
 62
7
  6
CONTINUOUS
 10
30.4809090345
 20
-43.3231824572
 11
29.9464112612
 21
-43.0145701418
  0
LINE
  5
246
100
AcDbEntity
  8
ASSI
100
AcDbLine
 62
7
  6
CONTINUOUS
 10
29.5928578706
 20
-42.8104328451
 11
29.2392917521
 21
-42.6062881995
  0
LINE
  5
247
100
AcDbEntity
  8
ASSI
100
AcDbLine
 62
7
  6
CONTINUOUS
 10
29.0035819492
 20
-42.4701923135
 11
28.650010881
 21
-42.2660448099
  0
LINE
  5
248
100
AcDbEntity
  8
ASSI
100
AcDbLine
 62
7
  6
CONTINUOUS
 10
27.8683792877
 20
-41.8147405241
 11
27.5148082194
 21
-41.6105930206
  0
LINE
  5
249
100
AcDbEntity
  8
ASSI
100
AcDbLine
 62
7
  6
CONTINUOUS
 10
34.4637912765
 20
-45.6228438477
 11
33.6358519078
 21
-45.1448020327
  0
LINE
  5
24A
100
AcDbEntity
  8
ASSI
100
AcDbLine
 62
7
  6
CONTINUOUS
 10
32.832543249
 20
-44.680981681
 11
32.4789587458
 21
-44.4768264202
  0
LINE
  5
24B
100
AcDbEntity
  8
ASSI
100
AcDbLine
 62
7
  6
CONTINUOUS
 10
31.8170799285
 20
-43.9313609479
 11
31.2825828624
 21
-43.6227490408
  0
LINE
  5
24C
100
AcDbEntity
  8
ASSI
100
AcDbLine
 62
7
  6
CONTINUOUS
 10
30.6223303907
 20
-43.2415275386
 11
30.0878326174
 21
-42.9329152231
  0
LINE
  5
24D
100
AcDbEntity
  8
ASSI
100
AcDbLine
 62
7
  6
CONTINUOUS
 10
29.7342792269
 20
-42.7287779264
 11
29.3807131083
 21
-42.5246332808
  0
LINE
  5
24E
100
AcDbEntity
  8
ASSI
100
AcDbLine
 62
7
  6
CONTINUOUS
 10
29.1450033055
 20
-42.3885373948
 11
28.7914322372
 21
-42.1843898913
  0
LINE
  5
24F
100
AcDbEntity
  8
ASSI
100
AcDbLine
 62
7
  6
CONTINUOUS
 10
28.0098006439
 20
-41.7330856054
 11
27.6562295757
 21
-41.5289381019
  0
LINE
  5
250
100
AcDbEntity
  8
ASSI
100
AcDbLine
 62
7
  6
CONTINUOUS
 10
34.6052135727
 20
-45.5411894718
 11
33.7772732641
 21
-45.0631471141
  0
LINE
  5
251
100
AcDbEntity
  8
ASSI
100
AcDbLine
 62
7
  6
CONTINUOUS
 10
32.9739646053
 20
-44.5993267623
 11
32.620380102
 21
-44.3951715016
  0
LWPOLYLINE
  5
252
100
AcDbEntity
  8
RACCORDO
100
AcDbPolyline
 62
250
  6
CONTINUOUS
 90
9
 70
0
 10
-41.28668159
 20
-2.9469678276
 10
-41.4267591089
 20
-2.8571426614
 10
-41.5498078277
 20
-2.7593553479
 10
-41.654479557
 20
-2.6546772304
 10
-41.7396274442
 20
-2.5442551497
 10
-41.8043185289
 20
-2.4292988936
 10
-41.8478439746
 20
-2.3110679446
 10
-41.8697268492
 20
-2.1908576518
 10
-41.8724680277
 20
-2.1304186729
  0
LWPOLYLINE
  5
253
100
AcDbEntity
  8
DRAFT
100
AcDbPolyline
 62
7
  6
CONTINUOUS
 90
14
 70
0
 10
-28.7736544474
 20
14.4127161376
 10
-28.8198655015
 20
14.680335175
 10
-28.8848018898
 20
14.9549051804
 10
-28.967839573
 20
15.2343262668
 10
-29.0671064332
 20
15.5122987738
 10
-29.1829711343
 20
15.7887897954
 10
-29.3150650124
 20
16.0638322376
 10
-29.4604099581
 20
16.3312251583
 10
-29.6193069841
 20
16.5907947899
 10
-29.7914550777
 20
16.8427149
 10
-29.972973091
 20
17.0813058485
 10
-30.1640738723
 20
17.3062648488
 10
-30.3645445732
 20
17.5178946875
 10
-30.5698655015
 20
17.7114240851
  0
LWPOLYLINE
  5
254
100
AcDbEntity
  8
RACCORDO
100
AcDbPolyline
 62
250
  6
CONTINUOUS
 90
29
 70
0
 10
-28.7627205296
 20
13.504947687
 10
-28.8772653988
 20
13.4714603139
 10
-29.0124496249
 20
13.4508527806
 10
-29.1548920479
 20
13.4466982323
 10
-29.3019166056
 20
13.4590548643
 10
-29.4536225302
 20
13.4882211775
 10
-29.6099105897
 20
13.533898671
 10
-29.7678070258
 20
13.5952500375
 10
-29.9273877046
 20
13.6726104669
 10
-30.0885767601
 20
13.7656447693
 10
-30.2481728367
 20
13.872510068
 10
-30.4061024167
 20
13.9934565001
 10
-30.5624390177
 20
14.1282339283
 10
-30.7142018371
 20
14.2742490646
 10
-30.8612920234
 20
14.4316876587
 10
-31.003808428
 20
14.6003639608
 10
-31.1390668029
 20
14.7771274328
 10
-31.2669635061
 20
14.9621716196
 10
-31.3876021797
 20
15.1553029762
 10
-31.4986095019
 20
15.3527903299
 10
-31.5998069554
 20
15.5547892891
 10
-31.6913730577
 20
15.7611442452
 10
-31.7714700396
 20
15.9676572004
 10
-31.8398258343
 20
16.1743212411
 10
-31.8967125086
 20
16.3811432808
 10
-31.9411084946
 20
16.5839460616
 10
-31.9726732696
 20
16.7813371643
 10
-31.9917473563
 20
16.9747090081
 10
-31.9983307546
 20
17.1640615931
  0
LWPOLYLINE
  5
255
100
AcDbEntity
  8
RACCORDO
100
AcDbPolyline
 62
250
  6
CONTINUOUS
 90
29
 70
0
 10
-28.8391986514
 20
13.1416880088
 10
-28.9192879375
 20
13.1184855314
 10
-29.0686247551
 20
13.0957420703
 10
-29.2249956612
 20
13.0913190642
 10
-29.3874691567
 20
13.1052331192
 10
-29.5550145293
 20
13.1374040586
 10
-29.7265297201
 20
13.1876279899
 10
-29.9009393297
 20
13.2555996595
 10
-30.0771622753
 20
13.3409188158
 10
-30.2540098681
 20
13.443030878
 10
-30.4302277693
 20
13.5612109909
 10
-30.6046235216
 20
13.6946366888
 10
-30.7761205039
 20
13.8424612911
 10
-30.9436552237
 20
14.0037588477
 10
-31.1061285582
 20
14.1774661823
 10
-31.2625055465
 20
14.3624715135
 10
-31.4118546191
 20
14.5576849017
 10
-31.5532278189
 20
14.7619023584
 10
-31.6856605818
 20
14.9737683294
 10
-31.8082633272
 20
15.1918889237
 10
-31.9202604869
 20
15.4149229979
 10
-32.0208716579
 20
15.6413557767
 10
-32.1093424478
 20
15.86947119
 10
-32.1850881336
 20
16.0976635637
 10
-32.2476926046
 20
16.3245726449
 10
-32.2967975811
 20
16.5488451613
 10
-32.3320971438
 20
16.769067301
 10
-32.3533620223
 20
16.9837773487
 10
-32.360462789
 20
17.1915888794
  0
LWPOLYLINE
  5
256
100
AcDbEntity
  8
DRAFT
100
AcDbPolyline
 62
7
  6
CONTINUOUS
 90
13
 70
0
 10
26.4462522827
 20
-15.6025850699
 10
26.4140513906
 20
-15.6096401144
 10
26.241903297
 20
-15.662767921
 10
26.083006271
 20
-15.7388472499
 10
25.9376613253
 20
-15.8383994705
 10
25.8055674471
 20
-15.9609032132
 10
25.689702746
 20
-16.1035965822
 10
25.5904358858
 20
-16.2669382073
 10
25.5073982026
 20
-16.4504694586
 10
25.4424618143
 20
-16.6500525504
 10
25.3962507603
 20
-16.8643082209
 10
25.3681410011
 20
-17.0946157319
 10
25.3581325368
 20
-17.3409750834
  0
LWPOLYLINE
  5
257
100
AcDbEntity
  8
ASSI
100
AcDbPolyline
 62
7
  6
CONTINUOUS
 90
4
 70
0
 10
28.1688812118
 20
-16.1356397652
 10
28.1336558527
 20
-16.1423621719
 10
28.0176729048
 20
-16.184278127
 10
27.9600596687
 20
-16.2139860213
  0
LWPOLYLINE
  5
258
100
AcDbEntity
  8
ASSI
100
AcDbPolyline
 62
7
  6
CONTINUOUS
 90
15
 70
0
 10
34.4147082965
 20
-45.9721369661
 10
34.4537610337
 20
-45.9993737305
 10
34.4896115201
 20
-46.0311651738
 10
34.5222597555
 20
-46.0675112959
 10
34.5524869742
 20
-46.1097653167
 10
34.5795119419
 20
-46.1565740164
 10
34.6009909561
 20
-46.2038777353
 10
34.6164287701
 20
-46.2517207734
 10
34.6263206306
 20
-46.3000588306
 10
34.6298085756
 20
-46.3446993473
 10
34.6263206306
 20
-46.3853120725
 10
34.6164287701
 20
-46.4222272572
 10
34.6009909561
 20
-46.4522430947
 10
34.5795116486
 20
-46.4747433077
 10
34.5665532735
 20
-46.4834863626
  0
LWPOLYLINE
  5
259
100
AcDbEntity
  8
DRAFT
100
AcDbPolyline
 62
7
  6
CONTINUOUS
 90
11
 70
0
 10
-30.5698655015
 20
17.7114240851
 10
-30.7801468355
 20
17.8864418699
 10
-30.9952783968
 20
18.0433592136
 10
-31.2104099581
 20
18.1786383516
 10
-31.4255415194
 20
18.2917877481
 10
-31.6406730808
 20
18.383298939
 10
-31.8509544147
 20
18.4511087678
 10
-32.056275343
 20
18.4946788317
 10
-32.256746044
 20
18.5145475334
 10
-32.4478468252
 20
18.5102669252
 10
-32.5971639463
 20
18.4883434729
  0
LINE
  5
25A
100
AcDbEntity
  8
ASSI
100
AcDbLine
 62
7
  6
CONTINUOUS
 10
-30.7829250993
 20
14.9518315883
 11
-29.2337317609
 21
14.0573467706
  0
LINE
  5
25B
100
AcDbEntity
  8
ASSI
100
AcDbLine
 62
7
  6
CONTINUOUS
 10
28.2604911297
 20
-19.1390969546
 11
29.8096844682
 21
-20.0335817723
  0
LWPOLYLINE
  5
25C
100
AcDbEntity
  8
DRAFT
100
AcDbPolyline
 62
7
  6
CONTINUOUS
 90
11
 70
0
 10
28.4735507276
 20
-16.3795044577
 10
28.2632693936
 20
-16.204486673
 10
28.0481378323
 20
-16.0475693293
 10
27.833006271
 20
-15.9122901912
 10
27.6178747096
 20
-15.7991407947
 10
27.4027431483
 20
-15.7076296038
 10
27.1924618143
 20
-15.639819775
 10
26.987140886
 20
-15.5962497112
 10
26.7866701851
 20
-15.5763810095
 10
26.5955694039
 20
-15.5806616177
 10
26.4462522827
 20
-15.6025850699
  0
LINE
  5
25D
100
AcDbEntity
  8
RACCORDO
100
AcDbLine
 62
250
  6
CONTINUOUS
 10
36.8486177311
 20
9.500159763
 11
35.4344041687
 21
8.6836105764
  0
LWPOLYLINE
  5
25E
100
AcDbEntity
  8
RACCORDO
100
AcDbPolyline
 62
250
  6
CONTINUOUS
 90
16
 70
0
 10
37.9092779029
 20
-0.5019759495
 10
38.0648496438
 20
-0.5828549462
 10
38.2342113381
 20
-0.653901728
 10
38.4155074844
 20
-0.7143378675
 10
38.6067518242
 20
-0.7635011862
 10
38.8058490783
 20
-0.8008530046
 10
39.0106178996
 20
-0.8259840493
 10
39.2188148221
 20
-0.8386189459
 10
39.4281587981
 20
-0.8386192278
 10
39.6363561622
 20
-0.8259848609
 10
39.8411258538
 20
-0.8008542429
 10
40.0402243491
 20
-0.7635026851
 10
40.2314702023
 20
-0.7143394118
 10
40.4127680417
 20
-0.6539030613
 10
40.5821315211
 20
-0.5828557739
 10
40.7377050276
 20
-0.5019759521
  0
LWPOLYLINE
  5
25F
100
AcDbEntity
  8
RACCORDO
100
AcDbPolyline
 62
250
  6
CONTINUOUS
 90
9
 70
0
 10
-41.28668159
 20
45.2247785032
 10
-41.4267599506
 20
45.3146042767
 10
-41.5498091635
 20
45.412392184
 10
-41.654481076
 20
45.5170708404
 10
-41.7396288806
 20
45.6274933645
 10
-41.8043196802
 20
45.7424499441
 10
-41.8478447088
 20
45.8606810908
 10
-41.8697270972
 20
45.9808914394
 10
-41.8724680277
 20
46.0413276898
  0
LINE
  5
260
100
AcDbEntity
  8
ASSI
100
AcDbLine
 62
7
  6
CONTINUOUS
 10
34.298048216
 20
-46.7791467148
 11
34.652365989
 21
-47.77299166
  0
LINE
  5
261
100
AcDbEntity
  8
ASSI
100
AcDbLine
 62
7
  6
CONTINUOUS
 10
35.0506042856
 20
-48.0029245625
 11
34.6742503055
 21
-46.9472644899
  0
LINE
  5
262
100
AcDbEntity
  8
ASSI
100
AcDbLine
 62
7
  6
CONTINUOUS
 10
35.1920256418
 20
-47.9212696438
 11
34.8341569515
 21
-46.9174601785
  0
LINE
  5
263
100
AcDbEntity
  8
ASSI
100
AcDbLine
 62
7
  6
CONTINUOUS
 10
27.5148082194
 20
-41.6105930206
 11
28.0824028327
 21
-43.9795878886
  0
LINE
  5
264
100
AcDbEntity
  8
ASSI
100
AcDbLine
 62
7
  6
CONTINUOUS
 10
28.2591972056
 20
-43.4459172639
 11
27.8683792877
 21
-41.8147405241
  0
LINE
  5
265
100
AcDbEntity
  8
ASSI
100
AcDbLine
 62
7
  6
CONTINUOUS
 10
28.3526122324
 20
-43.1638958717
 11
28.0098006439
 21
-41.7330856054
  0
LINE
  5
266
100
AcDbEntity
  8
RACCORDO
100
AcDbLine
 62
250
  6
CONTINUOUS
 10
42.15191859
 20
0.3145732371
 11
40.7377050276
 21
-0.5019759495
  0
LWPOLYLINE
  5
267
100
AcDbEntity
  8
ASSI
100
AcDbPolyline
 62
7
  6
CONTINUOUS
 90
4
 70
0
 10
-29.2337317609
 20
14.0573467706
 10
-29.1068964839
 20
14.0815520121
 10
-28.9909135359
 20
14.1234679671
 10
-28.9333002998
 20
14.1531758615
  0
LINE
  5
268
100
AcDbEntity
  8
RACCORDO
100
AcDbLine
 62
250
  6
CONTINUOUS
 10
34.0201906063
 20
6.2341208361
 11
-37.3975942935
 21
47.4698547622
  0
LINE
  5
269
100
AcDbEntity
  8
ASSI
100
AcDbLine
 62
7
  6
CONTINUOUS
 10
32.6557488761
 20
-45.2146523056
 11
32.8271027695
 21
-45.9298412493
  0
LINE
  5
26A
100
AcDbEntity
  8
ASSI
100
AcDbLine
 62
7
  6
CONTINUOUS
 10
32.9349542313
 20
-46.379952226
 11
33.0465710367
 21
-46.8458257798
  0
LINE
  5
26B
100
AcDbEntity
  8
ASSI
100
AcDbLine
 62
7
  6
CONTINUOUS
 10
33.4001421049
 20
-47.0499789987
 11
32.832543249
 21
-44.680981681
  0
LINE
  5
26C
100
AcDbEntity
  8
ASSI
100
AcDbLine
 62
7
  6
CONTINUOUS
 10
33.5415634612
 20
-46.96832408
 11
32.9739646053
 21
-44.5993267623
  0
LINE
  5
26D
100
AcDbEntity
  8
ASSI
100
AcDbLine
 62
7
  6
CONTINUOUS
 10
30.2999780868
 20
-43.9139037116
 11
30.6342543324
 21
-45.4529900635
  0
LINE
  5
26E
100
AcDbEntity
  8
ASSI
100
AcDbLine
 62
7
  6
CONTINUOUS
 10
30.8110352703
 20
-44.8431399036
 11
30.4809090345
 21
-43.3231824572
  0
LINE
  5
26F
100
AcDbEntity
  8
ASSI
100
AcDbLine
 62
7
  6
CONTINUOUS
 10
30.9020239023
 20
-44.5292841282
 11
30.6223303907
 21
-43.2415275386
  0
LWPOLYLINE
  5
270
100
AcDbEntity
  8
DRAFT
100
AcDbPolyline
 62
7
  6
CONTINUOUS
 90
31
 70
0
 10
25.3581325368
 20
-17.3409750834
 10
25.3681410011
 20
-17.5988919585
 10
25.3962507603
 20
-17.8616599148
 10
25.4424618143
 20
-18.1292789522
 10
25.5073982026
 20
-18.4038489575
 10
25.5904358858
 20
-18.683270044
 10
25.689702746
 20
-18.961242551
 10
25.8055674471
 20
-19.2377335726
 10
25.9376613253
 20
-19.5127760148
 10
26.083006271
 20
-19.7801689354
 10
26.241903297
 20
-20.0397385671
 10
26.4140513906
 20
-20.2916586771
 10
26.5955694039
 20
-20.5302496257
 10
26.7866701851
 20
-20.7552086259
 10
26.987140886
 20
-20.9668384647
 10
27.1924618143
 20
-21.1603678623
 10
27.4027431483
 20
-21.3353856471
 10
27.6178747096
 20
-21.4923029907
 10
27.833006271
 20
-21.6275821288
 10
28.0481378323
 20
-21.7407315253
 10
28.2632693936
 20
-21.8322427162
 10
28.4735507276
 20
-21.900052545
 10
28.6788716559
 20
-21.9436226088
 10
28.8793423568
 20
-21.9634913105
 10
29.070443138
 20
-21.9592107023
 10
29.2519611513
 20
-21.9302322056
 10
29.4241092449
 20
-21.877104399
 10
29.583006271
 20
-21.8010250701
 10
29.7283512166
 20
-21.7014728496
 10
29.8604450948
 20
-21.5789691068
 10
29.8827913904
 20
-21.5544618467
  0
LWPOLYLINE
  5
271
100
AcDbEntity
  8
RACCORDO
100
AcDbPolyline
 62
250
  6
CONTINUOUS
 90
10
 70
0
 10
26.6829534401
 20
-16.8993396635
 10
26.6900527249
 20
-16.6997555396
 10
26.7113157493
 20
-16.5096039039
 10
26.7466179593
 20
-16.3301251566
 10
26.7957394506
 20
-16.1625064235
 10
26.8583762928
 20
-16.0078294797
 10
26.9341540742
 20
-15.8670752286
 10
27.0226410551
 20
-15.7411332861
 10
27.1232553828
 20
-15.6309105677
 10
27.1287641682
 20
-15.6263028358
  0
LWPOLYLINE
  5
272
100
AcDbEntity
  8
DRAFT
100
AcDbPolyline
 62
7
  6
CONTINUOUS
 90
13
 70
0
 10
-32.5971639463
 20
18.4883434729
 10
-32.6293648385
 20
18.4812884285
 10
-32.8015129321
 20
18.4281606218
 10
-32.9604099581
 20
18.352081293
 10
-33.1057549038
 20
18.2525290724
 10
-33.2378487819
 20
18.1300253296
 10
-33.3537134831
 20
17.9873319606
 10
-33.4529803433
 20
17.8239903355
 10
-33.5360180265
 20
17.6404590842
 10
-33.6009544147
 20
17.4408759924
 10
-33.6471654688
 20
17.226620322
 10
-33.675275228
 20
16.996312811
 10
-33.6852836923
 20
16.7499534595
  0
LWPOLYLINE
  5
273
100
AcDbEntity
  8
ASSI
100
AcDbPolyline
 62
7
  6
CONTINUOUS
 90
4
 70
0
 10
-30.8745350173
 20
17.9552887777
 10
-30.9097603763
 20
17.948566371
 10
-31.0257433243
 20
17.9066504159
 10
-31.0833565604
 20
17.8769425216
  0
LWPOLYLINE
  5
274
100
AcDbEntity
  8
RACCORDO
100
AcDbPolyline
 62
250
  6
CONTINUOUS
 90
25
 70
0
 10
-37.3975942935
 20
47.4698547622
 10
-37.6532112915
 20
47.607591493
 10
-37.9057470978
 20
47.724727585
 10
-38.1552017124
 20
47.8212630383
 10
-38.4026492083
 20
47.897466855
 10
-38.6470155125
 20
47.9530700329
 10
-38.8850784055
 20
47.9872655662
 10
-39.1167560166
 20
47.9997475806
 10
-39.3421302165
 20
47.9908219504
 10
-39.5582243981
 20
47.9605992922
 10
-39.7648730314
 20
47.9088021055
 10
-39.9622416463
 20
47.8357078908
 10
-40.1478502257
 20
47.7422597669
 10
-40.3215534544
 20
47.6282136356
 10
-40.4834966475
 20
47.4938135951
 10
-40.6316357335
 20
47.3407350594
 10
-40.7658159368
 20
47.1686972137
 10
-40.8861920329
 20
46.9779808728
 10
-40.9911842763
 20
46.7711038951
 10
-41.0805711128
 20
46.5478213401
 10
-41.1545740966
 20
46.3083781484
 10
-41.2122781446
 20
46.0560270007
 10
-41.2533782289
 20
45.7918521241
 10
-41.2781793774
 20
45.5147692916
 10
-41.28668159
 20
45.2247785032
  0
LWPOLYLINE
  5
275
100
AcDbEntity
  8
RACCORDO
100
AcDbPolyline
 62
250
  6
CONTINUOUS
 90
13
 70
0
 10
-35.9833807311
 20
49.9193445025
 10
-36.3304000266
 20
50.1065855246
 10
-36.6758628888
 20
50.2667474885
 10
-37.0182904996
 20
50.3991606278
 10
-37.3561715161
 20
50.5032620743
 10
-37.6881111754
 20
50.5786439296
 10
-38.0128282021
 20
50.6250144222
 10
-38.329015108
 20
50.6421565599
 10
-38.635218552
 20
50.629960428
 10
-38.9299967427
 20
50.5884827208
 10
-39.2120369569
 20
50.5179365783
 10
-39.4802021305
 20
50.4186361051
 10
-39.7335619322
 20
50.2909033351
  0
LINE
  5
276
100
AcDbEntity
  8
RACCORDO
100
AcDbLine
 62
250
  6
CONTINUOUS
 10
35.4344041687
 20
8.6836105764
 11
-35.9833807311
 21
49.9193445025
  0
LINE
  5
277
100
AcDbEntity
  8
ASSI
100
AcDbLine
 62
7
  6
CONTINUOUS
 10
36.8486177311
 20
9.500159763
 11
-34.5691671688
 21
50.7358936891
  0
LWPOLYLINE
  5
278
100
AcDbEntity
  8
DRAFT
100
AcDbPolyline
 62
7
  6
CONTINUOUS
 90
14
 70
0
 10
30.2697617817
 20
-19.6782124052
 10
30.2235507276
 20
-19.4105933678
 10
30.1586143393
 20
-19.1360233625
 10
30.0755766561
 20
-18.8566022761
 10
29.9763097959
 20
-18.578629769
 10
29.8604450948
 20
-18.3021387474
 10
29.7283512166
 20
-18.0270963052
 10
29.583006271
 20
-17.7597033846
 10
29.4241092449
 20
-17.500133753
 10
29.2519611513
 20
-17.2482136429
 10
29.070443138
 20
-17.0096226944
 10
28.8793423568
 20
-16.7846636941
 10
28.6788716559
 20
-16.5730338554
 10
28.4735507276
 20
-16.3795044577
  0
LWPOLYLINE
  5
279
100
AcDbEntity
  8
RACCORDO
100
AcDbPolyline
 62
250
  6
CONTINUOUS
 90
9
 70
0
 10
34.0201906063
 20
-50.9187985394
 10
34.0279377236
 20
-51.0850131389
 10
34.0510942168
 20
-51.2404606681
 10
34.0894064298
 20
-51.3834379927
 10
34.1424546596
 20
-51.5123785996
 10
34.2096577471
 20
-51.6258697444
 10
34.2902794367
 20
-51.7226679369
 10
34.3834364615
 20
-51.8017125927
 10
34.4343558736
 20
-51.8342722762
  0
LWPOLYLINE
  5
27A
100
AcDbEntity
  8
DRAFT
100
AcDbPolyline
 62
7
  6
CONTINUOUS
 90
3
 70
0
 10
30.3078800051
 20
-20.1988972367
 10
30.2978715408
 20
-19.9409803615
 10
30.2697617817
 20
-19.6782124052
  0
LINE
  5
27B
100
AcDbEntity
  8
ASSI
100
AcDbLine
 62
7
  6
CONTINUOUS
 10
29.2392917521
 20
-42.6062881995
 11
29.2392868024
 21
-44.6475581935
  0
LINE
  5
27C
100
AcDbEntity
  8
ASSI
100
AcDbLine
 62
7
  6
CONTINUOUS
 10
29.592853628
 20
-44.8516983486
 11
29.5928578706
 21
-42.8104328451
  0
LINE
  5
27D
100
AcDbEntity
  8
ASSI
100
AcDbLine
 62
7
  6
CONTINUOUS
 10
29.7342749842
 20
-44.7700434299
 11
29.7342792269
 21
-42.7287779264
  0
LINE
  5
27E
100
AcDbEntity
  8
ASSI
100
AcDbLine
 62
7
  6
CONTINUOUS
 10
29.9464112612
 20
-43.0145701418
 11
29.9464112612
 21
-45.0558380949
  0
LINE
  5
27F
100
AcDbEntity
  8
ASSI
100
AcDbLine
 62
7
  6
CONTINUOUS
 10
30.2999780868
 20
-45.2599831488
 11
30.2999780868
 21
-43.9139037116
  0
LINE
  5
280
100
AcDbEntity
  8
ASSI
100
AcDbLine
 62
7
  6
CONTINUOUS
 10
30.4413994431
 20
-45.1783282301
 11
30.4413994431
 21
-44.5650408539
  0
LINE
  5
281
100
AcDbEntity
  8
ASSI
100
AcDbLine
 62
7
  6
CONTINUOUS
 10
31.322087504
 20
-44.5040568791
 11
31.3220924538
 21
-45.8501391741
  0
LINE
  5
282
100
AcDbEntity
  8
ASSI
100
AcDbLine
 62
7
  6
CONTINUOUS
 10
31.6756585723
 20
-46.0542838197
 11
31.6756585723
 21
-44.0130158666
  0
LINE
  5
283
100
AcDbEntity
  8
ASSI
100
AcDbLine
 62
7
  6
CONTINUOUS
 10
31.8170799285
 20
-45.9726289011
 11
31.8170799285
 21
-43.9313609479
  0
LWPOLYLINE
  5
284
100
AcDbEntity
  8
RACCORDO
100
AcDbPolyline
 62
250
  6
CONTINUOUS
 90
10
 70
0
 10
27.0450854745
 20
-16.9268669498
 10
27.051659666
 20
-16.7451634301
 10
27.0707278763
 20
-16.573848091
 10
27.1022901053
 20
-16.4129209323
 10
27.1466922989
 20
-16.2613729534
 10
27.2035885113
 20
-16.120213155
 10
27.2719409046
 20
-15.9924685391
 10
27.3520159262
 20
-15.8784630399
 10
27.4435471289
 20
-15.7778727233
 10
27.4852919239
 20
-15.7427436369
  0
LWPOLYLINE
  5
285
100
AcDbEntity
  8
ASSI
100
AcDbPolyline
 62
7
  6
CONTINUOUS
 90
20
 70
0
 10
27.9600596687
 20
-16.2139860213
 10
27.9125422858
 20
-16.2439047957
 10
27.8174574665
 20
-16.3221610656
 10
27.7332249761
 20
-16.4181280492
 10
27.6622644031
 20
-16.5290490835
 10
27.6049606703
 20
-16.6553578781
 10
27.5609288548
 20
-16.7966207233
 10
27.5314337757
 20
-16.9487798273
 10
27.5168970393
 20
-17.1121512123
 10
27.5168970393
 20
-17.286418856
 10
27.5314337757
 20
-17.4665768997
 10
27.5609288548
 20
-17.6527961818
 10
27.6049606703
 20
-17.8449058638
 10
27.6622644031
 20
-18.0373875726
 10
27.7332249761
 20
-18.230252098
 10
27.8174574665
 20
-18.4234886501
 10
27.9125422858
 20
-18.611546486
 10
28.0176729048
 20
-18.7925753583
 10
28.1336558527
 20
-18.9684255145
 10
28.2604911297
 20
-19.1390969546
  0
LINE
  5
286
100
AcDbEntity
  8
ASSI
100
AcDbLine
 62
7
  6
CONTINUOUS
 10
29.8277949153
 20
-18.2341553917
 11
28.2604911297
 21
-19.1390969546
  0
LINE
  5
287
100
AcDbEntity
  8
ASSI
100
AcDbLine
 62
7
  6
CONTINUOUS
 10
30.2788019485
 20
-19.7627192186
 11
29.8096844682
 21
-20.0335817723
  0
LWPOLYLINE
  5
288
100
AcDbEntity
  8
RACCORDO
100
AcDbPolyline
 62
250
  6
CONTINUOUS
 90
29
 70
0
 10
30.2806956995
 20
-20.5859808558
 10
30.1661508303
 20
-20.6194682289
 10
30.0309666042
 20
-20.6400757622
 10
29.8885241812
 20
-20.6442303106
 10
29.7414996235
 20
-20.6318736786
 10
29.5897936988
 20
-20.6027073654
 10
29.4335056394
 20
-20.5570298719
 10
29.2756092032
 20
-20.4956785054
 10
29.1160285245
 20
-20.418318076
 10
28.9548394689
 20
-20.3252837735
 10
28.7952433924
 20
-20.2184184748
 10
28.6373138124
 20
-20.0974720428
 10
28.4809772113
 20
-19.9626946145
 10
28.3292143919
 20
-19.8166794783
 10
28.1821242057
 20
-19.6592408842
 10
28.0396078011
 20
-19.4905645821
 10
27.9043494261
 20
-19.3138011101
 10
27.776452723
 20
-19.1287569233
 10
27.6558140494
 20
-18.9356255666
 10
27.5448067271
 20
-18.7381382129
 10
27.4436092736
 20
-18.5361392538
 10
27.3520431714
 20
-18.3297842976
 10
27.2719461894
 20
-18.1232713425
 10
27.2035903948
 20
-17.9166073018
 10
27.1467037204
 20
-17.7097852621
 10
27.1023077344
 20
-17.5069824812
 10
27.0707429594
 20
-17.3095913786
 10
27.0516688728
 20
-17.1162195347
 10
27.0450854745
 20
-16.9268669498
  0
LWPOLYLINE
  5
289
100
AcDbEntity
  8
RACCORDO
100
AcDbPolyline
 62
250
  6
CONTINUOUS
 90
29
 70
0
 10
30.2042175777
 20
-20.9492405341
 10
30.1241282916
 20
-20.9724430115
 10
29.974791474
 20
-20.9951864725
 10
29.8184205678
 20
-20.9996094787
 10
29.6559470724
 20
-20.9856954236
 10
29.4884016998
 20
-20.9535244843
 10
29.316886509
 20
-20.9033005529
 10
29.1424768994
 20
-20.8353288834
 10
28.9662539538
 20
-20.7500097271
 10
28.789406361
 20
-20.6478976649
 10
28.6131884598
 20
-20.5297175519
 10
28.4387927075
 20
-20.3962918541
 10
28.2672957252
 20
-20.2484672517
 10
28.0997610054
 20
-20.0871696952
 10
27.9372876709
 20
-19.9134623606
 10
27.7809106826
 20
-19.7284570294
 10
27.63156161
 20
-19.5332436412
 10
27.4901884101
 20
-19.3290261845
 10
27.3577556472
 20
-19.1171602134
 10
27.2351529019
 20
-18.8990396192
 10
27.1231557422
 20
-18.676005545
 10
27.0225445712
 20
-18.4495727661
 10
26.9340737813
 20
-18.2214573529
 10
26.8583280955
 20
-17.9932649792
 10
26.7957236245
 20
-17.766355898
 10
26.746618648
 20
-17.5420833816
 10
26.7113190853
 20
-17.3218612418
 10
26.6900542068
 20
-17.1071511941
 10
26.6829534401
 20
-16.8993396635
  0
LWPOLYLINE
  5
28A
100
AcDbEntity
  8
ASSI
100
AcDbPolyline
 62
7
  6
CONTINUOUS
 90
10
 70
0
 10
-34.5691671688
 20
50.7358936891
 10
-35.0370922678
 20
50.981304048
 10
-35.4946240225
 20
51.1759257739
 10
-35.9417624329
 20
51.3197588667
 10
-36.3817358507
 20
51.4131232892
 10
-36.8113159242
 20
51.4556990786
 10
-37.2208175982
 20
51.4465263467
 10
-37.6097847696
 20
51.3844295681
 10
-37.9786735415
 20
51.2705842681
 10
-38.3193483696
 20
51.1074525213
  0
LINE
  5
28B
100
AcDbEntity
  8
ASSI
100
AcDbLine
 62
7
  6
CONTINUOUS
 10
33.6358519078
 20
-45.1448020327
 11
33.6358519078
 21
-47.1860691694
  0
LINE
  5
28C
100
AcDbEntity
  8
ASSI
100
AcDbLine
 62
7
  6
CONTINUOUS
 10
33.9845481819
 20
-46.2204978095
 11
33.9845439393
 21
-45.7237654575
  0
LINE
  5
28D
100
AcDbEntity
  8
ASSI
100
AcDbLine
 62
7
  6
CONTINUOUS
 10
34.1259695382
 20
-46.1388428908
 11
34.1259666904
 21
-45.8054211816
  0
LINE
  5
28E
100
AcDbEntity
  8
ASSI
100
AcDbLine
 62
7
  6
CONTINUOUS
 10
33.9894229761
 20
-47.3902166729
 11
33.9894625741
 21
-46.6009683338
  0
LINE
  5
28F
100
AcDbEntity
  8
ASSI
100
AcDbLine
 62
7
  6
CONTINUOUS
 10
34.1308443323
 20
-47.3085617543
 11
34.1308757369
 21
-46.6826207667
  0
LWPOLYLINE
  5
290
100
AcDbEntity
  8
RACCORDO
100
AcDbPolyline
 62
250
  6
CONTINUOUS
 90
16
 70
0
 10
34.0201906063
 20
6.2341208361
 10
34.0279378162
 20
6.4092827447
 10
34.0510945658
 20
6.5914718265
 10
34.0894071448
 20
6.7786919798
 10
34.1424557927
 20
6.9688919815
 10
34.2096592973
 20
7.1599879605
 10
34.2902813631
 20
7.3498862293
 10
34.3834386777
 20
7.5365062227
 10
34.4881105902
 20
7.7178032931
 10
34.6031502932
 20
7.8917911117
 10
34.7272973875
 20
8.0565634317
 10
34.8591916918
 20
8.210314973
 10
34.9973881443
 20
8.3513612016
 10
35.1403726358
 20
8.4781567854
 10
35.2865785983
 20
8.5893125255
 10
35.4344041687
 20
8.6836105764
  0
LWPOLYLINE
  5
291
100
AcDbEntity
  8
ASSI
100
AcDbPolyline
 62
7
  6
CONTINUOUS
 90
4
 70
0
 10
30.1101159292
 20
-19.9377526814
 10
30.1576333121
 20
-19.907833907
 10
30.2527181315
 20
-19.8295776371
 10
30.2823434766
 20
-19.7958251622
  0
LWPOLYLINE
  5
292
100
AcDbEntity
  8
RACCORDO
100
AcDbPolyline
 62
250
  6
CONTINUOUS
 90
25
 70
0
 10
37.9092779029
 20
-0.5019759495
 10
37.9007444023
 20
-0.2018972368
 10
37.8759103952
 20
0.1040354448
 10
37.8347758817
 20
0.4158220955
 10
37.7770367434
 20
0.7348785021
 10
37.7029970986
 20
1.0597888777
 10
37.6135693026
 20
1.3863058612
 10
37.5085293913
 20
1.7144642334
 10
37.3881013288
 20
2.0442292135
 10
37.2538693626
 20
2.3712490977
 10
37.1056759352
 20
2.6954237262
 10
36.9436786039
 20
3.0168532588
 10
36.7699342885
 20
3.331486471
 10
36.5843042512
 20
3.639235678
 10
36.3869272298
 20
3.9401885646
 10
36.1802763565
 20
4.2305569604
 10
35.964185826
 20
4.5102578861
 10
35.7388214436
 20
4.779374321
 10
35.5071537582
 20
5.0343670334
 10
35.2690814258
 20
5.2750387175
 10
35.0247057904
 20
5.501586679
 10
34.7773014326
 20
5.7110636031
 10
34.5279598795
 20
5.9024870515
 10
34.2755896041
 20
6.0768394625
 10
34.0201906063
 20
6.2341208361
  0
LWPOLYLINE
  5
293
100
AcDbEntity
  8
RACCORDO
100
AcDbPolyline
 62
250
  6
CONTINUOUS
 90
25
 70
0
 10
40.7377050276
 20
-0.5019759495
 10
40.7263393165
 20
-0.0947230721
 10
40.6922999894
 20
0.3238241106
 10
40.6357464735
 20
0.7518660104
 10
40.5569470393
 20
1.1875026387
 10
40.4562458739
 20
1.6289247847
 10
40.3340309874
 20
2.0744289746
 10
40.1907682601
 20
2.5222365063
 10
40.0270892408
 20
2.9703046116
 10
39.8437639953
 20
3.4165238806
 10
39.6416335392
 20
3.8588929682
 10
39.4215384906
 20
4.2956135854
 10
39.184382811
 20
4.7249050116
 10
38.9311827383
 20
5.1449285793
 10
38.6630210316
 20
5.5538889785
 10
38.3809845815
 20
5.9501185068
 10
38.0862101096
 20
6.3319903187
 10
37.7800104217
 20
6.6977751037
 10
37.4638237779
 20
7.0457548389
 10
37.1390977962
 20
7.3743657053
 10
36.8071448637
 20
7.6823081807
 10
36.4692592215
 20
7.9683830043
 10
36.1268404835
 20
8.2313859647
 10
35.7813958807
 20
8.4701404292
 10
35.4344041687
 20
8.6836105764
  0
LINE
  5
294
100
AcDbEntity
  8
RACCORDO
100
AcDbLine
 62
250
  6
CONTINUOUS
 10
37.9092779029
 20
-48.6737222803
 11
37.9092779029
 21
-0.5019759495
  0
LINE
  5
295
100
AcDbEntity
  8
RACCORDO
100
AcDbLine
 62
250
  6
CONTINUOUS
 10
40.7377050276
 20
-48.6737222803
 11
40.7377050276
 21
-0.5019759495
  0
LINE
  5
296
100
AcDbEntity
  8
ASSI
100
AcDbLine
 62
7
  6
CONTINUOUS
 10
28.650010881
 20
-42.2660448099
 11
28.2591972056
 21
-43.4459172639
  0
LINE
  5
297
100
AcDbEntity
  8
ASSI
100
AcDbLine
 62
7
  6
CONTINUOUS
 10
28.4359830933
 20
-44.1837358009
 11
29.0035819492
 21
-42.4701923135
  0
LINE
  5
298
100
AcDbEntity
  8
ASSI
100
AcDbLine
 62
7
  6
CONTINUOUS
 10
28.5774044496
 20
-44.1020808822
 11
29.1450033055
 21
-42.3885373948
  0
LWPOLYLINE
  5
299
100
AcDbEntity
  8
DRAFT
100
AcDbPolyline
 62
7
  6
CONTINUOUS
 90
8
 70
0
 10
29.8827913904
 20
-21.5544618467
 10
29.9763097959
 20
-21.4362757378
 10
30.0755766561
 20
-21.2729341127
 10
30.1586143393
 20
-21.0894028614
 10
30.2235507276
 20
-20.8898197696
 10
30.2697617817
 20
-20.6755640991
 10
30.2978715408
 20
-20.4452565882
 10
30.3078800051
 20
-20.1988972367
  0
LWPOLYLINE
  5
29A
100
AcDbEntity
  8
ASSI
100
AcDbPolyline
 62
7
  6
CONTINUOUS
 90
19
 70
0
 10
42.15191859
 20
0.3145732371
 10
42.1304718808
 20
0.8672522553
 10
42.0702366826
 20
1.4303264473
 10
41.9712129953
 20
2.0037958132
 10
41.8320635918
 20
2.5921601103
 10
41.6541256993
 20
3.1909195812
 10
41.4414109988
 20
3.7865749535
 10
41.1931294964
 20
4.379055714
 10
40.9100711861
 20
4.9684323759
 10
40.5986177311
 20
5.5414172058
 10
40.2581241039
 20
6.097637845
 10
39.8892353319
 20
6.6374666523
 10
39.5002681605
 20
7.1487329706
 10
39.0907664865
 20
7.6307879712
 10
38.6611864131
 20
8.0842804828
 10
38.2212129953
 20
8.4989863348
 10
37.7740745849
 20
8.8714974704
 10
37.3165428301
 20
9.2052219465
 10
36.8486177311
 20
9.500159763
  0
LINE
  5
29B
100
AcDbEntity
  8
ASSI
100
AcDbLine
 62
7
  6
CONTINUOUS
 10
42.15191859
 20
-47.8571730937
 11
42.15191859
 21
0.3145732371
  0
LINE
  5
29C
100
AcDbEntity
  8
ASSI
100
AcDbLine
 62
7
  6
CONTINUOUS
 10
31.1411615061
 20
-43.7044039594
 11
30.8110352703
 21
-44.8431399036
  0
LINE
  5
29D
100
AcDbEntity
  8
ASSI
100
AcDbLine
 62
7
  6
CONTINUOUS
 10
30.9878119656
 20
-45.6571240945
 11
31.322087504
 21
-44.5040568791
  0
LINE
  5
29E
100
AcDbEntity
  8
ASSI
100
AcDbLine
 62
7
  6
CONTINUOUS
 10
31.1292333218
 20
-45.5754691758
 11
31.3220889975
 21
-44.9102229002
  0
LINE
  5
29F
100
AcDbEntity
  8
ASSI
100
AcDbLine
 62
7
  6
CONTINUOUS
 10
32.4789587458
 20
-44.4768264202
 11
31.9113683751
 21
-46.1903797058
  0
LINE
  5
2A0
100
AcDbEntity
  8
ASSI
100
AcDbLine
 62
7
  6
CONTINUOUS
 10
32.484403468
 20
-45.7319709676
 11
32.6557488761
 21
-45.2146523056
  0
LINE
  5
2A1
100
AcDbEntity
  8
ASSI
100
AcDbLine
 62
7
  6
CONTINUOUS
 10
32.2649352008
 20
-46.3945190444
 11
32.3765562488
 21
-46.0575402293
  0
LINE
  5
2A2
100
AcDbEntity
  8
ASSI
100
AcDbLine
 62
7
  6
CONTINUOUS
 10
32.6258248242
 20
-45.650316049
 11
32.7037570274
 21
-45.4150265041
  0
LINE
  5
2A3
100
AcDbEntity
  8
ASSI
100
AcDbLine
 62
7
  6
CONTINUOUS
 10
32.406356557
 20
-46.3128641257
 11
32.4725676137
 21
-46.1129759881
  0
LINE
  5
2A4
100
AcDbEntity
  8
ASSI
100
AcDbLine
 62
7
  6
CONTINUOUS
 10
27.6562295757
 20
-41.5289381019
 11
27.5148082194
 21
-41.6105930206
  0
LINE
  5
2A5
100
AcDbEntity
  8
ASSI
100
AcDbLine
 62
7
  6
CONTINUOUS
 10
28.0098006439
 20
-41.7330856054
 11
27.8683792877
 21
-41.8147405241
  0
LINE
  5
2A6
100
AcDbEntity
  8
ASSI
100
AcDbLine
 62
7
  6
CONTINUOUS
 10
28.7914322372
 20
-42.1843898913
 11
28.650010881
 21
-42.2660448099
  0
LINE
  5
2A7
100
AcDbEntity
  8
ASSI
100
AcDbLine
 62
7
  6
CONTINUOUS
 10
29.1450033055
 20
-42.3885373948
 11
29.0035819492
 21
-42.4701923135
  0
LINE
  5
2A8
100
AcDbEntity
  8
ASSI
100
AcDbLine
 62
7
  6
CONTINUOUS
 10
29.3807131083
 20
-42.5246332808
 11
29.2392917521
 21
-42.6062881995
  0
LINE
  5
2A9
100
AcDbEntity
  8
ASSI
100
AcDbLine
 62
7
  6
CONTINUOUS
 10
29.7342792269
 20
-42.7287779264
 11
29.5928578706
 21
-42.8104328451
  0
LINE
  5
2AA
100
AcDbEntity
  8
ASSI
100
AcDbLine
 62
7
  6
CONTINUOUS
 10
30.0878326174
 20
-42.9329152231
 11
29.9464112612
 21
-43.0145701418
  0
LINE
  5
2AB
100
AcDbEntity
  8
ASSI
100
AcDbLine
 62
7
  6
CONTINUOUS
 10
28.5774044496
 20
-44.1020808822
 11
28.4359830933
 21
-44.1837358009
  0
LINE
  5
2AC
100
AcDbEntity
  8
ASSI
100
AcDbLine
 62
7
  6
CONTINUOUS
 10
30.6223303907
 20
-43.2415275386
 11
30.4809090345
 21
-43.3231824572
  0
LINE
  5
2AD
100
AcDbEntity
  8
ASSI
100
AcDbLine
 62
7
  6
CONTINUOUS
 10
31.2825828624
 20
-43.6227490408
 11
31.1411615061
 21
-43.7044039594
  0
LINE
  5
2AE
100
AcDbEntity
  8
ASSI
100
AcDbLine
 62
7
  6
CONTINUOUS
 10
29.7342749842
 20
-44.7700434299
 11
29.592853628
 21
-44.8516983486
  0
LINE
  5
2AF
100
AcDbEntity
  8
ASSI
100
AcDbLine
 62
7
  6
CONTINUOUS
 10
31.8170799285
 20
-43.9313609479
 11
31.6756585723
 21
-44.0130158666
  0
LINE
  5
2B0
100
AcDbEntity
  8
ASSI
100
AcDbLine
 62
7
  6
CONTINUOUS
 10
30.4413994431
 20
-45.1783282301
 11
30.2999780868
 21
-45.2599831488
  0
LWPOLYLINE
  5
2B1
100
AcDbEntity
  8
ASSI
100
AcDbPolyline
 62
7
  6
CONTINUOUS
 90
19
 70
0
 10
34.8471610846
 20
-46.9128236624
 10
34.89506206
 20
-46.8767405465
 10
34.9345306974
 20
-46.8306255035
 10
34.9655481097
 20
-46.7756375699
 10
34.987687235
 20
-46.7113284118
 10
35.0013751351
 20
-46.6381463632
 10
35.0059316285
 20
-46.5597280002
 10
35.0008953127
 20
-46.4758087363
 10
34.9867275901
 20
-46.3866531582
 10
34.9641324858
 20
-46.2966916017
 10
34.9326841714
 20
-46.2058833415
 10
34.8928084753
 20
-46.1142691029
 10
34.8464869082
 20
-46.0264013982
 10
34.7933935279
 20
-45.9424693447
 10
34.7338542766
 20
-45.8622838251
 10
34.670828492
 20
-45.7898299995
 10
34.6053026201
 20
-45.7264362548
 10
34.5362902149
 20
-45.6707742042
 10
34.4637912765
 20
-45.6228438477
  0
LWPOLYLINE
  5
2B2
100
AcDbEntity
  8
ASSI
100
AcDbPolyline
 62
7
  6
CONTINUOUS
 90
22
 70
0
 10
34.9885576337
 20
-46.8311259239
 10
35.0143108925
 20
-46.8139292374
 10
35.0524958322
 20
-46.7789099225
 10
35.0844816886
 20
-46.7365265766
 10
35.1100278877
 20
-46.6864934514
 10
35.1293750036
 20
-46.6290962952
 10
35.1417818991
 20
-46.5665338416
 10
35.1469792741
 20
-46.4986056624
 10
35.1452364289
 20
-46.4255121857
 10
35.1366201271
 20
-46.35005343
 10
35.1208636593
 20
-46.2721376157
 10
35.0982337349
 20
-46.1918565222
 10
35.0695972468
 20
-46.1122855065
 10
35.0347211232
 20
-46.0334521217
 10
34.9938384358
 20
-45.9553288148
 10
34.9485152926
 20
-45.8809082834
 10
34.8985791185
 20
-45.810333994
 10
34.8442024885
 20
-45.7434624802
 10
34.7874692357
 20
-45.6828560411
 10
34.7290739709
 20
-45.6293687766
 10
34.6683220833
 20
-45.5821465868
 10
34.6052135727
 20
-45.5411894718
  0
LINE
  5
2B3
100
AcDbEntity
  8
ASSI
100
AcDbLine
 62
7
  6
CONTINUOUS
 10
32.620380102
 20
-44.3951715016
 11
32.4789587458
 21
-44.4768264202
  0
LINE
  5
2B4
100
AcDbEntity
  8
ASSI
100
AcDbLine
 62
7
  6
CONTINUOUS
 10
31.1292333218
 20
-45.5754691758
 11
30.9878119656
 21
-45.6571240945
  0
LINE
  5
2B5
100
AcDbEntity
  8
ASSI
100
AcDbLine
 62
7
  6
CONTINUOUS
 10
32.9739646053
 20
-44.5993267623
 11
32.832543249
 21
-44.680981681
  0
LINE
  5
2B6
100
AcDbEntity
  8
ASSI
100
AcDbLine
 62
7
  6
CONTINUOUS
 10
31.8170799285
 20
-45.9726289011
 11
31.6756585723
 21
-46.0542838197
  0
LINE
  5
2B7
100
AcDbEntity
  8
ASSI
100
AcDbLine
 62
7
  6
CONTINUOUS
 10
32.6258248242
 20
-45.650316049
 11
32.484403468
 21
-45.7319709676
  0
LINE
  5
2B8
100
AcDbEntity
  8
ASSI
100
AcDbLine
 62
7
  6
CONTINUOUS
 10
33.7772732641
 20
-45.0631471141
 11
33.6358519078
 21
-45.1448020327
  0
LINE
  5
2B9
100
AcDbEntity
  8
ASSI
100
AcDbLine
 62
7
  6
CONTINUOUS
 10
32.406356557
 20
-46.3128641257
 11
32.2649352008
 21
-46.3945190444
  0
LINE
  5
2BA
100
AcDbEntity
  8
ASSI
100
AcDbLine
 62
7
  6
CONTINUOUS
 10
34.6052069165
 20
-45.5411856285
 11
34.4637855602
 21
-45.6228405472
  0
LINE
  5
2BB
100
AcDbEntity
  8
ASSI
100
AcDbLine
 62
7
  6
CONTINUOUS
 10
34.1259695382
 20
-46.1388428908
 11
33.9845481819
 21
-46.2204978095
  0
LINE
  5
2BC
100
AcDbEntity
  8
ASSI
100
AcDbLine
 62
7
  6
CONTINUOUS
 10
33.5415634612
 20
-46.96832408
 11
33.4001421049
 21
-47.0499789987
  0
LINE
  5
2BD
100
AcDbEntity
  8
ASSI
100
AcDbLine
 62
7
  6
CONTINUOUS
 10
34.5561337059
 20
-46.38721429
 11
34.4147123496
 21
-46.4688692087
  0
LINE
  5
2BE
100
AcDbEntity
  8
ASSI
100
AcDbLine
 62
7
  6
CONTINUOUS
 10
34.1308443323
 20
-47.3085617543
 11
33.9894229761
 21
-47.3902166729
  0
LINE
  5
2BF
100
AcDbEntity
  8
ASSI
100
AcDbLine
 62
7
  6
CONTINUOUS
 10
34.9885826348
 20
-46.8311690797
 11
34.8471612785
 21
-46.9128239984
  0
LINE
  5
2C0
100
AcDbEntity
  8
ASSI
100
AcDbLine
 62
7
  6
CONTINUOUS
 10
35.1920256418
 20
-47.9212696438
 11
35.0506042856
 21
-48.0029245625
  0
LWPOLYLINE
  5
2C1
100
AcDbEntity
  8
ASSI
100
AcDbPolyline
 62
7
  6
CONTINUOUS
 90
6
 70
0
 10
34.5665532735
 20
-46.4834863626
 10
34.5524863877
 20
-46.4903441736
 10
34.5222597555
 20
-46.4976927171
 10
34.4896132794
 20
-46.4963379468
 10
34.453765432
 20
-46.4867308543
 10
34.4147162133
 20
-46.4688714395
  0
LWPOLYLINE
  5
2C2
100
AcDbEntity
  8
ASSI
100
AcDbPolyline
 62
7
  6
CONTINUOUS
 90
10
 70
0
 10
40.5987989319
 20
-51.2901995519
 10
40.9100711861
 20
-51.0769779785
 10
41.1931294964
 20
-50.8144699582
 10
41.4414109988
 20
-50.5086984532
 10
41.6541256993
 20
-50.1586806852
 10
41.8320635918
 20
-49.7653994324
 10
41.9712129953
 20
-49.3377213785
 10
42.0702366826
 20
-48.8786020847
 10
42.1304718808
 20
-48.3850859897
 10
42.15191859
 20
-47.8571730937
  0
LWPOLYLINE
  5
2C3
100
AcDbEntity
  8
RACCORDO
100
AcDbPolyline
 62
250
  6
CONTINUOUS
 90
13
 70
0
 10
39.1845853698
 20
-52.1067487389
 10
39.4215760531
 20
-51.9514079233
 10
39.6416637463
 20
-51.7688473074
 10
39.8437877845
 20
-51.5598940448
 10
40.0271076484
 20
-51.3253753607
 10
40.1907821295
 20
-51.0663214009
 10
40.3340425278
 20
-50.7839490336
 10
40.4562583717
 20
-50.479565744
 10
40.5569604626
 20
-50.1544159878
 10
40.6357573599
 20
-49.809768165
 10
40.6923060269
 20
-49.4470402934
 10
40.7263411252
 20
-49.0678195142
 10
40.7377050276
 20
-48.6737222803
  0
LINE
  5
2C4
100
AcDbEntity
  8
RACCORDO
100
AcDbLine
 62
250
  6
CONTINUOUS
 10
42.15191859
 20
-47.8571730937
 11
40.7377050276
 21
-48.6737222803
  0
LINE
  5
2C5
100
AcDbEntity
  8
ASSI
100
AcDbLine
 62
7
  6
CONTINUOUS
 10
40.5987989321
 20
-51.2901995523
 11
39.1845853698
 21
-52.1067487389
  0
ENDSEC
  0
SECTION
  2
OBJECTS
  0
DICTIONARY
  5
C
100
AcDbDictionary
280
0
281
1
  3
ACAD_GROUP
350
D
  3
ACAD_MLINESTYLE
350
17
  3
ACAD_LAYOUT
350
1A
  3
ACAD_PLOTSETTINGS
350
19
  3
ACAD_PLOTSTYLENAME
350
E
  0
DICTIONARY
  5
D
102
{ACAD_REACTORS
330
C
102
}
100
AcDbDictionary
280
0
281
1
  0
ACDBDICTIONARYWDFLT
  5
E
102
{ACAD_REACTORS
330
C
102
}
100
AcDbDictionary
281
1
  3
Normal
350
F
100
AcDbDictionaryWithDefault
340
F
  0
DICTIONARY
  5
17
102
{ACAD_REACTORS
330
C
102
}
100
AcDbDictionary
280
0
281
1
  3
Standard
350
18
  0
DICTIONARY
  5
19
102
{ACAD_REACTORS
330
C
102
}
100
AcDbDictionary
281
1
  0
DICTIONARY
  5
1A
102
{ACAD_REACTORS
330
C
102
}
100
AcDbDictionary
281
1
  3
Model
350
2C6
  3
Layout1
350
2C7
  0
ACDBPLACEHOLDER
  5
F
102
{ACAD_REACTORS
330
E
102
}
  0
MLINESTYLE
  5
18
102
{ACAD_REACTORS
330
17
102
}
100
AcDbMlineStyle
  2
STANDARD
 70
0
  3

 62
256
 51
90.0
 52
90.0
 71
2
 49
0.5
 62
256
  6
BYLAYER
 49
-0.5
 62
256
  6
BYLAYER
  0
LAYOUT
  5
2C6
102
{ACAD_REACTORS
330
1A
102
}
100
AcDbPlotSettings
  1

  2
none_device
  4
ISO_A4_(297.00_x_210.00_MM)
  6

 40
0.0
 41
0.0
 42
0.0
 43
0.0
 44
297.0
 45
210.0
 46
0.0
 47
0.0
 48
0.0
 49
0.0
140
0.0
141
0.0
142
1.0
143
1.0
 70
1024
 72
1
 73
0
 74
0
  7

 75
0
147
1.0
148
0.0
149
0.0
100
AcDbLayout
  1
Model
 70
0
 71
0
 10
0.0
 20
0.0
 11
297.0
 21
210.0
 12
0.0
 22
0.0
 32
0.0
 14
0.0
 24
0.0
 34
0.0
 15
0.0
 25
0.0
 35
0.0
146
0.0
 13
0.0
 23
0.0
 33
0.0
 16
1.0
 26
0.0
 36
0.0
 17
0.0
 27
1.0
 37
0.0
 76
0
330
213
345
0
346
0
  0
LAYOUT
  5
2C7
102
{ACAD_REACTORS
330
1A
102
}
100
AcDbPlotSettings
  1

  2
none_device
  4
ISO_A4_(297.00_x_210.00_MM)
  6

 40
0.0
 41
0.0
 42
0.0
 43
0.0
 44
297.0
 45
210.0
 46
0.0
 47
0.0
 48
0.0
 49
0.0
140
0.0
141
0.0
142
1.0
143
1.0
 70
0
 72
1
 73
0
 74
0
  7

 75
0
147
1.0
148
0.0
149
0.0
100
AcDbLayout
  1
Layout1
 70
0
 71
1
 10
0.0
 20
0.0
 11
297.0
 21
210.0
 12
0.0
 22
0.0
 32
0.0
 14
0.0
 24
0.0
 34
0.0
 15
0.0
 25
0.0
 35
0.0
146
0.0
 13
0.0
 23
0.0
 33
0.0
 16
1.0
 26
0.0
 36
0.0
 17
0.0
 27
1.0
 37
0.0
 76
0
330
214
345
0
346
0
  0
ENDSEC
  0
EOF
