  0
SECTION
  2
HEADER
  9
$ACADVER
  1
AC1027
  9
$DWGCODEPAGE
  3
ANSI_1252
  9
$EXTMAX
 10
297.0
 20
210.0
 30
0.0
  9
$EXTMIN
 10
0.0
 20
0.0
 30
0.0
  9
$LIMMIN
 10
0.0
 20
0.0
  9
$LIMMAX
 10
297.0
 20
210.0
  9
$VIEWCTR
 10
148.5
 20
105.0
  9
$VIEWSIZE
 40
210.0
  9
$CLAYER
  8
0
  9
$LTSCALE
 40
16.335
  9
$CELTYPE
  6
BYLAYER
  9
$DIMSCALE
 40
1.0
  9
$DIMASZ
 40
3.0
  9
$DIMEXO
 40
0.5
  9
$DIMDLI
 40
11.286
  9
$DIMEXE
 40
1.5
  9
$DIMCEN
 40
2.673
  9
$DIMLFAC
 40
1.0
  9
$DIMBLK
  1
_FILLED
  9
$DIMALT
 70
0
  9
$DIMALTF
 40
0.0393700787
  9
$DIMTXT
 40
3.0
  9
$DIMTOL
 70
1
  9
$DIMLIM
 70
0
  9
$DIMTFAC
 40
1.0
  9
$DIMTP
 40
0.01
  9
$DIMTM
 40
0.01
  9
$DIMGAP
 40
0.625
  9
$DIMDSEP
 70
44
  9
$AUNITS
 70
0
  9
$PDMODE
 70
3
  9
$PDSIZE
 40
3.0
  9
$HANDSEED
  5
2C6
  9
$TILEMODE
 70
1
  9
$MEASUREMENT
 70
1
  9
$INSUNITS
 70
4
  0
ENDSEC
  0
SECTION
  2
CLASSES
  0
CLASS
  1
ACDBDICTIONARYWDFLT
  2
AcDbDictionaryWithDefault
  3
AutoCAD 2000
 90
0
 91
1
280
0
281
0
  0
CLASS
  1
ACDBPLACEHOLDER
  2
AcDbPlaceHolder
  3
AutoCAD 2000
 90
0
 91
1
280
0
281
0
  0
CLASS
  1
LAYOUT
  2
AcDbLayout
  3
AutoCAD 2000
 90
0
 91
0
280
0
281
0
  0
ENDSEC
  0
SECTION
  2
TABLES
  0
TABLE
  2
VPORT
  5
8
100
AcDbSymbolTable
 70
2
  0
VPORT
  5
1F4
100
AcDbSymbolTableRecord
100
AcDbViewportTableRecord
  2
*ACTIVE
 70
0
 10
0.0
 20
0.0
 11
1.0
 21
1.0
 12
148.5
 22
105.0
 13
0.0
 23
0.0
 14
1.0
 24
1.0
 15
0.0
 25
0.0
 16
0.0
 26
0.0
 36
1.0
 17
0.0
 27
0.0
 37
0.0
 40
210.0
 41
1.4142857143
 42
50.0
 43
0.0
 44
0.0
 50
0.0
 51
0.0
 71
0
 72
100
 73
1
 74
1
 75
0
 76
0
 77
0
 78
0
  0
ENDTAB
  0
TABLE
  2
LTYPE
  5
5
100
AcDbSymbolTable
 70
6
  0
LTYPE
  5
14
100
AcDbSymbolTableRecord
100
AcDbLinetypeTableRecord
  2
BYBLOCK
 70
0
  3

 72
65
 73
0
 40
0.0
  0
LTYPE
  5
15
100
AcDbSymbolTableRecord
100
AcDbLinetypeTableRecord
  2
BYLAYER
 70
0
  3

 72
65
 73
0
 40
0.0
  0
LTYPE
  5
16
100
AcDbSymbolTableRecord
100
AcDbLinetypeTableRecord
  2
CONTINUOUS
 70
64
  3
Solid line
 72
65
 73
0
 40
0.0
  0
LTYPE
  5
1F5
100
AcDbSymbolTableRecord
100
AcDbLinetypeTableRecord
  2
CENTER
 70
64
  3
____ _ ____ _ ____ _ ____ _ ____ _ ____ _ ____
 72
65
 73
4
 40
0.6
 49
0.375
 74
0
 49
-0.075
 74
0
 49
0.075
 74
0
 49
-0.075
 74
0
  0
LTYPE
  5
1F6
100
AcDbSymbolTableRecord
100
AcDbLinetypeTableRecord
  2
HIDDEN
 70
64
  3
- - - - - - - - - - - - - - - - - - - -
 72
65
 73
2
 40
0.2
 49
0.1
 74
0
 49
-0.1
 74
0
  0
LTYPE
  5
1F7
100
AcDbSymbolTableRecord
100
AcDbLinetypeTableRecord
  2
PHANTOM
 70
64
  3
_____ _ _ _____ _ _ _____ _ _ _____
 72
65
 73
6
 40
0.8
 49
0.45
 74
0
 49
-0.05
 74
0
 49
0.1
 74
0
 49
-0.05
 74
0
 49
0.1
 74
0
 49
-0.05
 74
0
  0
LTYPE
  5
1F8
100
AcDbSymbolTableRecord
100
AcDbLinetypeTableRecord
  2
DOT
 70
64
  3
. . . . . . . . . . . . . . . . . . . .
 72
65
 73
2
 40
0.2
 49
0.1
 74
0
 49
-0.1
 74
0
  0
LTYPE
  5
1F9
100
AcDbSymbolTableRecord
100
AcDbLinetypeTableRecord
  2
DASHED
 70
64
  3
- - - - - - - - - - - - - - - - - - - -
 72
65
 73
2
 40
0.2
 49
0.1
 74
0
 49
-0.1
 74
0
  0
ENDTAB
  0
TABLE
  2
LAYER
  5
2
100
AcDbSymbolTable
 70
36
  0
LAYER
  5
10
100
AcDbSymbolTableRecord
100
AcDbLayerTableRecord
  2
0
 70
0
 62
7
  6
CONTINUOUS
370
-3
390
F
  0
LAYER
  5
1FA
100
AcDbSymbolTableRecord
100
AcDbLayerTableRecord
  2
DEFAULT_1
 70
0
 62
7
  6
CENTER
370
-3
390
F
  0
LAYER
  5
1FB
100
AcDbSymbolTableRecord
100
AcDbLayerTableRecord
  2
DEFAULT_2
 70
0
 62
7
  6
HIDDEN
370
-3
390
F
  0
LAYER
  5
1FC
100
AcDbSymbolTableRecord
100
AcDbLayerTableRecord
  2
DEFAULT_3
 70
0
 62
7
  6
PHANTOM
370
-3
390
F
  0
LAYER
  5
1FD
100
AcDbSymbolTableRecord
100
AcDbLayerTableRecord
  2
ASM0001_ASM_20
 70
0
 62
7
  6
CONTINUOUS
370
-3
390
F
  0
LAYER
  5
1FE
100
AcDbSymbolTableRecord
100
AcDbLayerTableRecord
  2
ASSI
 70
0
 62
7
  6
CONTINUOUS
370
-3
390
F
  0
LAYER
  5
1FF
100
AcDbSymbolTableRecord
100
AcDbLayerTableRecord
  2
COORDINATE
 70
0
 62
7
  6
CONTINUOUS
370
-3
390
F
  0
LAYER
  5
200
100
AcDbSymbolTableRecord
100
AcDbLayerTableRecord
  2
COPY_PUBLISH
 70
0
 62
7
  6
CONTINUOUS
370
-3
390
F
  0
LAYER
  5
201
100
AcDbSymbolTableRecord
100
AcDbLayerTableRecord
  2
COSMETICI
 70
0
 62
7
  6
CONTINUOUS
370
-3
390
F
  0
LAYER
  5
202
100
AcDbSymbolTableRecord
100
AcDbLayerTableRecord
  2
CURVE
 70
0
 62
7
  6
CONTINUOUS
370
-3
390
F
  0
LAYER
  5
203
100
AcDbSymbolTableRecord
100
AcDbLayerTableRecord
  2
DRAFT
 70
0
 62
7
  6
CONTINUOUS
370
-3
390
F
  0
LAYER
  5
204
100
AcDbSymbolTableRecord
100
AcDbLayerTableRecord
  2
IMPORT_IGES
 70
0
 62
7
  6
CONTINUOUS
370
-3
390
F
  0
LAYER
  5
205
100
AcDbSymbolTableRecord
100
AcDbLayerTableRecord
  2
INTFCLR_14
 70
0
 62
7
  6
CONTINUOUS
370
-3
390
F
  0
LAYER
  5
206
100
AcDbSymbolTableRecord
100
AcDbLayerTableRecord
  2
INTFCLR_14_1
 70
0
 62
7
  6
CONTINUOUS
370
-3
390
F
  0
LAYER
  5
207
100
AcDbSymbolTableRecord
100
AcDbLayerTableRecord
  2
INTFCLR_15
 70
0
 62
7
  6
CONTINUOUS
370
-3
390
F
  0
LAYER
  5
208
100
AcDbSymbolTableRecord
100
AcDbLayerTableRecord
  2
INTFCLR_7
 70
0
 62
7
  6
CONTINUOUS
370
-3
390
F
  0
LAYER
  5
209
100
AcDbSymbolTableRecord
100
AcDbLayerTableRecord
  2
INTFCLR_8
 70
0
 62
7
  6
CONTINUOUS
370
-3
390
F
  0
LAYER
  5
20A
100
AcDbSymbolTableRecord
100
AcDbLayerTableRecord
  2
INTF_CYAN
 70
0
 62
7
  6
CONTINUOUS
370
-3
390
F
  0
LAYER
  5
20B
100
AcDbSymbolTableRecord
100
AcDbLayerTableRecord
  2
INTF_GREEN
 70
0
 62
7
  6
CONTINUOUS
370
-3
390
F
  0
LAYER
  5
20C
100
AcDbSymbolTableRecord
100
AcDbLayerTableRecord
  2
NOTE
 70
0
 62
7
  6
CONTINUOUS
370
-3
390
F
  0
LAYER
  5
20D
100
AcDbSymbolTableRecord
100
AcDbLayerTableRecord
  2
P2LJ-3X6_5
 70
0
 62
7
  6
CONTINUOUS
370
-3
390
F
  0
LAYER
  5
20E
100
AcDbSymbolTableRecord
100
AcDbLayerTableRecord
  2
P2LJ-3X6_5_1
 70
0
 62
7
  6
CONTINUOUS
370
-3
390
F
  0
LAYER
  5
20F
100
AcDbSymbolTableRecord
100
AcDbLayerTableRecord
  2
P2LJ-3X6_5_2
 70
0
 62
7
  6
CONTINUOUS
370
-3
390
F
  0
LAYER
  5
210
100
AcDbSymbolTableRecord
100
AcDbLayerTableRecord
  2
PIANI
 70
0
 62
7
  6
CONTINUOUS
370
-3
390
F
  0
LAYER
  5
211
100
AcDbSymbolTableRecord
100
AcDbLayerTableRecord
  2
PRT0001_35
 70
0
 62
7
  6
CONTINUOUS
370
-3
390
F
  0
LAYER
  5
212
100
AcDbSymbolTableRecord
100
AcDbLayerTableRecord
  2
PRT0002_12
 70
0
 62
7
  6
CONTINUOUS
370
-3
390
F
  0
LAYER
  5
213
100
AcDbSymbolTableRecord
100
AcDbLayerTableRecord
  2
PRT0003_14
 70
0
 62
7
  6
CONTINUOUS
370
-3
390
F
  0
LAYER
  5
214
100
AcDbSymbolTableRecord
100
AcDbLayerTableRecord
  2
PRT0004_18
 70
0
 62
7
  6
CONTINUOUS
370
-3
390
F
  0
LAYER
  5
215
100
AcDbSymbolTableRecord
100
AcDbLayerTableRecord
  2
PRT0004_18_1
 70
0
 62
7
  6
CONTINUOUS
370
-3
390
F
  0
LAYER
  5
216
100
AcDbSymbolTableRecord
100
AcDbLayerTableRecord
  2
PRT0004_18_2
 70
0
 62
7
  6
CONTINUOUS
370
-3
390
F
  0
LAYER
  5
217
100
AcDbSymbolTableRecord
100
AcDbLayerTableRecord
  2
PRT0004_18_3
 70
0
 62
7
  6
CONTINUOUS
370
-3
390
F
  0
LAYER
  5
218
100
AcDbSymbolTableRecord
100
AcDbLayerTableRecord
  2
PRT0005_28
 70
0
 62
7
  6
CONTINUOUS
370
-3
390
F
  0
LAYER
  5
219
100
AcDbSymbolTableRecord
100
AcDbLayerTableRecord
  2
PRT0020_2
 70
0
 62
7
  6
CONTINUOUS
370
-3
390
F
  0
LAYER
  5
21A
100
AcDbSymbolTableRecord
100
AcDbLayerTableRecord
  2
PRT0022_1
 70
0
 62
7
  6
CONTINUOUS
370
-3
390
F
  0
LAYER
  5
21B
100
AcDbSymbolTableRecord
100
AcDbLayerTableRecord
  2
PUNTI
 70
0
 62
7
  6
CONTINUOUS
370
-3
390
F
  0
LAYER
  5
21C
100
AcDbSymbolTableRecord
100
AcDbLayerTableRecord
  2
RACCORDO
 70
0
 62
7
  6
CONTINUOUS
370
-3
390
F
  0
LAYER
  5
21D
100
AcDbSymbolTableRecord
100
AcDbLayerTableRecord
  2
SIMBOLI
 70
0
 62
7
  6
CONTINUOUS
370
-3
390
F
  0
LAYER
  5
21E
100
AcDbSymbolTableRecord
100
AcDbLayerTableRecord
  2
SMUSSO
 70
0
 62
7
  6
CONTINUOUS
370
-3
390
F
  0
LAYER
  5
21F
100
AcDbSymbolTableRecord
100
AcDbLayerTableRecord
  2
SNAPLINE
 70
0
 62
7
  6
CONTINUOUS
370
-3
390
F
  0
LAYER
  5
220
100
AcDbSymbolTableRecord
100
AcDbLayerTableRecord
  2
ST701XUANNIU-20140315_1
 70
0
 62
7
  6
CONTINUOUS
370
-3
390
F
  0
LAYER
  5
221
100
AcDbSymbolTableRecord
100
AcDbLayerTableRecord
  2
ST701XUANNIU-20140315_1_1
 70
0
 62
7
  6
CONTINUOUS
370
-3
390
F
  0
LAYER
  5
222
100
AcDbSymbolTableRecord
100
AcDbLayerTableRecord
  2
SUPERFICI
 70
0
 62
7
  6
CONTINUOUS
370
-3
390
F
  0
LAYER
  5
223
100
AcDbSymbolTableRecord
100
AcDbLayerTableRecord
  2
TRASH
 70
0
 62
7
  6
CONTINUOUS
370
-3
390
F
  0
LAYER
  5
224
100
AcDbSymbolTableRecord
100
AcDbLayerTableRecord
  2
WHITE
 70
0
 62
7
  6
CONTINUOUS
370
-3
390
F
  0
LAYER
  5
225
100
AcDbSymbolTableRecord
100
AcDbLayerTableRecord
  2
___SHELL
 70
0
 62
7
  6
CONTINUOUS
370
-3
390
F
  0
ENDTAB
  0
TABLE
  2
STYLE
  5
3
100
AcDbSymbolTable
 70
1
  0
STYLE
  5
11
100
AcDbSymbolTableRecord
100
AcDbTextStyleTableRecord
  2
STANDARD
 70
0
 40
0.0
 41
0.8
 50
0.0
 71
0
 42
0.2
  3
txt
  4

  0
STYLE
  5
226
100
AcDbSymbolTableRecord
100
AcDbTextStyleTableRecord
  2
TEXTSTYLE_1
 70
0
 40
0.0
 41
0.8
 50
0.0
 71
0
 42
0.2
  3
gdt
  4

  0
ENDTAB
  0
TABLE
  2
VIEW
  5
6
100
AcDbSymbolTable
 70
0
  0
ENDTAB
  0
TABLE
  2
UCS
  5
7
100
AcDbSymbolTable
 70
0
  0
ENDTAB
  0
TABLE
  2
APPID
  5
9
100
AcDbSymbolTable
 70
1
  0
APPID
  5
227
100
AcDbSymbolTableRecord
100
AcDbRegAppTableRecord
  2
ACAD
 70
0
  0
ENDTAB
  0
TABLE
  2
BLOCK_RECORD
  5
1
100
AcDbSymbolTable
 70
0
  0
BLOCK_RECORD
  5
228
100
AcDbSymbolTableRecord
100
AcDbBlockTableRecord
  2
*Model_Space
  0
BLOCK_RECORD
  5
229
100
AcDbSymbolTableRecord
100
AcDbBlockTableRecord
  2
*Paper_Space
  0
BLOCK_RECORD
  5
22A
100
AcDbSymbolTableRecord
100
AcDbBlockTableRecord
  2
_FILLED
  0
ENDTAB
  0
TABLE
  2
DIMSTYLE
  5
A
100
AcDbSymbolTable
 70
1
100
AcDbDimStyleTable
 71
0
  0
DIMSTYLE
105
22B
100
AcDbSymbolTableRecord
100
AcDbDimStyleTableRecord
  2
STANDARD
 70
0
  3

  4

 40
1.0
 41
3.0
 42
0.5
 43
0.38
 44
1.5
 45
0.0
 46
0.0
 47
0.01
 48
0.01
140
3.0
141
0.09
142
0.0
143
25.4
144
1.0
145
0.0
146
1.0
147
0.625
 71
1.0
 72
0.0
 73
0
 74
0
 75
0
 76
0
 77
1
 78
8
 79
2
170
0
171
1
172
0
173
0
174
0
175
0
176
0
177
0
178
0
270
2
179
2
271
2
272
2
273
2
274
2
275
0
280
0
281
0
282
0
283
1
284
8
285
0
286
0
287
3
288
0
340
11
278
44
341
22A
342
22A
343
22A
344
22A
  0
ENDTAB
  0
ENDSEC
  0
SECTION
  2
BLOCKS
  0
BLOCK
  5
20
100
AcDbEntity
  8
0
100
AcDbBlockBegin
  2
*Model_Space
 70
0
 10
0.0
 20
0.0
 30
0.0
  3
*Model_Space
  1

  0
ENDBLK
  5
21
100
AcDbEntity
  8
0
100
AcDbBlockEnd
  0
BLOCK
  5
1C
100
AcDbEntity
  8
0
100
AcDbBlockBegin
  2
*Paper_Space
 70
0
 10
0.0
 20
0.0
 30
0.0
  3
*Paper_Space
  1

  0
ENDBLK
  5
1D
100
AcDbEntity
  8
0
100
AcDbBlockEnd
  0
BLOCK
  5
22C
100
AcDbEntity
  8
0
100
AcDbBlockBegin
  2
_FILLED
 70
64
 10
0.0
 20
0.0
  3
_FILLED
  1

  0
SOLID
  5
22D
100
AcDbEntity
  8
0
  6
BYBLOCK
 62
0
100
AcDbTrace
 10
0.0
 20
0.0
 11
-1.0
 21
0.3166666667
 12
-1.0
 22
-0.3166666667
 13
-1.0
 23
-0.3166666667
  0
ENDBLK
  5
22E
100
AcDbEntity
  8
0
  6
BYBLOCK
 62
0
100
AcDbBlockEnd
  0
ENDSEC
  0
SECTION
  2
ENTITIES
  0
LWPOLYLINE
  5
22F
100
AcDbEntity
  8
IMPORT_IGES
100
AcDbPolyline
 62
7
  6
CONTINUOUS
 90
21
 70
0
 10
-37.631295841
 20
48.9768661643
 10
-37.7004380773
 20
48.9417695237
 10
-37.9926390811
 20
48.7811451346
 10
-38.2765750587
 20
48.6047549527
 10
-38.5520094251
 20
48.4127173433
 10
-38.8190945469
 20
48.2047933385
 10
-39.0774048461
 20
47.9811078679
 10
-39.3264335184
 20
47.7419196877
 10
-39.5661290879
 20
47.4870424969
 10
-39.7961653154
 20
47.216520523
 10
-40.0159850614
 20
46.9306964112
 10
-40.225183662
 20
46.6298046784
 10
-40.4234629896
 20
46.3139593862
 10
-40.6103754465
 20
45.983544609
 10
-40.7853710135
 20
45.6392727806
 10
-40.9481886317
 20
45.2814450356
 10
-41.0985447892
 20
44.9104508644
 10
-41.2359829936
 20
44.5272735418
 10
-41.3602627425
 20
44.1325679336
 10
-41.4712959119
 20
43.7265862308
 10
-41.5550474347
 20
43.3734195434
  0
LINE
  5
230
100
AcDbEntity
  8
IMPORT_IGES
100
AcDbLine
 62
7
  6
CONTINUOUS
 10
-37.6321498441
 20
48.9764427341
 11
-21.3429442324
 21
57.1210455399
  0
LINE
  5
231
100
AcDbEntity
  8
IMPORT_IGES
100
AcDbLine
 62
250
  6
CONTINUOUS
 10
-33.3866553008
 20
49.4120390181
 11
-17.0766847115
 21
57.5670244074
  0
LWPOLYLINE
  5
232
100
AcDbEntity
  8
IMPORT_IGES
100
AcDbPolyline
 62
250
  6
CONTINUOUS
 90
15
 70
0
 10
-37.6312913385
 20
48.976871895
 10
-37.4937724593
 20
49.0432760264
 10
-37.2116652674
 20
49.1654926803
 10
-36.9226669336
 20
49.2723412932
 10
-36.6271029605
 20
49.3637030713
 10
-36.325304128
 20
49.4394777982
 10
-36.0176115
 20
49.4995809918
 10
-35.7043723452
 20
49.5439460844
 10
-35.3859369535
 20
49.5725262509
 10
-35.062666261
 20
49.585289919
 10
-34.7349246927
 20
49.5822237288
 10
-34.4030761181
 20
49.5633347791
 10
-34.0674935653
 20
49.5286457281
 10
-33.7285588198
 20
49.4781948416
 10
-33.3866553008
 20
49.4120390181
  0
LWPOLYLINE
  5
233
100
AcDbEntity
  8
IMPORT_IGES
100
AcDbPolyline
 62
250
  6
CONTINUOUS
 90
5
 70
0
 10
16.6244025501
 20
-57.18086182
 10
16.5980814038
 20
-57.1762461252
 10
16.5720385924
 20
-57.1715197714
 10
16.5462751549
 20
-57.1666866454
 10
16.5208895358
 20
-57.1617336736
  0
LWPOLYLINE
  5
234
100
AcDbEntity
  8
IMPORT_IGES
100
AcDbPolyline
 62
7
  6
CONTINUOUS
 90
15
 70
0
 10
17.04319673
 20
-57.5488683876
 10
17.3759063328
 20
-57.6102611951
 10
17.7595099324
 20
-57.6646970859
 10
18.1390038936
 20
-57.7008903316
 10
18.513860087
 20
-57.7188757855
 10
18.883604735
 20
-57.7187192813
 10
19.2478198927
 20
-57.7005098487
 10
19.6060463339
 20
-57.6643576648
 10
19.9577291235
 20
-57.6104167281
 10
20.302305465
 20
-57.5388930136
 10
20.6393110343
 20
-57.4500201428
 10
20.9682340902
 20
-57.3440858025
 10
21.2884749813
 20
-57.2214738123
 10
21.5995606482
 20
-57.0825831887
 10
21.6956481257
 20
-57.0355018116
  0
LINE
  5
235
100
AcDbEntity
  8
IMPORT_IGES
100
AcDbLine
 62
7
  6
CONTINUOUS
 10
16.8728663561
 20
-57.5136654426
 11
17.0432086054
 21
-57.5488709338
  0
LWPOLYLINE
  5
236
100
AcDbEntity
  8
IMPORT_IGES
100
AcDbPolyline
 62
250
  6
CONTINUOUS
 90
5
 70
0
 10
-41.555047424
 20
43.3734199467
 10
-41.5600907484
 20
43.3459168042
 10
-41.5640084132
 20
43.3020525208
 10
-41.5630297418
 20
43.2573484137
 10
-41.5571427947
 20
43.2121509294
  0
LWPOLYLINE
  5
237
100
AcDbEntity
  8
IMPORT_IGES
100
AcDbPolyline
 62
7
  6
CONTINUOUS
 90
31
 70
0
 10
-41.6110666523
 20
43.115592869
 10
-41.9782027489
 20
41.330447311
 10
-42.3318274806
 20
39.4691690633
 10
-42.6597461545
 20
37.5888296095
 10
-42.9618641073
 20
35.6898647233
 10
-43.2380728311
 20
33.7727724028
 10
-43.4882632615
 20
31.8381032144
 10
-43.7123696407
 20
29.8862794031
 10
-43.9103286803
 20
27.9177312131
 10
-44.0820667872
 20
25.932992863
 10
-44.2275232046
 20
23.932464422
 10
-44.3466357166
 20
21.9165945675
 10
-44.4393514607
 20
19.8860229259
 10
-44.5056341616
 20
17.8412525338
 10
-44.5454492492
 20
15.7827386376
 10
-44.5587609123
 20
13.711060355
 10
-44.5455479955
 20
11.6267130506
 10
-44.5058373295
 20
9.5301745632
 10
-44.4396723604
 20
7.422000481
 10
-44.3470972692
 20
5.3026807639
 10
-44.2281576361
 20
3.1727185281
 10
-44.0829092688
 20
1.0326956779
 10
-43.911424979
 20
-1.1168530194
 10
-43.7137775887
 20
-3.2754680966
 10
-43.490040332
 20
-5.4426729119
 10
-43.2402895397
 20
-7.6179574645
 10
-42.9646046266
 20
-9.8008209281
 10
-42.6630890203
 20
-11.9907346513
 10
-42.3358589018
 20
-14.187115034
 10
-41.9830338348
 20
-16.3893505375
 10
-41.6178817932
 20
-18.5224360692
  0
LINE
  5
238
100
AcDbEntity
  8
IMPORT_IGES
100
AcDbLine
 62
7
  6
CONTINUOUS
 10
-41.5797320526
 20
43.2609061952
 11
-41.6110665253
 21
43.1155973744
  0
LWPOLYLINE
  5
239
100
AcDbEntity
  8
IMPORT_IGES
100
AcDbPolyline
 62
250
  6
CONTINUOUS
 90
6
 70
0
 10
-41.5133534351
 20
42.732887606
 10
-41.4885707498
 20
42.8463507793
 10
-41.48230581
 20
42.8745569785
 10
-41.4758350513
 20
42.9030250201
 10
-41.4691008931
 20
42.9318502773
 10
-41.4621543358
 20
42.9609311132
  0
LINE
  5
23A
100
AcDbEntity
  8
IMPORT_IGES
100
AcDbLine
 62
7
  6
CONTINUOUS
 10
-41.5550420701
 20
43.3734441748
 11
-41.5797320526
 21
43.2609061952
  0
LWPOLYLINE
  5
23B
100
AcDbEntity
  8
IMPORT_IGES
100
AcDbPolyline
 62
250
  6
CONTINUOUS
 90
31
 70
0
 10
-41.4621543358
 20
42.9609311132
 10
-41.3583705851
 20
43.3795528421
 10
-41.2489558553
 20
43.7585376239
 10
-41.1268675963
 20
44.1267460503
 10
-40.9921823544
 20
44.4838727144
 10
-40.8450673206
 20
44.8292537762
 10
-40.6858287716
 20
45.1619143372
 10
-40.5146844205
 20
45.4812431229
 10
-40.3317904334
 20
45.7869664861
 10
-40.1374169462
 20
46.0786682655
 10
-39.9317393537
 20
46.3558657033
 10
-39.7149817883
 20
46.6181665359
 10
-39.4875064573
 20
46.8653184766
 10
-39.2495218967
 20
47.0969131931
 10
-39.001247645
 20
47.3125177766
 10
-38.7430812476
 20
47.5118815489
 10
-38.4753284033
 20
47.6948155928
 10
-38.1983105961
 20
47.8610134847
 10
-37.9124729297
 20
48.0100879226
 10
-37.6182465403
 20
48.1419721119
 10
-37.316041961
 20
48.2565921196
 10
-37.0062988032
 20
48.35358449
 10
-36.6894410715
 20
48.432842119
 10
-36.3659093537
 20
48.494373222
 10
-36.0361852169
 20
48.53801802
 10
-35.700575908
 20
48.563688212
 10
-35.3596433074
 20
48.571402768
 10
-35.0142728511
 20
48.561242209
 10
-34.6650635913
 20
48.5332897353
 10
-34.3123088512
 20
48.4875616122
 10
-33.9304873559
 20
48.4195222504
  0
LWPOLYLINE
  5
23C
100
AcDbEntity
  8
IMPORT_IGES
100
AcDbPolyline
 62
250
  6
CONTINUOUS
 90
3
 70
0
 10
16.5208895358
 20
-57.1617336736
 10
16.4202153807
 20
-57.1412784606
 10
16.3949716611
 20
-57.1360527459
  0
LINE
  5
23D
100
AcDbEntity
  8
IMPORT_IGES
100
AcDbLine
 62
7
  6
CONTINUOUS
 10
16.8136128954
 20
-57.5012054429
 11
16.8728663561
 21
-57.5136654426
  0
LWPOLYLINE
  5
23E
100
AcDbEntity
  8
IMPORT_IGES
100
AcDbPolyline
 62
250
  6
CONTINUOUS
 90
15
 70
0
 10
16.3945585868
 20
-57.1355326337
 10
14.7471605539
 20
-56.7767822759
 10
13.094486068
 20
-56.3838330799
 10
11.436913764
 20
-55.9567772496
 10
9.7747826444
 20
-55.4956690162
 10
8.1085213761
 20
-55.000641737
 10
6.4386347998
 20
-54.4719027943
 10
4.7654913471
 20
-53.9095309298
 10
3.0894789444
 20
-53.3136316994
 10
1.4111086772
 20
-52.6844518177
 10
-0.2692678333
 20
-52.0220851231
 10
-1.9512577239
 20
-51.3266548533
 10
-3.6343184838
 20
-50.5984520595
 10
-5.3180391072
 20
-49.8376461916
 10
-7.0021193945
 20
-49.044290609
  0
LWPOLYLINE
  5
23F
100
AcDbEntity
  8
IMPORT_IGES
100
AcDbPolyline
 62
250
  6
CONTINUOUS
 90
4
 70
0
 10
16.9117420382
 20
-57.5023110492
 10
16.9576877905
 20
-57.5232906577
 10
17.0050582346
 20
-57.5395071146
 10
17.0431962157
 20
-57.5488684057
  0
LINE
  5
240
100
AcDbEntity
  8
IMPORT_IGES
100
AcDbLine
 62
250
  6
CONTINUOUS
 10
-7.0021193945
 20
-49.044290609
 11
-8.6862003853
 21
-48.218501479
  0
LWPOLYLINE
  5
241
100
AcDbEntity
  8
IMPORT_IGES
100
AcDbPolyline
 62
7
  6
CONTINUOUS
 90
16
 70
0
 10
-8.473856923
 20
-48.470932421
 10
-6.8217790524
 20
-49.2816364836
 10
-5.1169467232
 20
-50.086123143
 10
-3.4122325054
 20
-50.8579766383
 10
-1.7080784658
 20
-51.5970092908
 10
-0.0049809769
 20
-52.3030088154
 10
1.6965321524
 20
-52.9757611978
 10
3.3961506956
 20
-53.6151656369
 10
5.0934617349
 20
-54.2210839735
 10
6.7878481987
 20
-54.793312301
 10
8.4789061592
 20
-55.3317292819
 10
10.1663138835
 20
-55.8362446893
 10
11.8495284832
 20
-56.3067271797
 10
13.5280746458
 20
-56.7430736282
 10
15.2015601195
 20
-57.1451990871
 10
16.813611574
 20
-57.5012047222
  0
LWPOLYLINE
  5
242
100
AcDbEntity
  8
IMPORT_IGES
100
AcDbPolyline
 62
250
  6
CONTINUOUS
 90
15
 70
0
 10
-8.6859956222
 20
-48.2190478028
 10
-10.3698847537
 20
-47.3605345833
 10
-12.0533319303
 20
-46.4698605502
 10
-13.7359877212
 20
-45.5472610864
 10
-15.4175378069
 20
-44.5929876072
 10
-17.0976046463
 20
-43.6072627664
 10
-18.7757268005
 20
-42.5902969936
 10
-20.4515253763
 20
-41.5423540323
 10
-22.1246552016
 20
-40.4636871385
 10
-23.7946745159
 20
-39.3545245406
 10
-25.4612026046
 20
-38.2151493624
 10
-27.1238841301
 20
-37.0458439237
 10
-28.7822904861
 20
-35.8468586645
 10
-30.4360239091
 20
-34.6184707468
 10
-32.0847327084
 20
-33.3609757865
  0
LWPOLYLINE
  5
243
100
AcDbEntity
  8
IMPORT_IGES
100
AcDbPolyline
 62
7
  6
CONTINUOUS
 90
16
 70
0
 10
-33.6233601193
 20
-32.2955796275
 10
-32.0206178094
 20
-33.5464153466
 10
-30.3609768964
 20
-34.80906
 10
-28.6957215216
 20
-36.0429738912
 10
-27.0253569315
 20
-37.2477595203
 10
-25.3502892774
 20
-38.423091579
 10
-23.6708050098
 20
-39.5687281793
 10
-21.9872381373
 20
-40.6844139362
 10
-20.2999987061
 20
-41.7698500072
 10
-18.6094272745
 20
-42.8247844504
 10
-16.9159195797
 20
-43.8489316889
 10
-15.2198152044
 20
-44.8420470218
 10
-13.5214123224
 20
-45.8039313206
 10
-11.8211113892
 20
-46.7343292146
 10
-10.1194018179
 20
-47.6329371134
 10
-8.4738582068
 20
-48.4709317805
  0
LINE
  5
244
100
AcDbEntity
  8
IMPORT_IGES
100
AcDbLine
 62
250
  6
CONTINUOUS
 10
-32.0847327084
 20
-33.3609757865
 11
-33.7280479211
 21
-32.0746564666
  0
LINE
  5
245
100
AcDbEntity
  8
IMPORT_IGES
100
AcDbLine
 62
7
  6
CONTINUOUS
 10
-33.7877125347
 20
-32.1650511678
 11
-33.6233600454
 21
-32.295580157
  0
LINE
  5
246
100
AcDbEntity
  8
IMPORT_IGES
100
AcDbLine
 62
7
  6
CONTINUOUS
 10
-33.8490065215
 20
-32.1160324147
 11
-33.7877125347
 21
-32.1650511678
  0
LINE
  5
247
100
AcDbEntity
  8
IMPORT_IGES
100
AcDbLine
 62
250
  6
CONTINUOUS
 10
-33.7280056013
 20
-32.0745897485
 11
-33.8530418703
 21
-31.9748209401
  0
LINE
  5
248
100
AcDbEntity
  8
IMPORT_IGES
100
AcDbLine
 62
250
  6
CONTINUOUS
 10
-33.8530418703
 20
-31.9748209401
 11
-33.9040145399
 21
-31.933516508
  0
LINE
  5
249
100
AcDbEntity
  8
IMPORT_IGES
100
AcDbLine
 62
250
  6
CONTINUOUS
 10
-33.9040145399
 20
-31.933516508
 11
-33.9564536711
 21
-31.890379322
  0
LWPOLYLINE
  5
24A
100
AcDbEntity
  8
IMPORT_IGES
100
AcDbPolyline
 62
250
  6
CONTINUOUS
 90
31
 70
0
 10
-33.9564536711
 20
-31.890379322
 10
-34.3099498901
 20
-31.5958583172
 10
-34.6605514348
 20
-31.2870770345
 10
-35.00782386
 20
-30.9643992485
 10
-35.3514756105
 20
-30.6280665565
 10
-35.6909081938
 20
-30.2785814278
 10
-36.0252351105
 20
-29.9167572154
 10
-36.3538926745
 20
-29.5431400209
 10
-36.6765702662
 20
-29.1580795189
 10
-36.9927806617
 20
-28.7621534881
 10
-37.3020776719
 20
-28.3557975898
 10
-37.6040305338
 20
-27.939504555
 10
-37.8981901491
 20
-27.513953424
 10
-38.1841358359
 20
-27.0796099675
 10
-38.4614269388
 20
-26.6369637924
 10
-38.7296079141
 20
-26.1867408803
 10
-38.9883404952
 20
-25.7294908009
 10
-39.2373004807
 20
-25.2657610333
 10
-39.4760762774
 20
-24.7962925526
 10
-39.7044349466
 20
-24.3217308707
 10
-39.9221514087
 20
-23.8426909134
 10
-40.1288440086
 20
-23.3598902133
 10
-40.3242721558
 20
-22.8739665178
 10
-40.5082435569
 20
-22.3855583742
 10
-40.680467359
 20
-21.8953966252
 10
-40.8407699764
 20
-21.4039420379
 10
-40.9889146636
 20
-20.9120045853
 10
-41.1245718541
 20
-20.4208379395
 10
-41.2475540607
 20
-19.9312713697
 10
-41.3577669058
 20
-19.4437104588
 10
-41.45507126
 20
-18.9587606162
  0
LWPOLYLINE
  5
24B
100
AcDbEntity
  8
IMPORT_IGES
100
AcDbPolyline
 62
7
  6
CONTINUOUS
 90
34
 70
0
 10
-41.5621908406
 20
-18.8317995783
 10
-41.4861853943
 20
-19.2243491456
 10
-41.3866721591
 20
-19.6860589101
 10
-41.276134176
 20
-20.1486217217
 10
-41.1547604458
 20
-20.6114176401
 10
-41.0227059771
 20
-21.0739741742
 10
-40.8800847961
 20
-21.5360175931
 10
-40.7270373921
 20
-21.997168698
 10
-40.5637487015
 20
-22.4569037605
 10
-40.3903935886
 20
-22.9147479211
 10
-40.2071703777
 20
-23.3702037977
 10
-40.0142706463
 20
-23.8227956043
 10
-39.8118785587
 20
-24.2720587558
 10
-39.6002095373
 20
-24.7174851828
 10
-39.3794554191
 20
-25.1586386807
 10
-39.1497598085
 20
-25.5951656614
 10
-38.9113218017
 20
-26.0266293195
 10
-38.6644117688
 20
-26.452500002
 10
-38.4092884783
 20
-26.872280914
 10
-38.1462445655
 20
-27.2855066325
 10
-37.8755692079
 20
-27.69176561
 10
-37.5975337495
 20
-28.090670698
 10
-37.3124317425
 20
-28.4818060969
 10
-37.0205606157
 20
-28.8647532607
 10
-36.7221972375
 20
-29.2391377358
 10
-36.4176506555
 20
-29.6045477334
 10
-36.1072203663
 20
-29.9605951234
 10
-35.7911640474
 20
-30.3069406087
 10
-35.4697697722
 20
-30.643215569
 10
-35.143360293
 20
-30.9690196102
 10
-34.8122407858
 20
-31.2839806787
 10
-34.4767149213
 20
-31.5877338253
 10
-34.1370850307
 20
-31.8799208445
 10
-33.8490047415
 20
-32.1160337618
  0
LINE
  5
24C
100
AcDbEntity
  8
IMPORT_IGES
100
AcDbLine
 62
250
  6
CONTINUOUS
 10
-41.45507126
 20
-18.9587606162
 11
-41.4689423186
 21
-18.8872052481
  0
LINE
  5
24D
100
AcDbEntity
  8
IMPORT_IGES
100
AcDbLine
 62
250
  6
CONTINUOUS
 10
-41.4689423186
 20
-18.8872052481
 11
-41.4820544789
 21
-18.8173327256
  0
LWPOLYLINE
  5
24E
100
AcDbEntity
  8
IMPORT_IGES
100
AcDbPolyline
 62
250
  6
CONTINUOUS
 90
3
 70
0
 10
-41.4820544789
 20
-18.8173327256
 10
-41.5071170683
 20
-18.6790133578
 10
-41.5133527456
 20
-18.6439986576
  0
LINE
  5
24F
100
AcDbEntity
  8
IMPORT_IGES
100
AcDbLine
 62
7
  6
CONTINUOUS
 10
-41.6036878072
 20
-18.6024286467
 11
-41.562195798
 21
-18.8317952994
  0
LINE
  5
250
100
AcDbEntity
  8
IMPORT_IGES
100
AcDbLine
 62
7
  6
CONTINUOUS
 10
-41.6178834516
 20
-18.5224342503
 11
-41.6036878072
 21
-18.6024286467
  0
LWPOLYLINE
  5
251
100
AcDbEntity
  8
IMPORT_IGES
100
AcDbPolyline
 62
250
  6
CONTINUOUS
 90
31
 70
0
 10
-41.5129841986
 20
-18.6438337821
 10
-41.892295406
 20
-16.4448795837
 10
-42.2459528841
 20
-14.2517958022
 10
-42.5738651048
 20
-12.0650871772
 10
-42.8759247059
 20
-9.8852483562
 10
-43.1520547281
 20
-7.7128093146
 10
-43.4022086036
 20
-5.5483170136
 10
-43.6262872588
 20
-3.3922796729
 10
-43.8242049761
 20
-1.2451993981
 10
-43.9959411081
 20
0.8924195677
 10
-44.1414149866
 20
3.0201073163
 10
-44.2605511475
 20
5.1373520829
 10
-44.35334669
 20
7.2436309559
 10
-44.4197378196
 20
9.3385086399
 10
-44.4596466437
 20
11.4214821022
 10
-44.4730607995
 20
13.4919718566
 10
-44.459975508
 20
15.5495828711
 10
-44.4203859065
 20
17.5938745309
 10
-44.3542960585
 20
19.6242072895
 10
-44.2617751517
 20
21.6401616289
 10
-44.1428779771
 20
23.6413532971
 10
-43.9975988174
 20
25.6271621323
 10
-43.8260044645
 20
27.5971433787
 10
-43.6281668869
 20
29.5509074651
 10
-43.4040981568
 20
31.4878822442
 10
-43.1538755322
 20
33.4076387518
 10
-42.877589612
 20
35.3097697183
 10
-42.5752785713
 20
37.1937072872
 10
-42.2470110481
 20
39.0589716132
 10
-41.8928861405
 20
40.9051893375
 10
-41.5129871558
 20
42.7319403001
  0
LWPOLYLINE
  5
252
100
AcDbEntity
  8
IMPORT_IGES
100
AcDbPolyline
 62
250
  6
CONTINUOUS
 90
19
 70
0
 10
-33.9530256312
 20
48.4236095633
 10
-33.9473862805
 20
48.4931688988
 10
-33.9381044448
 20
48.5630790224
 10
-33.9252096659
 20
48.6327914468
 10
-33.9088415268
 20
48.7015659483
 10
-33.8891175711
 20
48.7690548136
 10
-33.8660289987
 20
48.8353043482
 10
-33.8397321563
 20
48.8998252947
 10
-33.8104450705
 20
48.9621211302
 10
-33.7781612484
 20
49.0222091044
 10
-33.7431110983
 20
49.0796312758
 10
-33.7055663062
 20
49.1339694151
 10
-33.6655160679
 20
49.1852365612
 10
-33.6232640651
 20
49.2330188307
 10
-33.5791264328
 20
49.2769809824
 10
-33.5330715852
 20
49.3171473121
 10
-33.4853223234
 20
49.3532716312
 10
-33.436384825
 20
49.3849671624
 10
-33.3866554707
 20
49.4120390391
  0
LWPOLYLINE
  5
253
100
AcDbEntity
  8
IMPORT_IGES
100
AcDbPolyline
 62
250
  6
CONTINUOUS
 90
19
 70
0
 10
-33.7279836432
 20
48.3781383403
 10
-33.7221865092
 20
48.4477885867
 10
-33.712771476
 20
48.5177167616
 10
-33.6997797562
 20
48.5873708599
 10
-33.6833685324
 20
48.6559880707
 10
-33.6636621281
 20
48.7232461309
 10
-33.6406364761
 20
48.7892628609
 10
-33.6144367917
 20
48.8535764106
 10
-33.5852865866
 20
48.9156709124
 10
-33.5531794312
 20
48.9755633986
 10
-33.518343367
 20
49.0327998049
 10
-33.4810469195
 20
49.0869654683
 10
-33.4412794235
 20
49.1380733028
 10
-33.3993409696
 20
49.1857128269
 10
-33.3555435459
 20
49.2295516647
 10
-33.3098556387
 20
49.2696142104
 10
-33.2624969796
 20
49.305656346
 10
-33.2139669714
 20
49.3372940309
 10
-33.1646564632
 20
49.3643334626
  0
LWPOLYLINE
  5
254
100
AcDbEntity
  8
IMPORT_IGES
100
AcDbPolyline
 62
7
  6
CONTINUOUS
 90
8
 70
0
 10
-30.6412709403
 20
13.8877404821
 10
-30.6399049282
 20
13.8903893642
 10
-30.3863420405
 20
14.3430727027
 10
-30.1200779711
 20
14.7813234171
 10
-29.8409443331
 20
15.2052829392
 10
-29.5489565088
 20
15.6147191032
 10
-29.2443619668
 20
16.0090844435
 10
-28.9273133081
 20
16.3880067078
  0
LWPOLYLINE
  5
255
100
AcDbEntity
  8
IMPORT_IGES
100
AcDbPolyline
 62
250
  6
CONTINUOUS
 90
19
 70
0
 10
24.1797008555
 20
-51.4905260013
 10
24.2417226187
 20
-51.5181185383
 10
24.3060978332
 20
-51.5432359285
 10
24.3723492735
 20
-51.5656517103
 10
24.4397770956
 20
-51.585131871
 10
24.5080232434
 20
-51.6016035332
 10
24.5771310428
 20
-51.6150808575
 10
24.6466012525
 20
-51.6254548889
 10
24.7158942685
 20
-51.6326577388
 10
24.7850280912
 20
-51.6366923194
 10
24.8534879117
 20
-51.6375169213
 10
24.9207691683
 20
-51.6351374325
 10
24.9868889921
 20
-51.6295518951
 10
25.0513280676
 20
-51.6207910295
 10
25.1136259814
 20
-51.6089300756
 10
25.1738211182
 20
-51.5939573583
 10
25.2315807247
 20
-51.5759213858
 10
25.2862931604
 20
-51.5550103554
 10
25.3375698357
 20
-51.5314204811
  0
LWPOLYLINE
  5
256
100
AcDbEntity
  8
IMPORT_IGES
100
AcDbPolyline
 62
250
  6
CONTINUOUS
 90
19
 70
0
 10
24.1231323186
 20
-51.7436846881
 10
24.1856796535
 20
-51.7716614825
 10
24.2501754844
 20
-51.7969225976
 10
24.3160663843
 20
-51.8192869264
 10
24.3823291282
 20
-51.8385077479
 10
24.4488214426
 20
-51.8546730422
 10
24.5164109236
 20
-51.8680215285
 10
24.5848898666
 20
-51.8784508405
 10
24.6535069065
 20
-51.8858070502
 10
24.7223976032
 20
-51.8900620312
 10
24.7911404813
 20
-51.8911195758
 10
24.8591207233
 20
-51.8889225947
 10
24.9261581309
 20
-51.8834343928
 10
24.9916292884
 20
-51.8746698896
 10
25.0551143577
 20
-51.8626758172
 10
25.1166660907
 20
-51.8474051771
 10
25.1759122519
 20
-51.8288767712
 10
25.2321581599
 20
-51.8072677007
 10
25.2849507218
 20
-51.7827675433
  0
LWPOLYLINE
  5
257
100
AcDbEntity
  8
IMPORT_IGES
100
AcDbPolyline
 62
250
  6
CONTINUOUS
 90
7
 70
0
 10
-41.456031973
 20
-18.9540965261
 10
-41.4854163767
 20
-18.9361284421
 10
-41.5104387832
 20
-18.916643453
 10
-41.5308491623
 20
-18.8957771933
 10
-41.5464343648
 20
-18.873752016
 10
-41.5571590422
 20
-18.850692863
 10
-41.5621947719
 20
-18.831800893
  0
LWPOLYLINE
  5
258
100
AcDbEntity
  8
IMPORT_IGES
100
AcDbPolyline
 62
250
  6
CONTINUOUS
 90
7
 70
0
 10
-41.5129100793
 20
-18.6442418983
 10
-41.5422074403
 20
-18.6261945232
 10
-41.5670688494
 20
-18.6066810639
 10
-41.5872623908
 20
-18.5858459903
 10
-41.6025903056
 20
-18.5639310679
 10
-41.6130528456
 20
-18.5410561459
 10
-41.6178817932
 20
-18.5224360692
  0
LWPOLYLINE
  5
259
100
AcDbEntity
  8
IMPORT_IGES
100
AcDbPolyline
 62
250
  6
CONTINUOUS
 90
8
 70
0
 10
-33.7280056046
 20
-32.074589751
 10
-33.7221919177
 20
-32.1168853199
 10
-33.7127783708
 20
-32.1563990782
 10
-33.6997958727
 20
-32.1927872567
 10
-33.6833839812
 20
-32.2256680601
 10
-33.6636593457
 20
-32.2549047805
 10
-33.6406133668
 20
-32.2805209351
 10
-33.6233618082
 20
-32.295578764
  0
LWPOLYLINE
  5
25A
100
AcDbEntity
  8
IMPORT_IGES
100
AcDbPolyline
 62
250
  6
CONTINUOUS
 90
8
 70
0
 10
-33.9530538142
 20
-31.8930467008
 10
-33.9473819024
 20
-31.935944113
 10
-33.9380907509
 20
-31.9757522067
 10
-33.9252950278
 20
-32.0121731643
 10
-33.9092912903
 20
-32.0447645776
 10
-33.8902385328
 20
-32.0736171371
 10
-33.8679136556
 20
-32.0991441888
 10
-33.8490061529
 20
-32.116032631
  0
LWPOLYLINE
  5
25B
100
AcDbEntity
  8
IMPORT_IGES
100
AcDbPolyline
 62
7
  6
CONTINUOUS
 90
7
 70
0
 10
-28.2732042069
 20
16.1217016893
 10
-28.2435442653
 20
16.1637536806
 10
-28.100761264
 20
16.3585508815
 10
-27.9553968536
 20
16.5496903718
 10
-27.80735632
 20
16.7373541349
 10
-27.6567582731
 20
16.9212629647
 10
-27.5036198707
 20
17.1013744998
  0
LINE
  5
25C
100
AcDbEntity
  8
IMPORT_IGES
100
AcDbLine
 62
250
  6
CONTINUOUS
 10
-27.9440387132
 20
16.3936789626
 11
-27.702359441
 21
16.7209089532
  0
LINE
  5
25D
100
AcDbEntity
  8
IMPORT_IGES
100
AcDbLine
 62
250
  6
CONTINUOUS
 10
-27.702359441
 20
16.7209089532
 11
-27.3530996171
 21
17.1532833859
  0
LWPOLYLINE
  5
25E
100
AcDbEntity
  8
IMPORT_IGES
100
AcDbPolyline
 62
250
  6
CONTINUOUS
 90
8
 70
0
 10
-27.3530996171
 20
17.1532833859
 10
-27.0591063822
 20
17.4865178779
 10
-26.7555118943
 20
17.8048916192
 10
-26.4423161534
 20
18.1084046097
 10
-26.1192982711
 20
18.3972417893
 10
-25.7866791358
 20
18.6712182181
 10
-25.4451214132
 20
18.9297790767
 10
-25.0946056843
 20
19.1728915039
  0
LWPOLYLINE
  5
25F
100
AcDbEntity
  8
IMPORT_IGES
100
AcDbPolyline
 62
7
  6
CONTINUOUS
 90
12
 70
0
 10
-28.9273133081
 20
16.3880067078
 10
-28.629589374
 20
16.7175263039
 10
-28.3224616718
 20
17.0332763213
 10
-28.0061150407
 20
17.3350728977
 10
-27.6807931146
 20
17.6226949921
 10
-27.3466408533
 20
17.8960257942
 10
-27.0036901463
 20
18.1550294304
 10
-26.6520595237
 20
18.3995845722
 10
-26.2920192098
 20
18.6294720694
 10
-25.9238276234
 20
18.8445071909
 10
-25.547716235
 20
19.0445411413
 10
-25.4977928878
 20
19.0696661966
  0
LWPOLYLINE
  5
260
100
AcDbEntity
  8
IMPORT_IGES
100
AcDbPolyline
 62
7
  6
CONTINUOUS
 90
7
 70
0
 10
-27.5036198707
 20
17.1013744998
 10
-27.2060992419
 20
17.4304842743
 10
-26.8991753302
 20
17.7458676698
 10
-26.5830307817
 20
18.0473387754
 10
-26.2578586555
 20
18.3347157238
 10
-25.9238476634
 20
18.6078339064
 10
-25.5811807347
 20
18.8665439111
  0
LWPOLYLINE
  5
261
100
AcDbEntity
  8
IMPORT_IGES
100
AcDbPolyline
 62
7
  6
CONTINUOUS
 90
5
 70
0
 10
-24.264072104
 20
18.7361976981
 10
-23.879647009
 20
19.099475471
 10
-23.4805518405
 20
19.4427397162
 10
-23.0680230532
 20
19.7649126706
 10
-22.7159001486
 20
20.0137346187
  0
LWPOLYLINE
  5
262
100
AcDbEntity
  8
IMPORT_IGES
100
AcDbPolyline
 62
7
  6
CONTINUOUS
 90
10
 70
0
 10
-27.484170258
 20
16.7620024489
 10
-27.1907213399
 20
16.985214884
 10
-26.8929478719
 20
17.2015846004
 10
-26.5910120576
 20
17.411016647
 10
-26.285130539
 20
17.613390219
 10
-25.9753708243
 20
17.8086916021
 10
-25.6616416512
 20
17.9969965198
 10
-25.344002125
 20
18.1782753109
 10
-25.0226711706
 20
18.3524106609
 10
-24.6977923725
 20
18.5193375639
  0
LWPOLYLINE
  5
263
100
AcDbEntity
  8
IMPORT_IGES
100
AcDbPolyline
 62
250
  6
CONTINUOUS
 90
3
 70
0
 10
-26.978985497
 20
17.1317287534
 10
-27.4030063296
 20
16.8245319568
 10
-27.4841702098
 20
16.7620024864
  0
LWPOLYLINE
  5
264
100
AcDbEntity
  8
IMPORT_IGES
100
AcDbPolyline
 62
7
  6
CONTINUOUS
 90
3
 70
0
 10
-25.5811807347
 20
18.8665439111
 10
-25.2301721984
 20
19.1106369127
 10
-24.8709175856
 20
19.3400213085
  0
LINE
  5
265
100
AcDbEntity
  8
IMPORT_IGES
100
AcDbLine
 62
250
  6
CONTINUOUS
 10
-25.0946056843
 20
19.1728915039
 11
-24.7351513681
 21
19.4005883609
  0
LINE
  5
266
100
AcDbEntity
  8
IMPORT_IGES
100
AcDbLine
 62
7
  6
CONTINUOUS
 10
-24.8709175856
 20
19.3400213085
 11
-24.771836603
 21
19.3978880348
  0
LINE
  5
267
100
AcDbEntity
  8
IMPORT_IGES
100
AcDbLine
 62
250
  6
CONTINUOUS
 10
-24.7351513681
 20
19.4005883609
 11
-24.6691050795
 21
19.4386392844
  0
LWPOLYLINE
  5
268
100
AcDbEntity
  8
IMPORT_IGES
100
AcDbPolyline
 62
7
  6
CONTINUOUS
 90
3
 70
0
 10
1.1068312155
 20
-30.6120983091
 10
0.5859299929
 20
-30.7073905644
 10
0.4725778821
 20
-30.7227568867
  0
LWPOLYLINE
  5
269
100
AcDbEntity
  8
IMPORT_IGES
100
AcDbPolyline
 62
7
  6
CONTINUOUS
 90
10
 70
0
 10
-2.5371733604
 20
-31.9692804336
 10
-2.2780702628
 20
-31.9460277913
 10
-1.7492926908
 20
-31.8743961588
 10
-1.228866973
 20
-31.7792860817
 10
-0.7168452377
 20
-31.6607525588
 10
-0.2146014673
 20
-31.5191000698
 10
0.2778332033
 20
-31.3542704336
 10
0.760489909
 20
-31.1663218313
 10
1.2320880722
 20
-30.9557332862
 10
1.4148079298
 20
-30.8665437456
  0
LWPOLYLINE
  5
26A
100
AcDbEntity
  8
IMPORT_IGES
100
AcDbPolyline
 62
250
  6
CONTINUOUS
 90
3
 70
0
 10
-2.8615546982
 20
-32.2032577081
 10
-3.4231317392
 20
-32.2164806278
 10
-3.4314714578
 20
-32.2163185747
  0
LWPOLYLINE
  5
26B
100
AcDbEntity
  8
IMPORT_IGES
100
AcDbPolyline
 62
250
  6
CONTINUOUS
 90
3
 70
0
 10
-41.5571427947
 20
43.2121509294
 10
-41.5464087052
 20
43.1667909534
 10
-41.5308142806
 20
43.1212382792
  0
LWPOLYLINE
  5
26C
100
AcDbEntity
  8
IMPORT_IGES
100
AcDbPolyline
 62
7
  6
CONTINUOUS
 90
10
 70
0
 10
-23.8080254066
 20
19.5791229295
 10
-24.0858441887
 20
19.4350029973
 10
-24.5353242859
 20
19.1790535816
 10
-24.9724682062
 20
18.9011862011
 10
-25.3971963038
 20
18.6013738009
 10
-25.8095882245
 20
18.2796434359
 10
-26.2086052714
 20
17.9367982479
 10
-26.5942006245
 20
17.5728270039
 10
-26.9664211039
 20
17.1877409369
 10
-27.0638573905
 20
17.0773974311
  0
LINE
  5
26D
100
AcDbEntity
  8
IMPORT_IGES
100
AcDbLine
 62
7
  6
CONTINUOUS
 10
-24.6977923725
 20
18.5193375639
 11
-21.340864266
 21
20.1978016171
  0
LWPOLYLINE
  5
26E
100
AcDbEntity
  8
IMPORT_IGES
100
AcDbPolyline
 62
7
  6
CONTINUOUS
 90
3
 70
0
 10
-25.4977928878
 20
19.0696661966
 10
-25.1638854985
 20
19.229453981
 10
-24.7725583708
 20
19.3991238652
  0
LWPOLYLINE
  5
26F
100
AcDbEntity
  8
IMPORT_IGES
100
AcDbPolyline
 62
7
  6
CONTINUOUS
 90
4
 70
0
 10
-22.9233169755
 20
19.9686160345
 10
-23.1537073858
 20
19.8789010153
 10
-23.625305549
 20
19.6683124702
 10
-23.8080254066
 20
19.5791229295
  0
LWPOLYLINE
  5
270
100
AcDbEntity
  8
IMPORT_IGES
100
AcDbPolyline
 62
7
  6
CONTINUOUS
 90
15
 70
0
 10
-24.7725583708
 20
19.3991238652
 10
-24.2822323257
 20
19.5864106973
 10
-23.7802883084
 20
19.7506942701
 10
-23.2671041876
 20
19.8916512965
 10
-22.7426830601
 20
20.0090551243
 10
-22.2078112766
 20
20.1025076048
 10
-21.6641240295
 20
20.1716188194
 10
-21.1130801775
 20
20.2162512523
 10
-20.5542415658
 20
20.2364873306
 10
-19.9864025465
 20
20.232241229
 10
-19.4088874405
 20
20.2031971621
 10
-18.8232777232
 20
20.1491263556
 10
-18.2317621962
 20
20.0701004606
 10
-17.6353180498
 20
19.9662501321
 10
-17.0340791361
 20
19.8375987782
  0
LWPOLYLINE
  5
271
100
AcDbEntity
  8
IMPORT_IGES
100
AcDbPolyline
 62
250
  6
CONTINUOUS
 90
9
 70
0
 10
-8.6859950691
 20
-48.2190472567
 10
-8.6675117753
 20
-48.2629087047
 10
-8.6461956034
 20
-48.3036951116
 10
-8.6222182693
 20
-48.341130162
 10
-8.5959457407
 20
-48.3748132623
 10
-8.5674999508
 20
-48.4047973815
 10
-8.5366000869
 20
-48.4314142249
 10
-8.5033142479
 20
-48.4545105443
 10
-8.4738582068
 20
-48.4709317805
  0
LWPOLYLINE
  5
272
100
AcDbEntity
  8
IMPORT_IGES
100
AcDbPolyline
 62
250
  6
CONTINUOUS
 90
19
 70
0
 10
-8.6859949164
 20
39.4422421675
 10
-8.6675117967
 20
39.5045860695
 10
-8.6461958044
 20
39.5666880029
 10
-8.6222186202
 20
39.628099958
 10
-8.5959461411
 20
39.6880554622
 10
-8.5675002945
 20
39.7464854779
 10
-8.5366003631
 20
39.8040022924
 10
-8.5033144915
 20
39.8603844841
 10
-8.467932362
 20
39.9150859939
 10
-8.4303628135
 20
39.9681867633
 10
-8.3907664831
 20
40.0193638593
 10
-8.3494336085
 20
40.0681800581
 10
-8.3064391408
 20
40.1144951121
 10
-8.2621142393
 20
40.1579104519
 10
-8.2167083712
 20
40.1981705026
 10
-8.1701735318
 20
40.2352805503
 10
-8.1227140798
 20
40.2690083825
 10
-8.0747936806
 20
40.2989885231
 10
-8.0267625668
 20
40.3250140746
  0
LWPOLYLINE
  5
273
100
AcDbEntity
  8
IMPORT_IGES
100
AcDbPolyline
 62
250
  6
CONTINUOUS
 90
4
 70
0
 10
-41.5308142806
 20
43.1212382792
 10
-41.5103949724
 20
43.0757291913
 10
-41.4853640756
 20
43.0307468145
 10
-41.4559717288
 20
42.9866358708
  0
LWPOLYLINE
  5
274
100
AcDbEntity
  8
IMPORT_IGES
100
AcDbPolyline
 62
250
  6
CONTINUOUS
 90
13
 70
0
 10
-41.5129871558
 20
42.7319403001
 10
-40.6374838097
 20
40.5114681761
 10
-39.729657415
 20
38.2938079734
 10
-38.7897934329
 20
36.0795264068
 10
-37.8182412776
 20
33.8692516233
 10
-36.8152277507
 20
31.6634991034
 10
-35.7808384818
 20
29.4626397037
 10
-34.7153736232
 20
27.2671999332
 10
-33.6190776573
 20
25.0777488012
 10
-32.4919150863
 20
22.8946331769
 10
-31.3340327447
 20
20.718266756
 10
-30.1457845296
 20
18.5491982766
 10
-28.9274253094
 20
16.3879187146
  0
LWPOLYLINE
  5
275
100
AcDbEntity
  8
IMPORT_IGES
100
AcDbPolyline
 62
250
  6
CONTINUOUS
 90
13
 70
0
 10
-12.7522427576
 20
18.2602046103
 10
-12.5515743766
 20
19.9920363162
 10
-12.3253661351
 20
21.7325510003
 10
-12.0737001333
 20
23.4811194725
 10
-11.7966080664
 20
25.237418926
 10
-11.4942148322
 20
27.0005092558
 10
-11.1667825057
 20
28.7688234389
 10
-10.8144361578
 20
30.5417063877
 10
-10.4372969331
 20
32.3185234711
 10
-10.0356983236
 20
34.0977240842
 10
-9.6098749562
 20
35.8783573852
 10
-9.1599207119
 20
37.6600783121
 10
-8.6859950965
 20
39.4422422698
  0
LWPOLYLINE
  5
276
100
AcDbEntity
  8
IMPORT_IGES
100
AcDbPolyline
 62
250
  6
CONTINUOUS
 90
13
 70
0
 10
3.4229381832
 20
-29.230972891
 10
5.0450480793
 20
-31.1903781123
 10
6.6882382585
 20
-33.1319763645
 10
8.3519827275
 20
-35.0554122435
 10
10.0356223491
 20
-36.9602895942
 10
11.7387694286
 20
-38.8463152083
 10
13.4613133714
 20
-40.7132154145
 10
15.2027491507
 20
-42.5605087848
 10
16.9625562446
 20
-44.3878219924
 10
18.7406161195
 20
-46.1949279569
 10
20.5365587649
 20
-47.9814235127
 10
22.3497537081
 20
-49.7467766612
 10
24.1797008522
 20
-51.4905260049
  0
LWPOLYLINE
  5
277
100
AcDbEntity
  8
IMPORT_IGES
100
AcDbPolyline
 62
250
  6
CONTINUOUS
 90
11
 70
0
 10
1.9166686608
 20
-36.5943178257
 10
3.2734858181
 20
-38.7419296908
 10
4.6512855133
 20
-40.8697824343
 10
6.0497173574
 20
-42.9774645757
 10
7.4687028395
 20
-45.0647750986
 10
8.9078965365
 20
-47.1312894298
 10
10.3668313631
 20
-49.1764585491
 10
11.8453187449
 20
-51.1999235106
 10
13.3430554758
 20
-53.2012567313
 10
14.8595943064
 20
-55.1799488277
 10
16.3945585868
 20
-57.1355326337
  0
LWPOLYLINE
  5
278
100
AcDbEntity
  8
IMPORT_IGES
100
AcDbPolyline
 62
250
  6
CONTINUOUS
 90
3
 70
0
 10
-0.7318379806
 20
-32.2421462949
 10
0.5814074555
 20
-34.4275531202
 10
1.9166686608
 20
-36.5943178257
  0
LWPOLYLINE
  5
279
100
AcDbEntity
  8
IMPORT_IGES
100
AcDbPolyline
 62
250
  6
CONTINUOUS
 90
13
 70
0
 10
-24.7726483035
 20
19.3990910752
 10
-25.6823529556
 20
21.7862682926
 10
-26.5629036108
 20
24.180388274
 10
-27.4140816535
 20
26.5808196976
 10
-28.2355821452
 20
28.9868220441
 10
-29.0272715658
 20
31.3978753987
 10
-29.7892122693
 20
33.8137083127
 10
-30.5212534849
 20
36.2337989676
 10
-31.2231634712
 20
38.6574805896
 10
-31.8949247817
 20
41.084308427
 10
-32.5364257092
 20
43.51375907
 10
-33.1474398335
 20
45.9452128048
 10
-33.7277969084
 20
48.3780992669
  0
LWPOLYLINE
  5
27A
100
AcDbEntity
  8
IMPORT_IGES
100
AcDbPolyline
 62
250
  6
CONTINUOUS
 90
12
 70
0
 10
-12.4945233623
 20
-33.016339231
 10
-12.3253660965
 20
-34.1487291583
 10
-12.0737000947
 20
-35.6456316133
 10
-11.7966080282
 20
-37.1248389847
 10
-11.4942147949
 20
-38.5855360657
 10
-11.1667824697
 20
-40.0264179079
 10
-10.8144361086
 20
-41.4469545532
 10
-10.4372968691
 20
-42.8466324551
 10
-10.0356982946
 20
-44.2242343309
 10
-9.6098750392
 20
-45.5790439183
 10
-9.1599209769
 20
-46.9108101023
 10
-8.6859956222
 20
-48.2190478028
  0
LWPOLYLINE
  5
27B
100
AcDbEntity
  8
IMPORT_IGES
100
AcDbPolyline
 62
250
  6
CONTINUOUS
 90
19
 70
0
 10
17.1818622802
 20
24.1911928563
 10
17.1319804317
 20
24.1644462185
 10
17.0812759459
 20
24.1339010642
 10
17.030137652
 20
24.0997521459
 10
16.9791059989
 20
24.0623628015
 10
16.9284431245
 20
24.0219561389
 10
16.8781153583
 20
23.9785094533
 10
16.8284902727
 20
23.9323276981
 10
16.7799502129
 20
23.8837801847
 10
16.7324820898
 20
23.8328552277
 10
16.6864433416
 20
23.779923142
 10
16.642170214
 20
23.725384054
 10
16.5996518258
 20
23.6692231989
 10
16.5592223333
 20
23.6118655467
 10
16.5211718889
 20
23.5537374614
 10
16.4854890981
 20
23.4948182932
 10
16.4523821565
 20
23.4354125061
 10
16.4221959812
 20
23.3761402633
 10
16.395127518
 20
23.3174588216
  0
LINE
  5
27C
100
AcDbEntity
  8
IMPORT_IGES
100
AcDbLine
 62
250
  6
CONTINUOUS
 10
17.4056945303
 20
24.0157674082
 11
33.7157616224
 21
32.1708012213
  0
LWPOLYLINE
  5
27D
100
AcDbEntity
  8
IMPORT_IGES
100
AcDbPolyline
 62
250
  6
CONTINUOUS
 90
5
 70
0
 10
-27.3980785952
 20
17.2181215822
 10
-27.3929334628
 20
17.2104337175
 10
-27.3798418545
 20
17.1912798551
 10
-27.3665406685
 20
17.1722185506
 10
-27.3530316347
 20
17.1532525676
  0
LWPOLYLINE
  5
27E
100
AcDbEntity
  8
IMPORT_IGES
100
AcDbPolyline
 62
250
  6
CONTINUOUS
 90
10
 70
0
 10
-41.5133534259
 20
42.7328876078
 10
-41.5424249273
 20
42.7769550457
 10
-41.5671440208
 20
42.8219002772
 10
-41.5872647085
 20
42.8673812324
 10
-41.6025781502
 20
42.9129184037
 10
-41.6130503865
 20
42.9582768679
 10
-41.6186943288
 20
43.003485992
 10
-41.6194510572
 20
43.0482166638
 10
-41.6153341105
 20
43.0921244271
 10
-41.6110674524
 20
43.1155930317
  0
LWPOLYLINE
  5
27F
100
AcDbEntity
  8
IMPORT_IGES
100
AcDbPolyline
 62
250
  6
CONTINUOUS
 90
12
 70
0
 10
16.3947459172
 20
-57.1355710735
 10
16.4219265152
 20
-57.1887317168
 10
16.4522193201
 20
-57.2388054313
 10
16.485412934
 20
-57.2853665242
 10
16.5211315048
 20
-57.32791876
 10
16.5591677951
 20
-57.3663055783
 10
16.5995795498
 20
-57.4006037049
 10
16.6420972814
 20
-57.4305585868
 10
16.6863688471
 20
-57.4559422409
 10
16.7324050529
 20
-57.4767630819
 10
16.7798697376
 20
-57.4928491469
 10
16.813611574
 20
-57.5012047222
  0
LWPOLYLINE
  5
280
100
AcDbEntity
  8
IMPORT_IGES
100
AcDbPolyline
 62
250
  6
CONTINUOUS
 90
9
 70
0
 10
16.6210252763
 20
-57.1803487281
 10
16.6480360658
 20
-57.2335982599
 10
16.6781646662
 20
-57.2838182102
 10
16.7112103239
 20
-57.3305748909
 10
16.74681981
 20
-57.3733740491
 10
16.7847843003
 20
-57.4120309709
 10
16.825125947
 20
-57.4465765141
 10
16.8675583918
 20
-57.4767425209
 10
16.9117420382
 20
-57.5023110492
  0
LINE
  5
281
100
AcDbEntity
  8
IMPORT_IGES
100
AcDbLine
 62
250
  6
CONTINUOUS
 10
0.8264302576
 20
-31.4477016033
 11
0.8226820371
 21
-31.4396134871
  0
LWPOLYLINE
  5
282
100
AcDbEntity
  8
IMPORT_IGES
100
AcDbPolyline
 62
250
  6
CONTINUOUS
 90
8
 70
0
 10
-29.2479239219
 20
-25.7276141794
 10
-29.7892422025
 20
-26.435816593
 10
-30.5212810405
 20
-27.4167036554
 10
-31.2231891179
 20
-28.381440851
 10
-31.8949686243
 20
-29.329800063
 10
-32.5365113981
 20
-30.261568867
 10
-33.1475814067
 20
-31.1765638362
 10
-33.7280056013
 20
-32.0745897485
  0
LWPOLYLINE
  5
283
100
AcDbEntity
  8
IMPORT_IGES
100
AcDbPolyline
 62
250
  6
CONTINUOUS
 90
13
 70
0
 10
-0.7318386636
 20
7.3786852473
 10
0.5814134068
 20
8.6543882434
 10
1.9166814928
 20
9.9406031135
 10
3.2735056965
 20
11.2370377751
 10
4.6513124377
 20
12.5433909098
 10
6.0497513263
 20
13.8593845805
 10
7.4687440534
 20
15.1847554325
 10
8.9079308858
 20
16.5192164911
 10
10.3668585572
 20
17.8624634827
 10
11.8453827615
 20
19.2141950426
 10
13.3432169933
 20
20.5741095746
 10
14.8599010938
 20
21.9419115888
 10
16.3950600018
 20
23.3173048567
  0
LINE
  5
284
100
AcDbEntity
  8
IMPORT_IGES
100
AcDbLine
 62
250
  6
CONTINUOUS
 10
-35.9937882516
 20
-16.1867155773
 11
-41.5129841986
 21
-18.6438337821
  0
LWPOLYLINE
  5
285
100
AcDbEntity
  8
IMPORT_IGES
100
AcDbPolyline
 62
250
  6
CONTINUOUS
 90
19
 70
0
 10
16.6209429687
 20
23.1363140929
 10
16.6481467682
 20
23.1956193508
 10
16.6782848974
 20
23.2551176221
 10
16.7110784601
 20
23.3143147269
 10
16.7459607389
 20
23.3723386612
 10
16.7827814496
 20
23.4291232331
 10
16.822002802
 20
23.4854185865
 10
16.8635387196
 20
23.5410216611
 10
16.9069569253
 20
23.5953048572
 10
16.9523680284
 20
23.6483556683
 10
16.9995346116
 20
23.69981654
 10
17.0480621058
 20
23.7492046976
 10
17.0978465617
 20
23.7963694741
 10
17.1484457216
 20
23.840855207
 10
17.1995399311
 20
23.8823716096
 10
17.251192443
 20
23.9209354906
 10
17.3031329869
 20
23.9562792106
 10
17.3547754017
 20
23.9879695952
 10
17.4056942106
 20
24.0157584562
  0
LINE
  5
286
100
AcDbEntity
  8
IMPORT_IGES
100
AcDbLine
 62
250
  6
CONTINUOUS
 10
25.2852016404
 20
10.4251372293
 11
41.5954889591
 21
18.5802815493
  0
LWPOLYLINE
  5
287
100
AcDbEntity
  8
IMPORT_IGES
100
AcDbPolyline
 62
250
  6
CONTINUOUS
 90
13
 70
0
 10
3.4229390329
 20
0.2127365423
 10
5.0450493694
 20
0.9537816779
 10
6.6882398048
 20
1.7071310931
 10
8.3519843405
 20
2.4726842905
 10
10.0356237892
 20
3.2503991727
 10
11.7387704979
 20
4.0401292928
 10
13.4613139973
 20
4.8415651137
 10
15.2027769528
 20
5.6544986062
 10
16.9626117452
 20
6.4788270467
 10
18.740615046
 20
7.314323535
 10
20.5363857024
 20
8.1607863275
 10
22.3493187753
 20
9.0180645543
 10
24.1789118921
 20
9.8859853547
  0
LWPOLYLINE
  5
288
100
AcDbEntity
  8
IMPORT_IGES
100
AcDbPolyline
 62
250
  6
CONTINUOUS
 90
45
 70
0
 10
-0.5502130486
 20
7.0066347365
 10
-1.0363003695
 20
7.6850035678
 10
-1.5330991974
 20
8.3501844833
 10
-2.0401372709
 20
9.0015458908
 10
-2.5569328544
 20
9.6384697494
 10
-3.0829959207
 20
10.2603529265
 10
-3.6178279206
 20
10.8666067635
 10
-4.1609159999
 20
11.4566509315
 10
-4.7117500191
 20
12.02993218
 10
-5.2698245083
 20
12.5859239212
 10
-5.8346201338
 20
13.1241065055
 10
-6.4055922408
 20
13.6439587144
 10
-6.982188081
 20
14.1449764013
 10
-7.5638643062
 20
14.6266870472
 10
-8.1500656052
 20
15.0886303878
 10
-8.7402132166
 20
15.5303515146
 10
-9.3337369149
 20
15.951426699
 10
-9.9300833117
 20
16.3514664028
 10
-10.5286938425
 20
16.730097982
 10
-11.1290136087
 20
17.0869713409
 10
-11.7304602978
 20
17.4217411956
 10
-12.3324318721
 20
17.7340758547
 10
-12.9343138149
 20
18.0236641365
 10
-13.5355793328
 20
18.2902602424
 10
-14.135757805
 20
18.5336550683
 10
-14.7343238848
 20
18.753626978
 10
-15.3306652439
 20
18.9499423281
 10
-15.9241827674
 20
19.1223996807
 10
-16.5143071173
 20
19.2708316502
 10
-17.100484343
 20
19.395096938
 10
-17.6821438236
 20
19.495073091
 10
-18.2587341256
 20
19.5706646654
 10
-18.8297076797
 20
19.6217992054
 10
-19.3945076183
 20
19.6484271566
 10
-19.9525881685
 20
19.6505247605
 10
-20.503430947
 20
19.6280920648
 10
-21.0465296016
 20
19.5811499319
 10
-21.5813760194
 20
19.5097409047
 10
-22.107455051
 20
19.4139323657
 10
-22.6242611633
 20
19.2938159698
 10
-23.1312998089
 20
19.1495070637
 10
-23.628094556
 20
18.9811416568
 10
-24.1141808238
 20
18.7888766904
 10
-24.5891012954
 20
18.5728915711
 10
-24.6977923725
 20
18.5193375639
  0
LWPOLYLINE
  5
289
100
AcDbEntity
  8
IMPORT_IGES
100
AcDbPolyline
 62
7
  6
CONTINUOUS
 90
13
 70
0
 10
-0.7318434178
 20
7.3787754323
 10
-0.3409722333
 20
6.8184350495
 10
0.0423998416
 20
6.2503985774
 10
0.418051929
 20
5.6750108536
 10
0.7856827282
 20
5.0927587476
 10
1.1451705484
 20
4.5038594981
 10
1.4965542437
 20
3.9082448087
 10
1.8397060718
 20
3.3060979653
 10
2.1743167141
 20
2.6979291736
 10
2.5001448181
 20
2.0841547944
 10
2.8169781898
 20
1.4651560293
 10
3.1246310143
 20
0.8412768536
 10
3.4229117184
 20
0.2128849521
  0
LWPOLYLINE
  5
28A
100
AcDbEntity
  8
IMPORT_IGES
100
AcDbPolyline
 62
250
  6
CONTINUOUS
 90
11
 70
0
 10
3.6254661269
 20
-0.3552061349
 10
3.2700068761
 20
0.417853457
 10
2.8997471231
 20
1.1846229403
 10
2.5150379592
 20
1.9443753761
 10
2.1162454968
 20
2.6963879863
 10
1.7037498582
 20
3.4399445499
 10
1.2779409425
 20
4.1743428083
 10
0.8392187644
 20
4.8988927682
 10
0.3879958374
 20
5.6129123038
 10
-0.075296715
 20
6.3157183647
 10
-0.5502130486
 20
7.0066347365
  0
LWPOLYLINE
  5
28B
100
AcDbEntity
  8
IMPORT_IGES
100
AcDbPolyline
 62
7
  6
CONTINUOUS
 90
22
 70
0
 10
3.4229117184
 20
0.2128849521
 10
3.776761121
 20
-0.56587454
 10
4.1163388632
 20
-1.3514712491
 10
4.4412478467
 20
-2.1432222879
 10
4.7512740888
 20
-2.9408909189
 10
5.0458498904
 20
-3.7433141658
 10
5.3241471368
 20
-4.5483871867
 10
5.5855455104
 20
-5.3542455772
 10
5.830192846
 20
-6.1612732191
 10
6.0583935802
 20
-6.9707237053
 10
6.2700960955
 20
-7.7830431994
 10
6.4646122038
 20
-8.5962743658
 10
6.641289368
 20
-9.4080622623
 10
6.7998745764
 20
-10.217381135
 10
6.9402394551
 20
-11.0237283747
 10
7.0621016761
 20
-11.8255539968
 10
7.1653353164
 20
-12.6218913616
 10
7.2498940112
 20
-13.4122199406
 10
7.3157040737
 20
-14.1956822477
 10
7.3627251683
 20
-14.9715135989
 10
7.390940529
 20
-15.7390395417
 10
7.4003470894
 20
-16.4975537252
  0
LWPOLYLINE
  5
28C
100
AcDbEntity
  8
IMPORT_IGES
100
AcDbPolyline
 62
250
  6
CONTINUOUS
 90
77
 70
0
 10
6.0361666091
 20
-16.4929460578
 10
6.0269323932
 20
-15.7540759063
 10
5.9992366146
 20
-15.0066571405
 10
5.9531043645
 20
-14.2513983957
 10
5.8885771793
 20
-13.4890096447
 10
5.8057158528
 20
-12.7202199601
 10
5.7046018962
 20
-11.9457773044
 10
5.5853328334
 20
-11.166422236
 10
5.4480209005
 20
-10.3828887821
 10
5.2927970054
 20
-9.5959225429
 10
5.1198077149
 20
-8.8062657742
 10
4.9292183342
 20
-8.0146723183
 10
4.7212143234
 20
-7.2219090662
 10
4.4959997181
 20
-6.4287463688
 10
4.2537849656
 20
-5.6359186531
 10
3.9947881703
 20
-4.8441395659
 10
3.7192431565
 20
-4.0541304807
 10
3.427419756
 20
-3.2666711826
 10
3.1196143389
 20
-2.4825600303
 10
2.7961351229
 20
-1.7025737587
 10
2.4572781366
 20
-0.9274181479
 10
2.1033439529
 20
-0.1577794724
 10
1.734655013
 20
0.6056368447
 10
1.3515715963
 20
1.3620807041
 10
0.9544706906
 20
2.1108073989
 10
0.5437362115
 20
2.8510954066
 10
0.1197522815
 20
3.5822546692
 10
-0.3170833732
 20
4.3036002019
 10
-0.766351839
 20
5.0144410376
 10
-1.2276309575
 20
5.7141099912
 10
-1.7005023349
 20
6.401970982
 10
-2.1845368401
 20
7.0773950169
 10
-2.6792590405
 20
7.7397140253
 10
-3.184164309
 20
8.3882523398
 10
-3.6987572317
 20
9.0223775874
 10
-4.2225633951
 20
9.6415090544
 10
-4.7550942323
 20
10.2450712769
 10
-5.2958365802
 20
10.8324844982
 10
-5.8442844633
 20
11.4032008991
 10
-6.3999502589
 20
11.9567121576
 10
-6.9623342901
 20
12.4925157712
 10
-7.530877884
 20
13.0100747649
 10
-8.1049951204
 20
13.5088557122
 10
-8.6841345692
 20
13.9883827648
 10
-9.2677522523
 20
14.4482087035
 10
-9.855264363
 20
14.8878781127
 10
-10.4461494938
 20
15.3070049167
 10
-11.0398100776
 20
15.7051693489
 10
-11.6355412566
 20
16.0819129709
 10
-12.2326597772
 20
16.4368326578
 10
-12.830715201
 20
16.7696895493
 10
-13.4293502251
 20
17.0802951424
 10
-14.028002603
 20
17.3683560112
 10
-14.6261019417
 20
17.6335959921
 10
-15.2232786597
 20
17.8758385616
 10
-15.8190930553
 20
18.0948742663
 10
-16.4128504418
 20
18.290416531
 10
-17.0038009389
 20
18.4622050836
 10
-17.5913208464
 20
18.6100596677
 10
-18.1749160578
 20
18.7338569954
 10
-18.7540379787
 20
18.8334776971
 10
-19.3281542567
 20
18.9088257607
 10
-19.8967014654
 20
18.9598227652
 10
-20.4590926962
 20
18.9864156355
 10
-21.0147674588
 20
18.9885822559
 10
-21.5632276631
 20
18.966325124
 10
-22.1039896315
 20
18.9196640432
 10
-22.6365540902
 20
18.8486387419
 10
-23.1604001448
 20
18.7533152843
 10
-23.6750221699
 20
18.6337838698
 10
-24.1799379321
 20
18.4901547585
 10
-24.6746611601
 20
18.3225644938
 10
-25.1586960355
 20
18.131181976
 10
-25.6315662499
 20
17.9162004146
 10
-26.0928437234
 20
17.6778194248
 10
-26.5421204099
 20
17.4162504721
 10
-26.978985497
 20
17.1317287534
  0
LWPOLYLINE
  5
28D
100
AcDbEntity
  8
IMPORT_IGES
100
AcDbPolyline
 62
250
  6
CONTINUOUS
 90
21
 70
0
 10
7.2191660421
 20
-15.9871101067
 10
7.2098915492
 20
-15.2452183818
 10
7.1820856763
 20
-14.4947201349
 10
7.1357717663
 20
-13.7363257028
 10
7.0709894252
 20
-12.9707396179
 10
6.9877977394
 20
-12.1987001793
 10
6.8862784486
 20
-11.4209798272
 10
6.7665298105
 20
-10.6383288099
 10
6.6286638451
 20
-9.8514771613
 10
6.4728120202
 20
-9.0611750486
 10
6.2991231201
 20
-8.2681755927
 10
6.1077614269
 20
-7.473227639
 10
5.898906845
 20
-6.6770787804
 10
5.6727564005
 20
-5.8804814384
 10
5.4295250497
 20
-5.0841940378
 10
5.1694438823
 20
-4.288973797
 10
4.8927597497
 20
-3.4955758615
 10
4.5997347308
 20
-2.7047521011
 10
4.2906464595
 20
-1.9172522477
 10
3.9657874191
 20
-1.1338220694
 10
3.6254661269
 20
-0.3552061349
  0
LWPOLYLINE
  5
28E
100
AcDbEntity
  8
IMPORT_IGES
100
AcDbPolyline
 62
7
  6
CONTINUOUS
 90
25
 70
0
 10
7.4003455452
 20
-16.4979986513
 10
7.3930050066
 20
-17.1602529068
 10
7.371109012
 20
-17.8122025441
 10
7.3348408225
 20
-18.4534685187
 10
7.2844550932
 20
-19.083012554
 10
7.2201217776
 20
-19.7011834878
 10
7.1417727359
 20
-20.3096180554
 10
7.0493248013
 20
-20.9088919819
 10
6.9429880121
 20
-21.4975835559
 10
6.8230827101
 20
-22.0743106529
 10
6.690157651
 20
-22.6372800739
 10
6.5441057547
 20
-23.1877024229
 10
6.3840999808
 20
-23.7285638987
 10
6.2094894937
 20
-24.2611276708
 10
6.0207667502
 20
-24.7830228907
 10
5.818750015
 20
-25.2917274248
 10
5.6039601058
 20
-25.7860826441
 10
5.3762365208
 20
-26.2666013304
 10
5.135512581
 20
-26.7333976155
 10
4.8819496933
 20
-27.1860809539
 10
4.6156856239
 20
-27.6243316683
 10
4.3365519859
 20
-28.0482911904
 10
4.0445641616
 20
-28.4577273544
 10
3.7399696196
 20
-28.8520926947
 10
3.4229209609
 20
-29.2310149591
  0
LWPOLYLINE
  5
28F
100
AcDbEntity
  8
IMPORT_IGES
100
AcDbPolyline
 62
7
  6
CONTINUOUS
 90
25
 70
0
 10
-12.7521964907
 20
18.2602198419
 10
-12.2073928608
 20
17.9787972293
 10
-11.6653191315
 20
17.6808589631
 10
-11.1263605311
 20
17.3668478768
 10
-10.5915763926
 20
17.0376454765
 10
-10.0606414504
 20
16.6933151617
 10
-9.5318677421
 20
16.3328902546
 10
-9.0045227744
 20
15.9558427388
 10
-8.4800859757
 20
15.5632015333
 10
-7.9601824517
 20
15.1562745789
 10
-7.4467654653
 20
14.7368303681
 10
-6.938521817
 20
14.3040363345
 10
-6.4322245942
 20
13.8551144837
 10
-5.9264012996
 20
13.3884379105
 10
-5.4233732941
 20
12.9058225003
 10
-4.9256310601
 20
12.4095489656
 10
-4.4343006478
 20
11.9007937871
 10
-3.9489347505
 20
11.3791481172
 10
-3.4696046049
 20
10.8446811501
 10
-2.9968604789
 20
10.2979950592
 10
-2.5308370298
 20
9.7392340107
 10
-2.0710261957
 20
9.1677077587
 10
-1.6175284898
 20
8.5833823436
 10
-1.171008709
 20
7.9869523776
 10
-0.7318434178
 20
7.3787754323
  0
LWPOLYLINE
  5
290
100
AcDbEntity
  8
IMPORT_IGES
100
AcDbPolyline
 62
250
  6
CONTINUOUS
 90
19
 70
0
 10
24.1788400539
 20
9.8863943487
 10
24.2412143974
 20
9.8848855341
 10
24.3058815032
 20
9.8852749686
 10
24.3723438396
 20
9.8875743132
 10
24.4398461566
 20
9.891746581
 10
24.5080534562
 20
9.8977440061
 10
24.5771206266
 20
9.9055732025
 10
24.6465892711
 20
9.9151902077
 10
24.715880646
 20
9.9265096433
 10
24.7850128558
 20
9.9395335529
 10
24.8534712677
 20
9.9541714831
 10
24.9207512176
 20
9.9703091046
 10
24.9868697446
 20
9.9879510963
 10
25.0513082547
 20
10.0069663194
 10
25.1136058359
 20
10.0272118975
 10
25.1737993956
 20
10.0487022129
 10
25.2315561603
 20
10.0713371305
 10
25.2862655109
 20
10.0948786014
 10
25.3375392733
 20
10.1191331414
  0
LWPOLYLINE
  5
291
100
AcDbEntity
  8
IMPORT_IGES
100
AcDbPolyline
 62
250
  6
CONTINUOUS
 90
19
 70
0
 10
24.1233713008
 20
10.1969885691
 10
24.1854628655
 20
10.1953667331
 10
24.2499435201
 20
10.195603635
 10
24.316332599
 20
10.1977197585
 10
24.3839241791
 20
10.2016912795
 10
24.4523568084
 20
10.2074801777
 10
24.5216746476
 20
10.2150879751
 10
24.5913742653
 20
10.2244658372
 10
24.6609106961
 20
10.2355335684
 10
24.7303022384
 20
10.2482933943
 10
24.7990293901
 20
10.2626562059
 10
24.8665825236
 20
10.2785090013
 10
24.9329788837
 20
10.2958565136
 10
24.9976941372
 20
10.3145689431
 10
25.060263219
 20
10.3345049225
 10
25.1207247823
 20
10.3556791661
 10
25.1787427021
 20
10.377992694
 10
25.2336991642
 20
10.401209388
 10
25.2852016289
 20
10.4251372962
  0
LWPOLYLINE
  5
292
100
AcDbEntity
  8
IMPORT_IGES
100
AcDbPolyline
 62
7
  6
CONTINUOUS
 90
8
 70
0
 10
-17.0340791361
 20
19.8375987782
 10
-16.4290385951
 20
19.6843590033
 10
-15.8209044255
 20
19.5067434293
 10
-15.2101148331
 20
19.304913144
 10
-14.5972708218
 20
19.0790933464
 10
-13.9829569221
 20
18.8295279125
 10
-13.3677402776
 20
18.5564756421
 10
-12.7521964907
 20
18.2602198419
  0
LWPOLYLINE
  5
293
100
AcDbEntity
  8
IMPORT_IGES
100
AcDbPolyline
 62
7
  6
CONTINUOUS
 90
12
 70
0
 10
3.4229209609
 20
-29.2310149591
 10
3.1251888113
 20
-29.5605386629
 10
2.8180549474
 20
-29.8762917611
 10
2.5017042085
 20
-30.1780903914
 10
2.1763809132
 20
-30.4657131705
 10
1.8422293366
 20
-30.7390436302
 10
1.4992793141
 20
-30.9980469241
 10
1.1476486916
 20
-31.2426020659
 10
0.7876083776
 20
-31.4724895631
 10
0.4194167912
 20
-31.6875246846
 10
0.0433054028
 20
-31.887558635
 10
-0.0066179443
 20
-31.9126836904
  0
LWPOLYLINE
  5
294
100
AcDbEntity
  8
IMPORT_IGES
100
AcDbPolyline
 62
250
  6
CONTINUOUS
 90
22
 70
0
 10
26.6310518649
 20
-9.6656780466
 10
26.7743076147
 20
-11.7944749691
 10
26.8915291554
 20
-13.9126771454
 10
26.9828075836
 20
-16.0197146655
 10
27.0480861393
 20
-18.1151487163
 10
27.0872765821
 20
-20.1984814392
 10
27.1004345121
 20
-22.2690993675
 10
27.0876002359
 20
-24.3265849259
 10
27.0487237833
 20
-26.3705200529
 10
26.9837420652
 20
-28.4002987779
 10
26.8927348396
 20
-30.4154962966
 10
26.7757496366
 20
-32.4157319871
 10
26.6326868808
 20
-34.400432617
 10
26.4636108891
 20
-36.3691546662
 10
26.2685995842
 20
-38.3215055866
 10
26.0475836918
 20
-40.2569539071
 10
25.8006348257
 20
-42.1750734647
 10
25.5278525147
 20
-44.0754525445
 10
25.2292152399
 20
-45.9575531991
 10
24.9047726735
 20
-47.8209050826
 10
24.5546457641
 20
-49.6651238852
 10
24.1789191912
 20
-51.4897887564
  0
LWPOLYLINE
  5
295
100
AcDbEntity
  8
IMPORT_IGES
100
AcDbPolyline
 62
250
  6
CONTINUOUS
 90
30
 70
0
 10
0.0331194587
 20
-30.9424860984
 10
0.3865755432
 20
-30.7571731046
 10
0.8378754103
 20
-30.4944245221
 10
1.2766758368
 20
-30.2086384433
 10
1.7025631366
 20
-29.9000847711
 10
2.1151347839
 20
-29.5690551788
 10
2.5139990403
 20
-29.2158638771
 10
2.8987776645
 20
-28.8408456895
 10
3.2691074936
 20
-28.4443541342
 10
3.624639485
 20
-28.026761743
 10
3.9650331412
 20
-27.588467232
 10
4.2899597083
 20
-27.1298941301
 10
4.5991088376
 20
-26.651482288
 10
4.8921905122
 20
-26.1536824567
 10
5.1689293347
 20
-25.6369632978
 10
5.4290633119
 20
-25.1018142199
 10
5.6723452467
 20
-24.5487439943
 10
5.8985450289
 20
-23.9782759226
 10
6.1074485064
 20
-23.3909498199
 10
6.2988569061
 20
-22.7873242395
 10
6.4725878821
 20
-22.167974635
 10
6.6284761661
 20
-21.5334916858
 10
6.7663748974
 20
-20.8844748017
 10
6.8861544667
 20
-20.2215338674
 10
6.9877012921
 20
-19.5452952346
 10
7.0709183048
 20
-18.8564026225
 10
7.1357261923
 20
-18.1555105737
 10
7.1820632626
 20
-17.4432843439
 10
7.2098854066
 20
-16.7203992066
 10
7.2191660421
 20
-15.9875409268
  0
LWPOLYLINE
  5
296
100
AcDbEntity
  8
IMPORT_IGES
100
AcDbPolyline
 62
7
  6
CONTINUOUS
 90
4
 70
0
 10
1.4148079298
 20
-30.8665437456
 10
1.6926267118
 20
-30.7224238134
 10
2.142106809
 20
-30.4664743977
 10
2.2609979037
 20
-30.3909021307
  0
LINE
  5
297
100
AcDbEntity
  8
IMPORT_IGES
100
AcDbLine
 62
7
  6
CONTINUOUS
 10
0.0331194586
 20
-30.9424860984
 11
3.3956121927
 21
-29.2612397314
  0
LWPOLYLINE
  5
298
100
AcDbEntity
  8
IMPORT_IGES
100
AcDbPolyline
 62
7
  6
CONTINUOUS
 90
10
 70
0
 10
0.0331194587
 20
-30.9424860984
 10
-0.295111274
 20
-31.1021204287
 10
-0.6270434802
 20
-31.2546323897
 10
-0.9625412997
 20
-31.399941747
 10
-1.3013927451
 20
-31.5379436638
 10
-1.6435296665
 20
-31.6685992526
 10
-1.9890353037
 20
-31.7919198199
 10
-2.3378476064
 20
-31.9078534948
 10
-2.6897518497
 20
-32.0163010987
 10
-3.0445753647
 20
-32.1171873378
  0
LWPOLYLINE
  5
299
100
AcDbEntity
  8
IMPORT_IGES
100
AcDbPolyline
 62
7
  6
CONTINUOUS
 90
3
 70
0
 10
-0.0066179443
 20
-31.9126836904
 10
-0.3405253336
 20
-32.0724714747
 10
-0.7318524614
 20
-32.2421413589
  0
LINE
  5
29A
100
AcDbEntity
  8
IMPORT_IGES
100
AcDbLine
 62
250
  6
CONTINUOUS
 10
0.8702943775
 20
-31.4196941488
 11
0.8226463667
 21
-31.4396313222
  0
LWPOLYLINE
  5
29B
100
AcDbEntity
  8
IMPORT_IGES
100
AcDbPolyline
 62
7
  6
CONTINUOUS
 90
4
 70
0
 10
0.6824866021
 20
-31.5338838877
 10
0.4856899743
 20
-31.612273447
 10
0.2730546397
 20
-31.6918248176
 10
0.0587805462
 20
-31.7669048653
  0
LWPOLYLINE
  5
29C
100
AcDbEntity
  8
IMPORT_IGES
100
AcDbPolyline
 62
7
  6
CONTINUOUS
 90
4
 70
0
 10
2.4177708271
 20
-30.2522970429
 10
2.1219003896
 20
-30.3514357687
 10
1.6192793695
 20
-30.4933405659
 10
1.1068312155
 20
-30.6120983091
  0
LINE
  5
29D
100
AcDbEntity
  8
IMPORT_IGES
100
AcDbLine
 62
250
  6
CONTINUOUS
 10
17.3556787818
 20
24.0546254453
 11
17.4057331054
 21
24.0157870491
  0
LWPOLYLINE
  5
29E
100
AcDbEntity
  8
IMPORT_IGES
100
AcDbPolyline
 62
250
  6
CONTINUOUS
 90
3
 70
0
 10
17.1818562927
 20
24.1911985166
 10
17.3059375381
 20
24.0936147845
 10
17.3556787818
 20
24.0546254453
  0
LINE
  5
29F
100
AcDbEntity
  8
IMPORT_IGES
100
AcDbLine
 62
250
  6
CONTINUOUS
 10
16.3950600018
 20
23.3173048567
 11
16.5217824894
 21
23.2169917938
  0
LWPOLYLINE
  5
2A0
100
AcDbEntity
  8
IMPORT_IGES
100
AcDbPolyline
 62
250
  6
CONTINUOUS
 90
5
 70
0
 10
16.5217824894
 20
23.2169917938
 10
16.5470834474
 20
23.1967778465
 10
16.5726733097
 20
23.1760871333
 10
16.5984561678
 20
23.1550503277
 10
16.9820438983
 20
22.8412109375
  0
LWPOLYLINE
  5
2A1
100
AcDbEntity
  8
IMPORT_IGES
100
AcDbPolyline
 62
250
  6
CONTINUOUS
 90
30
 70
0
 10
16.9820438983
 20
22.8412109375
 10
17.3364438597
 20
22.5343343535
 10
17.6871963281
 20
22.2133991732
 10
18.0340221585
 20
21.8786522072
 10
18.3763098466
 20
21.5305903272
 10
18.7131345954
 20
21.1700105535
 10
19.0439071104
 20
20.7974470549
 10
19.3683421776
 20
20.4132613409
 10
19.6859909651
 20
20.018050615
 10
19.9963858188
 20
19.6122399279
 10
20.2991173683
 20
19.1963326097
 10
20.5938392308
 20
18.7710589654
 10
20.8801326246
 20
18.3368857205
 10
21.157554995
 20
17.8943015417
 10
21.4257478076
 20
17.4440808262
 10
21.6844370382
 20
16.9868051963
 10
21.933234217
 20
16.5229900723
 10
22.1716320069
 20
16.0533286852
 10
22.3994011434
 20
15.578468396
 10
22.6163129537
 20
15.0990223373
 10
22.8218792067
 20
14.6156548705
 10
23.0158380767
 20
14.1289932181
 10
23.1980187428
 20
13.639686581
 10
23.3680879077
 20
13.1484444356
 10
23.5258462365
 20
12.6557145629
 10
23.671083105
 20
12.1623201205
 10
23.8035043398
 20
11.6695326964
 10
23.9229344023
 20
11.1781876156
 10
24.0292674306
 20
10.6886846558
 10
24.1223645563
 20
10.2016293616
  0
LWPOLYLINE
  5
2A2
100
AcDbEntity
  8
IMPORT_IGES
100
AcDbPolyline
 62
250
  6
CONTINUOUS
 90
4
 70
0
 10
24.1223645563
 20
10.2016293616
 10
24.1364035638
 20
10.1290944276
 10
24.1430449832
 20
10.0935679904
 10
24.1493656131
 20
10.0586990928
  0
LWPOLYLINE
  5
2A3
100
AcDbEntity
  8
IMPORT_IGES
100
AcDbPolyline
 62
250
  6
CONTINUOUS
 90
34
 70
0
 10
25.2852016404
 20
10.4251372293
 10
25.2000576433
 20
10.8923357255
 10
25.1032661005
 20
11.3613533774
 10
24.9949401303
 20
11.8316640824
 10
24.8752082339
 20
12.3027396547
 10
24.7442063925
 20
12.7740524382
 10
24.6020774974
 20
13.2450759031
 10
24.4489838926
 20
13.7152817254
 10
24.2851011557
 20
14.1841427436
 10
24.1106094947
 20
14.6511355198
 10
23.925706692
 20
15.1157360979
 10
23.7306031057
 20
15.5774236553
 10
23.5255144059
 20
16.0356833138
 10
23.3106719565
 20
16.4900004573
 10
23.086318721
 20
16.9398659003
 10
22.8527032633
 20
17.3847792214
 10
22.6100878368
 20
17.8242408882
 10
22.358745901
 20
18.2577575901
 10
22.0989571049
 20
18.6848469432
 10
21.8310124877
 20
19.1050286263
 10
21.5552129479
 20
19.5178308633
 10
21.2718658609
 20
19.9227951038
 10
20.9812876846
 20
20.319465661
 10
20.6838042409
 20
20.7073961345
 10
20.3797484298
 20
21.0861551405
 10
20.0694595224
 20
21.4553155177
 10
19.7532846784
 20
21.8144613243
 10
19.4315785593
 20
22.1631933696
 10
19.1046998142
 20
22.5011173962
 10
18.7730136366
 20
22.827851851
 10
18.4368927372
 20
23.1430338741
 10
18.0967128108
 20
23.4463085693
 10
17.752852281
 20
23.7373298284
 10
17.4056945303
 20
24.0157674082
  0
LINE
  5
2A4
100
AcDbEntity
  8
IMPORT_IGES
100
AcDbLine
 62
250
  6
CONTINUOUS
 10
24.1493656131
 20
10.0586990928
 11
24.1796998001
 21
9.8863599201
  0
LINE
  5
2A5
100
AcDbEntity
  8
IMPORT_IGES
100
AcDbLine
 62
250
  6
CONTINUOUS
 10
25.3021750964
 20
10.3229605412
 11
25.3259045061
 21
10.1871934192
  0
LWPOLYLINE
  5
2A6
100
AcDbEntity
  8
IMPORT_IGES
100
AcDbPolyline
 62
250
  6
CONTINUOUS
 90
10
 70
0
 10
24.1789118921
 20
9.8859853547
 10
24.5540573598
 20
7.6849480091
 10
24.9037226023
 20
5.4898678653
 10
25.2278147256
 20
3.301248979
 10
25.52620455
 20
1.119575095
 10
25.7988340589
 20
-1.0546143483
 10
26.0457163017
 20
-3.2207426032
 10
26.2667432447
 20
-5.3783059386
 10
26.4618348559
 20
-7.5267993981
 10
26.6310518649
 20
-9.6656780466
  0
LINE
  5
2A7
100
AcDbEntity
  8
IMPORT_IGES
100
AcDbLine
 62
250
  6
CONTINUOUS
 10
25.3259045061
 20
10.1871934192
 11
25.3375432955
 21
10.1191656352
  0
LWPOLYLINE
  5
2A8
100
AcDbEntity
  8
IMPORT_IGES
100
AcDbPolyline
 62
250
  6
CONTINUOUS
 90
31
 70
0
 10
25.3375432955
 20
10.1191656352
 10
25.7066990343
 20
7.9083006712
 10
26.0507868345
 20
5.7034487963
 10
26.3697232349
 20
3.5051290351
 10
26.6634306388
 20
1.3138556812
 10
26.9318376243
 20
-0.8698519673
 10
27.1748793174
 20
-3.0454698358
 10
27.392496686
 20
-5.2124859064
 10
27.5846366246
 20
-7.37038939
 10
27.7512529075
 20
-9.5186612063
 10
27.8923051123
 20
-11.6567953115
 10
28.0077586934
 20
-13.7842880344
 10
28.0975861019
 20
-15.900627623
 10
28.1617656894
 20
-18.0053153286
 10
28.2002814835
 20
-20.0978555488
 10
28.2131243351
 20
-22.1777456097
 10
28.2002913988
 20
-24.2444954361
 10
28.1617853039
 20
-26.2976183356
 10
28.097614998
 20
-28.3366216447
 10
28.0077962482
 20
-30.3610251597
 10
27.8923504765
 20
-32.3703520897
 10
27.7513049993
 20
-34.3641204046
 10
27.5846941326
 20
-36.3418606288
 10
27.3925581022
 20
-38.3031071809
 10
27.174942952
 20
-40.2473899541
 10
26.9319018952
 20
-42.1742508731
 10
26.6634934389
 20
-44.0832369907
 10
26.3697813298
 20
-45.973892489
 10
26.0508364765
 20
-47.8457704862
 10
25.7067365794
 20
-49.6984328945
 10
25.3375648981
 20
-51.531443942
  0
LWPOLYLINE
  5
2A9
100
AcDbEntity
  8
IMPORT_IGES
100
AcDbPolyline
 62
250
  6
CONTINUOUS
 90
3
 70
0
 10
25.2852016404
 20
10.4251372293
 10
25.2907616645
 20
10.3910352929
 10
25.3021750964
 20
10.3229605412
  0
LWPOLYLINE
  5
2AA
100
AcDbEntity
  8
IMPORT_IGES
100
AcDbPolyline
 62
250
  6
CONTINUOUS
 90
6
 70
0
 10
24.1797008522
 20
-51.4905260049
 10
24.1490873142
 20
-51.6330555488
 10
24.1427941862
 20
-51.6613334443
 10
24.136217659
 20
-51.6898916071
 10
24.1294260165
 20
-51.7186160503
 10
24.0299769427
 20
-52.1347090892
  0
LWPOLYLINE
  5
2AB
100
AcDbEntity
  8
IMPORT_IGES
100
AcDbPolyline
 62
7
  6
CONTINUOUS
 90
13
 70
0
 10
-0.7318524614
 20
-32.2421413589
 10
-1.2221704677
 20
-32.4294241716
 10
-1.724108456
 20
-32.5937047299
 10
-2.2372885574
 20
-32.7346597467
 10
-2.7617083451
 20
-32.8520629045
 10
-3.2965807986
 20
-32.94551572
 10
-3.8402687155
 20
-33.0146272696
 10
-4.3913125675
 20
-33.0592597024
 10
-4.9501511792
 20
-33.0794957808
 10
-5.5179901985
 20
-33.0752496791
 10
-6.0955053045
 20
-33.0462056122
 10
-6.6811150218
 20
-32.9921348057
 10
-7.2265364567
 20
-32.9192670363
  0
LWPOLYLINE
  5
2AC
100
AcDbEntity
  8
IMPORT_IGES
100
AcDbPolyline
 62
250
  6
CONTINUOUS
 90
8
 70
0
 10
0.8226463667
 20
-31.4396313222
 10
0.3250667712
 20
-31.6202427152
 10
-0.1822058749
 20
-31.7770326144
 10
-0.6991715714
 20
-31.9100010197
 10
-1.2263115663
 20
-32.0192266052
 10
-1.7631446118
 20
-32.1046306968
 10
-2.3082269638
 20
-32.1659772727
 10
-2.8615546982
 20
-32.2032577081
  0
LWPOLYLINE
  5
2AD
100
AcDbEntity
  8
IMPORT_IGES
100
AcDbPolyline
 62
7
  6
CONTINUOUS
 90
19
 70
0
 10
0.0587805462
 20
-31.7669048653
 10
-0.1566909486
 20
-31.8373945293
 10
-0.3737059712
 20
-31.9034422434
 10
-0.5934319158
 20
-31.9653840548
 10
-0.8167020568
 20
-32.0233672535
 10
-1.0426659261
 20
-32.0770836103
 10
-1.2699626378
 20
-32.1261939416
 10
-1.4976739948
 20
-32.1705550349
 10
-1.726608681
 20
-32.2103790232
 10
-1.9579919908
 20
-32.2458668757
 10
-2.1927014348
 20
-32.2770746676
 10
-2.4298265663
 20
-32.3038029886
 10
-2.667908103
 20
-32.3258793698
 10
-2.9059801838
 20
-32.3432757499
 10
-3.1448940377
 20
-32.3561152199
 10
-3.3859115316
 20
-32.3644620415
 10
-3.629930761
 20
-32.3682801021
 10
-3.8760050152
 20
-32.3674874671
 10
-4.0287564037
 20
-32.3641440649
  0
LWPOLYLINE
  5
2AE
100
AcDbEntity
  8
IMPORT_IGES
100
AcDbPolyline
 62
250
  6
CONTINUOUS
 90
34
 70
0
 10
-3.0445752999
 20
-32.1171873202
 10
-2.6771301837
 20
-32.0099258201
 10
-2.1825976943
 20
-31.8422806114
 10
-1.698725884
 20
-31.650847914
 10
-1.22597419
 20
-31.4358086458
 10
-0.7647910511
 20
-31.1973659186
 10
-0.3156191284
 20
-30.9357481775
 10
0.1211121322
 20
-30.6512059889
 10
0.5449922892
 20
-30.3440072172
 10
0.9556247448
 20
-30.0144387276
 10
1.352625533
 20
-29.6628066937
 10
1.7356112291
 20
-29.2894486615
 10
2.1042062718
 20
-28.8947311586
 10
2.4580507747
 20
-28.4790435807
 10
2.7968222278
 20
-28.0427689749
 10
3.120220593
 20
-27.5862922964
 10
3.4279500389
 20
-27.1100228559
 10
3.7197023095
 20
-26.6144290609
 10
3.9951811374
 20
-26.1000125568
 10
4.2541167366
 20
-25.567283014
 10
4.4962753241
 20
-25.0167276731
 10
4.7214388591
 20
-24.4488416713
 10
4.9293969518
 20
-23.8641485153
 10
5.1199454998
 20
-23.2632143506
 10
5.2928989246
 20
-22.6466206709
 10
5.4480916297
 20
-22.014957012
 10
5.5853774107
 20
-21.3688175287
 10
5.7046259454
 20
-20.7088129707
 10
5.8057234714
 20
-20.0355727328
 10
5.8885738085
 20
-19.3497315502
 10
5.9530975711
 20
-18.6519262301
 10
5.9992316902
 20
-17.9428132254
 10
6.0269306853
 20
-17.2230687988
 10
6.036166609
 20
-16.4933749901
  0
LWPOLYLINE
  5
2AF
100
AcDbEntity
  8
IMPORT_IGES
100
AcDbPolyline
 62
250
  6
CONTINUOUS
 90
16
 70
0
 10
-8.026762761
 20
40.3250145708
 10
-6.3330845666
 20
39.462833512
 10
-4.6395545382
 20
38.5691577112
 10
-2.946571466
 20
37.6441981472
 10
-1.2545338455
 20
36.6881734896
 10
0.4361599217
 20
35.7013091732
 10
2.1251116191
 20
34.6838373031
 10
3.8119245049
 20
33.6359979377
 10
5.4962010003
 20
32.558038608
 10
7.1775424903
 20
31.450213395
 10
8.8555532729
 20
30.3127843399
 10
10.529839006
 20
29.1460196415
 10
12.200004389
 20
27.9501931115
 10
13.8656562496
 20
26.725586547
 10
15.5264036421
 20
25.4724897079
 10
17.1818562927
 20
24.1911985166
  0
LWPOLYLINE
  5
2B0
100
AcDbEntity
  8
IMPORT_IGES
100
AcDbPolyline
 62
250
  6
CONTINUOUS
 90
16
 70
0
 10
-8.6859950965
 20
39.4422422698
 10
-7.0022094824
 20
38.5836741072
 10
-5.3183996323
 20
37.6931790744
 10
-3.6349153775
 20
36.7709922041
 10
-1.9520403138
 20
35.8173800356
 10
-0.2701839586
 20
34.8325491819
 10
1.4100974094
 20
33.8166628048
 10
3.0884201452
 20
32.7699821816
 10
4.7644415175
 20
31.6927616453
 10
6.4376353197
 20
30.5851873183
 10
8.1076126743
 20
29.4475383276
 10
9.7740235585
 20
28.2800993874
 10
11.4363749119
 20
27.0830883361
 10
13.0942464438
 20
25.8567708916
 10
14.7473059529
 20
24.6014524193
 10
16.3951829924
 20
23.317414767
  0
LINE
  5
2B1
100
AcDbEntity
  8
IMPORT_IGES
100
AcDbLine
 62
250
  6
CONTINUOUS
 10
25.3021207033
 20
-51.6996437729
 11
25.2849883123
 21
-51.7827564437
  0
LINE
  5
2B2
100
AcDbEntity
  8
IMPORT_IGES
100
AcDbLine
 62
250
  6
CONTINUOUS
 10
25.3375648981
 20
-51.531443942
 11
25.3199742792
 21
-51.6157091056
  0
LINE
  5
2B3
100
AcDbEntity
  8
IMPORT_IGES
100
AcDbLine
 62
250
  6
CONTINUOUS
 10
25.3199742792
 20
-51.6157091056
 11
25.3021207033
 21
-51.6996437729
  0
LWPOLYLINE
  5
2B4
100
AcDbEntity
  8
IMPORT_IGES
100
AcDbPolyline
 62
250
  6
CONTINUOUS
 90
30
 70
0
 10
24.0299769427
 20
-52.1347090892
 10
23.9244207829
 20
-52.5117690106
 10
23.80586776
 20
-52.8782114539
 10
23.6744059332
 20
-53.2337239048
 10
23.5301902904
 20
-53.5776493781
 10
23.3734912803
 20
-53.9090340316
 10
23.2045012213
 20
-54.2272804803
 10
23.0234013243
 20
-54.5321013934
 10
22.8305016993
 20
-54.8230605091
 10
22.6259564025
 20
-55.0996857219
 10
22.4100107206
 20
-55.3615742391
 10
22.183130654
 20
-55.6084218751
 10
21.9455269682
 20
-55.839819181
 10
21.6974169131
 20
-56.0553344015
 10
21.4392950975
 20
-56.2546683203
 10
21.1715314083
 20
-56.4375999078
 10
20.8943831213
 20
-56.6038548005
 10
20.6081998223
 20
-56.7530934178
 10
20.3134159347
 20
-56.8852473474
 10
20.0104387313
 20
-57.0002442899
 10
19.6996024971
 20
-57.0977734083
 10
19.3813099494
 20
-57.1777382873
 10
19.0560230843
 20
-57.2401364566
 10
18.7241822197
 20
-57.2848286722
 10
18.3860687782
 20
-57.3117395048
 10
18.0422707182
 20
-57.3208749502
 10
17.6937101011
 20
-57.3122972625
 10
17.3409982963
 20
-57.2860835017
 10
16.9844166537
 20
-57.2422559181
 10
16.6244025501
 20
-57.18086182
  0
LWPOLYLINE
  5
2B5
100
AcDbEntity
  8
IMPORT_IGES
100
AcDbPolyline
 62
250
  6
CONTINUOUS
 90
4
 70
0
 10
-33.9304873559
 20
48.4195222504
 10
-33.9047581128
 20
48.4148020436
 10
-33.8792589016
 20
48.4099474892
 10
-33.8541081709
 20
48.4049371131
  0
LINE
  5
2B6
100
AcDbEntity
  8
IMPORT_IGES
100
AcDbLine
 62
250
  6
CONTINUOUS
 10
-33.8541081709
 20
48.4049371131
 11
-33.7279484529
 21
48.3787522935
  0
LINE
  5
2B7
100
AcDbEntity
  8
IMPORT_IGES
100
AcDbLine
 62
250
  6
CONTINUOUS
 10
-33.164658725
 20
49.3643348835
 11
-33.3866553008
 21
49.4120390181
  0
LWPOLYLINE
  5
2B8
100
AcDbEntity
  8
IMPORT_IGES
100
AcDbPolyline
 62
250
  6
CONTINUOUS
 90
16
 70
0
 10
-33.7277969084
 20
48.3780992669
 10
-32.0846992064
 20
48.0171922132
 10
-30.4361475284
 20
47.6221763371
 10
-28.7825188284
 20
47.1931445564
 10
-27.1241690732
 20
46.7301423802
 10
-25.4615065537
 20
46.2333133534
 10
-23.7949784379
 20
45.7028939312
 10
-22.1249588838
 20
45.1389599055
 10
-20.4518267737
 20
44.5416212204
 10
-18.7760135195
 20
43.9111646019
 10
-17.0978740236
 20
43.2476821702
 10
-15.4177949953
 20
42.5513001309
 10
-13.7362254699
 20
41.8223564242
 10
-12.0535447135
 20
41.0610363809
 10
-10.3700827603
 20
40.2673782974
 10
-8.6861978149
 20
39.441498654
  0
LWPOLYLINE
  5
2B9
100
AcDbEntity
  8
IMPORT_IGES
100
AcDbPolyline
 62
250
  6
CONTINUOUS
 90
16
 70
0
 10
-33.164658725
 20
49.3643348835
 10
-31.517522871
 20
48.9942858052
 10
-29.864581323
 20
48.5904998623
 10
-28.2062243514
 20
48.153071391
 10
-26.5428444946
 20
47.6821023562
 10
-24.8748333268
 20
47.1777033246
 10
-23.2025813597
 20
46.6399933904
 10
-21.5264824991
 20
46.0690984722
 10
-19.8469328799
 20
45.4651524274
 10
-18.1643276328
 20
44.8282980285
 10
-16.4790641137
 20
44.1586849077
 10
-14.7915392859
 20
43.4564701377
 10
-13.1021485495
 20
42.7218192763
 10
-11.4112893673
 20
41.9549050976
 10
-9.7193611741
 20
41.1559075959
 10
-8.026762761
 20
40.3250145708
  0
LWPOLYLINE
  5
2BA
100
AcDbEntity
  8
IMPORT_IGES
100
AcDbPolyline
 62
7
  6
CONTINUOUS
 90
34
 70
0
 10
41.5954888521
 20
18.5802821566
 10
41.5075699911
 20
19.0473015903
 10
41.4084017691
 20
19.5151263102
 10
41.2979841862
 20
19.9837563163
 10
41.1761655824
 20
20.4537156908
 10
41.0430976177
 20
20.9244803514
 10
40.8992352719
 20
21.3944780518
 10
40.7445436504
 20
21.863705352
 10
40.5790576477
 20
22.3321656919
 10
40.4033369275
 20
22.7982971458
 10
40.217348366
 20
23.26209161
 10
40.021125087
 20
23.7235571882
 10
39.8153261248
 20
24.1811562645
 10
39.5999201213
 20
24.6348764809
 10
39.3749384346
 20
25.0847301954
 10
39.1411341735
 20
25.5292168668
 10
38.8984787855
 20
25.9683185171
 10
38.647000823
 20
26.4020531243
 10
38.3875390518
 20
26.8289740802
 10
38.1200671396
 20
27.2490595788
 10
37.8446114186
 20
27.6623314261
 10
37.5620896522
 20
28.0674084326
 10
37.2724789512
 20
28.4642636346
 10
36.9758022047
 20
28.8529239957
 10
36.6730458429
 20
29.2320892167
 10
36.3641897301
 20
29.6017287957
 10
36.049254002
 20
29.9618732346
 10
35.7292854954
 20
30.3113137398
 10
35.4042671598
 20
30.6500160986
 10
35.0742160457
 20
30.9780145236
 10
34.7402301428
 20
31.2942028587
 10
34.4026754473
 20
31.5982123852
 10
34.0611859628
 20
31.8904118217
 10
33.7157616894
 20
32.1708011684
  0
LWPOLYLINE
  5
2BB
100
AcDbEntity
  8
IMPORT_IGES
100
AcDbPolyline
 62
7
  6
CONTINUOUS
 90
16
 70
0
 10
44.5587609581
 20
-14.0052480956
 10
44.5448831739
 20
-11.9052476106
 10
44.5046691167
 20
-9.7935829287
 10
44.4381187865
 20
-7.67025405
 10
44.3452038138
 20
-5.5347488806
 10
44.2259525681
 20
-3.3875795143
 10
44.0804501585
 20
-1.2302822326
 10
43.9086777236
 20
0.9371502442
 10
43.7106541248
 20
3.1147106365
 10
43.4865210549
 20
5.3008408239
 10
43.2362597548
 20
7.4955469609
 10
42.9598889835
 20
9.698822893
 10
42.6576067106
 20
11.909092037
 10
42.3294789261
 20
14.125828865
 10
41.9754396399
 20
16.3495589049
 10
41.5954888521
 20
18.5802821566
  0
LWPOLYLINE
  5
2BC
100
AcDbEntity
  8
IMPORT_IGES
100
AcDbPolyline
 62
7
  6
CONTINUOUS
 90
31
 70
0
 10
33.7157616894
 20
32.1708011684
 10
32.0493342985
 20
33.4701779861
 10
30.3780661523
 20
34.7401168109
 10
28.7019572509
 20
35.9806176427
 10
27.0206069757
 20
37.1919588086
 10
25.3344159452
 20
38.3738619814
 10
23.6445860151
 20
39.5254921803
 10
21.9511148056
 20
40.6468284043
 10
20.2540046965
 20
41.7378916544
 10
18.5544646823
 20
42.7979099514
 10
16.8524931745
 20
43.8268617989
 10
15.1480917617
 20
44.8247686934
 10
13.4424742041
 20
45.7909231455
 10
11.7356397067
 20
46.7253032016
 10
10.0275890645
 20
47.6279308153
 10
8.3195384223
 20
48.4981643576
 10
6.6114877801
 20
49.3359814575
 10
4.9034371379
 20
50.141404486
 10
3.1966026406
 20
50.9138589272
 10
1.4909850829
 20
51.6533220328
 10
-0.2134163299
 20
52.3598165511
 10
-1.9153878376
 20
53.0328362113
 10
-3.6149278518
 20
53.6723579285
 10
-5.312037961
 20
54.2784047876
 10
-7.0055091705
 20
54.8505397731
 10
-8.6953391006
 20
55.3887395044
 10
-10.3815301311
 20
55.893027362
 10
-12.0628804063
 20
56.3630364713
 10
-13.7389893077
 20
56.7986445409
 10
-15.4102574539
 20
57.1999738623
 10
-17.0766848448
 20
57.5670244355
  0
LWPOLYLINE
  5
2BD
100
AcDbEntity
  8
IMPORT_IGES
100
AcDbPolyline
 62
7
  6
CONTINUOUS
 90
16
 70
0
 10
41.5954888521
 20
-43.6275062417
 10
41.9754396399
 20
-41.7767337778
 10
42.3294789261
 20
-39.9070430241
 10
42.6576067106
 20
-38.0184339806
 10
42.9598889835
 20
-36.1104471095
 10
43.2362597548
 20
-34.1835419486
 10
43.4865210549
 20
-32.2390971117
 10
43.7106541248
 20
-30.2770999943
 10
43.9086777236
 20
-28.2975632008
 10
44.0804501585
 20
-26.3019031589
 10
44.2259525681
 20
-24.2901082868
 10
44.3452038138
 20
-22.2621901662
 10
44.4381187865
 20
-20.2195999695
 10
44.5046691167
 20
-18.162821421
 10
44.5448831739
 20
-16.0913707963
 10
44.5587609581
 20
-14.0052480956
  0
LWPOLYLINE
  5
2BE
100
AcDbEntity
  8
IMPORT_IGES
100
AcDbPolyline
 62
7
  6
CONTINUOUS
 90
15
 70
0
 10
-17.0766848448
 20
57.5670244355
 10
-17.422111891
 20
57.6320597844
 10
-17.7636039181
 20
57.6813500267
 10
-18.1011609264
 20
57.7148951625
 10
-18.4351489121
 20
57.7326924451
 10
-18.7652018788
 20
57.7347446212
 10
-19.0902218375
 20
57.7210599303
 10
-19.4101917337
 20
57.6915871083
 10
-19.7251286219
 20
57.6463774194
 10
-20.0339856766
 20
57.5855928958
 10
-20.3367427587
 20
57.5091829
 10
-20.6334200072
 20
57.4171980696
 10
-20.9230310139
 20
57.3099523495
 10
-21.2055528866
 20
57.1873958878
 10
-21.3429278655
 20
57.1210128062
  0
LINE
  5
2BF
100
AcDbEntity
  8
IMPORT_IGES
100
AcDbLine
 62
250
  6
CONTINUOUS
 10
25.284958197
 20
-51.7827716449
 11
41.5954888684
 21
-43.6275061656
  0
LWPOLYLINE
  5
2C0
100
AcDbEntity
  8
IMPORT_IGES
100
AcDbPolyline
 62
250
  6
CONTINUOUS
 90
21
 70
0
 10
21.6956478421
 20
-57.0355049354
 10
21.8310115498
 20
-56.965431713
 10
22.0989409932
 20
-56.8125588724
 10
22.3587148415
 20
-56.6449520498
 10
22.610042047
 20
-56.4627994241
 10
22.8526430035
 20
-56.2663036455
 10
23.0862442459
 20
-56.0556856436
 10
23.3105835109
 20
-55.8311815958
 10
23.5254122707
 20
-55.5930400062
 10
23.7304875528
 20
-55.3415281717
 10
23.925577986
 20
-55.0769282511
 10
24.1104679393
 20
-54.7995328475
 10
24.2849470459
 20
-54.5096534783
 10
24.4488175133
 20
-54.2076152481
 10
24.6018991685
 20
-53.8937515986
 10
24.7440164248
 20
-53.568415135
 10
24.8750069266
 20
-53.2319708027
 10
24.9947278123
 20
-52.8847893697
 10
25.1030431035
 20
-52.5272582177
 10
25.1998242747
 20
-52.1597813158
 10
25.284958197
 20
-51.7827716449
  0
LWPOLYLINE
  5
2C1
100
AcDbEntity
  8
IMPORT_IGES
100
AcDbPolyline
 62
7
  6
CONTINUOUS
 90
21
 70
0
 10
37.9820047101
 20
-48.8922864616
 10
38.1200853622
 20
-48.8208521917
 10
38.3875570197
 20
-48.6682374507
 10
38.6470183686
 20
-48.5007771832
 10
38.898495744
 20
-48.3185195261
 10
39.1411504203
 20
-48.1220723907
 10
39.3749538427
 20
-47.911389249
 10
39.5999345659
 20
-47.6865166291
 10
39.8153395285
 20
-47.4482020259
 10
40.0211373705
 20
-47.1964017262
 10
40.2173594519
 20
-46.9311594432
 10
40.4033467913
 20
-46.6533538115
 10
40.5790662637
 20
-46.3629436075
 10
40.7445509941
 20
-46.0599700549
 10
40.899241376
 20
-45.7454354584
 10
41.043102514
 20
-45.4193014877
 10
41.1761693035
 20
-45.0816064733
 10
41.2979868241
 20
-44.7334677118
 10
41.4084034357
 20
-44.3752576355
 10
41.5075707784
 20
-44.0066038121
 10
41.5954888521
 20
-43.6275062417
  0
LINE
  5
2C2
100
AcDbEntity
  8
IMPORT_IGES
100
AcDbLine
 62
7
  6
CONTINUOUS
 10
21.6929861824
 20
-57.0368366426
 11
37.982021077
 21
-48.8923191953
  0
ARC
  5
2C3
100
AcDbEntity
  8
IMPORT_IGES
100
AcDbCircle
 62
7
  6
CONTINUOUS
 10
-10.3718078009
 20
-5.2313099393
 40
27.8664446721
100
AcDbArc
 50
127.8854562959
 51
285.2446460706
  0
ENDSEC
  0
SECTION
  2
OBJECTS
  0
DICTIONARY
  5
C
100
AcDbDictionary
280
0
281
1
  3
ACAD_GROUP
350
D
  3
ACAD_MLINESTYLE
350
17
  3
ACAD_LAYOUT
350
1A
  3
ACAD_PLOTSETTINGS
350
19
  3
ACAD_PLOTSTYLENAME
350
E
  0
DICTIONARY
  5
D
102
{ACAD_REACTORS
330
C
102
}
100
AcDbDictionary
280
0
281
1
  0
ACDBDICTIONARYWDFLT
  5
E
102
{ACAD_REACTORS
330
C
102
}
100
AcDbDictionary
281
1
  3
Normal
350
F
100
AcDbDictionaryWithDefault
340
F
  0
DICTIONARY
  5
17
102
{ACAD_REACTORS
330
C
102
}
100
AcDbDictionary
280
0
281
1
  3
Standard
350
18
  0
DICTIONARY
  5
19
102
{ACAD_REACTORS
330
C
102
}
100
AcDbDictionary
281
1
  0
DICTIONARY
  5
1A
102
{ACAD_REACTORS
330
C
102
}
100
AcDbDictionary
281
1
  3
Model
350
2C4
  3
Layout1
350
2C5
  0
ACDBPLACEHOLDER
  5
F
102
{ACAD_REACTORS
330
E
102
}
  0
MLINESTYLE
  5
18
102
{ACAD_REACTORS
330
17
102
}
100
AcDbMlineStyle
  2
STANDARD
 70
0
  3

 62
256
 51
90.0
 52
90.0
 71
2
 49
0.5
 62
256
  6
BYLAYER
 49
-0.5
 62
256
  6
BYLAYER
  0
LAYOUT
  5
2C4
102
{ACAD_REACTORS
330
1A
102
}
100
AcDbPlotSettings
  1

  2
none_device
  4
ISO_A4_(297.00_x_210.00_MM)
  6

 40
0.0
 41
0.0
 42
0.0
 43
0.0
 44
297.0
 45
210.0
 46
0.0
 47
0.0
 48
0.0
 49
0.0
140
0.0
141
0.0
142
1.0
143
1.0
 70
1024
 72
1
 73
0
 74
0
  7

 75
0
147
1.0
148
0.0
149
0.0
100
AcDbLayout
  1
Model
 70
0
 71
0
 10
0.0
 20
0.0
 11
297.0
 21
210.0
 12
0.0
 22
0.0
 32
0.0
 14
0.0
 24
0.0
 34
0.0
 15
0.0
 25
0.0
 35
0.0
146
0.0
 13
0.0
 23
0.0
 33
0.0
 16
1.0
 26
0.0
 36
0.0
 17
0.0
 27
1.0
 37
0.0
 76
0
330
228
345
0
346
0
  0
LAYOUT
  5
2C5
102
{ACAD_REACTORS
330
1A
102
}
100
AcDbPlotSettings
  1

  2
none_device
  4
ISO_A4_(297.00_x_210.00_MM)
  6

 40
0.0
 41
0.0
 42
0.0
 43
0.0
 44
297.0
 45
210.0
 46
0.0
 47
0.0
 48
0.0
 49
0.0
140
0.0
141
0.0
142
1.0
143
1.0
 70
0
 72
1
 73
0
 74
0
  7

 75
0
147
1.0
148
0.0
149
0.0
100
AcDbLayout
  1
Layout1
 70
0
 71
1
 10
0.0
 20
0.0
 11
297.0
 21
210.0
 12
0.0
 22
0.0
 32
0.0
 14
0.0
 24
0.0
 34
0.0
 15
0.0
 25
0.0
 35
0.0
146
0.0
 13
0.0
 23
0.0
 33
0.0
 16
1.0
 26
0.0
 36
0.0
 17
0.0
 27
1.0
 37
0.0
 76
0
330
229
345
0
346
0
  0
ENDSEC
  0
EOF
