  0
SECTION
  2
HEADER
  9
$ACADVER
  1
AC1024
  9
$DWGCODEPAGE
  3
ANSI_1252
  9
$EXTMAX
 10
297.0
 20
210.0
 30
0.0
  9
$EXTMIN
 10
0.0
 20
0.0
 30
0.0
  9
$LIMMIN
 10
0.0
 20
0.0
  9
$LIMMAX
 10
297.0
 20
210.0
  9
$VIEWCTR
 10
148.5
 20
105.0
  9
$VIEWSIZE
 40
210.0
  9
$CLAYER
  8
0
  9
$LTSCALE
 40
16.335
  9
$CELTYPE
  6
BYLAYER
  9
$DIMSCALE
 40
1.0
  9
$DIMASZ
 40
3.0
  9
$DIMEXO
 40
0.5
  9
$DIMDLI
 40
11.286
  9
$DIMEXE
 40
1.5
  9
$DIMCEN
 40
2.673
  9
$DIMLFAC
 40
1.0
  9
$DIMBLK
  1
_FILLED
  9
$DIMALT
 70
0
  9
$DIMALTF
 40
0.0393700787
  9
$DIMTXT
 40
3.0
  9
$DIMTOL
 70
1
  9
$DIMLIM
 70
0
  9
$DIMTFAC
 40
1.0
  9
$DIMTP
 40
0.01
  9
$DIMTM
 40
0.01
  9
$DIMGAP
 40
0.625
  9
$DIMDSEP
 70
44
  9
$AUNITS
 70
0
  9
$PDMODE
 70
3
  9
$PDSIZE
 40
3.0
  9
$HANDSEED
  5
297
  9
$TILEMODE
 70
1
  9
$MEASUREMENT
 70
1
  9
$INSUNITS
 70
4
  0
ENDSEC
  0
SECTION
  2
CLASSES
  0
CLASS
  1
ACDBDICTIONARYWDFLT
  2
AcDbDictionaryWithDefault
  3
AutoCAD 2000
 90
0
 91
1
280
0
281
0
  0
CLASS
  1
ACDBPLACEHOLDER
  2
AcDbPlaceHolder
  3
AutoCAD 2000
 90
0
 91
1
280
0
281
0
  0
CLASS
  1
LAYOUT
  2
AcDbLayout
  3
AutoCAD 2000
 90
0
 91
0
280
0
281
0
  0
ENDSEC
  0
SECTION
  2
TABLES
  0
TABLE
  2
VPORT
  5
8
100
AcDbSymbolTable
 70
2
  0
VPORT
  5
1F4
100
AcDbSymbolTableRecord
100
AcDbViewportTableRecord
  2
*ACTIVE
 70
0
 10
0.0
 20
0.0
 11
1.0
 21
1.0
 12
148.5
 22
105.0
 13
0.0
 23
0.0
 14
1.0
 24
1.0
 15
0.0
 25
0.0
 16
0.0
 26
0.0
 36
1.0
 17
0.0
 27
0.0
 37
0.0
 40
210.0
 41
1.4142857143
 42
50.0
 43
0.0
 44
0.0
 50
0.0
 51
0.0
 71
0
 72
100
 73
1
 74
1
 75
0
 76
0
 77
0
 78
0
  0
ENDTAB
  0
TABLE
  2
LTYPE
  5
5
100
AcDbSymbolTable
 70
6
  0
LTYPE
  5
14
100
AcDbSymbolTableRecord
100
AcDbLinetypeTableRecord
  2
BYBLOCK
 70
0
  3

 72
65
 73
0
 40
0.0
  0
LTYPE
  5
15
100
AcDbSymbolTableRecord
100
AcDbLinetypeTableRecord
  2
BYLAYER
 70
0
  3

 72
65
 73
0
 40
0.0
  0
LTYPE
  5
16
100
AcDbSymbolTableRecord
100
AcDbLinetypeTableRecord
  2
CONTINUOUS
 70
64
  3
Solid line
 72
65
 73
0
 40
0.0
  0
LTYPE
  5
1F5
100
AcDbSymbolTableRecord
100
AcDbLinetypeTableRecord
  2
CENTER
 70
64
  3
____ _ ____ _ ____ _ ____ _ ____ _ ____ _ ____
 72
65
 73
4
 40
0.6
 49
0.375
 74
0
 49
-0.075
 74
0
 49
0.075
 74
0
 49
-0.075
 74
0
  0
LTYPE
  5
1F6
100
AcDbSymbolTableRecord
100
AcDbLinetypeTableRecord
  2
HIDDEN
 70
64
  3
- - - - - - - - - - - - - - - - - - - -
 72
65
 73
2
 40
0.2
 49
0.1
 74
0
 49
-0.1
 74
0
  0
LTYPE
  5
1F7
100
AcDbSymbolTableRecord
100
AcDbLinetypeTableRecord
  2
PHANTOM
 70
64
  3
_____ _ _ _____ _ _ _____ _ _ _____
 72
65
 73
6
 40
0.8
 49
0.45
 74
0
 49
-0.05
 74
0
 49
0.1
 74
0
 49
-0.05
 74
0
 49
0.1
 74
0
 49
-0.05
 74
0
  0
LTYPE
  5
1F8
100
AcDbSymbolTableRecord
100
AcDbLinetypeTableRecord
  2
DOT
 70
64
  3
. . . . . . . . . . . . . . . . . . . .
 72
65
 73
2
 40
0.2
 49
0.1
 74
0
 49
-0.1
 74
0
  0
LTYPE
  5
1F9
100
AcDbSymbolTableRecord
100
AcDbLinetypeTableRecord
  2
DASHED
 70
64
  3
- - - - - - - - - - - - - - - - - - - -
 72
65
 73
2
 40
0.2
 49
0.1
 74
0
 49
-0.1
 74
0
  0
ENDTAB
  0
TABLE
  2
LAYER
  5
2
100
AcDbSymbolTable
 70
36
  0
LAYER
  5
10
100
AcDbSymbolTableRecord
100
AcDbLayerTableRecord
  2
0
 70
0
 62
7
  6
CONTINUOUS
370
-3
390
F
  0
LAYER
  5
1FA
100
AcDbSymbolTableRecord
100
AcDbLayerTableRecord
  2
DEFAULT_1
 70
0
 62
7
  6
CENTER
370
-3
390
F
  0
LAYER
  5
1FB
100
AcDbSymbolTableRecord
100
AcDbLayerTableRecord
  2
DEFAULT_2
 70
0
 62
7
  6
HIDDEN
370
-3
390
F
  0
LAYER
  5
1FC
100
AcDbSymbolTableRecord
100
AcDbLayerTableRecord
  2
DEFAULT_3
 70
0
 62
7
  6
PHANTOM
370
-3
390
F
  0
LAYER
  5
1FD
100
AcDbSymbolTableRecord
100
AcDbLayerTableRecord
  2
1
 70
0
 62
7
  6
CONTINUOUS
370
-3
390
F
  0
LAYER
  5
1FE
100
AcDbSymbolTableRecord
100
AcDbLayerTableRecord
  2
1_1
 70
0
 62
7
  6
CONTINUOUS
370
-3
390
F
  0
LAYER
  5
1FF
100
AcDbSymbolTableRecord
100
AcDbLayerTableRecord
  2
20
 70
0
 62
7
  6
CONTINUOUS
370
-3
390
F
  0
LAYER
  5
200
100
AcDbSymbolTableRecord
100
AcDbLayerTableRecord
  2
ASSI
 70
0
 62
7
  6
CONTINUOUS
370
-3
390
F
  0
LAYER
  5
201
100
AcDbSymbolTableRecord
100
AcDbLayerTableRecord
  2
COORDINATE
 70
0
 62
7
  6
CONTINUOUS
370
-3
390
F
  0
LAYER
  5
202
100
AcDbSymbolTableRecord
100
AcDbLayerTableRecord
  2
COPY_PUBLISH
 70
0
 62
7
  6
CONTINUOUS
370
-3
390
F
  0
LAYER
  5
203
100
AcDbSymbolTableRecord
100
AcDbLayerTableRecord
  2
COSMETICI
 70
0
 62
7
  6
CONTINUOUS
370
-3
390
F
  0
LAYER
  5
204
100
AcDbSymbolTableRecord
100
AcDbLayerTableRecord
  2
CURVE
 70
0
 62
7
  6
CONTINUOUS
370
-3
390
F
  0
LAYER
  5
205
100
AcDbSymbolTableRecord
100
AcDbLayerTableRecord
  2
DRAFT
 70
0
 62
7
  6
CONTINUOUS
370
-3
390
F
  0
LAYER
  5
206
100
AcDbSymbolTableRecord
100
AcDbLayerTableRecord
  2
IMPORT_IGES
 70
0
 62
7
  6
CONTINUOUS
370
-3
390
F
  0
LAYER
  5
207
100
AcDbSymbolTableRecord
100
AcDbLayerTableRecord
  2
INTFCLR_20
 70
0
 62
7
  6
CONTINUOUS
370
-3
390
F
  0
LAYER
  5
208
100
AcDbSymbolTableRecord
100
AcDbLayerTableRecord
  2
NOTE
 70
0
 62
7
  6
CONTINUOUS
370
-3
390
F
  0
LAYER
  5
209
100
AcDbSymbolTableRecord
100
AcDbLayerTableRecord
  2
PIANI
 70
0
 62
7
  6
CONTINUOUS
370
-3
390
F
  0
LAYER
  5
20A
100
AcDbSymbolTableRecord
100
AcDbLayerTableRecord
  2
PUNTI
 70
0
 62
7
  6
CONTINUOUS
370
-3
390
F
  0
LAYER
  5
20B
100
AcDbSymbolTableRecord
100
AcDbLayerTableRecord
  2
RACCORDO
 70
0
 62
7
  6
CONTINUOUS
370
-3
390
F
  0
LAYER
  5
20C
100
AcDbSymbolTableRecord
100
AcDbLayerTableRecord
  2
SIMBOLI
 70
0
 62
7
  6
CONTINUOUS
370
-3
390
F
  0
LAYER
  5
20D
100
AcDbSymbolTableRecord
100
AcDbLayerTableRecord
  2
SMUSSO
 70
0
 62
7
  6
CONTINUOUS
370
-3
390
F
  0
LAYER
  5
20E
100
AcDbSymbolTableRecord
100
AcDbLayerTableRecord
  2
SUPERFICI
 70
0
 62
7
  6
CONTINUOUS
370
-3
390
F
  0
LAYER
  5
20F
100
AcDbSymbolTableRecord
100
AcDbLayerTableRecord
  2
TRASH
 70
0
 62
7
  6
CONTINUOUS
370
-3
390
F
  0
LAYER
  5
210
100
AcDbSymbolTableRecord
100
AcDbLayerTableRecord
  2
WHITE
 70
0
 62
7
  6
CONTINUOUS
370
-3
390
F
  0
ENDTAB
  0
TABLE
  2
STYLE
  5
3
100
AcDbSymbolTable
 70
1
  0
STYLE
  5
11
100
AcDbSymbolTableRecord
100
AcDbTextStyleTableRecord
  2
STANDARD
 70
0
 40
0.0
 41
0.8
 50
0.0
 71
0
 42
0.2
  3
txt
  4

  0
STYLE
  5
211
100
AcDbSymbolTableRecord
100
AcDbTextStyleTableRecord
  2
TEXTSTYLE_1
 70
0
 40
0.0
 41
0.8
 50
0.0
 71
0
 42
0.2
  3
gdt
  4

  0
ENDTAB
  0
TABLE
  2
VIEW
  5
6
100
AcDbSymbolTable
 70
0
  0
ENDTAB
  0
TABLE
  2
UCS
  5
7
100
AcDbSymbolTable
 70
0
  0
ENDTAB
  0
TABLE
  2
APPID
  5
9
100
AcDbSymbolTable
 70
1
  0
APPID
  5
212
100
AcDbSymbolTableRecord
100
AcDbRegAppTableRecord
  2
ACAD
 70
0
  0
ENDTAB
  0
TABLE
  2
BLOCK_RECORD
  5
1
100
AcDbSymbolTable
 70
0
  0
BLOCK_RECORD
  5
213
100
AcDbSymbolTableRecord
100
AcDbBlockTableRecord
  2
*Model_Space
  0
BLOCK_RECORD
  5
214
100
AcDbSymbolTableRecord
100
AcDbBlockTableRecord
  2
*Paper_Space
  0
BLOCK_RECORD
  5
215
100
AcDbSymbolTableRecord
100
AcDbBlockTableRecord
  2
_FILLED
  0
ENDTAB
  0
TABLE
  2
DIMSTYLE
  5
A
100
AcDbSymbolTable
 70
1
100
AcDbDimStyleTable
 71
0
  0
DIMSTYLE
105
216
100
AcDbSymbolTableRecord
100
AcDbDimStyleTableRecord
  2
STANDARD
 70
0
  3

  4

 40
1.0
 41
3.0
 42
0.5
 43
0.38
 44
1.5
 45
0.0
 46
0.0
 47
0.01
 48
0.01
140
3.0
141
0.09
142
0.0
143
25.4
144
1.0
145
0.0
146
1.0
147
0.625
 71
1
 72
0
 73
0
 74
0
 75
0
 76
0
 77
1
 78
8
 79
2
170
0
171
1
172
0
173
0
174
0
175
0
176
0
177
0
178
0
270
2
179
2
271
2
272
2
273
2
274
2
275
0
280
0
281
0
282
0
283
1
284
8
285
0
286
0
287
3
288
0
340
11
278
44
341
215
342
215
343
215
344
215
  0
ENDTAB
  0
ENDSEC
  0
SECTION
  2
BLOCKS
  0
BLOCK
  5
20
100
AcDbEntity
  8
0
100
AcDbBlockBegin
  2
*Model_Space
 70
0
 10
0.0
 20
0.0
 30
0.0
  3
*Model_Space
  1

  0
ENDBLK
  5
21
100
AcDbEntity
  8
0
100
AcDbBlockEnd
  0
BLOCK
  5
1C
100
AcDbEntity
  8
0
100
AcDbBlockBegin
  2
*Paper_Space
 70
0
 10
0.0
 20
0.0
 30
0.0
  3
*Paper_Space
  1

  0
ENDBLK
  5
1D
100
AcDbEntity
  8
0
100
AcDbBlockEnd
  0
BLOCK
  5
217
100
AcDbEntity
  8
0
100
AcDbBlockBegin
  2
_FILLED
 70
64
 10
0.0
 20
0.0
  3
_FILLED
  1

  0
SOLID
  5
218
100
AcDbEntity
  8
0
  6
BYBLOCK
 62
0
100
AcDbTrace
 10
0.0
 20
0.0
 11
-1.0
 21
0.3166666667
 12
-1.0
 22
-0.3166666667
 13
-1.0
 23
-0.3166666667
  0
ENDBLK
  5
219
100
AcDbEntity
  8
0
  6
BYBLOCK
 62
0
100
AcDbBlockEnd
  0
ENDSEC
  0
SECTION
  2
ENTITIES
  0
LWPOLYLINE
  5
21A
100
AcDbEntity
  8
IMPORT_IGES
100
AcDbPolyline
 62
7
  6
CONTINUOUS
 90
27
 70
0
 10
122.5450151985
 20
41.3295265814
 10
123.4108752038
 20
40.9485539533
 10
124.273479526
 20
40.5956803681
 10
125.1322590737
 20
40.2711000339
 10
125.9866260155
 20
39.9749964833
 10
126.8360412243
 20
39.7075188231
 10
127.6800156866
 20
39.4687884693
 10
128.5180455366
 20
39.258921911
 10
129.3495337873
 20
39.0780435474
 10
130.1738621492
 20
38.9262574916
 10
130.9904874708
 20
38.8036300206
 10
131.7988852738
 20
38.7102068788
 10
132.5984769971
 20
38.6460201536
 10
133.3886456847
 20
38.6110770697
 10
134.1689749494
 20
38.6053540589
 10
134.9391857883
 20
38.6288299673
 10
135.698844365
 20
38.6814868195
 10
136.4473541123
 20
38.7632788318
 10
137.1841861338
 20
38.8741377035
 10
137.9088723454
 20
39.0139833383
 10
138.6208773721
 20
39.1827023999
 10
139.3195813499
 20
39.3801263394
 10
140.0044204884
 20
39.6060583118
 10
140.6750087213
 20
39.8603318395
 10
141.3309986172
 20
40.1427895894
 10
141.9719068556
 20
40.4532037855
 10
142.3783631633
 20
40.6688445991
  0
LWPOLYLINE
  5
21B
100
AcDbEntity
  8
IMPORT_IGES
100
AcDbPolyline
 62
250
  6
CONTINUOUS
 90
121
 70
0
 10
122.3986949091
 20
41.5802523817
 10
123.2489135882
 20
41.2061292444
 10
124.0951506511
 20
40.8597453491
 10
124.9374060979
 20
40.5411006957
 10
125.7763077405
 20
40.2499947585
 10
126.6112277669
 20
39.9866280632
 10
127.4402827418
 20
39.751602187
 10
128.2634732918
 20
39.5449970978
 10
129.0807987902
 20
39.3667328276
 10
129.8903739217
 20
39.2171710504
 10
130.6918791617
 20
39.0963872524
 10
131.4856340349
 20
39.0043059474
 10
132.2707117997
 20
38.9410623509
 10
133.0474801461
 20
38.9066723839
 10
133.8155713842
 20
38.9011201253
 10
134.5729557025
 20
38.9244930274
 10
135.3194659693
 20
38.9768773259
 10
136.0552693164
 20
39.058186785
 10
136.7788373278
 20
39.1682501496
 10
137.4902411204
 20
39.3071742731
 10
138.1894095774
 20
39.4748523021
 10
138.8746009327
 20
39.6707924213
 10
139.5455538139
 20
39.8949760337
 10
140.2025295934
 20
40.1474217362
 10
140.8445706224
 20
40.4276935042
 10
141.471714214
 20
40.7358167165
 10
142.0839230551
 20
41.0717659943
 10
142.6801275579
 20
41.4350291761
 10
143.2604426487
 20
41.8257599043
 10
143.8247534013
 20
42.2438045365
 10
144.3716454497
 20
42.6881899847
 10
144.9010303349
 20
43.1589762675
 10
145.4129965158
 20
43.6561033664
 10
145.9063950035
 20
44.1784181381
 10
146.3811546905
 20
44.7259644224
 10
146.8373466843
 20
45.2986983796
 10
147.274035319
 20
45.8953353475
 10
147.6911005912
 20
46.5157571243
 10
148.0886625042
 20
47.1600819118
 10
148.4661454027
 20
47.8273796544
 10
148.8236295943
 20
48.5178818658
 10
149.1610347713
 20
49.2313570323
 10
149.4775443549
 20
49.9661805568
 10
149.7730864567
 20
50.7223892949
 10
150.0477329651
 20
51.499946391
 10
150.3008829663
 20
52.2971166817
 10
150.5324708258
 20
53.1138964468
 10
150.7425621781
 20
53.9502894064
 10
150.9307530137
 20
54.8045715578
 10
151.0969955307
 20
55.6766893906
 10
151.241337531
 20
56.5666964153
 10
151.3635184099
 20
57.47302916
 10
151.4635153377
 20
58.3958479
 10
151.5413511443
 20
59.3349923601
 10
151.5968337146
 20
60.288418243
 10
151.6299058955
 20
61.2561489903
 10
151.6406248401
 20
62.2381611604
 10
151.6289698929
 20
63.23234013
 10
151.5948905952
 20
64.2386858518
 10
151.5384374057
 20
65.2571983732
 10
151.4597410447
 20
66.2857632131
 10
151.3587589032
 20
67.3243792141
 10
151.2355335903
 20
68.3730475336
 10
151.0903236529
 20
69.4296571637
 10
150.9230828305
 20
70.4942418932
 10
150.7338573837
 20
71.5667679333
 10
150.5230446412
 20
72.6450229084
 10
150.2905894916
 20
73.7290504217
 10
150.0365470464
 20
74.8188068702
 10
149.7614799691
 20
75.9119490687
 10
149.4653840178
 20
77.0083579335
 10
149.1482634344
 20
78.1081525484
 10
148.8106936083
 20
79.2093469789
 10
148.4526165774
 20
80.312027992
 10
148.0740903038
 20
81.4161088207
 10
147.6758640634
 20
82.5193432303
 10
147.2578908275
 20
83.6217462656
 10
146.8202176247
 20
84.7233028818
 10
146.3637348168
 20
85.8217217095
 10
145.8883654819
 20
86.9170637649
 10
145.3941865419
 20
88.0092680319
 10
144.8823191251
 20
89.095860092
 10
144.3528313713
 20
90.1766234407
 10
143.8056551407
 20
91.2517745825
 10
143.2417071423
 20
92.3194886121
 10
142.6608589477
 20
93.3799400936
 10
142.0632389852
 20
94.4329544629
 10
141.4501492492
 20
95.4761831222
 10
140.8215567763
 20
96.5095873943
 10
140.1774945298
 20
97.5332059563
 10
139.519363394
 20
98.5448062421
 10
138.8470822658
 20
99.5444137447
 10
138.1607322483
 20
100.532002971
 10
137.4619575356
 20
101.5052648762
 10
136.750882852
 20
102.4639652604
 10
136.0273834732
 20
103.4083383233
 10
135.2927294202
 20
104.3367776201
 10
134.5469550685
 20
105.2492275145
 10
133.7900260427
 20
106.1457436427
 10
133.023109237
 20
107.0248864675
 10
132.2459316348
 20
107.8869046577
 10
131.4587662528
 20
108.7315495446
 10
130.6635990359
 20
109.5566355847
 10
129.8605294465
 20
110.3619759347
 10
129.0494580222
 20
111.1477574379
 10
128.2320723199
 20
111.9123550803
 10
127.4082136563
 20
112.6558292228
 10
126.5780407148
 20
113.3781195046
 10
125.7437171019
 20
114.0774198287
 10
124.9056671494
 20
114.7533515399
 10
124.0634665256
 20
115.4062932935
 10
123.2180058422
 20
116.0355749589
 10
122.3689583588
 20
116.6414254858
 10
121.5166508158
 20
117.2236159245
 10
120.6629540461
 20
117.7807892949
 10
119.8078808984
 20
118.3128721051
 10
118.9514185239
 20
118.819937847
 10
118.0953992103
 20
119.3008500167
 10
117.2404337199
 20
119.7552297795
 10
116.3859112903
 20
120.18345597
 10
115.5318319214
 20
120.5855285882
  0
LWPOLYLINE
  5
21C
100
AcDbEntity
  8
IMPORT_IGES
100
AcDbPolyline
 62
7
  6
CONTINUOUS
 90
11
 70
0
 10
114.8938340571
 20
47.4055578601
 10
114.077818464
 20
48.0122376985
 10
113.2658438505
 20
48.6410316171
 10
112.4580264169
 20
49.2919100058
 10
111.6542499628
 20
49.9649024746
 10
110.856082789
 20
50.6586680269
 10
110.0635521425
 20
51.3732220503
 10
109.2766307762
 20
52.1085491571
 10
108.4968052492
 20
52.8632621875
 10
107.7239893047
 20
53.6375037322
 10
106.9582691996
 20
54.4311312005
  0
LWPOLYLINE
  5
21D
100
AcDbEntity
  8
IMPORT_IGES
100
AcDbPolyline
 62
7
  6
CONTINUOUS
 90
10
 70
0
 10
87.621344699
 20
97.8636964343
 10
87.6451470935
 20
97.2423042798
 10
87.6776861771
 20
96.6167443196
 10
87.7189619497
 20
95.9870165538
 10
87.7689908052
 20
95.3529429331
 10
87.8277563497
 20
94.7147015067
 10
87.895209402
 20
94.0728264226
 10
87.9713335685
 20
93.4274957302
 10
88.0561452427
 20
92.77853138
 10
88.1496444249
 20
92.1259333721
  0
LWPOLYLINE
  5
21E
100
AcDbEntity
  8
IMPORT_IGES
100
AcDbPolyline
 62
7
  6
CONTINUOUS
 90
109
 70
0
 10
88.9920736594
 20
98.3847476049
 10
89.0029259297
 20
99.3085740926
 10
89.0353222578
 20
100.2180725735
 10
89.0892626437
 20
101.1132430476
 10
89.1648223848
 20
101.9947722009
 10
89.2619261836
 20
102.8619733474
 10
89.3803481481
 20
103.7127864287
 10
89.5201571855
 20
104.5471756399
 10
89.6812843886
 20
105.3651767859
 10
89.8632971437
 20
106.1648372228
 10
90.066134646
 20
106.9458225512
 10
90.2898577005
 20
107.7084671706
 10
90.534216108
 20
108.4518216349
 10
90.7993713848
 20
109.1762354393
 10
91.0851620146
 20
109.8813590887
 10
91.3908532501
 20
110.5651946509
 10
91.716451095
 20
111.2275398506
 10
92.0619495455
 20
111.8685969631
 10
92.426595843
 20
112.4869748823
 10
92.8105140484
 20
113.0827020971
 10
93.2135801008
 20
113.6557501186
 10
93.6346690589
 20
114.2046423731
 10
94.0736630434
 20
114.7291349982
 10
94.5306799336
 20
115.2294718562
 10
95.0049484268
 20
115.7049079606
 10
95.4965433242
 20
116.1554859187
 10
96.0053898246
 20
116.5811631231
 10
96.5304922213
 20
116.9810667647
 10
97.0719615106
 20
117.3551906363
 10
97.6296866963
 20
117.703540945
 10
98.202339083
 20
118.0252635036
 10
98.7899215917
 20
118.3202652337
 10
99.3924313015
 20
118.5886392136
 10
100.0085307545
 20
118.829810491
 10
100.6382141683
 20
119.0437117727
 10
101.2814873254
 20
119.2304103519
 10
101.9370301152
 20
119.3895331551
 10
102.6048753383
 20
119.5210327692
 10
103.2849901942
 20
119.6249566073
 10
103.9759561702
 20
119.7010738356
 10
104.6778160274
 20
119.7493286552
 10
105.3905270047
 20
119.769776865
 10
106.1125423072
 20
119.7623550271
 10
106.8438993223
 20
119.7269967157
 10
107.5845606626
 20
119.6637683566
 10
108.3328673712
 20
119.5728057902
 10
109.0888199346
 20
119.4540462346
 10
109.8524178664
 20
119.3075524716
 10
110.6220007503
 20
119.133648687
 10
111.3975501518
 20
118.9322880541
 10
112.1790845054
 20
118.7035173995
 10
112.9649986982
 20
118.4478013894
 10
113.755351653
 20
118.1650659912
 10
114.5500844471
 20
117.8553852374
 10
115.3474151988
 20
117.5194458918
 10
116.147334769
 20
117.1571921742
 10
116.949852297
 20
116.7686798647
 10
117.7532133193
 20
116.3547630685
 10
118.5574100164
 20
115.9153912101
 10
119.3624502078
 20
115.4506148649
 10
120.1666028897
 20
114.9614398639
 10
120.969865723
 20
114.4478147684
 10
121.7722410468
 20
113.9097910171
 10
122.5720048739
 20
113.3485287577
 10
123.3691676793
 20
112.7639641597
 10
124.1637189881
 20
112.1561610536
 10
124.953903388
 20
111.5264710779
 10
125.7396660723
 20
110.8748874689
 10
126.5210618476
 20
110.2014169903
 10
127.2964997214
 20
109.5074315718
 10
128.0660003788
 20
108.7928626372
 10
128.8295431346
 20
108.0577787628
 10
129.5854749409
 20
107.3037576073
 10
130.3337990073
 20
106.5307338051
 10
131.0745121243
 20
105.7387727219
 10
131.8059516145
 20
104.9296481133
 10
132.5280847485
 20
104.1033303103
 10
133.2409442557
 20
103.2598489819
 10
133.9429656477
 20
102.4010668906
 10
134.6341191949
 20
101.5269552469
 10
135.3144346268
 20
100.6375428404
 10
135.9824366438
 20
99.7347788022
 10
136.63808359
 20
98.8186565801
 10
137.2814171212
 20
97.8891827264
 10
137.911086905
 20
96.9483260293
 10
138.5270532962
 20
95.9960879472
 10
139.12935594
 20
95.0324670218
 10
139.7167634403
 20
94.0594276663
 10
140.2892742247
 20
93.0769043427
 10
140.8468898657
 20
92.0849625891
 10
141.388383684
 20
91.0857634332
 10
141.9137136105
 20
90.0793041187
 10
142.4229217143
 20
89.065587402
 10
142.9149075236
 20
88.0467825805
 10
143.3895994454
 20
87.0229776992
 10
143.8470690727
 20
85.9940847131
 10
144.2864307128
 20
84.9620087837
 10
144.7077527582
 20
83.926466966
 10
145.1109668164
 20
82.8877422051
 10
145.4949820174
 20
81.8485884969
 10
145.8596713499
 20
80.8091962281
 10
146.2051618251
 20
79.769375012
 10
146.5307436065
 20
78.7313076849
 10
146.8364162759
 20
77.6947995356
 10
147.1221802514
 20
76.6600452751
 10
147.3873269517
 20
75.6298118731
 10
147.6317003378
 20
74.6046389497
 10
147.8554564486
 20
73.5839868847
 10
148.0583548199
 20
72.5690037868
  0
LWPOLYLINE
  5
21F
100
AcDbEntity
  8
IMPORT_IGES
100
AcDbPolyline
 62
7
  6
CONTINUOUS
 90
10
 70
0
 10
88.2393614235
 20
106.0900624551
 10
88.0832285644
 20
105.2369555685
 10
87.9489253805
 20
104.3681306084
 10
87.8364518718
 20
103.483587575
 10
87.745759494
 20
102.5826802976
 10
87.6768967914
 20
101.6660549468
 10
87.6300093972
 20
100.735650034
 10
87.605145856
 20
99.7921117295
 10
87.6022576233
 20
98.8347938629
 10
87.621344699
 20
97.8636964343
  0
LWPOLYLINE
  5
220
100
AcDbEntity
  8
IMPORT_IGES
100
AcDbPolyline
 62
7
  6
CONTINUOUS
 90
7
 70
0
 10
88.016153373
 20
105.5161915725
 10
88.1755455171
 20
106.357117797
 10
88.3561555329
 20
107.1814386217
 10
88.5576161257
 20
107.9873700823
 10
88.7799741346
 20
108.77486075
 10
89.0231827206
 20
109.5439620536
 10
89.2867340712
 20
110.2930443158
  0
LWPOLYLINE
  5
221
100
AcDbEntity
  8
IMPORT_IGES
100
AcDbPolyline
 62
7
  6
CONTINUOUS
 90
10
 70
0
 10
89.6172137715
 20
110.7991150631
 10
89.4271895623
 20
110.3101458964
 10
89.2463623834
 20
109.8124912044
 10
89.0747322348
 20
109.3061509871
 10
88.9122519889
 20
108.7909641778
 10
88.7589687733
 20
108.2670918433
 10
88.6150239707
 20
107.7350171837
 10
88.4804647086
 20
107.1949012658
 10
88.3552438596
 20
106.646583023
 10
88.2393614235
 20
106.0900624551
  0
LWPOLYLINE
  5
222
100
AcDbEntity
  8
IMPORT_IGES
100
AcDbPolyline
 62
7
  6
CONTINUOUS
 90
19
 70
0
 10
89.2867340712
 20
110.2930443158
 10
89.570664329
 20
111.0220456734
 10
89.8749373514
 20
111.7310279897
 10
90.1989368996
 20
112.4185471768
 10
90.5427495146
 20
113.0846185631
 10
90.9062886553
 20
113.7292268204
 10
91.2886784589
 20
114.350881876
 10
91.6898884389
 20
114.9494234065
 10
92.1099490819
 20
115.5250117353
 10
92.5480759852
 20
116.0766377599
 10
93.0042725029
 20
116.6042643327
 10
93.4785352808
 20
117.1079286014
 10
93.970069855
 20
117.5867329068
 10
94.4790225732
 20
118.0407296309
 10
95.0052470875
 20
118.4698663918
 10
95.5475098906
 20
118.8730883843
 10
96.1057912322
 20
119.250281432
 10
96.6801108624
 20
119.6015597113
 10
97.2699368115
 20
119.9265460618
  0
LWPOLYLINE
  5
223
100
AcDbEntity
  8
IMPORT_IGES
100
AcDbPolyline
 62
7
  6
CONTINUOUS
 90
43
 70
0
 10
126.4170019798
 20
41.6030551622
 10
126.8038246361
 20
41.4923171249
 10
127.189810903
 20
41.3878340282
 10
127.5749607807
 20
41.2896058722
 10
127.9596681178
 20
41.1975077255
 10
128.3435390657
 20
41.1116645195
 10
128.7253920781
 20
41.0324510485
 10
129.1046546049
 20
40.9600211883
 10
129.4818991963
 20
40.8942210631
 10
129.8576619568
 20
40.8349638401
 10
130.2323413341
 20
40.7822281642
 10
130.6055388805
 20
40.7360353904
 10
130.9765953568
 20
40.696362751
 10
131.3452621399
 20
40.6631449602
 10
131.711787853
 20
40.6364473038
 10
132.0762591266
 20
40.6164428709
 10
132.4388493799
 20
40.6032691082
 10
132.7993851936
 20
40.5967885691
 10
133.157432941
 20
40.5967620035
 10
133.5127541731
 20
40.6030142355
 10
133.8655873389
 20
40.6157204409
 10
134.2162141573
 20
40.635166897
 10
134.5649356283
 20
40.6615556262
 10
134.911450752
 20
40.694684606
 10
135.255138248
 20
40.7342340456
 10
135.5957617068
 20
40.7800138884
 10
135.9335575377
 20
40.832214191
 10
136.2686136893
 20
40.8910853318
 10
136.6010326844
 20
40.9567874249
 10
136.930712
 20
41.0291603562
 10
137.2574320154
 20
41.1079741621
 10
137.5812148239
 20
41.193147115
 10
137.9020383321
 20
41.2847609425
 10
138.2196166396
 20
41.382830864
 10
138.533852405
 20
41.4873589552
 10
138.8448429698
 20
41.5983431405
 10
139.1525944569
 20
41.7157924118
 10
139.4571667175
 20
41.8397892597
 10
139.7584999006
 20
41.9702511937
 10
140.0564205756
 20
42.1069397344
 10
140.3508709325
 20
42.2497753888
 10
140.6419087812
 20
42.3988376498
 10
140.9295341219
 20
42.5541265176
  0
LINE
  5
224
100
AcDbEntity
  8
IMPORT_IGES
100
AcDbLine
 62
7
  6
CONTINUOUS
 10
126.2172373924
 20
41.6627440379
 11
126.4170019798
 21
41.6030551622
  0
LINE
  5
225
100
AcDbEntity
  8
IMPORT_IGES
100
AcDbLine
 62
7
  6
CONTINUOUS
 10
126.0171644489
 20
41.7241244324
 11
126.2172373924
 21
41.6627440379
  0
LINE
  5
226
100
AcDbEntity
  8
IMPORT_IGES
100
AcDbLine
 62
7
  6
CONTINUOUS
 10
126.3452332061
 20
41.5018282286
 11
125.5415662772
 21
41.754372132
  0
LINE
  5
227
100
AcDbEntity
  8
IMPORT_IGES
100
AcDbLine
 62
7
  6
CONTINUOUS
 10
125.816786393
 20
41.7871953309
 11
126.0171644489
 21
41.7241244324
  0
LWPOLYLINE
  5
228
100
AcDbEntity
  8
IMPORT_IGES
100
AcDbPolyline
 62
7
  6
CONTINUOUS
 90
3
 70
0
 10
125.5156707422
 20
41.8849640179
 10
125.6161162006
 20
41.851952675
 10
125.816786393
 20
41.7871953309
  0
LWPOLYLINE
  5
229
100
AcDbEntity
  8
IMPORT_IGES
100
AcDbPolyline
 62
7
  6
CONTINUOUS
 90
9
 70
0
 10
125.5415662772
 20
41.754372132
 10
124.7326930801
 20
42.0347150682
 10
123.9210664251
 20
42.3413097908
 10
123.106686312
 20
42.6741562998
 10
122.2890106192
 20
43.0335070197
 10
121.4685814684
 20
43.419109526
 10
120.647025225
 20
43.8302065449
 10
119.8243394855
 20
44.266850724
 10
119.0005266535
 20
44.7289894156
  0
LWPOLYLINE
  5
22A
100
AcDbEntity
  8
IMPORT_IGES
100
AcDbPolyline
 62
7
  6
CONTINUOUS
 90
10
 70
0
 10
118.4290382845
 20
45.1823151257
 10
119.2226585365
 20
44.7201567222
 10
120.0151047934
 20
44.2817679449
 10
120.8063770553
 20
43.867148794
 10
121.5969822105
 20
43.4760634185
 10
122.3864133706
 20
43.1087476693
 10
123.1731498703
 20
42.7659090994
 10
123.9566848213
 20
42.4477835596
 10
124.7375251119
 20
42.1541351991
 10
125.5156707422
 20
41.8849640179
  0
LWPOLYLINE
  5
22B
100
AcDbEntity
  8
IMPORT_IGES
100
AcDbPolyline
 62
7
  6
CONTINUOUS
 90
6
 70
0
 10
119.0005266535
 20
44.7289894156
 10
118.1772203041
 20
45.2157074035
 10
117.3544257643
 20
45.7270447454
 10
116.5321377073
 20
46.2629613836
 10
115.7119737278
 20
46.8224219288
 10
114.8938340571
 20
47.4055578601
  0
LWPOLYLINE
  5
22C
100
AcDbEntity
  8
IMPORT_IGES
100
AcDbPolyline
 62
7
  6
CONTINUOUS
 90
10
 70
0
 10
114.2768049993
 20
47.9808607562
 10
114.7355978276
 20
47.6401404806
 10
115.1951072557
 20
47.3068123507
 10
115.6553332837
 20
46.9808763666
 10
116.1163759028
 20
46.6622651356
 10
116.5781351217
 20
46.3510460504
 10
117.0403109668
 20
46.0474212891
 10
117.5028034466
 20
45.7514582442
 10
117.9657125525
 20
45.463089523
 10
118.4290382845
 20
45.1823151257
  0
LWPOLYLINE
  5
22D
100
AcDbEntity
  8
IMPORT_IGES
100
AcDbPolyline
 62
7
  6
CONTINUOUS
 90
13
 70
0
 10
106.5771915761
 20
54.9633183812
 10
107.1951236983
 20
54.3088455865
 10
107.817843151
 20
53.6671300618
 10
108.4453499341
 20
53.0381718071
 10
109.0779346974
 20
52.4216954381
 10
109.7153067912
 20
51.8179763392
 10
110.3565942663
 20
51.2278406635
 10
111.0018025186
 20
50.6513071302
 10
111.6509261524
 20
50.0883570202
 10
112.3030770309
 20
49.5397603282
 10
112.9579591089
 20
49.0057737194
 10
113.6158684317
 20
48.4861405288
 10
114.2768049993
 20
47.9808607562
  0
LWPOLYLINE
  5
22E
100
AcDbEntity
  8
IMPORT_IGES
100
AcDbPolyline
 62
7
  6
CONTINUOUS
 90
6
 70
0
 10
106.9582691996
 20
54.4311312005
 10
106.2013902629
 20
55.2423296605
 10
105.4534958434
 20
56.0709964706
 10
104.7144425925
 20
56.9172342723
 10
103.9855457937
 20
57.7795360581
 10
103.2667344983
 20
58.6580350278
  0
LINE
  5
22F
100
AcDbEntity
  8
IMPORT_IGES
100
AcDbLine
 62
7
  6
CONTINUOUS
 10
103.2667344983
 20
58.6580350278
 11
102.558079655
 21
59.5525979815
  0
LWPOLYLINE
  5
230
100
AcDbEntity
  8
IMPORT_IGES
100
AcDbPolyline
 62
7
  6
CONTINUOUS
 90
10
 70
0
 10
102.6488642068
 20
59.572784018
 10
103.0710155093
 20
59.0377418053
 10
103.4968287677
 20
58.508326059
 10
103.9263039821
 20
57.9845367789
 10
104.3595472546
 20
57.4662494654
 10
104.7964524831
 20
56.9535886182
 10
105.2367013602
 20
56.4469277363
 10
105.6801877836
 20
55.9463913194
 10
106.1270178555
 20
55.4518548677
 10
106.5771915761
 20
54.9633183812
  0
LWPOLYLINE
  5
231
100
AcDbEntity
  8
IMPORT_IGES
100
AcDbPolyline
 62
7
  6
CONTINUOUS
 90
20
 70
0
 10
102.558079655
 20
59.5525979815
 10
101.8611093939
 20
60.4613183127
 10
101.1758773028
 20
61.3841894358
 10
100.5023297938
 20
62.3212179363
 10
99.841834233
 20
63.270516964
 10
99.1943562896
 20
64.232216461
 10
98.5599302944
 20
65.2061864852
 10
97.9400266067
 20
66.1901503602
 10
97.3347752607
 20
67.1839721083
 10
96.7440462222
 20
68.1877877072
 10
96.1689197467
 20
69.1997284137
 10
95.6094025628
 20
70.2198333932
 10
95.065487942
 20
71.2480634802
 10
94.5382359535
 20
72.2824324349
 10
94.0276414015
 20
73.32303092
 10
93.5337094817
 20
74.3697682728
 10
93.0575158516
 20
75.4203862653
 10
92.5991274417
 20
76.4748261846
 10
92.1584773214
 20
77.5331467436
 10
91.7364403565
 20
78.5932658535
  0
LWPOLYLINE
  5
232
100
AcDbEntity
  8
IMPORT_IGES
100
AcDbPolyline
 62
7
  6
CONTINUOUS
 90
22
 70
0
 10
91.5113029851
 20
79.4195612024
 10
91.8952173787
 20
78.4205962422
 10
92.2949423711
 20
77.424157186
 10
92.7104779626
 20
76.4302440338
 10
93.1419351935
 20
75.4382044449
 10
93.5892030235
 20
74.4486907599
 10
94.0519483308
 20
73.4636600011
 10
94.5304449775
 20
72.4831321174
 10
95.0244191016
 20
71.5070871597
 10
95.5327159962
 20
70.5374223031
 10
96.0552961906
 20
69.5741389824
 10
96.5921991555
 20
68.6172357627
 10
97.1423885953
 20
67.6686055139
 10
97.7058358144
 20
66.7282302973
 10
98.2825695085
 20
65.7961280515
 10
98.8716394686
 20
64.8742454632
 10
99.4732606692
 20
63.9628118757
 10
100.087218136
 20
63.0615979456
 10
100.7119167363
 20
62.1718623291
 10
101.3468247595
 20
61.2940245784
 10
101.9924739163
 20
60.4276651414
 10
102.6488642068
 20
59.572784018
  0
LWPOLYLINE
  5
233
100
AcDbEntity
  8
IMPORT_IGES
100
AcDbPolyline
 62
7
  6
CONTINUOUS
 90
13
 70
0
 10
91.7364403565
 20
78.5932658535
 10
91.3330137911
 20
79.6553101579
 10
90.948200381
 20
80.7191530132
 10
90.5828832591
 20
81.7823324005
 10
90.2371542671
 20
82.8447071905
 10
89.9109215632
 20
83.9064185124
 10
89.6047927549
 20
84.9654277348
 10
89.3188012807
 20
86.021715034
 10
89.052913702
 20
87.0753002336
 10
88.8076373108
 20
88.1242041727
 10
88.582985878
 20
89.1685495448
 10
88.3789456327
 20
90.2082136563
 10
88.1959825539
 20
91.2408492662
  0
LWPOLYLINE
  5
234
100
AcDbEntity
  8
IMPORT_IGES
100
AcDbPolyline
 62
7
  6
CONTINUOUS
 90
13
 70
0
 10
88.1496444249
 20
92.1259333721
 10
88.3151372733
 20
91.0908802126
 10
88.5017792134
 20
90.0502822331
 10
88.7095702453
 20
89.0041394337
 10
88.9386855236
 20
87.951710759
 10
89.1889498937
 20
86.8937372643
 10
89.4598378913
 20
85.8324421162
 10
89.7513931816
 20
84.7678182825
 10
90.0635720993
 20
83.6998727954
 10
90.3957181845
 20
82.6308499175
 10
90.7476126172
 20
81.5614977365
 10
91.1194742174
 20
80.4910681648
 10
91.5113029851
 20
79.4195612024
  0
LWPOLYLINE
  5
235
100
AcDbEntity
  8
IMPORT_IGES
100
AcDbPolyline
 62
7
  6
CONTINUOUS
 90
16
 70
0
 10
88.1959825539
 20
91.2408492662
 10
88.034161888
 20
92.2663340092
 10
87.8934183887
 20
93.2847902506
 10
87.7740222955
 20
94.2942378446
 10
87.6760084407
 20
95.2946698067
 10
87.599341992
 20
96.2860931214
 10
87.544188692
 20
97.2665485964
 10
87.5105936042
 20
98.2361044255
 10
87.4985116651
 20
99.194692415
 10
87.5079734265
 20
100.1401487909
 10
87.5390286814
 20
101.0723672597
 10
87.5916276368
 20
101.9914541149
 10
87.6656514663
 20
102.8955644632
 10
87.7611295619
 20
103.7846263043
 10
87.8780325316
 20
104.6587116383
 10
88.016153373
 20
105.5161915725
  0
LWPOLYLINE
  5
236
100
AcDbEntity
  8
IMPORT_IGES
100
AcDbPolyline
 62
7
  6
CONTINUOUS
 90
73
 70
0
 10
108.1467450876
 20
92.80024693
 10
108.1546266278
 20
92.2249317608
 10
108.1781070761
 20
91.6422313142
 10
108.2171864326
 20
91.0521455902
 10
108.2719411929
 20
90.4540067309
 10
108.3422948614
 20
89.8484825942
 10
108.4280179513
 20
89.237576754
 10
108.5291786881
 20
88.6212542709
 10
108.6457088463
 20
87.9995500843
 10
108.7771742631
 20
87.3745725862
 10
108.9235160496
 20
86.7466617333
 10
109.0847930947
 20
86.1154775688
 10
109.2607479019
 20
85.4821086147
 10
109.4515407241
 20
84.8461020331
 10
109.6570113084
 20
84.2079106619
 10
109.8764213999
 20
83.5699815362
 10
110.1097756484
 20
82.9324867006
 10
110.357069404
 20
82.2952541105
 10
110.6175504627
 20
81.660214668
 10
110.8913427414
 20
81.0272257144
 10
111.1783223233
 20
80.3964299083
 10
111.4773652538
 20
79.7701861278
 10
111.7883268801
 20
79.1488649969
 10
112.111351855
 20
78.5320958916
 10
112.4457501829
 20
77.9211258188
 10
112.7916272178
 20
77.3157878672
 10
113.1488776057
 20
76.7162489482
 10
113.5164952885
 20
76.1242568016
 10
113.8945829644
 20
75.5397345649
 10
114.2830379352
 20
74.9627591007
 10
114.6805460488
 20
74.3953087369
 10
115.0871105983
 20
73.8374699074
 10
115.5027282907
 20
73.2891561782
 10
115.9260750951
 20
72.7520865754
 10
116.357120196
 20
72.2263591198
 10
116.7958944088
 20
71.7118757906
 10
117.2411661487
 20
71.2100615506
 10
117.6928593667
 20
70.7210203847
 10
118.1510501119
 20
70.244648308
 10
118.6147349459
 20
69.7820583289
 10
119.0842054052
 20
69.3330303936
 10
119.5591699535
 20
68.8977845559
 10
120.0377505426
 20
68.4780939858
 10
120.5198180385
 20
68.0741630096
 10
121.0055015752
 20
67.685787301
 10
121.4933105075
 20
67.3141270513
 10
121.9832494005
 20
66.9592366499
 10
122.475313689
 20
66.6210617074
 10
122.9679990324
 20
66.3005992459
 10
123.4612915261
 20
65.9979119128
 10
123.9552050748
 20
65.7129370608
 10
124.4482770514
 20
65.4464837693
 10
124.9404900007
 20
65.1986086837
 10
125.4318613779
 20
64.9692551586
 10
125.920980922
 20
64.7590623384
 10
126.4078421725
 20
64.5680775352
 10
126.8924515898
 20
64.3962534368
 10
127.3734182934
 20
64.2440872509
 10
127.8508756276
 20
64.1116196907
 10
128.3246902481
 20
63.998810043
 10
128.7930712416
 20
63.9060333754
 10
129.2557456824
 20
63.8333937213
 10
129.7129864962
 20
63.7807870473
 10
130.1638215476
 20
63.748276322
 10
130.6083351011
 20
63.7358734092
 10
131.0464428923
 20
63.743566445
 10
131.4769199919
 20
63.7713828063
 10
131.8997941771
 20
63.8193804356
 10
132.3150376707
 20
63.8875013904
 10
132.7213422114
 20
63.9755992202
 10
133.1187083519
 20
64.083758683
 10
133.5071355394
 20
64.2118950208
 10
133.8853138548
 20
64.3596075099
  0
LWPOLYLINE
  5
237
100
AcDbEntity
  8
IMPORT_IGES
100
AcDbPolyline
 62
7
  6
CONTINUOUS
 90
26
 70
0
 10
107.2481876836
 20
92.2992323517
 10
107.2562827454
 20
92.8729350453
 10
107.2804770733
 20
93.4354689138
 10
107.3206330441
 20
93.9863258662
 10
107.3766152175
 20
94.5248242425
 10
107.4482243966
 20
95.0506950149
 10
107.5352617933
 20
95.5640348316
 10
107.6375851996
 20
96.0644835374
 10
107.7550480163
 20
96.5514546936
 10
107.887498441
 20
97.0246711438
 10
108.0346668131
 20
97.4834494853
 10
108.1964600345
 20
97.9276111209
 10
108.3730715638
 20
98.3575622644
 10
108.5645501104
 20
98.7732130624
 10
108.7706041944
 20
99.1736675198
 10
108.9909294986
 20
99.5581112615
 10
109.2252793121
 20
99.9260915089
 10
109.4734373035
 20
100.2773020522
 10
109.7350571103
 20
100.611248945
 10
110.0099378329
 20
100.9276882762
 10
110.2977088312
 20
101.2262448342
 10
110.5976926129
 20
101.5063332703
 10
110.90925471
 20
101.7675247745
 10
111.2322874697
 20
102.009895381
 10
111.5669131547
 20
102.2336035328
 10
111.9444559286
 20
102.4558906676
  0
LWPOLYLINE
  5
238
100
AcDbEntity
  8
IMPORT_IGES
100
AcDbPolyline
 62
7
  6
CONTINUOUS
 90
3
 70
0
 10
97.8581603857
 20
120.196272861
 10
97.305304345
 20
119.8421847427
 10
96.8646022359
 20
119.5315903961
  0
LWPOLYLINE
  5
239
100
AcDbEntity
  8
IMPORT_IGES
100
AcDbPolyline
 62
7
  6
CONTINUOUS
 90
19
 70
0
 10
96.6228039448
 20
119.3942917411
 10
96.1189433501
 20
119.0787770624
 10
95.6274845951
 20
118.743805703
 10
95.1484276797
 20
118.3893776626
 10
94.6813231496
 20
118.0155968433
 10
94.2266204592
 20
117.6223593432
 10
93.7856679712
 20
117.2093534561
 10
93.3587800939
 20
116.7760974511
 10
92.945642419
 20
116.323073059
 10
92.5466600845
 20
115.8514137672
 10
92.1616540202
 20
115.3613527081
 10
91.7908032963
 20
114.8526567492
 10
91.4350502615
 20
114.3257599797
 10
91.0947925298
 20
113.7802113721
 10
90.7696324872
 20
113.2164619539
 10
90.4593196394
 20
112.6362988968
 10
90.1637704885
 20
112.0403179245
 10
89.8830685326
 20
111.4279233133
 10
89.6172137715
 20
110.7991150631
  0
LWPOLYLINE
  5
23A
100
AcDbEntity
  8
IMPORT_IGES
100
AcDbPolyline
 62
7
  6
CONTINUOUS
 90
95
 70
0
 10
95.6709592132
 20
121.5655561261
 10
95.4307280173
 20
121.4170027911
 10
94.8373522588
 20
121.023980215
 10
94.2606411759
 20
120.6039274898
 10
93.7008813939
 20
120.1570360122
 10
93.1585229798
 20
119.6836385968
 10
92.6339256717
 20
119.1840232104
 10
92.1272515523
 20
118.6582852013
 10
91.6387653323
 20
118.1065911479
 10
91.1689835921
 20
117.5294128619
 10
90.718424548
 20
116.9273162128
 10
90.2874486301
 20
116.3007415624
 10
89.8763328305
 20
115.65004815
 10
89.4854178121
 20
114.9757319006
 10
89.1150038002
 20
114.278279966
 10
88.7653254843
 20
113.5581004397
 10
88.4366013062
 20
112.815590135
 10
88.1290638907
 20
112.0512040164
 10
87.842946624
 20
111.2654442952
 10
87.5784559066
 20
110.4587911257
 10
87.3357533622
 20
109.6316155252
 10
87.1150720817
 20
108.784575216
 10
86.9166756883
 20
107.9186288699
 10
86.7407082285
 20
107.0344422369
 10
86.587262845
 20
106.1325196554
 10
86.4564619498
 20
105.2136361835
 10
86.3483881928
 20
104.2785060516
 10
86.2630865123
 20
103.3276711534
 10
86.2005963752
 20
102.3616731042
 10
86.160952139
 20
101.3810490397
 10
86.144185239
 20
100.386564399
 10
86.1503002166
 20
99.3791276014
 10
86.1792731027
 20
98.3594722785
 10
86.2310669882
 20
97.3282463089
 10
86.3056218254
 20
96.2862587909
 10
86.4028601126
 20
95.2342675233
 10
86.5226971587
 20
94.172946738
 10
86.6650345676
 20
93.1029962476
 10
86.8297478317
 20
92.0252046773
 10
87.0167146747
 20
90.9402487745
 10
87.2258317068
 20
89.8486667217
 10
87.4569830052
 20
88.7510616737
 10
87.7099831482
 20
87.6483147782
 10
87.9846019398
 20
86.541389256
 10
88.2806156909
 20
85.4311188778
 10
88.5978273744
 20
84.3181814627
 10
88.936013887
 20
83.20331398
 10
89.2949267158
 20
82.0872943841
 10
89.6743155708
 20
80.9708633656
 10
90.0739391921
 20
79.8547042275
 10
90.4935258668
 20
78.7395588689
 10
90.9327777497
 20
77.6262037377
 10
91.3913995394
 20
76.5153741796
 10
91.8690833672
 20
75.4078070085
 10
92.3654923026
 20
74.3042757875
 10
92.8802674897
 20
73.205568258
 10
93.4130438345
 20
72.1124514367
 10
93.9634629304
 20
71.0256496237
 10
94.5311570734
 20
69.9458811734
 10
95.1157391563
 20
68.8738770312
 10
95.7168063823
 20
67.8103713232
 10
96.3339520694
 20
66.7560800813
 10
96.966749375
 20
65.7117296689
 10
97.6147710245
 20
64.6780231039
 10
98.2775960189
 20
63.655632529
 10
98.9547755403
 20
62.6452531347
 10
99.6458478408
 20
61.6475772888
 10
100.3503608843
 20
60.6632625731
 10
101.067845786
 20
59.6929712884
 10
101.7978086315
 20
58.7373790138
 10
102.5397479757
 20
57.7971492692
 10
103.2931722053
 20
56.8729127933
 10
104.0575608787
 20
55.9653162084
 10
104.832356631
 20
55.0750270215
 10
105.6169931232
 20
54.2026976782
 10
106.4109784772
 20
53.3488772784
 10
107.2138597212
 20
52.5140624537
 10
108.0251239931
 20
51.6988023785
 10
108.8441978679
 20
50.9036896699
 10
109.6705335152
 20
50.1292717327
 10
110.5036218652
 20
49.3760442497
 10
111.3428563707
 20
48.6445747344
 10
112.1875354568
 20
47.9354854553
 10
113.0370217174
 20
47.249313164
 10
113.8908090576
 20
46.5864690211
 10
114.7483892665
 20
45.9473569199
 10
115.6091757751
 20
45.3324266517
 10
116.4726016012
 20
44.7420966447
 10
117.338189817
 20
44.1767122841
 10
118.2053902924
 20
43.6366589908
 10
119.0735936251
 20
43.1223431942
 10
119.942236654
 20
42.6341257851
 10
120.8107452746
 20
42.1723587706
 10
121.6785320836
 20
41.7373848038
 10
122.5450151985
 20
41.3295265814
  0
LINE
  5
23B
100
AcDbEntity
  8
IMPORT_IGES
100
AcDbLine
 62
7
  6
CONTINUOUS
 10
95.6701062888
 20
121.565280833
 11
165.1542430837
 21
163.6900656375
  0
LINE
  5
23C
100
AcDbEntity
  8
IMPORT_IGES
100
AcDbLine
 62
250
  6
CONTINUOUS
 10
95.6708542136
 20
121.565734234
 11
95.6701063982
 21
121.5652808994
  0
LWPOLYLINE
  5
23D
100
AcDbEntity
  8
IMPORT_IGES
100
AcDbPolyline
 62
7
  6
CONTINUOUS
 90
92
 70
0
 10
165.1540667343
 20
163.689958724
 10
165.453155622
 20
163.8669130411
 10
166.0958922992
 20
164.2186661024
 10
166.7552324267
 20
164.5416372399
 10
167.4296007709
 20
164.8351096935
 10
168.1189459412
 20
165.0989740225
 10
168.8233193282
 20
165.3333396677
 10
169.5412998689
 20
165.5378181912
 10
170.2727864817
 20
165.7123566816
 10
171.0178802484
 20
165.8570080504
 10
171.7754633517
 20
165.9715425947
 10
172.5457582411
 20
166.0559425965
 10
173.3285424672
 20
166.1102257737
 10
174.1220308645
 20
166.1342155771
 10
174.9262135544
 20
166.1278277999
 10
175.7411004155
 20
166.0911466489
 10
176.5649359181
 20
166.0242481948
 10
177.3977178514
 20
165.9270652245
 10
178.2394484261
 20
165.7996649511
 10
179.0883787446
 20
165.6423250853
 10
179.9444113965
 20
165.4550261081
 10
180.807643792
 20
165.2377875386
 10
181.6766192644
 20
164.9909456442
 10
182.5515587297
 20
164.7143768738
 10
183.4322412717
 20
164.4082047786
 10
184.3165474756
 20
164.0731362797
 10
185.2043936478
 20
163.7091261612
 10
186.0958634817
 20
163.316219639
 10
186.9890886433
 20
162.8952592823
 10
187.8840610888
 20
162.4461909363
 10
188.7807888619
 20
161.9690687557
 10
189.6774277593
 20
161.4648977742
 10
190.5739565792
 20
160.9336380903
 10
191.4703965235
 20
160.3753296054
 10
192.3649669946
 20
159.7910970574
 10
193.2576651563
 20
159.1808936185
 10
194.1484938447
 20
158.5447661164
 10
195.0356809709
 20
157.8839797722
 10
195.9193194758
 20
157.1983955256
 10
196.7993164184
 20
156.4881524369
 10
197.6736208866
 20
155.7549329079
 10
198.542040281
 20
154.9988474298
 10
199.4047672009
 20
154.2197855113
 10
200.2603285321
 20
153.4190980809
 10
201.1088191186
 20
152.5966538876
 10
201.9501441162
 20
151.7525841823
 10
202.782545879
 20
150.8886336461
 10
203.6059962296
 20
150.0047702622
 10
204.4205233453
 20
149.1010260474
 10
205.2244541119
 20
148.1792417327
 10
206.0178116733
 20
147.2393173718
 10
206.8005728857
 20
146.2813529111
 10
207.5709952034
 20
145.3074889205
 10
208.3289287397
 20
144.3178621497
 10
209.0745233814
 20
143.312335849
 10
209.8064862434
 20
142.2926403394
 10
210.5248825679
 20
141.2586348418
 10
211.2296471127
 20
140.2104601352
 10
211.9192912663
 20
139.1502688773
 10
212.593820448
 20
138.0779628188
 10
213.2532292385
 20
136.9936402089
 10
213.8960127687
 20
135.8997484532
 10
214.5221330024
 20
134.7962379805
 10
215.1316279757
 20
133.683158362
 10
215.7231069283
 20
132.5631057166
 10
216.296445601
 20
131.4362247559
 10
216.8517682528
 20
130.3023707682
 10
217.3880569003
 20
129.1637057377
 10
217.9052231934
 20
128.0203962584
 10
218.4033554822
 20
126.8722757364
 10
218.881700833
 20
125.7210063736
 10
219.3403974374
 20
124.5661499308
 10
219.7793071039
 20
123.4081446474
 10
220.1972623237
 20
122.2499674439
 10
220.5941254035
 20
121.0918283825
 10
220.9700340366
 20
119.933517401
 10
221.3242337947
 20
118.7773812335
 10
221.656724554
 20
117.6231979888
 10
221.9675064383
 20
116.4711895581
 10
222.2558253899
 20
115.3243683492
 10
222.5215089504
 20
114.1833420342
 10
222.7647295781
 20
113.0475029409
 10
222.9852505904
 20
111.9180404603
 10
223.1831437644
 20
110.794535819
 10
223.3583373228
 20
109.6774077903
 10
223.5103792511
 20
108.5691020845
 10
223.6392118047
 20
107.4696448204
 10
223.7448927282
 20
106.3790098792
 10
223.8271432405
 20
105.2995646152
 10
223.8858704148
 20
104.2320981466
 10
223.9211671781
 20
103.1758213553
 10
223.9330335303
 20
102.1307342412
  0
LINE
  5
23E
100
AcDbEntity
  8
IMPORT_IGES
100
AcDbLine
 62
7
  6
CONTINUOUS
 10
98.0084368989
 20
120.2833939125
 11
97.8581603857
 21
120.196272861
  0
LINE
  5
23F
100
AcDbEntity
  8
IMPORT_IGES
100
AcDbLine
 62
7
  6
CONTINUOUS
 10
114.7243766154
 20
85.7142692968
 11
114.855086614
 21
85.3986146839
  0
LINE
  5
240
100
AcDbEntity
  8
IMPORT_IGES
100
AcDbLine
 62
7
  6
CONTINUOUS
 10
114.6318960518
 20
85.9419757306
 11
114.7243766154
 21
85.7142692968
  0
LINE
  5
241
100
AcDbEntity
  8
IMPORT_IGES
100
AcDbLine
 62
250
  6
CONTINUOUS
 10
112.7947959825
 20
82.9881821002
 11
112.4823457827
 21
83.7994202986
  0
LINE
  5
242
100
AcDbEntity
  8
IMPORT_IGES
100
AcDbLine
 62
7
  6
CONTINUOUS
 10
113.6534747208
 20
85.5923627264
 11
113.5953787671
 21
85.7442405924
  0
LWPOLYLINE
  5
243
100
AcDbEntity
  8
IMPORT_IGES
100
AcDbPolyline
 62
7
  6
CONTINUOUS
 90
13
 70
0
 10
113.5960621215
 20
85.7448069974
 10
113.4650274638
 20
86.0917279544
 10
113.3369826457
 20
86.4364489427
 10
113.2119034352
 20
86.7788905751
 10
113.0894637946
 20
87.1188415256
 10
112.9699380686
 20
87.4563609359
 10
112.8541971457
 20
87.7917794245
 10
112.7422447302
 20
88.1250558143
 10
112.6340103427
 20
88.4560949131
 10
112.5302443945
 20
88.7851517646
 10
112.4311681341
 20
89.1122718321
 10
112.3364780926
 20
89.4372898335
 10
112.2461321246
 20
89.7601493303
  0
LWPOLYLINE
  5
244
100
AcDbEntity
  8
IMPORT_IGES
100
AcDbPolyline
 62
7
  6
CONTINUOUS
 90
3
 70
0
 10
113.7251044875
 20
85.4016096864
 10
113.7108649528
 20
85.439844809
 10
113.6534747208
 20
85.5923627264
  0
LWPOLYLINE
  5
245
100
AcDbEntity
  8
IMPORT_IGES
100
AcDbPolyline
 62
250
  6
CONTINUOUS
 90
12
 70
0
 10
112.4863009623
 20
83.800489941
 10
112.244798581
 20
84.4534001023
 10
112.1311132499
 20
84.7671013633
 10
112.0221304375
 20
85.0724014367
 10
111.9178498661
 20
85.3696080009
 10
111.8182911816
 20
85.6593187033
 10
111.7233557494
 20
85.9419152833
 10
111.6330396632
 20
86.2172708558
 10
111.5474785939
 20
86.4852106527
 10
111.4666475894
 20
86.7457323617
 10
111.3903732092
 20
86.9990018354
 10
111.3185431467
 20
87.2450768956
  0
LWPOLYLINE
  5
246
100
AcDbEntity
  8
IMPORT_IGES
100
AcDbPolyline
 62
250
  6
CONTINUOUS
 90
13
 70
0
 10
110.8470907682
 20
87.0305531186
 10
110.9202972318
 20
86.7778353439
 10
110.9976671946
 20
86.5186325126
 10
111.0792744346
 20
86.2528789231
 10
111.1651015507
 20
85.98028676
 10
111.2552786994
 20
85.7009665932
 10
111.3500617846
 20
85.4154340942
 10
111.4493363897
 20
85.1236318619
 10
111.5531863536
 20
84.8253600069
 10
111.6620992377
 20
84.5209198209
 10
111.7761647352
 20
84.2103136923
 10
111.8950945329
 20
83.8932248606
 10
112.3255469898
 20
82.7747868334
  0
LINE
  5
247
100
AcDbEntity
  8
IMPORT_IGES
100
AcDbLine
 62
7
  6
CONTINUOUS
 10
112.8213996192
 20
91.514592083
 11
112.8843303284
 21
91.2607623097
  0
LINE
  5
248
100
AcDbEntity
  8
IMPORT_IGES
100
AcDbLine
 62
7
  6
CONTINUOUS
 10
112.7627758429
 20
91.7583117784
 11
112.8213996192
 21
91.514592083
  0
LWPOLYLINE
  5
249
100
AcDbEntity
  8
IMPORT_IGES
100
AcDbPolyline
 62
7
  6
CONTINUOUS
 90
22
 70
0
 10
114.7721529535
 20
99.5899588913
 10
114.7801305795
 20
98.9658562389
 10
114.8038777376
 20
98.3342653411
 10
114.8433944277
 20
97.6951861979
 10
114.8987426271
 20
97.0480471676
 10
114.9698603585
 20
96.393419892
 10
115.0565616903
 20
95.7330192959
 10
115.1588875537
 20
95.0668302006
 10
115.2767970175
 20
94.3948677848
 10
115.4099813553
 20
93.7188925098
 10
115.558480687
 20
93.0388938308
 10
115.7222548928
 20
92.3548822926
 10
115.9008748878
 20
91.668649991
 10
116.0943796621
 20
90.9801910986
 10
116.3027302256
 20
90.2895114428
 10
116.525380523
 20
89.5984206013
 10
116.7623681063
 20
88.9069175104
 10
117.0136554236
 20
88.2150032337
 10
117.2785837641
 20
87.5244905403
 10
117.5569335574
 20
86.8359836863
 10
117.848924374
 20
86.1488784156
 10
118.1545562138
 20
85.4631747281
  0
LWPOLYLINE
  5
24A
100
AcDbEntity
  8
IMPORT_IGES
100
AcDbPolyline
 62
7
  6
CONTINUOUS
 90
8
 70
0
 10
115.1051626789
 20
103.3787623059
 10
115.0565616966
 20
103.1184704432
 10
114.9698603629
 20
102.5581903663
 10
114.8987426299
 20
101.9856880586
 10
114.8433944292
 20
101.4024637357
 10
114.8038777383
 20
100.8090174694
 10
114.7801305797
 20
100.204849188
 10
114.7721529535
 20
99.5899588913
  0
LWPOLYLINE
  5
24B
100
AcDbEntity
  8
IMPORT_IGES
100
AcDbPolyline
 62
7
  6
CONTINUOUS
 90
4
 70
0
 10
111.3154557398
 20
101.4340051115
 10
111.4101552016
 20
101.6475028329
 10
111.5440326305
 20
101.9285909544
 10
111.6452567086
 20
102.1257481946
  0
LWPOLYLINE
  5
24C
100
AcDbEntity
  8
IMPORT_IGES
100
AcDbPolyline
 62
250
  6
CONTINUOUS
 90
3
 70
0
 10
110.9557268606
 20
101.4710868161
 10
110.9193930293
 20
101.3913758042
 10
110.8470907682
 20
101.2251714681
  0
LWPOLYLINE
  5
24D
100
AcDbEntity
  8
IMPORT_IGES
100
AcDbPolyline
 62
7
  6
CONTINUOUS
 90
3
 70
0
 10
97.339452037
 20
119.7933198414
 10
97.1193539203
 20
119.6762442872
 10
96.6228039448
 20
119.3942917411
  0
LINE
  5
24E
100
AcDbEntity
  8
IMPORT_IGES
100
AcDbLine
 62
7
  6
CONTINUOUS
 10
98.7875836492
 20
120.5491416887
 11
97.3393206292
 21
119.7935551885
  0
LWPOLYLINE
  5
24F
100
AcDbEntity
  8
IMPORT_IGES
100
AcDbPolyline
 62
7
  6
CONTINUOUS
 90
3
 70
0
 10
98.7875203096
 20
120.5492550893
 10
98.9468498026
 20
120.6311622433
 10
99.2881155554
 20
120.7944990495
  0
LWPOLYLINE
  5
250
100
AcDbEntity
  8
IMPORT_IGES
100
AcDbPolyline
 62
7
  6
CONTINUOUS
 90
3
 70
0
 10
97.2699368115
 20
119.9265460618
 10
97.8733739145
 20
120.2241823873
 10
98.4923173362
 20
120.495526784
  0
LWPOLYLINE
  5
251
100
AcDbEntity
  8
IMPORT_IGES
100
AcDbPolyline
 62
7
  6
CONTINUOUS
 90
20
 70
0
 10
98.4923173362
 20
120.495526784
 10
99.1248554455
 20
120.7396901154
 10
99.7710198556
 20
120.9566174628
 10
100.4307789533
 20
121.1463637449
 10
101.102768554
 20
121.3085396956
 10
101.7869982027
 20
121.4430877712
 10
102.4834583544
 20
121.5500655154
 10
103.1907561887
 20
121.6292562931
 10
103.9089353907
 20
121.680605827
 10
104.6379522753
 20
121.7041683945
 10
105.3762829672
 20
121.6998901929
 10
106.1239588163
 20
121.6677072437
 10
106.8809484726
 20
121.6076835255
 10
107.6456340108
 20
121.5199571711
 10
108.4179953886
 20
121.4044721326
 10
109.1980526484
 20
121.2612844579
 10
109.9842479915
 20
121.0907004247
 10
110.7760621519
 20
120.8928221253
 10
111.5740143957
 20
120.6675474673
 10
112.378104723
 20
120.4148764506
  0
LWPOLYLINE
  5
252
100
AcDbEntity
  8
IMPORT_IGES
100
AcDbPolyline
 62
7
  6
CONTINUOUS
 90
5
 70
0
 10
99.2090501051
 20
120.6108892276
 10
98.6710483162
 20
120.4061824986
 10
98.1433428553
 20
120.1821389648
 10
97.6262002238
 20
119.9388600284
 10
97.339452037
 20
119.7933198414
  0
LWPOLYLINE
  5
253
100
AcDbEntity
  8
IMPORT_IGES
100
AcDbPolyline
 62
7
  6
CONTINUOUS
 90
43
 70
0
 10
134.51306024
 20
64.6869295828
 10
134.0420801277
 20
64.7901714934
 10
133.4993524877
 20
64.9309511662
 10
132.9603646835
 20
65.0925119332
 10
132.4250141614
 20
65.274919187
 10
131.893403475
 20
65.4781075349
 10
131.3669008829
 20
65.7014389625
 10
130.8457696489
 20
65.9448059376
 10
130.3297465092
 20
66.2083159924
 10
129.8194099313
 20
66.491653709
 10
129.314598028
 20
66.7949376399
 10
128.8154726865
 20
67.1180492325
 10
128.3230980353
 20
67.4603174115
 10
127.8375976236
 20
67.8216510798
 10
127.3588479022
 20
68.2021413345
 10
126.8875423518
 20
68.6013903903
 10
126.4235069875
 20
69.019546847
 10
125.9669157943
 20
69.4564621049
 10
125.5189842073
 20
69.9112925795
 10
125.0796600375
 20
70.3841771463
 10
124.648995474
 20
70.8749769298
 10
124.2283625193
 20
71.3824317193
 10
123.8179917532
 20
71.9062818141
 10
123.4176525959
 20
72.4467869148
 10
123.0280253112
 20
73.003465913
 10
122.6492045679
 20
73.5760728144
 10
122.2810956972
 20
74.1648536133
 10
121.9240949563
 20
74.7700651837
 10
121.5777415917
 20
75.3925862596
 10
121.2424963568
 20
76.0315381071
 10
120.9201377694
 20
76.6845413982
 10
120.6108992637
 20
77.3513300026
 10
120.3145474053
 20
78.0321700506
 10
120.0321604093
 20
78.7254806053
 10
119.7637547627
 20
79.4314160555
 10
119.5093139784
 20
80.1498220126
 10
119.2698668096
 20
80.8786543731
 10
119.0455914188
 20
81.6173554784
 10
118.8363096436
 20
82.3664829872
 10
118.642515749
 20
83.1256657728
 10
118.4643744901
 20
83.8947801265
 10
118.3017211118
 20
84.673949757
 10
118.1545556142
 20
85.4631746644
  0
LWPOLYLINE
  5
254
100
AcDbEntity
  8
IMPORT_IGES
100
AcDbPolyline
 62
7
  6
CONTINUOUS
 90
10
 70
0
 10
115.9101104791
 20
84.7681934124
 10
115.8348085383
 20
84.9398107658
 10
115.760339435
 20
85.1115741527
 10
115.6867031693
 20
85.283483573
 10
115.6138957622
 20
85.4555485472
 10
115.5419211926
 20
85.6277595549
 10
115.4707913977
 20
85.8000880348
 10
115.4005103562
 20
85.9725244667
 10
115.3310740893
 20
86.1450783709
 10
115.262482597
 20
86.3177497474
  0
LWPOLYLINE
  5
255
100
AcDbEntity
  8
IMPORT_IGES
100
AcDbPolyline
 62
7
  6
CONTINUOUS
 90
10
 70
0
 10
113.818015426
 20
90.7028460712
 10
113.7751488875
 20
90.8668587136
 10
113.7331409142
 20
91.0307084154
 10
113.6919915063
 20
91.1943951765
 10
113.6516986778
 20
91.3579272245
 10
113.6122644146
 20
91.5212963318
 10
113.5736946744
 20
91.6844778164
 10
113.5359914433
 20
91.8474634511
 10
113.4991527353
 20
92.0102614632
 10
113.4631785504
 20
92.1728718525
  0
LINE
  5
256
100
AcDbEntity
  8
IMPORT_IGES
100
AcDbLine
 62
7
  6
CONTINUOUS
 10
111.3184819322
 20
87.2450675143
 11
112.2461321239
 21
89.76014933
  0
LINE
  5
257
100
AcDbEntity
  8
IMPORT_IGES
100
AcDbLine
 62
7
  6
CONTINUOUS
 10
112.7947959825
 20
82.9881821002
 11
113.7251044875
 21
85.4016096864
  0
LWPOLYLINE
  5
258
100
AcDbEntity
  8
IMPORT_IGES
100
AcDbPolyline
 62
7
  6
CONTINUOUS
 90
19
 70
0
 10
111.3184819322
 20
87.2450675143
 10
111.3093253422
 20
87.2241573205
 10
111.2977854394
 20
87.204064733
 10
111.2838622238
 20
87.1847897517
 10
111.2674566711
 20
87.1662554077
 10
111.2486678057
 20
87.14853867
 10
111.2277927
 20
87.1318704454
 10
111.2048230281
 20
87.1162647577
 10
111.179767116
 20
87.1017075832
 10
111.152947014
 20
87.0883877577
 10
111.1243458066
 20
87.0763124934
 10
111.0939804093
 20
87.0654745781
 10
111.0622236196
 20
87.0560412117
 10
111.0290559417
 20
87.0480204506
 10
110.9944968714
 20
87.0414042383
 10
110.9589776936
 20
87.0363356057
 10
110.92264217
 20
87.0328622295
 10
110.8853465389
 20
87.030936433
 10
110.8470908003
 20
87.030558216
  0
LWPOLYLINE
  5
259
100
AcDbEntity
  8
IMPORT_IGES
100
AcDbPolyline
 62
7
  6
CONTINUOUS
 90
20
 70
0
 10
110.8927510087
 20
101.405418506
 10
110.6188529588
 20
101.0886419709
 10
110.3583180656
 20
100.7545106638
 10
110.1110184015
 20
100.4030121448
 10
109.8776663337
 20
100.035193971
 10
109.6582613885
 20
99.6508856457
 10
109.4528040395
 20
99.2502576656
 10
109.2620080756
 20
98.8348690767
 10
109.0860288421
 20
98.4049972874
 10
108.9247109935
 20
97.9603648894
 10
108.7783022825
 20
97.5016987029
 10
108.6467363475
 20
97.0287338425
 10
108.53007955
 20
96.5417351938
 10
108.4287787272
 20
96.0422242337
 10
108.3428938563
 20
95.5301598237
 10
108.2723649602
 20
95.0055831024
 10
108.2174589446
 20
94.4701389631
 10
108.1782647783
 20
93.9243757035
 10
108.1546934927
 20
93.3677450258
 10
108.1467450876
 20
92.80024693
  0
LINE
  5
25A
100
AcDbEntity
  8
IMPORT_IGES
100
AcDbLine
 62
7
  6
CONTINUOUS
 10
114.855086614
 20
85.3986146839
 11
115.9101104791
 21
84.7681934124
  0
LINE
  5
25B
100
AcDbEntity
  8
IMPORT_IGES
100
AcDbLine
 62
7
  6
CONTINUOUS
 10
112.8843303284
 20
91.2607623097
 11
113.818015426
 21
90.7028460712
  0
LINE
  5
25C
100
AcDbEntity
  8
IMPORT_IGES
100
AcDbLine
 62
250
  6
CONTINUOUS
 10
113.5953787671
 20
85.7442405924
 11
112.4823457827
 21
83.7994202986
  0
LWPOLYLINE
  5
25D
100
AcDbEntity
  8
IMPORT_IGES
100
AcDbPolyline
 62
7
  6
CONTINUOUS
 90
5
 70
0
 10
112.1139119341
 20
102.4919764494
 10
111.7904647505
 20
102.248106801
 10
111.4791566464
 20
101.985785064
 10
111.1798842878
 20
101.7048278293
 10
110.8927510087
 20
101.405418506
  0
LINE
  5
25E
100
AcDbEntity
  8
IMPORT_IGES
100
AcDbLine
 62
7
  6
CONTINUOUS
 10
112.3952017714
 20
102.6809168774
 11
112.1139119341
 21
102.4919764494
  0
LWPOLYLINE
  5
25F
100
AcDbEntity
  8
IMPORT_IGES
100
AcDbPolyline
 62
7
  6
CONTINUOUS
 90
75
 70
0
 10
111.9444559286
 20
102.4558906676
 10
112.2698358391
 20
102.624170247
 10
112.6376101678
 20
102.7906425377
 10
113.0160617671
 20
102.9377251639
 10
113.404662654
 20
103.065141664
 10
113.8027279267
 20
103.172676848
 10
114.2097869698
 20
103.2602403142
 10
114.6254792442
 20
103.3277703749
 10
115.0492308458
 20
103.3752132657
 10
115.4804525153
 20
103.4025755556
 10
115.9188373412
 20
103.4098760537
 10
116.3642346048
 20
103.3970810769
 10
116.8161488915
 20
103.3642035262
 10
117.2741835757
 20
103.3112606704
 10
117.7383667946
 20
103.2381260784
 10
118.2085913041
 20
103.1446883814
 10
118.684077585
 20
103.0310208254
 10
119.1638400682
 20
102.8972908519
 10
119.6472344401
 20
102.7436400514
 10
120.1339372433
 20
102.5701807801
 10
120.6234209974
 20
102.3771422812
 10
121.1151699436
 20
102.1646973813
 10
121.608707304
 20
101.9330613289
 10
122.1035567386
 20
101.6825807558
 10
122.5992487814
 20
101.4135366293
 10
123.0952473788
 20
101.1261765909
 10
123.5909741314
 20
100.8208462554
 10
124.085959192
 20
100.4978928577
 10
124.5796687825
 20
100.1576253823
 10
125.0714312806
 20
99.8003730787
 10
125.5607361247
 20
99.4265035316
 10
126.0471051137
 20
99.0364180148
 10
126.5299217519
 20
98.6305318119
 10
127.0088215743
 20
98.2091336148
 10
127.4832042485
 20
97.7727984735
 10
127.9521215413
 20
97.3224433601
 10
128.4147310057
 20
96.8589285764
 10
128.8709904938
 20
96.3824522364
 10
129.321156104
 20
95.8929453921
 10
129.764866574
 20
95.3908040588
 10
130.2015896904
 20
94.8766249579
 10
130.6312958396
 20
94.3505797331
 10
131.0537085474
 20
93.8130125142
 10
131.4682137987
 20
93.2645941509
 10
131.8742749127
 20
92.7059872709
 10
132.2715749572
 20
92.1376510325
 10
132.6595967563
 20
91.5602330343
 10
133.0375450988
 20
90.9747228132
 10
133.404934729
 20
90.3818802628
 10
133.7615313819
 20
89.7821528941
 10
134.1069550252
 20
89.1760905721
 10
134.4407212114
 20
88.5644723662
 10
134.7626633927
 20
87.9477556071
 10
135.0728598251
 20
87.3259989182
 10
135.3711494398
 20
86.6994853642
 10
135.6570209083
 20
86.0691650917
 10
135.9300333342
 20
85.4360986193
 10
136.1898796309
 20
84.8010863727
 10
136.4363362962
 20
84.1646052532
 10
136.6691301064
 20
83.5272395318
 10
136.8880986435
 20
82.8894546828
 10
137.0929369658
 20
82.2520688455
 10
137.2832115296
 20
81.6161937146
 10
137.4586258077
 20
80.982822204
 10
137.6191923084
 20
80.3522260607
 10
137.7649551955
 20
79.7244342963
 10
137.8958283494
 20
79.0997162609
 10
138.0115822599
 20
78.4790673999
 10
138.1120589721
 20
77.8635994936
 10
138.1972030787
 20
77.2539565504
 10
138.266932992
 20
76.6507050716
 10
138.3211395439
 20
76.0548067836
 10
138.3598054206
 20
75.4669530343
 10
138.3829714079
 20
74.8875782329
 10
138.3906692266
 20
74.3172291487
  0
LINE
  5
260
100
AcDbEntity
  8
IMPORT_IGES
100
AcDbLine
 62
7
  6
CONTINUOUS
 10
110.1879444971
 20
82.7310593018
 11
112.3255478442
 21
82.7747943348
  0
LWPOLYLINE
  5
261
100
AcDbEntity
  8
IMPORT_IGES
100
AcDbPolyline
 62
7
  6
CONTINUOUS
 90
10
 70
0
 10
138.3906682305
 20
74.3172285531
 10
138.3896495442
 20
74.1074823159
 10
138.3864871185
 20
73.8989956041
 10
138.3811816001
 20
73.6917968332
 10
138.3737336553
 20
73.4859076963
 10
138.3641446494
 20
73.2813628682
 10
138.3524173251
 20
73.0782095685
 10
138.3385545785
 20
72.8764814673
 10
138.3225587801
 20
72.6761991144
 10
138.3044329287
 20
72.4773893403
  0
LWPOLYLINE
  5
262
100
AcDbEntity
  8
IMPORT_IGES
100
AcDbPolyline
 62
7
  6
CONTINUOUS
 90
23
 70
0
 10
138.3044329287
 20
72.4773893403
 10
138.2453676201
 20
71.9510324609
 10
138.1710133077
 20
71.4352089269
 10
138.0813827673
 20
70.9304744285
 10
137.9764879887
 20
70.4372545119
 10
137.8563813908
 20
69.9562187791
 10
137.7211963205
 20
69.4882450699
 10
137.5710305416
 20
69.0337931884
 10
137.4060233332
 20
68.5933687975
 10
137.2264723914
 20
68.1678260262
 10
137.0326632428
 20
67.7577862283
 10
136.824738951
 20
67.3634028819
 10
136.6028141699
 20
66.9847985055
 10
136.36698552
 20
66.6221894979
 10
136.1175716412
 20
66.276147836
 10
135.855040827
 20
65.9473024888
 10
135.579775043
 20
65.6360542115
 10
135.2919732574
 20
65.3425818398
 10
134.9918793063
 20
65.0671143134
 10
134.6797713583
 20
64.8098696449
 10
134.3560105667
 20
64.5711142922
 10
134.0209962723
 20
64.3510985745
 10
133.965480865
 20
64.3171052051
  0
LINE
  5
263
100
AcDbEntity
  8
IMPORT_IGES
100
AcDbLine
 62
7
  6
CONTINUOUS
 10
113.4631785504
 20
92.1728718525
 11
108.4347435973
 21
89.1966007095
  0
LWPOLYLINE
  5
264
100
AcDbEntity
  8
IMPORT_IGES
100
AcDbPolyline
 62
7
  6
CONTINUOUS
 90
19
 70
0
 10
112.3255478442
 20
82.7747943348
 10
112.3641924982
 20
82.7764218417
 10
112.4017688589
 20
82.7794470796
 10
112.4382769264
 20
82.7838700483
 10
112.4738458992
 20
82.7897435677
 10
112.5083465786
 20
82.797014818
 10
112.5413913695
 20
82.80552534
 10
112.5729599485
 20
82.8152770047
 10
112.6030726388
 20
82.826267941
 10
112.6314028145
 20
82.8383340769
 10
112.6579400923
 20
82.8514802685
 10
112.6826948556
 20
82.8657016597
 10
112.7053716283
 20
82.8808196101
 10
112.7259620382
 20
82.8968420801
 10
112.7444744576
 20
82.9137611092
 10
112.7606385273
 20
82.9313741761
 10
112.7743641275
 20
82.9496137734
 10
112.785741378
 20
82.9685474085
 10
112.7947702787
 20
82.9881750813
  0
LINE
  5
265
100
AcDbEntity
  8
IMPORT_IGES
100
AcDbLine
 62
7
  6
CONTINUOUS
 10
108.8512012625
 20
87.0569438523
 11
110.8470908003
 21
87.030558216
  0
LWPOLYLINE
  5
266
100
AcDbEntity
  8
IMPORT_IGES
100
AcDbPolyline
 62
7
  6
CONTINUOUS
 90
19
 70
0
 10
131.4270819292
 20
107.1112916232
 10
130.7022950295
 20
107.8798437147
 10
129.9710762582
 20
108.6306940501
 10
129.2334256152
 20
109.3638426293
 10
128.4888729777
 20
110.0797266816
 10
127.7378884685
 20
110.7779089777
 10
126.9818824563
 20
111.4570778307
 10
126.2208454723
 20
112.117197429
 10
125.4547869854
 20
112.7583035842
 10
124.6851457709
 20
113.3791920427
 10
123.9119150794
 20
113.9798247168
 10
123.1351016603
 20
114.5602396943
 10
122.3561645374
 20
115.1193469856
 10
121.5750997191
 20
115.6571064431
 10
120.7919111971
 20
116.1735582143
 10
120.0080699698
 20
116.6677327531
 10
119.2240663703
 20
117.1393068774
 10
118.4394100656
 20
117.5886037691
 10
117.6541010558
 20
118.0156234284
  0
LWPOLYLINE
  5
267
100
AcDbEntity
  8
IMPORT_IGES
100
AcDbPolyline
 62
7
  6
CONTINUOUS
 90
10
 70
0
 10
135.1624509237
 20
102.7319604553
 10
134.7604536037
 20
103.2394582425
 10
134.3551256688
 20
103.7418113813
 10
133.9464671188
 20
104.2390198715
 10
133.534385027
 20
104.7311926602
 10
133.1189723202
 20
105.2182208004
 10
132.700507779
 20
105.699777451
 10
132.2790843302
 20
106.1757536648
 10
131.8546090469
 20
106.6462583888
 10
131.4270819292
 20
107.1112916232
  0
LWPOLYLINE
  5
268
100
AcDbEntity
  8
IMPORT_IGES
100
AcDbPolyline
 62
7
  6
CONTINUOUS
 90
13
 70
0
 10
141.4787881699
 20
93.2843428181
 10
141.0036329
 20
94.1121026348
 10
140.5187752446
 20
94.9331051018
 10
140.0242152037
 20
95.7473502191
 10
139.5197162417
 20
96.5552066001
 10
139.0055148942
 20
97.3563056314
 10
138.4823207682
 20
98.1495414724
 10
137.9501213607
 20
98.9349031907
 10
137.4089291748
 20
99.7124017187
 10
136.8594913266
 20
100.4809640134
 10
136.3020568546
 20
101.240232394
 10
135.7363767203
 20
101.9905645412
 10
135.1624509237
 20
102.7319604553
  0
LWPOLYLINE
  5
269
100
AcDbEntity
  8
IMPORT_IGES
100
AcDbPolyline
 62
7
  6
CONTINUOUS
 90
10
 70
0
 10
144.2422731097
 20
87.9122829834
 10
143.9575356267
 20
88.5175641285
 10
143.6671655006
 20
89.1208529567
 10
143.3711627316
 20
89.7221494679
 10
143.0694559286
 20
90.3215924421
 10
142.7621164826
 20
90.9190430993
 10
142.4493585664
 20
91.5140850994
 10
142.1312535711
 20
92.1065796626
 10
141.8077301056
 20
92.6966655688
 10
141.4787881699
 20
93.2843428181
  0
LWPOLYLINE
  5
26A
100
AcDbEntity
  8
IMPORT_IGES
100
AcDbPolyline
 62
7
  6
CONTINUOUS
 90
5
 70
0
 10
148.0583548199
 20
72.5690037868
 10
148.2404639444
 20
71.559283116
 10
148.4017153293
 20
70.5552314124
 10
148.5416630314
 20
69.5592164047
 10
148.6602464609
 20
68.5712749527
  0
LWPOLYLINE
  5
26B
100
AcDbEntity
  8
IMPORT_IGES
100
AcDbPolyline
 62
7
  6
CONTINUOUS
 90
6
 70
0
 10
148.6602464609
 20
68.5712749527
 10
148.7575262075
 20
67.5913701966
 10
148.8332380983
 20
66.6217592856
 10
148.8872940754
 20
65.6631946029
 10
148.9197821966
 20
64.7149237653
 10
148.9307024618
 20
63.7769467728
  0
LWPOLYLINE
  5
26C
100
AcDbEntity
  8
IMPORT_IGES
100
AcDbPolyline
 62
7
  6
CONTINUOUS
 90
10
 70
0
 10
150.2794386504
 20
64.8963550809
 10
150.2564109647
 20
65.3620881702
 10
150.2284934996
 20
65.8301357906
 10
150.1956862552
 20
66.300497942
 10
150.1579825255
 20
66.7732494183
 10
150.1153890164
 20
67.2483154257
 10
150.0679258456
 20
67.7254715832
 10
150.0155997188
 20
68.2046430972
 10
149.9584039302
 20
68.6859047613
 10
149.8963384798
 20
69.1692565755
  0
LWPOLYLINE
  5
26D
100
AcDbEntity
  8
IMPORT_IGES
100
AcDbPolyline
 62
7
  6
CONTINUOUS
 90
118
 70
0
 10
148.9307024618
 20
63.7769467728
 10
148.9198507323
 20
62.8531237164
 10
148.8874549033
 20
61.9436277045
 10
148.8335149748
 20
61.0484587373
 10
148.7579556383
 20
60.1669298096
 10
148.6608522023
 20
59.2997279264
 10
148.5424305922
 20
58.4489141033
 10
148.4026219123
 20
57.6145244636
 10
148.2414950582
 20
56.7965228838
 10
148.0594826429
 20
55.9968620091
 10
147.8566454711
 20
55.2158762389
 10
147.6329227381
 20
54.4532311737
 10
147.3885646425
 20
53.7098762603
 10
147.1234096681
 20
52.9854620029
 10
146.837619331
 20
52.2803378974
 10
146.5319283784
 20
51.596501878
 10
146.2063308065
 20
50.9341562205
 10
145.860832619
 20
50.2930986492
 10
145.4961865741
 20
49.6747202714
 10
145.1122686107
 20
49.0789925977
 10
144.7092027899
 20
48.5059441174
 10
144.2881140528
 20
47.9570514061
 10
143.8491202791
 20
47.4325583267
 10
143.3921035891
 20
46.9322210163
 10
142.9178352844
 20
46.4567844616
 10
142.4262405634
 20
46.0062060546
 10
141.9173942278
 20
45.5805284035
 10
141.3922919845
 20
45.1806243192
 10
140.8508228373
 20
44.806500009
 10
140.2930977824
 20
44.4581492657
 10
139.7204455155
 20
44.1364262783
 10
139.1328631158
 20
43.8414241251
 10
138.5303535041
 20
43.5730497278
 10
137.9142541389
 20
43.33187804
 10
137.2845708025
 20
43.1179763548
 10
136.6412977126
 20
42.9312773791
 10
135.9857549804
 20
42.7721541871
 10
135.3179098051
 20
42.640654192
 10
134.6377949874
 20
42.5367299805
 10
133.9468290405
 20
42.4606123874
 10
133.244969204
 20
42.4123572112
 10
132.5322582382
 20
42.3919086533
 10
131.8102429379
 20
42.399330152
 10
131.0788859156
 20
42.4346881332
 10
130.3382245587
 20
42.4979161709
 10
129.5899178236
 20
42.588878426
 10
128.8339652234
 20
42.7076376804
 10
128.070367245
 20
42.854131152
 10
127.3007843058
 20
43.028034656
 10
126.5252348402
 20
43.2293950189
 10
125.7437004138
 20
43.4581654141
 10
124.9577861402
 20
43.7138811761
 10
124.167433096
 20
43.9966163376
 10
123.3727002046
 20
44.306296866
 10
122.5753693493
 20
44.642235997
 10
121.7754496701
 20
45.0044895111
 10
120.972932027
 20
45.3930016279
 10
120.169570884
 20
45.8069182427
 10
119.3653740608
 20
46.2462899307
 10
118.5603337377
 20
46.7110661167
 10
117.7561809192
 20
47.2002409697
 10
116.9529179443
 20
47.7138659285
 10
116.150542474
 20
48.2518895543
 10
115.3507784958
 20
48.8131516998
 10
114.5536155341
 20
49.3977161958
 10
113.7590640645
 20
50.0055192114
 10
112.9688795011
 20
50.6352091073
 10
112.1831166509
 20
51.2867926468
 10
111.4017207069
 20
51.9602630665
 10
110.6262826625
 20
52.6542484362
 10
109.8567818324
 20
53.3688173325
 10
109.0932389018
 20
54.1039011789
 10
108.3373069201
 20
54.8579223155
 10
107.5889826779
 20
55.6309461078
 10
106.8482693844
 20
56.4229071903
 10
106.1168297172
 20
57.2320318076
 10
105.3946964056
 20
58.0583496285
 10
104.6818367201
 20
58.9018309843
 10
103.9798151495
 20
59.7606131127
 10
103.2886614229
 20
60.6347248037
 10
102.6083458111
 20
61.5241372674
 10
101.9403436149
 20
62.4269013717
 10
101.2846964901
 20
63.3430236691
 10
100.641362781
 20
64.2724976071
 10
100.011692821
 20
65.2133543962
 10
99.3957262556
 20
66.1655925784
 10
98.7934234394
 20
67.1292136117
 10
98.2060157698
 20
68.1022530811
 10
97.6335048192
 20
69.0847765249
 10
97.0758890153
 20
70.0767184048
 10
96.5343950381
 20
71.0759176915
 10
96.0090649568
 20
72.0823771416
 10
95.4998567023
 20
73.0960939986
 10
95.0078707471
 20
74.1148989633
 10
94.5331786848
 20
75.1387039898
 10
94.0757089219
 20
76.167597124
 10
93.6363471507
 20
77.1996732054
 10
93.2150249784
 20
78.2352151796
 10
92.8118107979
 20
79.2739401009
 10
92.42779548
 20
80.3130939714
 10
92.0631060362
 20
81.3524864041
 10
91.7176154551
 20
82.3923077861
 10
91.3920335735
 20
83.4303752807
 10
91.0863608095
 20
84.4668835996
 10
90.8005967449
 20
85.5016380312
 10
90.5354499619
 20
86.531871604
 10
90.2910764996
 20
87.5570446972
 10
90.0673203189
 20
88.5776969316
 10
89.8644218841
 20
89.5926801981
 10
89.6823127024
 20
90.6024010367
 10
89.5210612667
 20
91.6064529074
 10
89.3811135203
 20
92.6024680808
 10
89.2625300645
 20
93.5904093662
 10
89.1652502981
 20
94.5703139544
 10
89.0895383605
 20
95.539925688
 10
89.0354822981
 20
96.4984925148
 10
89.0029940644
 20
97.4467664871
 10
88.9920736594
 20
98.3847476049
  0
LINE
  5
26E
100
AcDbEntity
  8
IMPORT_IGES
100
AcDbLine
 62
7
  6
CONTINUOUS
 10
113.8180153596
 20
90.7028460329
 11
112.2461321239
 21
89.76014933
  0
LINE
  5
26F
100
AcDbEntity
  8
IMPORT_IGES
100
AcDbLine
 62
7
  6
CONTINUOUS
 10
113.7251165449
 20
85.4016132392
 11
115.2624825995
 21
86.3177496755
  0
LINE
  5
270
100
AcDbEntity
  8
IMPORT_IGES
100
AcDbLine
 62
7
  6
CONTINUOUS
 10
112.8843303284
 20
91.2607623097
 11
108.5104411688
 21
88.7354127356
  0
LINE
  5
271
100
AcDbEntity
  8
IMPORT_IGES
100
AcDbLine
 62
250
  6
CONTINUOUS
 10
112.0188907329
 20
83.5704526297
 11
110.0033067521
 21
83.2233465069
  0
LWPOLYLINE
  5
272
100
AcDbEntity
  8
IMPORT_IGES
100
AcDbPolyline
 62
7
  6
CONTINUOUS
 90
19
 70
0
 10
149.8963384798
 20
69.1692565755
 10
149.7516476377
 20
70.1807517007
 10
149.5863758292
 20
71.198240132
 10
149.4005230543
 20
72.2217218696
 10
149.1939358442
 20
73.2518975662
 10
148.9667676677
 20
74.2880665691
 10
148.7194789312
 20
75.3281269199
 10
148.4520286867
 20
76.3720865516
 10
148.1644578822
 20
77.4199375311
 10
147.857349768
 20
78.4695541009
 10
147.5306645866
 20
79.5209398538
 10
147.1844420956
 20
80.5740911971
 10
146.8193848181
 20
81.6268715942
 10
146.4354544314
 20
82.679280276
 10
146.0326892583
 20
83.7313180117
 10
145.6119067905
 20
84.7808505731
 10
145.173379525
 20
85.8271665509
 10
144.7168349647
 20
86.8709773543
 10
144.2422731097
 20
87.9122829834
  0
LWPOLYLINE
  5
273
100
AcDbEntity
  8
IMPORT_IGES
100
AcDbPolyline
 62
250
  6
CONTINUOUS
 90
67
 70
0
 10
152.3415425605
 20
62.2129944287
 10
152.3307628749
 20
63.1934860131
 10
152.298486062
 20
64.1845237961
 10
152.2448147173
 20
65.1854190441
 10
152.1698772653
 20
66.1953364685
 10
152.0737972057
 20
67.2137249373
 10
151.9566627284
 20
68.2403313758
 10
151.8186051975
 20
69.2744545273
 10
151.6597649221
 20
70.3154250425
 10
151.4802061229
 20
71.3630573043
 10
151.2800560819
 20
72.4167259321
 10
151.059474772
 20
73.4756938768
 10
150.8185452934
 20
74.5396198766
 10
150.5574176633
 20
75.6078497951
 10
150.2762683113
 20
76.6796695708
 10
149.9752050851
 20
77.7546517431
 10
149.6543788739
 20
78.8322082116
 10
149.314011072
 20
79.9115490641
 10
148.9543221901
 20
80.9919429874
 10
148.5755307519
 20
82.0727056203
 10
148.1778740746
 20
83.1531332708
 10
147.7616251003
 20
84.2324644809
 10
147.3270363465
 20
85.3100284428
 10
146.8743907866
 20
86.3851081653
 10
146.4040351935
 20
87.4568754127
 10
145.91630787
 20
88.5245677265
 10
145.4114920391
 20
89.5875732058
 10
144.8898713107
 20
90.6452933805
 10
144.3517919375
 20
91.6970216308
 10
143.7975848385
 20
92.7421067773
 10
143.2275152234
 20
93.7800345637
 10
142.6419417058
 20
94.8101301305
 10
142.0412304916
 20
95.8317279188
 10
141.4256592157
 20
96.8443265609
 10
140.7955401958
 20
97.8473703183
 10
140.1513298594
 20
98.8400915835
 10
139.4935365737
 20
99.8216797355
 10
138.8225188287
 20
100.7915767156
 10
138.1387582531
 20
101.7490637112
 10
137.4429835317
 20
102.6931210088
 10
136.7357320322
 20
103.6230438586
 10
136.0173903017
 20
104.5383479775
 10
135.2884895445
 20
105.4383787982
 10
134.5495965534
 20
106.3224668827
 10
133.8011116393
 20
107.1901632494
 10
133.0433199402
 20
108.0411509796
 10
132.2766808894
 20
108.8749150701
 10
131.5017176215
 20
109.6908875043
 10
130.7188077162
 20
110.4886669655
 10
129.9284583762
 20
111.2677270633
 10
129.1311703916
 20
112.027564694
 10
128.327312115
 20
112.7678122684
 10
127.5173631131
 20
113.4880033669
 10
126.7018736875
 20
114.1876240399
 10
125.8813210051
 20
114.8662399249
 10
125.0561899852
 20
115.523421222
 10
124.2270498525
 20
116.1586859457
 10
123.3945101752
 20
116.7715438395
 10
122.5590953699
 20
117.3615886182
 10
121.7213568524
 20
117.9284106346
 10
120.8819502333
 20
118.4715517547
 10
120.0414251002
 20
118.9906471265
 10
119.2003202296
 20
119.4853548466
 10
118.3592774448
 20
119.9552923074
 10
117.5188743367
 20
120.4001372673
 10
116.6796238335
 20
120.819618651
 10
115.8420702956
 20
121.2134634129
  0
LINE
  5
274
100
AcDbEntity
  8
IMPORT_IGES
100
AcDbLine
 62
7
  6
CONTINUOUS
 10
115.9101104421
 20
84.7681933911
 11
110.6463812111
 21
81.5935599569
  0
LINE
  5
275
100
AcDbEntity
  8
IMPORT_IGES
100
AcDbLine
 62
7
  6
CONTINUOUS
 10
110.2315365792
 20
82.7319580575
 11
110.1956429294
 21
82.7112217934
  0
LINE
  5
276
100
AcDbEntity
  8
IMPORT_IGES
100
AcDbLine
 62
7
  6
CONTINUOUS
 10
114.855086651
 20
85.3986147053
 11
113.401149027
 21
84.5611975385
  0
LWPOLYLINE
  5
277
100
AcDbEntity
  8
IMPORT_IGES
100
AcDbPolyline
 62
7
  6
CONTINUOUS
 90
19
 70
0
 10
110.8470908003
 20
101.2251832043
 10
110.8853865147
 20
101.2263110264
 10
110.922714188
 20
101.2289147109
 10
110.9590738203
 20
101.2329942577
 10
110.9946083173
 20
101.2385988729
 10
111.0291747732
 20
101.2456793504
 10
111.0623444711
 20
101.2540880725
 10
111.0940964013
 20
101.2638315983
 10
111.1244515734
 20
101.2749033686
 10
111.1530442987
 20
101.2871360885
 10
111.1798620075
 20
101.3005385567
 10
111.2049172694
 20
101.3151019745
 10
111.2278821056
 20
101.3306326507
 10
111.2487447561
 20
101.3471424304
 10
111.2675169808
 20
101.3646194685
 10
111.2839060806
 20
101.3828345386
 10
111.2978144893
 20
101.4017112318
 10
111.3093397732
 20
101.4213259569
 10
111.3153579069
 20
101.434017786
  0
LINE
  5
278
100
AcDbEntity
  8
IMPORT_IGES
100
AcDbLine
 62
7
  6
CONTINUOUS
 10
110.8470908003
 20
101.2251832043
 11
110.7362362316
 21
101.224401486
  0
LWPOLYLINE
  5
279
100
AcDbEntity
  8
IMPORT_IGES
100
AcDbPolyline
 62
250
  6
CONTINUOUS
 90
121
 70
0
 10
115.5318319214
 20
120.5855285882
 10
114.6816132424
 20
120.9596517255
 10
113.8353761795
 20
121.3060356208
 10
112.9931207326
 20
121.6246802742
 10
112.1542190901
 20
121.9157862114
 10
111.3192990636
 20
122.1791529067
 10
110.4902440887
 20
122.4141787829
 10
109.6670535388
 20
122.6207838721
 10
108.8497280404
 20
122.7990481423
 10
108.0401529089
 20
122.9486099195
 10
107.2386476688
 20
123.0693937175
 10
106.4448927957
 20
123.1614750225
 10
105.6598150309
 20
123.224718619
 10
104.8830466844
 20
123.259108586
 10
104.1149554464
 20
123.2646608446
 10
103.3575711281
 20
123.2412879425
 10
102.6110608613
 20
123.188903644
 10
101.8752575142
 20
123.1075941849
 10
101.1516895027
 20
122.9975308203
 10
100.4402857101
 20
122.8586066968
 10
99.7411172531
 20
122.6909286678
 10
99.0559258978
 20
122.4949885486
 10
98.3849730167
 20
122.2708049362
 10
97.7279972372
 20
122.0183592337
 10
97.0859562081
 20
121.7380874657
 10
96.4588126166
 20
121.4299642534
 10
95.8466037755
 20
121.0940149756
 10
95.2503992726
 20
120.7307517938
 10
94.6700841818
 20
120.3400210656
 10
94.1057734292
 20
119.9219764334
 10
93.5588813808
 20
119.4775909851
 10
93.0294964957
 20
119.0068047024
 10
92.5175303148
 20
118.5096776035
 10
92.024131827
 20
117.9873628318
 10
91.5493721401
 20
117.4398165475
 10
91.0931801462
 20
116.8670825903
 10
90.6564915115
 20
116.2704456223
 10
90.2394262394
 20
115.6500238456
 10
89.8418643263
 20
115.0056990581
 10
89.4643814279
 20
114.3384013155
 10
89.1068972363
 20
113.6478991041
 10
88.7694920593
 20
112.9344239376
 10
88.4529824757
 20
112.1996004131
 10
88.1574403739
 20
111.443391675
 10
87.8827938655
 20
110.6658345789
 10
87.6296438642
 20
109.8686642882
 10
87.3980560048
 20
109.0518845231
 10
87.1879646524
 20
108.2154915635
 10
86.9997738169
 20
107.3612094121
 10
86.8335312998
 20
106.4890915793
 10
86.6891892996
 20
105.5990845546
 10
86.5670084207
 20
104.6927518099
 10
86.4670114928
 20
103.7699330699
 10
86.3891756863
 20
102.8307886097
 10
86.333693116
 20
101.8773627269
 10
86.3006209351
 20
100.9096319796
 10
86.2899019904
 20
99.9276198095
 10
86.3015569376
 20
98.9334408399
 10
86.3356362353
 20
97.9270951181
 10
86.3920894249
 20
96.9085825967
 10
86.4707857859
 20
95.8800177568
 10
86.5717679273
 20
94.8414017558
 10
86.6949932402
 20
93.7927334363
 10
86.8402031776
 20
92.7361238062
 10
87.007444
 20
91.6715390767
 10
87.1966694469
 20
90.5990130366
 10
87.4074821894
 20
89.5207580615
 10
87.639937339
 20
88.4367305481
 10
87.8939797842
 20
87.3469740997
 10
88.1690468615
 20
86.2538319012
 10
88.4651428128
 20
85.1574230364
 10
88.7822633962
 20
84.0576284215
 10
89.1198332223
 20
82.956433991
 10
89.4779102532
 20
81.8537529779
 10
89.8564365267
 20
80.7496721492
 10
90.2546627671
 20
79.6464377396
 10
90.6726360031
 20
78.5440347043
 10
91.1103092059
 20
77.4424780881
 10
91.5667920137
 20
76.3440592604
 10
92.0421613487
 20
75.2487172049
 10
92.5363402887
 20
74.156512938
 10
93.0482077055
 20
73.0699208779
 10
93.5776954593
 20
71.9891575292
 10
94.1248716899
 20
70.9140063874
 10
94.6888196883
 20
69.8462923578
 10
95.2696678829
 20
68.7858408763
 10
95.8672878453
 20
67.732826507
 10
96.4803775814
 20
66.6895978477
 10
97.1089700543
 20
65.6561935756
 10
97.7530323008
 20
64.6325750136
 10
98.4111634365
 20
63.6209747278
 10
99.0834445648
 20
62.6213672252
 10
99.7697945823
 20
61.6337779989
 10
100.468569295
 20
60.6605160937
 10
101.1796439786
 20
59.7018157095
 10
101.9031433574
 20
58.7574426466
 10
102.6377974104
 20
57.8290033498
 10
103.383571762
 20
56.9165534554
 10
104.1405007879
 20
56.0200373272
 10
104.9074175935
 20
55.1408945024
 10
105.6845951957
 20
54.2788763121
 10
106.4717605777
 20
53.4342314253
 10
107.2669277947
 20
52.6091453852
 10
108.069997384
 20
51.8038050352
 10
108.8810688083
 20
51.018023532
 10
109.6984545106
 20
50.2534258896
 10
110.5223131742
 20
49.5099517471
 10
111.3524861158
 20
48.7876614653
 10
112.1868097287
 20
48.0883611412
 10
113.0248596812
 20
47.41242943
 10
113.867060305
 20
46.7594876764
 10
114.7125209884
 20
46.130206011
 10
115.5615684718
 20
45.5243554841
 10
116.4138760148
 20
44.9421650454
 10
117.2675727844
 20
44.384991675
 10
118.1226459322
 20
43.8529088648
 10
118.9791083066
 20
43.3458431228
 10
119.8351276203
 20
42.8649309532
 10
120.6900931107
 20
42.4105511904
 10
121.5446155403
 20
41.9823249999
 10
122.3986949091
 20
41.5802523817
  0
LWPOLYLINE
  5
27A
100
AcDbEntity
  8
IMPORT_IGES
100
AcDbPolyline
 62
7
  6
CONTINUOUS
 90
10
 70
0
 10
117.6541010558
 20
118.0156234284
 10
117.1481999563
 20
118.2786647275
 10
116.6430341028
 20
118.53187053
 10
116.1386034951
 20
118.7752408358
 10
115.6347759498
 20
119.0088344357
 10
115.1316836503
 20
119.2325925389
 10
114.6297231474
 20
119.4463387733
 10
114.1290266245
 20
119.6500143484
 10
113.6294618981
 20
119.8436780548
 10
113.1310289682
 20
120.0273298924
  0
LWPOLYLINE
  5
27B
100
AcDbEntity
  8
IMPORT_IGES
100
AcDbPolyline
 62
7
  6
CONTINUOUS
 90
10
 70
0
 10
149.8026134349
 20
56.7072172029
 10
149.9403742742
 20
57.5598691702
 10
150.0569671668
 20
58.4272999345
 10
150.1523921127
 20
59.3095094959
 10
150.2266852695
 20
60.2071188365
 10
150.2798104796
 20
61.1195069743
 10
150.3116592701
 20
62.0448109623
 10
150.3221954832
 20
62.9824098182
 10
150.3114552766
 20
63.9329245245
 10
150.2794386504
 20
64.8963550809
  0
LWPOLYLINE
  5
27C
100
AcDbEntity
  8
IMPORT_IGES
100
AcDbPolyline
 62
7
  6
CONTINUOUS
 90
10
 70
0
 10
112.396635144
 20
120.2799900839
 10
111.6667224823
 20
120.5101148847
 10
110.9417546417
 20
120.7177016428
 10
110.221731622
 20
120.9027503581
 10
109.5062508739
 20
121.0653403762
 10
108.7957149468
 20
121.2053923516
 10
108.0913314887
 20
121.3226682478
 10
107.3935030489
 20
121.4170887192
 10
106.701827078
 20
121.4887331114
 10
106.0163035761
 20
121.5376014244
  0
LINE
  5
27D
100
AcDbEntity
  8
IMPORT_IGES
100
AcDbLine
 62
7
  6
CONTINUOUS
 10
112.5595260418
 20
120.2257639346
 11
112.396635144
 21
120.2799900839
  0
LINE
  5
27E
100
AcDbEntity
  8
IMPORT_IGES
100
AcDbLine
 62
7
  6
CONTINUOUS
 10
112.7225953252
 20
120.1704394486
 11
112.5595260418
 21
120.2257639346
  0
LWPOLYLINE
  5
27F
100
AcDbEntity
  8
IMPORT_IGES
100
AcDbPolyline
 62
7
  6
CONTINUOUS
 90
95
 70
0
 10
112.378104723
 20
120.4148764506
 10
113.1853231802
 20
120.135284961
 10
113.9957766213
 20
119.8293289346
 10
114.8094650462
 20
119.4970083713
 10
115.6271103559
 20
119.1380276379
 10
116.4479906495
 20
118.7526823677
 10
117.2699402237
 20
118.3418594601
 10
118.0927344047
 20
117.9055765948
 10
118.9165978663
 20
117.443816092
 10
119.7400389267
 20
116.9574118122
 10
120.5631522124
 20
116.4462622595
 10
121.385843097
 20
115.9104689298
 10
122.2063360197
 20
115.3511701706
 10
123.0246274695
 20
114.7683063402
 10
123.8407209575
 20
114.1619370803
 10
124.652851456
 20
113.5333796638
 10
125.4609255119
 20
112.8826609373
 10
126.2650365783
 20
112.2097540543
 10
127.0636999868
 20
111.5158957475
 10
127.8570598079
 20
110.8008965842
 10
128.644971971
 20
110.0649459972
 10
129.4255195961
 20
109.3098490183
 10
130.1984819966
 20
108.5357700527
 10
130.9640798591
 20
107.7425446952
 10
131.7210583631
 20
106.9314847612
 10
132.4695435542
 20
106.1024115406
 10
133.2094093869
 20
105.2555037434
 10
133.939022903
 20
104.3926093149
 10
134.658337477
 20
103.5137149725
 10
135.3673997345
 20
102.6188339987
 10
136.0647165947
 20
101.7098541863
 10
136.7502442736
 20
100.7867711434
 10
137.4240265552
 20
99.8495892619
 10
138.0847017108
 20
98.90020951
 10
138.7322311768
 20
97.9386317558
 10
139.3666535168
 20
96.9648561312
 10
139.9867226925
 20
95.980784
 10
140.5924578684
 20
94.9863123749
 10
141.18383988
 20
93.9815442432
 10
141.7595651953
 20
92.9686899309
 10
142.3195604286
 20
91.9478000379
 10
142.8638989658
 20
90.9188239644
 10
143.3914974324
 20
89.8838202369
 10
143.9023312704
 20
88.8427621119
 10
144.3964250379
 20
87.7956763329
 10
144.8727690353
 20
86.7447016575
 10
145.331332448
 20
85.6898158224
 10
145.7721460906
 20
84.6310410909
 10
146.1942927076
 20
83.5705830104
 10
146.5977289881
 20
82.508447841
 10
146.9824982431
 20
81.4446293227
 10
147.3478131492
 20
80.3813142227
 10
147.6936242723
 20
79.3185451219
 10
148.0199810466
 20
78.2562794395
 10
148.3262444515
 20
77.1965762009
 10
148.6124078405
 20
76.1392891002
 10
148.8784778601
 20
75.0845644433
 10
149.1238354291
 20
74.034900174
 10
149.348385687
 20
72.9905520129
 10
149.5522234944
 20
71.9512642394
 10
149.7350143515
 20
70.9187676352
 10
149.8967557763
 20
69.8928909367
 10
150.0374502509
 20
68.8738054076
 10
150.156770722
 20
67.8637556204
 10
150.2546617657
 20
66.8627942427
 10
150.331178806
 20
65.870868607
 10
150.386161061
 20
64.8900652829
 10
150.4195635273
 20
63.9204466395
 10
150.4314312085
 20
62.9619503077
 10
150.4217383335
 20
62.01647575
 10
150.3904361701
 20
61.0839838365
 10
150.3375734507
 20
60.164513697
 10
150.263270601
 20
59.2600821836
 10
150.1674912376
 20
58.3708039422
 10
150.0502717439
 20
57.4965643269
 10
149.9118416966
 20
56.6390362526
 10
149.7521546087
 20
55.798205626
 10
149.5712569672
 20
54.9740865404
 10
149.3695178087
 20
54.1683941897
 10
149.1468932308
 20
53.3811692175
 10
148.9034271359
 20
52.6123709802
 10
148.6396202687
 20
51.8635927406
 10
148.3554220481
 20
51.1348649476
 10
148.0508830552
 20
50.4261571524
 10
147.7266557783
 20
49.7389712714
 10
147.3827212834
 20
49.0733907093
 10
147.0190985044
 20
48.4293320615
 10
146.6364967313
 20
47.8080470304
 10
146.2348668846
 20
47.2095554342
 10
145.8142580438
 20
46.6338374547
 10
145.3755267374
 20
46.0820853396
 10
144.9186087335
 20
45.554329138
 10
144.443568264
 20
45.0505388008
 10
143.9514545539
 20
44.5718164293
 10
143.4422860104
 20
44.1182613451
  0
LINE
  5
280
100
AcDbEntity
  8
IMPORT_IGES
100
AcDbLine
 62
7
  6
CONTINUOUS
 10
112.8858412735
 20
120.1140172179
 11
112.7225953252
 21
120.1704394486
  0
LWPOLYLINE
  5
281
100
AcDbEntity
  8
IMPORT_IGES
100
AcDbPolyline
 62
7
  6
CONTINUOUS
 90
3
 70
0
 10
113.1310289682
 20
120.0273298924
 10
113.0492570042
 20
120.0564996105
 10
112.8858412735
 20
120.1140172179
  0
LWPOLYLINE
  5
282
100
AcDbEntity
  8
IMPORT_IGES
100
AcDbPolyline
 62
250
  6
CONTINUOUS
 90
28
 70
0
 10
115.8420702956
 20
121.2134634129
 10
114.9869054427
 20
121.5898551762
 10
114.1356137892
 20
121.9384778568
 10
113.2887621976
 20
122.2591853504
 10
112.4469350013
 20
122.5518438097
 10
111.6106625054
 20
122.816356562
 10
110.7804220259
 20
123.0526561884
 10
109.9567525997
 20
123.2606698646
 10
109.1401913237
 20
123.4403430961
 10
108.3312044888
 20
123.5916520457
 10
107.5302324043
 20
123.7145866058
 10
106.7378699626
 20
123.8091283119
 10
105.9547993775
 20
123.8752827229
 10
105.1816569807
 20
123.9131011416
 10
104.418773241
 20
123.9226735358
 10
103.6663616974
 20
123.90408205
 10
102.9248474159
 20
123.8574057292
 10
102.1947401535
 20
123.7827461
 10
101.4763816383
 20
123.6802044716
 10
100.7701987375
 20
123.5499008714
 10
100.0766527068
 20
123.3919804434
 10
99.3961299733
 20
123.2065907441
 10
98.7290870537
 20
122.9939162875
 10
98.075898895
 20
122.7541379022
 10
97.4368258148
 20
122.4874003715
 10
96.8123085734
 20
122.1939302201
 10
96.202694175
 20
121.8739340231
 10
95.6708542136
 20
121.565734234
  0
LWPOLYLINE
  5
283
100
AcDbEntity
  8
IMPORT_IGES
100
AcDbPolyline
 62
7
  6
CONTINUOUS
 90
10
 70
0
 10
148.0058693341
 20
50.6518951533
 10
148.2672576969
 20
51.2668659526
 10
148.5132863225
 20
51.8965596246
 10
148.7439552108
 20
52.5409761693
 10
148.9593680887
 20
53.200465163
 10
149.1594212293
 20
53.8746770293
 10
149.3438034523
 20
54.5625630394
 10
149.5124110308
 20
55.2637736169
 10
149.6653476917
 20
55.9786583381
 10
149.8026134349
 20
56.7072172029
  0
LWPOLYLINE
  5
284
100
AcDbEntity
  8
IMPORT_IGES
100
AcDbPolyline
 62
7
  6
CONTINUOUS
 90
10
 70
0
 10
106.0163035761
 20
121.5376014244
 10
105.4890457639
 20
121.5593773678
 10
104.9667740355
 20
121.5672394253
 10
104.449488391
 20
121.5611875968
 10
103.9370131371
 20
121.5412101493
 10
103.4295239671
 20
121.5073188158
 10
102.92754796
 20
121.4595487961
 10
102.4312608091
 20
121.3979118233
 10
101.9404868211
 20
121.3223961641
 10
101.455225996
 20
121.2330018187
  0
LWPOLYLINE
  5
285
100
AcDbEntity
  8
IMPORT_IGES
100
AcDbPolyline
 62
7
  6
CONTINUOUS
 90
76
 70
0
 10
133.965480865
 20
64.3171052051
 10
133.6753509156
 20
64.1501289058
 10
133.319204757
 20
63.9681807073
 10
132.9521753249
 20
63.8050846995
 10
132.5743813186
 20
63.6610087556
 10
132.1863479749
 20
63.5362686992
 10
131.7882284135
 20
63.4310654701
 10
131.3800599668
 20
63.3455893333
 10
130.9624840784
 20
63.280128262
 10
130.5366016527
 20
63.2349461147
 10
130.1029518414
 20
63.210141379
 10
129.6618467168
 20
63.2057349366
 10
129.2141256021
 20
63.2216762244
 10
128.7604495943
 20
63.2578956205
 10
128.3010987432
 20
63.3143168864
 10
127.8363685649
 20
63.3907912521
 10
127.3667693187
 20
63.4871787814
 10
126.8927471979
 20
63.6033818317
 10
126.4144970865
 20
63.7393278775
 10
125.9322892688
 20
63.894931375
 10
125.4468139909
 20
64.0700091302
 10
124.9588994764
 20
64.2643131857
 10
124.4691149337
 20
64.4775657251
 10
123.9778792746
 20
64.7095720877
 10
123.4858014994
 20
64.96014894
 10
122.9934208426
 20
65.2290402694
 10
122.501185392
 20
65.51592944
 10
122.0095664886
 20
65.8205188389
 10
121.51911653
 20
66.1424870666
 10
121.0302618664
 20
66.4814834796
 10
120.5432824041
 20
66.8371541712
 10
120.0586527517
 20
67.2091202014
 10
119.5768633544
 20
67.5970128105
 10
119.0982161581
 20
68.0004907553
 10
118.6230730463
 20
68.4192236799
 10
118.1520229803
 20
68.8527295128
 10
117.6857001754
 20
69.3004119814
 10
117.2246737384
 20
69.7616492939
 10
116.7692817579
 20
70.236120728
 10
116.3198078886
 20
70.7236686239
 10
115.8766498425
 20
71.2238839852
 10
115.4403055
 20
71.7362118846
 10
115.0112135601
 20
72.2602842739
 10
114.589788261
 20
72.7956767262
 10
114.1764810548
 20
73.3417853583
 10
113.7717749979
 20
73.8979546618
 10
113.3760715033
 20
74.4637005225
 10
112.9897783827
 20
75.0383989411
 10
112.61335693
 20
75.6211520177
 10
112.2472540469
 20
76.211192981
 10
111.891739394
 20
76.8081019989
 10
111.5469909851
 20
77.4114878575
 10
111.2133950618
 20
78.0205376163
 10
110.8912394214
 20
78.6348568229
 10
110.5805948159
 20
79.2546991504
 10
110.2816102185
 20
79.8799662997
 10
109.9948646636
 20
80.50954955
 10
109.7210626302
 20
81.1421815524
 10
109.4605740476
 20
81.7771251589
 10
109.2135822643
 20
82.4138444324
 10
108.980430408
 20
83.0513569011
 10
108.7613414234
 20
83.6891358961
 10
108.5565317417
 20
84.3264248935
 10
108.3662510549
 20
84.961898188
 10
108.1907937275
 20
85.5942633508
 10
108.0300967331
 20
86.2235603012
 10
107.883901853
 20
86.8504572344
 10
107.7523058595
 20
87.4745996972
 10
107.6355844425
 20
88.095070457
 10
107.5338510569
 20
88.7116681543
 10
107.4472571544
 20
89.3237190126
 10
107.3759857787
 20
89.9306084728
 10
107.3202428418
 20
90.5321993252
 10
107.2802188289
 20
91.1279977429
 10
107.2560488797
 20
91.7171704201
 10
107.247868682
 20
92.2990544839
  0
LWPOLYLINE
  5
286
100
AcDbEntity
  8
IMPORT_IGES
100
AcDbPolyline
 62
7
  6
CONTINUOUS
 90
3
 70
0
 10
133.8853138548
 20
64.3596075099
 10
134.2531746783
 20
64.5269590466
 10
134.4007089272
 20
64.6040768161
  0
LWPOLYLINE
  5
287
100
AcDbEntity
  8
IMPORT_IGES
100
AcDbPolyline
 62
7
  6
CONTINUOUS
 90
10
 70
0
 10
145.5214186854
 20
46.4905652392
 10
145.8384985023
 20
46.9040856696
 10
146.1453975607
 20
47.3299469214
 10
146.4421158607
 20
47.7681489947
 10
146.7287556393
 20
48.2188631313
 10
147.0052146595
 20
48.6819180893
 10
147.2711862102
 20
49.1568001431
 10
147.5265680544
 20
49.6433380508
 10
147.771462429
 20
50.1417030542
 10
148.0058693341
 20
50.6518951533
  0
LWPOLYLINE
  5
288
100
AcDbEntity
  8
IMPORT_IGES
100
AcDbPolyline
 62
7
  6
CONTINUOUS
 90
5
 70
0
 10
101.455225996
 20
121.2330018187
 10
100.8795034128
 20
121.1069605392
 10
100.3132776534
 20
120.9612782479
 10
99.756548718
 20
120.7959549448
 10
99.2090501051
 20
120.6108892276
  0
LWPOLYLINE
  5
289
100
AcDbEntity
  8
IMPORT_IGES
100
AcDbPolyline
 62
7
  6
CONTINUOUS
 90
4
 70
0
 10
143.4422860104
 20
44.1182613451
 10
142.9160442264
 20
43.6897742266
 10
142.373723205
 20
43.2871592098
 10
141.7588501569
 20
42.8744017717
  0
LWPOLYLINE
  5
28A
100
AcDbEntity
  8
IMPORT_IGES
100
AcDbPolyline
 62
7
  6
CONTINUOUS
 90
7
 70
0
 10
142.6071261136
 20
43.6411432321
 10
143.1347076932
 20
44.054404933
 10
143.6463075853
 20
44.4929790298
 10
144.1408829177
 20
44.9559715101
 10
144.6180860666
 20
45.4430843697
 10
145.0782646558
 20
45.9546156127
 10
145.5214186854
 20
46.4905652392
  0
LINE
  5
28B
100
AcDbEntity
  8
IMPORT_IGES
100
AcDbLine
 62
7
  6
CONTINUOUS
 10
143.5025221933
 20
44.171918287
 11
143.0570083717
 21
43.8771504735
  0
LWPOLYLINE
  5
28C
100
AcDbEntity
  8
IMPORT_IGES
100
AcDbPolyline
 62
7
  6
CONTINUOUS
 90
3
 70
0
 10
141.6788408806
 20
43.0001778797
 10
142.0639104705
 20
43.2534919313
 10
142.6071261136
 20
43.6411432321
  0
LINE
  5
28D
100
AcDbEntity
  8
IMPORT_IGES
100
AcDbLine
 62
7
  6
CONTINUOUS
 10
143.0568259385
 20
43.8774563002
 11
141.6783855209
 21
43.0009412201
  0
LWPOLYLINE
  5
28E
100
AcDbEntity
  8
IMPORT_IGES
100
AcDbPolyline
 62
7
  6
CONTINUOUS
 90
23
 70
0
 10
141.7588501569
 20
42.8744017717
 10
141.2406556542
 20
42.5595647237
 10
140.6512787205
 20
42.2353509059
 10
140.0471303854
 20
41.9378725799
 10
139.4281785105
 20
41.6670416284
 10
138.7956023786
 20
41.4233689721
 10
138.1493498191
 20
41.2068907959
 10
137.4894730024
 20
41.0175709149
 10
136.817307723
 20
40.8558116951
 10
136.1327472462
 20
40.7216697478
 10
135.4358983065
 20
40.6150884616
 10
134.7284169022
 20
40.5363003684
 10
134.0104524823
 20
40.4853730171
 10
133.2818555978
 20
40.4622388588
 10
132.5438338996
 20
40.4669277783
 10
131.7962513796
 20
40.499482865
 10
131.0392440461
 20
40.5598610296
 10
130.2744275746
 20
40.6479628894
 10
129.5017183729
 20
40.7639109001
 10
128.7212000333
 20
40.9075826061
 10
127.9347390087
 20
41.0785112573
 10
127.1429574499
 20
41.2765412704
 10
126.3452332061
 20
41.5018282286
  0
LWPOLYLINE
  5
28F
100
AcDbEntity
  8
IMPORT_IGES
100
AcDbPolyline
 62
7
  6
CONTINUOUS
 90
3
 70
0
 10
140.9295341219
 20
42.5541265176
 10
141.50471314
 20
42.8911530265
 10
141.6788408806
 20
43.0001778797
  0
LWPOLYLINE
  5
290
100
AcDbEntity
  8
IMPORT_IGES
100
AcDbPolyline
 62
7
  6
CONTINUOUS
 90
3
 70
0
 10
142.441193937
 20
43.3372489699
 10
142.3272062877
 20
43.2712250529
 10
141.7449063863
 20
42.9675353861
  0
LWPOLYLINE
  5
291
100
AcDbEntity
  8
IMPORT_IGES
100
AcDbPolyline
 62
250
  6
CONTINUOUS
 90
32
 70
0
 10
142.3787186178
 20
40.6688039537
 10
142.9946004928
 20
41.0256239893
 10
143.5797249293
 20
41.4008795265
 10
144.1485713158
 20
41.8024642525
 10
144.7008278249
 20
42.2301272798
 10
145.2362086952
 20
42.6836286514
 10
145.7542972687
 20
43.162596183
 10
146.2546140092
 20
43.666539807
 10
146.7367864488
 20
44.1950072237
 10
147.2005989925
 20
44.7476822037
 10
147.6458346879
 20
45.3242428963
 10
148.0722032635
 20
45.9242542814
 10
148.4794656787
 20
46.5473182702
 10
148.8674782628
 20
47.1931751244
 10
149.2360176024
 20
47.8614390149
 10
149.5848203708
 20
48.5516177698
 10
149.9136834487
 20
49.2632931046
 10
150.2224252846
 20
49.996070793
 10
150.5108108232
 20
50.7493915207
 10
150.7785886191
 20
51.5225573132
 10
151.0255024482
 20
52.3147039052
 10
151.251526563
 20
53.1256138782
 10
151.4567284406
 20
53.9555829416
 10
151.6409624093
 20
54.8042668055
 10
151.8040219664
 20
55.6709874261
 10
151.945812238
 20
56.5555978978
 10
152.0661669519
 20
57.4575718779
 10
152.164932983
 20
58.3763647026
 10
152.2419996781
 20
59.3118222415
 10
152.297220174
 20
60.2635277345
 10
152.3304427412
 20
61.230779886
 10
152.3415425605
 20
62.2129944287
  0
LINE
  5
292
100
AcDbEntity
  8
IMPORT_IGES
100
AcDbLine
 62
7
  6
CONTINUOUS
 10
142.3787175668
 20
40.6688033765
 11
213.5997380077
 21
79.7854128902
  0
LINE
  5
293
100
AcDbEntity
  8
IMPORT_IGES
100
AcDbLine
 62
7
  6
CONTINUOUS
 10
141.7449063863
 20
42.9675353861
 11
141.206352392
 21
42.7163283577
  0
LWPOLYLINE
  5
294
100
AcDbEntity
  8
IMPORT_IGES
100
AcDbPolyline
 62
7
  6
CONTINUOUS
 90
32
 70
0
 10
223.9330335303
 20
102.1307342412
 10
223.9212439347
 20
101.1010807808
 10
223.8860460721
 20
100.0869567369
 10
223.8274399425
 20
99.0883621097
 10
223.7453461666
 20
98.1045658209
 10
223.6398441237
 20
97.1362989488
 10
223.5111719515
 20
96.1857547272
 10
223.3592604831
 20
95.2529790131
 10
223.1841788855
 20
94.3379259496
 10
222.9863727969
 20
93.4426512006
 10
222.7659051074
 20
92.567504407
 10
222.522712927
 20
91.7121359279
 10
222.257053224
 20
90.8775525049
 10
221.9687556951
 20
90.0633728763
 10
221.6579906436
 20
89.2699783039
 10
221.3255259479
 20
88.4995193146
 10
220.9713628912
 20
87.7522240393
 10
220.5955001903
 20
87.0278643471
 10
220.1987018745
 20
86.3279063728
 10
219.7808328147
 20
85.652301898
 10
219.3420281399
 20
85.001099141
 10
218.8834572667
 20
84.3759088911
 10
218.4052707099
 20
83.7770173762
 10
217.9073179547
 20
83.2041383683
 10
217.390316873
 20
82.6580239725
 10
216.854173564
 20
82.1385957073
 10
216.2989819287
 20
81.6459320542
 10
215.7257415417
 20
81.1810205615
 10
215.1343038276
 20
80.7438471575
 10
214.5248173619
 20
80.334425914
 10
213.8987274459
 20
79.9537865943
 10
213.5995580271
 20
79.7853140412
  0
ENDSEC
  0
SECTION
  2
OBJECTS
  0
DICTIONARY
  5
C
100
AcDbDictionary
280
0
281
1
  3
ACAD_GROUP
350
D
  3
ACAD_MLINESTYLE
350
17
  3
ACAD_LAYOUT
350
1A
  3
ACAD_PLOTSETTINGS
350
19
  3
ACAD_PLOTSTYLENAME
350
E
  0
DICTIONARY
  5
D
102
{ACAD_REACTORS
330
C
102
}
100
AcDbDictionary
280
0
281
1
  0
ACDBDICTIONARYWDFLT
  5
E
102
{ACAD_REACTORS
330
C
102
}
100
AcDbDictionary
281
1
  3
Normal
350
F
100
AcDbDictionaryWithDefault
340
F
  0
DICTIONARY
  5
17
102
{ACAD_REACTORS
330
C
102
}
100
AcDbDictionary
280
0
281
1
  3
Standard
350
18
  0
DICTIONARY
  5
19
102
{ACAD_REACTORS
330
C
102
}
100
AcDbDictionary
281
1
  0
DICTIONARY
  5
1A
102
{ACAD_REACTORS
330
C
102
}
100
AcDbDictionary
281
1
  3
Model
350
295
  3
Layout1
350
296
  0
ACDBPLACEHOLDER
  5
F
102
{ACAD_REACTORS
330
E
102
}
  0
MLINESTYLE
  5
18
102
{ACAD_REACTORS
330
17
102
}
100
AcDbMlineStyle
  2
STANDARD
 70
0
  3

 62
256
 51
90.0
 52
90.0
 71
2
 49
0.5
 62
256
  6
BYLAYER
 49
-0.5
 62
256
  6
BYLAYER
  0
LAYOUT
  5
295
102
{ACAD_REACTORS
330
1A
102
}
100
AcDbPlotSettings
  1

  2
none_device
  4
ISO_A4_(297.00_x_210.00_MM)
  6

 40
0.0
 41
0.0
 42
0.0
 43
0.0
 44
297.0
 45
210.0
 46
0.0
 47
0.0
 48
0.0
 49
0.0
140
0.0
141
0.0
142
1.0
143
1.0
 70
1024
 72
1
 73
0
 74
0
  7

 75
0
147
1.0
148
0.0
149
0.0
100
AcDbLayout
  1
Model
 70
0
 71
0
 10
0.0
 20
0.0
 11
297.0
 21
210.0
 12
0.0
 22
0.0
 32
0.0
 14
0.0
 24
0.0
 34
0.0
 15
0.0
 25
0.0
 35
0.0
146
0.0
 13
0.0
 23
0.0
 33
0.0
 16
1.0
 26
0.0
 36
0.0
 17
0.0
 27
1.0
 37
0.0
 76
0
330
213
345
0
346
0
  0
LAYOUT
  5
296
102
{ACAD_REACTORS
330
1A
102
}
100
AcDbPlotSettings
  1

  2
none_device
  4
ISO_A4_(297.00_x_210.00_MM)
  6

 40
0.0
 41
0.0
 42
0.0
 43
0.0
 44
297.0
 45
210.0
 46
0.0
 47
0.0
 48
0.0
 49
0.0
140
0.0
141
0.0
142
1.0
143
1.0
 70
0
 72
1
 73
0
 74
0
  7

 75
0
147
1.0
148
0.0
149
0.0
100
AcDbLayout
  1
Layout1
 70
0
 71
1
 10
0.0
 20
0.0
 11
297.0
 21
210.0
 12
0.0
 22
0.0
 32
0.0
 14
0.0
 24
0.0
 34
0.0
 15
0.0
 25
0.0
 35
0.0
146
0.0
 13
0.0
 23
0.0
 33
0.0
 16
1.0
 26
0.0
 36
0.0
 17
0.0
 27
1.0
 37
0.0
 76
0
330
214
345
0
346
0
  0
ENDSEC
  0
EOF
