  0
SECTION
  2
HEADER
  9
$ACADVER
  1
AC1015
  9
$DWGCODEPAGE
  3
ANSI_1252
  9
$EXTMAX
 10
297.0
 20
210.0
 30
0.0
  9
$EXTMIN
 10
0.0
 20
0.0
 30
0.0
  9
$LIMMIN
 10
0.0
 20
0.0
  9
$LIMMAX
 10
297.0
 20
210.0
  9
$VIEWCTR
 10
148.5
 20
105.0
  9
$VIEWSIZE
 40
210.0
  9
$CLAYER
  8
0
  9
$LTSCALE
 40
16.335
  9
$CELTYPE
  6
BYLAYER
  9
$DIMSCALE
 40
1.0
  9
$DIMASZ
 40
3.0
  9
$DIMEXO
 40
0.5
  9
$DIMDLI
 40
11.286
  9
$DIMEXE
 40
1.5
  9
$DIMCEN
 40
2.673
  9
$DIMLFAC
 40
1.0
  9
$DIMBLK
  1
_FILLED
  9
$DIMTXT
 40
3.0
  9
$DIMTOL
 70
1
  9
$DIMLIM
 70
0
  9
$DIMTFAC
 40
1.0
  9
$DIMTP
 40
0.01
  9
$DIMTM
 40
0.01
  9
$DIMGAP
 40
0.625
  9
$DIMDSEP
 70
44
  9
$PDMODE
 70
3
  9
$PDSIZE
 40
3.0
  9
$HANDSEED
  5
3E8
  9
$TILEMODE
 70
1
  9
$MEASUREMENT
 70
1
  9
$INSUNITS
 70
4
  0
ENDSEC
  0
SECTION
  2
CLASSES
  0
CLASS
  1
ACDBDICTIONARYWDFLT
  2
AcDbDictionaryWithDefault
  3
AutoCAD 2000
 90
0
280
0
281
0
  0
CLASS
  1
ACDBPLACEHOLDER
  2
AcDbPlaceHolder
  3
AutoCAD 2000
 90
0
280
0
281
0
  0
CLASS
  1
LAYOUT
  2
AcDbLayout
  3
AutoCAD 2000
 90
0
280
0
281
0
  0
ENDSEC
  0
SECTION
  2
TABLES
  0
TABLE
  2
VPORT
  5
8
100
AcDbSymbolTable
 70
2
  0
VPORT
  5
1F4
100
AcDbSymbolTableRecord
100
AcDbViewportTableRecord
  2
*ACTIVE
 70
0
 10
0.0
 20
0.0
 11
1.0
 21
1.0
 12
148.5
 22
105.0
 13
0.0
 23
0.0
 14
1.0
 24
1.0
 15
0.0
 25
0.0
 16
0.0
 26
0.0
 36
1.0
 17
0.0
 27
0.0
 37
0.0
 40
210.0
 41
1.4142857143
 42
50.0
 43
0.0
 44
0.0
 50
0.0
 51
0.0
 71
0
 72
100
 73
1
 74
1
 75
0
 76
0
 77
0
 78
0
  0
ENDTAB
  0
TABLE
  2
LTYPE
  5
5
100
AcDbSymbolTable
 70
6
  0
LTYPE
  5
14
100
AcDbSymbolTableRecord
100
AcDbLinetypeTableRecord
  2
BYBLOCK
 70
0
  3

 72
65
 73
0
 40
0.0
  0
LTYPE
  5
15
100
AcDbSymbolTableRecord
100
AcDbLinetypeTableRecord
  2
BYLAYER
 70
0
  3

 72
65
 73
0
 40
0.0
  0
LTYPE
  5
16
100
AcDbSymbolTableRecord
100
AcDbLinetypeTableRecord
  2
CONTINUOUS
 70
64
  3
Solid line
 72
65
 73
0
 40
0.0
  0
LTYPE
  5
1F5
100
AcDbSymbolTableRecord
100
AcDbLinetypeTableRecord
  2
CENTER
 70
64
  3
____ _ ____ _ ____ _ ____ _ ____ _ ____ _ ____
 72
65
 73
4
 40
0.6
 49
0.375
 74
0
 49
-0.075
 74
0
 49
0.075
 74
0
 49
-0.075
 74
0
  0
LTYPE
  5
1F6
100
AcDbSymbolTableRecord
100
AcDbLinetypeTableRecord
  2
HIDDEN
 70
64
  3
- - - - - - - - - - - - - - - - - - - -
 72
65
 73
2
 40
0.2
 49
0.1
 74
0
 49
-0.1
 74
0
  0
LTYPE
  5
1F7
100
AcDbSymbolTableRecord
100
AcDbLinetypeTableRecord
  2
PHANTOM
 70
64
  3
_____ _ _ _____ _ _ _____ _ _ _____
 72
65
 73
6
 40
0.8
 49
0.45
 74
0
 49
-0.05
 74
0
 49
0.1
 74
0
 49
-0.05
 74
0
 49
0.1
 74
0
 49
-0.05
 74
0
  0
LTYPE
  5
1F8
100
AcDbSymbolTableRecord
100
AcDbLinetypeTableRecord
  2
DOT
 70
64
  3
. . . . . . . . . . . . . . . . . . . .
 72
65
 73
2
 40
0.2
 49
0.1
 74
0
 49
-0.1
 74
0
  0
LTYPE
  5
1F9
100
AcDbSymbolTableRecord
100
AcDbLinetypeTableRecord
  2
DASHED
 70
64
  3
- - - - - - - - - - - - - - - - - - - -
 72
65
 73
2
 40
0.2
 49
0.1
 74
0
 49
-0.1
 74
0
  0
ENDTAB
  0
TABLE
  2
LAYER
  5
2
100
AcDbSymbolTable
 70
36
  0
LAYER
  5
10
100
AcDbSymbolTableRecord
100
AcDbLayerTableRecord
  2
0
 70
0
 62
7
  6
CONTINUOUS
370
-3
390
F
  0
LAYER
  5
1FA
100
AcDbSymbolTableRecord
100
AcDbLayerTableRecord
  2
DEFAULT_1
 70
0
 62
7
  6
CENTER
370
-3
390
F
  0
LAYER
  5
1FB
100
AcDbSymbolTableRecord
100
AcDbLayerTableRecord
  2
DEFAULT_2
 70
0
 62
7
  6
HIDDEN
370
-3
390
F
  0
LAYER
  5
1FC
100
AcDbSymbolTableRecord
100
AcDbLayerTableRecord
  2
DEFAULT_3
 70
0
 62
7
  6
PHANTOM
370
-3
390
F
  0
LAYER
  5
1FD
100
AcDbSymbolTableRecord
100
AcDbLayerTableRecord
  2
102A_65000
 70
0
 62
7
  6
CONTINUOUS
370
-3
390
F
  0
LAYER
  5
1FE
100
AcDbSymbolTableRecord
100
AcDbLayerTableRecord
  2
102A_65000_1
 70
0
 62
7
  6
CONTINUOUS
370
-3
390
F
  0
LAYER
  5
1FF
100
AcDbSymbolTableRecord
100
AcDbLayerTableRecord
  2
133A_110000
 70
0
 62
7
  6
CONTINUOUS
370
-3
390
F
  0
LAYER
  5
200
100
AcDbSymbolTableRecord
100
AcDbLayerTableRecord
  2
133A_110000_1
 70
0
 62
7
  6
CONTINUOUS
370
-3
390
F
  0
LAYER
  5
201
100
AcDbSymbolTableRecord
100
AcDbLayerTableRecord
  2
1608-CC-RF-VIMAR_80000
 70
0
 62
7
  6
CONTINUOUS
370
-3
390
F
  0
LAYER
  5
202
100
AcDbSymbolTableRecord
100
AcDbLayerTableRecord
  2
1608-CC-RF-VIMAR_80000_1
 70
0
 62
7
  6
CONTINUOUS
370
-3
390
F
  0
LAYER
  5
203
100
AcDbSymbolTableRecord
100
AcDbLayerTableRecord
  2
1608-CC-RF-VIMAR_80000_10
 70
0
 62
7
  6
CONTINUOUS
370
-3
390
F
  0
LAYER
  5
204
100
AcDbSymbolTableRecord
100
AcDbLayerTableRecord
  2
1608-CC-RF-VIMAR_80000_11
 70
0
 62
7
  6
CONTINUOUS
370
-3
390
F
  0
LAYER
  5
205
100
AcDbSymbolTableRecord
100
AcDbLayerTableRecord
  2
1608-CC-RF-VIMAR_80000_12
 70
0
 62
7
  6
CONTINUOUS
370
-3
390
F
  0
LAYER
  5
206
100
AcDbSymbolTableRecord
100
AcDbLayerTableRecord
  2
1608-CC-RF-VIMAR_80000_13
 70
0
 62
7
  6
CONTINUOUS
370
-3
390
F
  0
LAYER
  5
207
100
AcDbSymbolTableRecord
100
AcDbLayerTableRecord
  2
1608-CC-RF-VIMAR_80000_14
 70
0
 62
7
  6
CONTINUOUS
370
-3
390
F
  0
LAYER
  5
208
100
AcDbSymbolTableRecord
100
AcDbLayerTableRecord
  2
1608-CC-RF-VIMAR_80000_15
 70
0
 62
7
  6
CONTINUOUS
370
-3
390
F
  0
LAYER
  5
209
100
AcDbSymbolTableRecord
100
AcDbLayerTableRecord
  2
1608-CC-RF-VIMAR_80000_16
 70
0
 62
7
  6
CONTINUOUS
370
-3
390
F
  0
LAYER
  5
20A
100
AcDbSymbolTableRecord
100
AcDbLayerTableRecord
  2
1608-CC-RF-VIMAR_80000_17
 70
0
 62
7
  6
CONTINUOUS
370
-3
390
F
  0
LAYER
  5
20B
100
AcDbSymbolTableRecord
100
AcDbLayerTableRecord
  2
1608-CC-RF-VIMAR_80000_18
 70
0
 62
7
  6
CONTINUOUS
370
-3
390
F
  0
LAYER
  5
20C
100
AcDbSymbolTableRecord
100
AcDbLayerTableRecord
  2
1608-CC-RF-VIMAR_80000_19
 70
0
 62
7
  6
CONTINUOUS
370
-3
390
F
  0
LAYER
  5
20D
100
AcDbSymbolTableRecord
100
AcDbLayerTableRecord
  2
1608-CC-RF-VIMAR_80000_2
 70
0
 62
7
  6
CONTINUOUS
370
-3
390
F
  0
LAYER
  5
20E
100
AcDbSymbolTableRecord
100
AcDbLayerTableRecord
  2
1608-CC-RF-VIMAR_80000_20
 70
0
 62
7
  6
CONTINUOUS
370
-3
390
F
  0
LAYER
  5
20F
100
AcDbSymbolTableRecord
100
AcDbLayerTableRecord
  2
1608-CC-RF-VIMAR_80000_21
 70
0
 62
7
  6
CONTINUOUS
370
-3
390
F
  0
LAYER
  5
210
100
AcDbSymbolTableRecord
100
AcDbLayerTableRecord
  2
1608-CC-RF-VIMAR_80000_22
 70
0
 62
7
  6
CONTINUOUS
370
-3
390
F
  0
LAYER
  5
211
100
AcDbSymbolTableRecord
100
AcDbLayerTableRecord
  2
1608-CC-RF-VIMAR_80000_23
 70
0
 62
7
  6
CONTINUOUS
370
-3
390
F
  0
LAYER
  5
212
100
AcDbSymbolTableRecord
100
AcDbLayerTableRecord
  2
1608-CC-RF-VIMAR_80000_24
 70
0
 62
7
  6
CONTINUOUS
370
-3
390
F
  0
LAYER
  5
213
100
AcDbSymbolTableRecord
100
AcDbLayerTableRecord
  2
1608-CC-RF-VIMAR_80000_25
 70
0
 62
7
  6
CONTINUOUS
370
-3
390
F
  0
LAYER
  5
214
100
AcDbSymbolTableRecord
100
AcDbLayerTableRecord
  2
1608-CC-RF-VIMAR_80000_26
 70
0
 62
7
  6
CONTINUOUS
370
-3
390
F
  0
LAYER
  5
215
100
AcDbSymbolTableRecord
100
AcDbLayerTableRecord
  2
1608-CC-RF-VIMAR_80000_27
 70
0
 62
7
  6
CONTINUOUS
370
-3
390
F
  0
LAYER
  5
216
100
AcDbSymbolTableRecord
100
AcDbLayerTableRecord
  2
1608-CC-RF-VIMAR_80000_28
 70
0
 62
7
  6
CONTINUOUS
370
-3
390
F
  0
LAYER
  5
217
100
AcDbSymbolTableRecord
100
AcDbLayerTableRecord
  2
1608-CC-RF-VIMAR_80000_29
 70
0
 62
7
  6
CONTINUOUS
370
-3
390
F
  0
LAYER
  5
218
100
AcDbSymbolTableRecord
100
AcDbLayerTableRecord
  2
1608-CC-RF-VIMAR_80000_3
 70
0
 62
7
  6
CONTINUOUS
370
-3
390
F
  0
LAYER
  5
219
100
AcDbSymbolTableRecord
100
AcDbLayerTableRecord
  2
1608-CC-RF-VIMAR_80000_30
 70
0
 62
7
  6
CONTINUOUS
370
-3
390
F
  0
LAYER
  5
21A
100
AcDbSymbolTableRecord
100
AcDbLayerTableRecord
  2
1608-CC-RF-VIMAR_80000_31
 70
0
 62
7
  6
CONTINUOUS
370
-3
390
F
  0
LAYER
  5
21B
100
AcDbSymbolTableRecord
100
AcDbLayerTableRecord
  2
1608-CC-RF-VIMAR_80000_32
 70
0
 62
7
  6
CONTINUOUS
370
-3
390
F
  0
LAYER
  5
21C
100
AcDbSymbolTableRecord
100
AcDbLayerTableRecord
  2
1608-CC-RF-VIMAR_80000_33
 70
0
 62
7
  6
CONTINUOUS
370
-3
390
F
  0
LAYER
  5
21D
100
AcDbSymbolTableRecord
100
AcDbLayerTableRecord
  2
1608-CC-RF-VIMAR_80000_34
 70
0
 62
7
  6
CONTINUOUS
370
-3
390
F
  0
LAYER
  5
21E
100
AcDbSymbolTableRecord
100
AcDbLayerTableRecord
  2
1608-CC-RF-VIMAR_80000_35
 70
0
 62
7
  6
CONTINUOUS
370
-3
390
F
  0
LAYER
  5
21F
100
AcDbSymbolTableRecord
100
AcDbLayerTableRecord
  2
1608-CC-RF-VIMAR_80000_36
 70
0
 62
7
  6
CONTINUOUS
370
-3
390
F
  0
LAYER
  5
220
100
AcDbSymbolTableRecord
100
AcDbLayerTableRecord
  2
1608-CC-RF-VIMAR_80000_37
 70
0
 62
7
  6
CONTINUOUS
370
-3
390
F
  0
LAYER
  5
221
100
AcDbSymbolTableRecord
100
AcDbLayerTableRecord
  2
1608-CC-RF-VIMAR_80000_38
 70
0
 62
7
  6
CONTINUOUS
370
-3
390
F
  0
LAYER
  5
222
100
AcDbSymbolTableRecord
100
AcDbLayerTableRecord
  2
1608-CC-RF-VIMAR_80000_4
 70
0
 62
7
  6
CONTINUOUS
370
-3
390
F
  0
LAYER
  5
223
100
AcDbSymbolTableRecord
100
AcDbLayerTableRecord
  2
1608-CC-RF-VIMAR_80000_5
 70
0
 62
7
  6
CONTINUOUS
370
-3
390
F
  0
LAYER
  5
224
100
AcDbSymbolTableRecord
100
AcDbLayerTableRecord
  2
1608-CC-RF-VIMAR_80000_6
 70
0
 62
7
  6
CONTINUOUS
370
-3
390
F
  0
LAYER
  5
225
100
AcDbSymbolTableRecord
100
AcDbLayerTableRecord
  2
1608-CC-RF-VIMAR_80000_7
 70
0
 62
7
  6
CONTINUOUS
370
-3
390
F
  0
LAYER
  5
226
100
AcDbSymbolTableRecord
100
AcDbLayerTableRecord
  2
1608-CC-RF-VIMAR_80000_8
 70
0
 62
7
  6
CONTINUOUS
370
-3
390
F
  0
LAYER
  5
227
100
AcDbSymbolTableRecord
100
AcDbLayerTableRecord
  2
1608-CC-RF-VIMAR_80000_9
 70
0
 62
7
  6
CONTINUOUS
370
-3
390
F
  0
LAYER
  5
228
100
AcDbSymbolTableRecord
100
AcDbLayerTableRecord
  2
1608-R-RF-VIMAR_45000
 70
0
 62
7
  6
CONTINUOUS
370
-3
390
F
  0
LAYER
  5
229
100
AcDbSymbolTableRecord
100
AcDbLayerTableRecord
  2
1608-R-RF-VIMAR_45000_1
 70
0
 62
7
  6
CONTINUOUS
370
-3
390
F
  0
LAYER
  5
22A
100
AcDbSymbolTableRecord
100
AcDbLayerTableRecord
  2
1608-R-RF-VIMAR_45000_10
 70
0
 62
7
  6
CONTINUOUS
370
-3
390
F
  0
LAYER
  5
22B
100
AcDbSymbolTableRecord
100
AcDbLayerTableRecord
  2
1608-R-RF-VIMAR_45000_11
 70
0
 62
7
  6
CONTINUOUS
370
-3
390
F
  0
LAYER
  5
22C
100
AcDbSymbolTableRecord
100
AcDbLayerTableRecord
  2
1608-R-RF-VIMAR_45000_12
 70
0
 62
7
  6
CONTINUOUS
370
-3
390
F
  0
LAYER
  5
22D
100
AcDbSymbolTableRecord
100
AcDbLayerTableRecord
  2
1608-R-RF-VIMAR_45000_13
 70
0
 62
7
  6
CONTINUOUS
370
-3
390
F
  0
LAYER
  5
22E
100
AcDbSymbolTableRecord
100
AcDbLayerTableRecord
  2
1608-R-RF-VIMAR_45000_14
 70
0
 62
7
  6
CONTINUOUS
370
-3
390
F
  0
LAYER
  5
22F
100
AcDbSymbolTableRecord
100
AcDbLayerTableRecord
  2
1608-R-RF-VIMAR_45000_15
 70
0
 62
7
  6
CONTINUOUS
370
-3
390
F
  0
LAYER
  5
230
100
AcDbSymbolTableRecord
100
AcDbLayerTableRecord
  2
1608-R-RF-VIMAR_45000_16
 70
0
 62
7
  6
CONTINUOUS
370
-3
390
F
  0
LAYER
  5
231
100
AcDbSymbolTableRecord
100
AcDbLayerTableRecord
  2
1608-R-RF-VIMAR_45000_17
 70
0
 62
7
  6
CONTINUOUS
370
-3
390
F
  0
LAYER
  5
232
100
AcDbSymbolTableRecord
100
AcDbLayerTableRecord
  2
1608-R-RF-VIMAR_45000_18
 70
0
 62
7
  6
CONTINUOUS
370
-3
390
F
  0
LAYER
  5
233
100
AcDbSymbolTableRecord
100
AcDbLayerTableRecord
  2
1608-R-RF-VIMAR_45000_19
 70
0
 62
7
  6
CONTINUOUS
370
-3
390
F
  0
LAYER
  5
234
100
AcDbSymbolTableRecord
100
AcDbLayerTableRecord
  2
1608-R-RF-VIMAR_45000_2
 70
0
 62
7
  6
CONTINUOUS
370
-3
390
F
  0
LAYER
  5
235
100
AcDbSymbolTableRecord
100
AcDbLayerTableRecord
  2
1608-R-RF-VIMAR_45000_20
 70
0
 62
7
  6
CONTINUOUS
370
-3
390
F
  0
LAYER
  5
236
100
AcDbSymbolTableRecord
100
AcDbLayerTableRecord
  2
1608-R-RF-VIMAR_45000_21
 70
0
 62
7
  6
CONTINUOUS
370
-3
390
F
  0
LAYER
  5
237
100
AcDbSymbolTableRecord
100
AcDbLayerTableRecord
  2
1608-R-RF-VIMAR_45000_22
 70
0
 62
7
  6
CONTINUOUS
370
-3
390
F
  0
LAYER
  5
238
100
AcDbSymbolTableRecord
100
AcDbLayerTableRecord
  2
1608-R-RF-VIMAR_45000_23
 70
0
 62
7
  6
CONTINUOUS
370
-3
390
F
  0
LAYER
  5
239
100
AcDbSymbolTableRecord
100
AcDbLayerTableRecord
  2
1608-R-RF-VIMAR_45000_24
 70
0
 62
7
  6
CONTINUOUS
370
-3
390
F
  0
LAYER
  5
23A
100
AcDbSymbolTableRecord
100
AcDbLayerTableRecord
  2
1608-R-RF-VIMAR_45000_25
 70
0
 62
7
  6
CONTINUOUS
370
-3
390
F
  0
LAYER
  5
23B
100
AcDbSymbolTableRecord
100
AcDbLayerTableRecord
  2
1608-R-RF-VIMAR_45000_26
 70
0
 62
7
  6
CONTINUOUS
370
-3
390
F
  0
LAYER
  5
23C
100
AcDbSymbolTableRecord
100
AcDbLayerTableRecord
  2
1608-R-RF-VIMAR_45000_27
 70
0
 62
7
  6
CONTINUOUS
370
-3
390
F
  0
LAYER
  5
23D
100
AcDbSymbolTableRecord
100
AcDbLayerTableRecord
  2
1608-R-RF-VIMAR_45000_28
 70
0
 62
7
  6
CONTINUOUS
370
-3
390
F
  0
LAYER
  5
23E
100
AcDbSymbolTableRecord
100
AcDbLayerTableRecord
  2
1608-R-RF-VIMAR_45000_29
 70
0
 62
7
  6
CONTINUOUS
370
-3
390
F
  0
LAYER
  5
23F
100
AcDbSymbolTableRecord
100
AcDbLayerTableRecord
  2
1608-R-RF-VIMAR_45000_3
 70
0
 62
7
  6
CONTINUOUS
370
-3
390
F
  0
LAYER
  5
240
100
AcDbSymbolTableRecord
100
AcDbLayerTableRecord
  2
1608-R-RF-VIMAR_45000_30
 70
0
 62
7
  6
CONTINUOUS
370
-3
390
F
  0
LAYER
  5
241
100
AcDbSymbolTableRecord
100
AcDbLayerTableRecord
  2
1608-R-RF-VIMAR_45000_31
 70
0
 62
7
  6
CONTINUOUS
370
-3
390
F
  0
LAYER
  5
242
100
AcDbSymbolTableRecord
100
AcDbLayerTableRecord
  2
1608-R-RF-VIMAR_45000_32
 70
0
 62
7
  6
CONTINUOUS
370
-3
390
F
  0
LAYER
  5
243
100
AcDbSymbolTableRecord
100
AcDbLayerTableRecord
  2
1608-R-RF-VIMAR_45000_33
 70
0
 62
7
  6
CONTINUOUS
370
-3
390
F
  0
LAYER
  5
244
100
AcDbSymbolTableRecord
100
AcDbLayerTableRecord
  2
1608-R-RF-VIMAR_45000_34
 70
0
 62
7
  6
CONTINUOUS
370
-3
390
F
  0
LAYER
  5
245
100
AcDbSymbolTableRecord
100
AcDbLayerTableRecord
  2
1608-R-RF-VIMAR_45000_35
 70
0
 62
7
  6
CONTINUOUS
370
-3
390
F
  0
LAYER
  5
246
100
AcDbSymbolTableRecord
100
AcDbLayerTableRecord
  2
1608-R-RF-VIMAR_45000_36
 70
0
 62
7
  6
CONTINUOUS
370
-3
390
F
  0
LAYER
  5
247
100
AcDbSymbolTableRecord
100
AcDbLayerTableRecord
  2
1608-R-RF-VIMAR_45000_37
 70
0
 62
7
  6
CONTINUOUS
370
-3
390
F
  0
LAYER
  5
248
100
AcDbSymbolTableRecord
100
AcDbLayerTableRecord
  2
1608-R-RF-VIMAR_45000_38
 70
0
 62
7
  6
CONTINUOUS
370
-3
390
F
  0
LAYER
  5
249
100
AcDbSymbolTableRecord
100
AcDbLayerTableRecord
  2
1608-R-RF-VIMAR_45000_39
 70
0
 62
7
  6
CONTINUOUS
370
-3
390
F
  0
LAYER
  5
24A
100
AcDbSymbolTableRecord
100
AcDbLayerTableRecord
  2
1608-R-RF-VIMAR_45000_4
 70
0
 62
7
  6
CONTINUOUS
370
-3
390
F
  0
LAYER
  5
24B
100
AcDbSymbolTableRecord
100
AcDbLayerTableRecord
  2
1608-R-RF-VIMAR_45000_40
 70
0
 62
7
  6
CONTINUOUS
370
-3
390
F
  0
LAYER
  5
24C
100
AcDbSymbolTableRecord
100
AcDbLayerTableRecord
  2
1608-R-RF-VIMAR_45000_41
 70
0
 62
7
  6
CONTINUOUS
370
-3
390
F
  0
LAYER
  5
24D
100
AcDbSymbolTableRecord
100
AcDbLayerTableRecord
  2
1608-R-RF-VIMAR_45000_42
 70
0
 62
7
  6
CONTINUOUS
370
-3
390
F
  0
LAYER
  5
24E
100
AcDbSymbolTableRecord
100
AcDbLayerTableRecord
  2
1608-R-RF-VIMAR_45000_43
 70
0
 62
7
  6
CONTINUOUS
370
-3
390
F
  0
LAYER
  5
24F
100
AcDbSymbolTableRecord
100
AcDbLayerTableRecord
  2
1608-R-RF-VIMAR_45000_44
 70
0
 62
7
  6
CONTINUOUS
370
-3
390
F
  0
LAYER
  5
250
100
AcDbSymbolTableRecord
100
AcDbLayerTableRecord
  2
1608-R-RF-VIMAR_45000_45
 70
0
 62
7
  6
CONTINUOUS
370
-3
390
F
  0
LAYER
  5
251
100
AcDbSymbolTableRecord
100
AcDbLayerTableRecord
  2
1608-R-RF-VIMAR_45000_46
 70
0
 62
7
  6
CONTINUOUS
370
-3
390
F
  0
LAYER
  5
252
100
AcDbSymbolTableRecord
100
AcDbLayerTableRecord
  2
1608-R-RF-VIMAR_45000_47
 70
0
 62
7
  6
CONTINUOUS
370
-3
390
F
  0
LAYER
  5
253
100
AcDbSymbolTableRecord
100
AcDbLayerTableRecord
  2
1608-R-RF-VIMAR_45000_48
 70
0
 62
7
  6
CONTINUOUS
370
-3
390
F
  0
LAYER
  5
254
100
AcDbSymbolTableRecord
100
AcDbLayerTableRecord
  2
1608-R-RF-VIMAR_45000_49
 70
0
 62
7
  6
CONTINUOUS
370
-3
390
F
  0
LAYER
  5
255
100
AcDbSymbolTableRecord
100
AcDbLayerTableRecord
  2
1608-R-RF-VIMAR_45000_5
 70
0
 62
7
  6
CONTINUOUS
370
-3
390
F
  0
LAYER
  5
256
100
AcDbSymbolTableRecord
100
AcDbLayerTableRecord
  2
1608-R-RF-VIMAR_45000_50
 70
0
 62
7
  6
CONTINUOUS
370
-3
390
F
  0
LAYER
  5
257
100
AcDbSymbolTableRecord
100
AcDbLayerTableRecord
  2
1608-R-RF-VIMAR_45000_51
 70
0
 62
7
  6
CONTINUOUS
370
-3
390
F
  0
LAYER
  5
258
100
AcDbSymbolTableRecord
100
AcDbLayerTableRecord
  2
1608-R-RF-VIMAR_45000_52
 70
0
 62
7
  6
CONTINUOUS
370
-3
390
F
  0
LAYER
  5
259
100
AcDbSymbolTableRecord
100
AcDbLayerTableRecord
  2
1608-R-RF-VIMAR_45000_53
 70
0
 62
7
  6
CONTINUOUS
370
-3
390
F
  0
LAYER
  5
25A
100
AcDbSymbolTableRecord
100
AcDbLayerTableRecord
  2
1608-R-RF-VIMAR_45000_54
 70
0
 62
7
  6
CONTINUOUS
370
-3
390
F
  0
LAYER
  5
25B
100
AcDbSymbolTableRecord
100
AcDbLayerTableRecord
  2
1608-R-RF-VIMAR_45000_55
 70
0
 62
7
  6
CONTINUOUS
370
-3
390
F
  0
LAYER
  5
25C
100
AcDbSymbolTableRecord
100
AcDbLayerTableRecord
  2
1608-R-RF-VIMAR_45000_56
 70
0
 62
7
  6
CONTINUOUS
370
-3
390
F
  0
LAYER
  5
25D
100
AcDbSymbolTableRecord
100
AcDbLayerTableRecord
  2
1608-R-RF-VIMAR_45000_57
 70
0
 62
7
  6
CONTINUOUS
370
-3
390
F
  0
LAYER
  5
25E
100
AcDbSymbolTableRecord
100
AcDbLayerTableRecord
  2
1608-R-RF-VIMAR_45000_58
 70
0
 62
7
  6
CONTINUOUS
370
-3
390
F
  0
LAYER
  5
25F
100
AcDbSymbolTableRecord
100
AcDbLayerTableRecord
  2
1608-R-RF-VIMAR_45000_59
 70
0
 62
7
  6
CONTINUOUS
370
-3
390
F
  0
LAYER
  5
260
100
AcDbSymbolTableRecord
100
AcDbLayerTableRecord
  2
1608-R-RF-VIMAR_45000_6
 70
0
 62
7
  6
CONTINUOUS
370
-3
390
F
  0
LAYER
  5
261
100
AcDbSymbolTableRecord
100
AcDbLayerTableRecord
  2
1608-R-RF-VIMAR_45000_60
 70
0
 62
7
  6
CONTINUOUS
370
-3
390
F
  0
LAYER
  5
262
100
AcDbSymbolTableRecord
100
AcDbLayerTableRecord
  2
1608-R-RF-VIMAR_45000_61
 70
0
 62
7
  6
CONTINUOUS
370
-3
390
F
  0
LAYER
  5
263
100
AcDbSymbolTableRecord
100
AcDbLayerTableRecord
  2
1608-R-RF-VIMAR_45000_62
 70
0
 62
7
  6
CONTINUOUS
370
-3
390
F
  0
LAYER
  5
264
100
AcDbSymbolTableRecord
100
AcDbLayerTableRecord
  2
1608-R-RF-VIMAR_45000_63
 70
0
 62
7
  6
CONTINUOUS
370
-3
390
F
  0
LAYER
  5
265
100
AcDbSymbolTableRecord
100
AcDbLayerTableRecord
  2
1608-R-RF-VIMAR_45000_64
 70
0
 62
7
  6
CONTINUOUS
370
-3
390
F
  0
LAYER
  5
266
100
AcDbSymbolTableRecord
100
AcDbLayerTableRecord
  2
1608-R-RF-VIMAR_45000_65
 70
0
 62
7
  6
CONTINUOUS
370
-3
390
F
  0
LAYER
  5
267
100
AcDbSymbolTableRecord
100
AcDbLayerTableRecord
  2
1608-R-RF-VIMAR_45000_7
 70
0
 62
7
  6
CONTINUOUS
370
-3
390
F
  0
LAYER
  5
268
100
AcDbSymbolTableRecord
100
AcDbLayerTableRecord
  2
1608-R-RF-VIMAR_45000_8
 70
0
 62
7
  6
CONTINUOUS
370
-3
390
F
  0
LAYER
  5
269
100
AcDbSymbolTableRecord
100
AcDbLayerTableRecord
  2
1608-R-RF-VIMAR_45000_9
 70
0
 62
7
  6
CONTINUOUS
370
-3
390
F
  0
LAYER
  5
26A
100
AcDbSymbolTableRecord
100
AcDbLayerTableRecord
  2
200A_170000
 70
0
 62
7
  6
CONTINUOUS
370
-3
390
F
  0
LAYER
  5
26B
100
AcDbSymbolTableRecord
100
AcDbLayerTableRecord
  2
200A_170000_1
 70
0
 62
7
  6
CONTINUOUS
370
-3
390
F
  0
LAYER
  5
26C
100
AcDbSymbolTableRecord
100
AcDbLayerTableRecord
  2
210_120000
 70
0
 62
7
  6
CONTINUOUS
370
-3
390
F
  0
LAYER
  5
26D
100
AcDbSymbolTableRecord
100
AcDbLayerTableRecord
  2
210_120000_1
 70
0
 62
7
  6
CONTINUOUS
370
-3
390
F
  0
LAYER
  5
26E
100
AcDbSymbolTableRecord
100
AcDbLayerTableRecord
  2
210_120000_10
 70
0
 62
7
  6
CONTINUOUS
370
-3
390
F
  0
LAYER
  5
26F
100
AcDbSymbolTableRecord
100
AcDbLayerTableRecord
  2
210_120000_11
 70
0
 62
7
  6
CONTINUOUS
370
-3
390
F
  0
LAYER
  5
270
100
AcDbSymbolTableRecord
100
AcDbLayerTableRecord
  2
210_120000_12
 70
0
 62
7
  6
CONTINUOUS
370
-3
390
F
  0
LAYER
  5
271
100
AcDbSymbolTableRecord
100
AcDbLayerTableRecord
  2
210_120000_2
 70
0
 62
7
  6
CONTINUOUS
370
-3
390
F
  0
LAYER
  5
272
100
AcDbSymbolTableRecord
100
AcDbLayerTableRecord
  2
210_120000_3
 70
0
 62
7
  6
CONTINUOUS
370
-3
390
F
  0
LAYER
  5
273
100
AcDbSymbolTableRecord
100
AcDbLayerTableRecord
  2
210_120000_4
 70
0
 62
7
  6
CONTINUOUS
370
-3
390
F
  0
LAYER
  5
274
100
AcDbSymbolTableRecord
100
AcDbLayerTableRecord
  2
210_120000_5
 70
0
 62
7
  6
CONTINUOUS
370
-3
390
F
  0
LAYER
  5
275
100
AcDbSymbolTableRecord
100
AcDbLayerTableRecord
  2
210_120000_6
 70
0
 62
7
  6
CONTINUOUS
370
-3
390
F
  0
LAYER
  5
276
100
AcDbSymbolTableRecord
100
AcDbLayerTableRecord
  2
210_120000_7
 70
0
 62
7
  6
CONTINUOUS
370
-3
390
F
  0
LAYER
  5
277
100
AcDbSymbolTableRecord
100
AcDbLayerTableRecord
  2
210_120000_8
 70
0
 62
7
  6
CONTINUOUS
370
-3
390
F
  0
LAYER
  5
278
100
AcDbSymbolTableRecord
100
AcDbLayerTableRecord
  2
210_120000_9
 70
0
 62
7
  6
CONTINUOUS
370
-3
390
F
  0
LAYER
  5
279
100
AcDbSymbolTableRecord
100
AcDbLayerTableRecord
  2
3216-CF-RF-VIMAR_100000
 70
0
 62
7
  6
CONTINUOUS
370
-3
390
F
  0
LAYER
  5
27A
100
AcDbSymbolTableRecord
100
AcDbLayerTableRecord
  2
3216-CF-RF-VIMAR_100000_1
 70
0
 62
7
  6
CONTINUOUS
370
-3
390
F
  0
LAYER
  5
27B
100
AcDbSymbolTableRecord
100
AcDbLayerTableRecord
  2
3216-CS2-RF_1_180000
 70
0
 62
7
  6
CONTINUOUS
370
-3
390
F
  0
LAYER
  5
27C
100
AcDbSymbolTableRecord
100
AcDbLayerTableRecord
  2
3528-CS-RF_190000
 70
0
 62
7
  6
CONTINUOUS
370
-3
390
F
  0
LAYER
  5
27D
100
AcDbSymbolTableRecord
100
AcDbLayerTableRecord
  2
43000610A0
 70
0
 62
7
  6
CONTINUOUS
370
-3
390
F
  0
LAYER
  5
27E
100
AcDbSymbolTableRecord
100
AcDbLayerTableRecord
  2
43000611A0
 70
0
 62
7
  6
CONTINUOUS
370
-3
390
F
  0
LAYER
  5
27F
100
AcDbSymbolTableRecord
100
AcDbLayerTableRecord
  2
43900610A0
 70
0
 62
7
  6
CONTINUOUS
370
-3
390
F
  0
LAYER
  5
280
100
AcDbSymbolTableRecord
100
AcDbLayerTableRecord
  2
43900611A0
 70
0
 62
7
  6
CONTINUOUS
370
-3
390
F
  0
LAYER
  5
281
100
AcDbSymbolTableRecord
100
AcDbLayerTableRecord
  2
7343-CS1-RF_280000
 70
0
 62
7
  6
CONTINUOUS
370
-3
390
F
  0
LAYER
  5
282
100
AcDbSymbolTableRecord
100
AcDbLayerTableRecord
  2
7343-CS1-RF_280000_1
 70
0
 62
7
  6
CONTINUOUS
370
-3
390
F
  0
LAYER
  5
283
100
AcDbSymbolTableRecord
100
AcDbLayerTableRecord
  2
ASSI
 70
0
 62
7
  6
CONTINUOUS
370
-3
390
F
  0
LAYER
  5
284
100
AcDbSymbolTableRecord
100
AcDbLayerTableRecord
  2
BZ-8_5X8-5XH3_0_320000
 70
0
 62
7
  6
CONTINUOUS
370
-3
390
F
  0
LAYER
  5
285
100
AcDbSymbolTableRecord
100
AcDbLayerTableRecord
  2
CAPMP7343X430N_430000
 70
0
 62
7
  6
CONTINUOUS
370
-3
390
F
  0
LAYER
  5
286
100
AcDbSymbolTableRecord
100
AcDbLayerTableRecord
  2
CAPMP7343X430N_430000_1
 70
0
 62
7
  6
CONTINUOUS
370
-3
390
F
  0
LAYER
  5
287
100
AcDbSymbolTableRecord
100
AcDbLayerTableRecord
  2
CAPMP7343X430N_430000_2
 70
0
 62
7
  6
CONTINUOUS
370
-3
390
F
  0
LAYER
  5
288
100
AcDbSymbolTableRecord
100
AcDbLayerTableRecord
  2
CN-PTSM_0_5_4-2_5H_SMD_R24-VIMA
 70
0
 62
7
  6
CONTINUOUS
370
-3
390
F
  0
LAYER
  5
289
100
AcDbSymbolTableRecord
100
AcDbLayerTableRecord
  2
CN-SMD-03S-SPRING-P2_5-H7_2-VIM
 70
0
 62
7
  6
CONTINUOUS
370
-3
390
F
  0
LAYER
  5
28A
100
AcDbSymbolTableRecord
100
AcDbLayerTableRecord
  2
CN-SMD-03S-SPRING-P2_5-H7_2-V_1
 70
0
 62
7
  6
CONTINUOUS
370
-3
390
F
  0
LAYER
  5
28B
100
AcDbSymbolTableRecord
100
AcDbLayerTableRecord
  2
CN-SMD-04S-SPRING-P2_5-H7_2-VIM
 70
0
 62
7
  6
CONTINUOUS
370
-3
390
F
  0
LAYER
  5
28C
100
AcDbSymbolTableRecord
100
AcDbLayerTableRecord
  2
CN-SMD-04S-SPRING-P2_5-H7_2-V_1
 70
0
 62
7
  6
CONTINUOUS
370
-3
390
F
  0
LAYER
  5
28D
100
AcDbSymbolTableRecord
100
AcDbLayerTableRecord
  2
CN08-HEADER-SMD2_54-1-VIMAR_918
 70
0
 62
7
  6
CONTINUOUS
370
-3
390
F
  0
LAYER
  5
28E
100
AcDbSymbolTableRecord
100
AcDbLayerTableRecord
  2
CN1-300165750_1800000
 70
0
 62
7
  6
CONTINUOUS
370
-3
390
F
  0
LAYER
  5
28F
100
AcDbSymbolTableRecord
100
AcDbLayerTableRecord
  2
CN1-300165750_1800000_1
 70
0
 62
7
  6
CONTINUOUS
370
-3
390
F
  0
LAYER
  5
290
100
AcDbSymbolTableRecord
100
AcDbLayerTableRecord
  2
CN1-300165750_1800000_2
 70
0
 62
7
  6
CONTINUOUS
370
-3
390
F
  0
LAYER
  5
291
100
AcDbSymbolTableRecord
100
AcDbLayerTableRecord
  2
CN1-300165750_1800000_3
 70
0
 62
7
  6
CONTINUOUS
370
-3
390
F
  0
LAYER
  5
292
100
AcDbSymbolTableRecord
100
AcDbLayerTableRecord
  2
CN1-REF_SQUAREHOLE12_SPEA-VIMAR
 70
0
 62
7
  6
CONTINUOUS
370
-3
390
F
  0
LAYER
  5
293
100
AcDbSymbolTableRecord
100
AcDbLayerTableRecord
  2
CN1-REF_SQUAREHOLE12_SPEA-VIM_1
 70
0
 62
7
  6
CONTINUOUS
370
-3
390
F
  0
LAYER
  5
294
100
AcDbSymbolTableRecord
100
AcDbLayerTableRecord
  2
CN1-REF_SQUAREHOLE12_SPEA-VIM_2
 70
0
 62
7
  6
CONTINUOUS
370
-3
390
F
  0
LAYER
  5
295
100
AcDbSymbolTableRecord
100
AcDbLayerTableRecord
  2
CN1-REF_SQUAREHOLE12_SPEA-VIM_3
 70
0
 62
7
  6
CONTINUOUS
370
-3
390
F
  0
LAYER
  5
296
100
AcDbSymbolTableRecord
100
AcDbLayerTableRecord
  2
CN1-TP15_SMD-VIMAR_5000
 70
0
 62
7
  6
CONTINUOUS
370
-3
390
F
  0
LAYER
  5
297
100
AcDbSymbolTableRecord
100
AcDbLayerTableRecord
  2
CN1-TP15_SMD-VIMAR_5000_1
 70
0
 62
7
  6
CONTINUOUS
370
-3
390
F
  0
LAYER
  5
298
100
AcDbSymbolTableRecord
100
AcDbLayerTableRecord
  2
CN1-TP15_SMD-VIMAR_5000_2
 70
0
 62
7
  6
CONTINUOUS
370
-3
390
F
  0
LAYER
  5
299
100
AcDbSymbolTableRecord
100
AcDbLayerTableRecord
  2
CN1-TP15_SMD-VIMAR_5000_3
 70
0
 62
7
  6
CONTINUOUS
370
-3
390
F
  0
LAYER
  5
29A
100
AcDbSymbolTableRecord
100
AcDbLayerTableRecord
  2
CN1-TP15_SMD-VIMAR_5000_4
 70
0
 62
7
  6
CONTINUOUS
370
-3
390
F
  0
LAYER
  5
29B
100
AcDbSymbolTableRecord
100
AcDbLayerTableRecord
  2
CN1-TP15_SMD-VIMAR_5000_5
 70
0
 62
7
  6
CONTINUOUS
370
-3
390
F
  0
LAYER
  5
29C
100
AcDbSymbolTableRecord
100
AcDbLayerTableRecord
  2
CN1-TP15_SMD-VIMAR_5000_6
 70
0
 62
7
  6
CONTINUOUS
370
-3
390
F
  0
LAYER
  5
29D
100
AcDbSymbolTableRecord
100
AcDbLayerTableRecord
  2
CN1-TP15_SMD-VIMAR_5000_7
 70
0
 62
7
  6
CONTINUOUS
370
-3
390
F
  0
LAYER
  5
29E
100
AcDbSymbolTableRecord
100
AcDbLayerTableRecord
  2
CN20-VASCHETTA_2500000
 70
0
 62
7
  6
CONTINUOUS
370
-3
390
F
  0
LAYER
  5
29F
100
AcDbSymbolTableRecord
100
AcDbLayerTableRecord
  2
COLOR1
 70
0
 62
7
  6
CONTINUOUS
370
-3
390
F
  0
LAYER
  5
2A0
100
AcDbSymbolTableRecord
100
AcDbLayerTableRecord
  2
COLOR5
 70
0
 62
7
  6
CONTINUOUS
370
-3
390
F
  0
LAYER
  5
2A1
100
AcDbSymbolTableRecord
100
AcDbLayerTableRecord
  2
COLOR6
 70
0
 62
7
  6
CONTINUOUS
370
-3
390
F
  0
LAYER
  5
2A2
100
AcDbSymbolTableRecord
100
AcDbLayerTableRecord
  2
COLOR8
 70
0
 62
7
  6
CONTINUOUS
370
-3
390
F
  0
LAYER
  5
2A3
100
AcDbSymbolTableRecord
100
AcDbLayerTableRecord
  2
COORDINATE
 70
0
 62
7
  6
CONTINUOUS
370
-3
390
F
  0
LAYER
  5
2A4
100
AcDbSymbolTableRecord
100
AcDbLayerTableRecord
  2
COORD_ORIGINE
 70
0
 62
7
  6
CONTINUOUS
370
-3
390
F
  0
LAYER
  5
2A5
100
AcDbSymbolTableRecord
100
AcDbLayerTableRecord
  2
COPY_PUBLISH
 70
0
 62
7
  6
CONTINUOUS
370
-3
390
F
  0
LAYER
  5
2A6
100
AcDbSymbolTableRecord
100
AcDbLayerTableRecord
  2
COSMETICI
 70
0
 62
7
  6
CONTINUOUS
370
-3
390
F
  0
LAYER
  5
2A7
100
AcDbSymbolTableRecord
100
AcDbLayerTableRecord
  2
CP-DO-214AC-D-VIMAR_240000
 70
0
 62
7
  6
CONTINUOUS
370
-3
390
F
  0
LAYER
  5
2A8
100
AcDbSymbolTableRecord
100
AcDbLayerTableRecord
  2
CP-SUPERCAP-SMD_190000
 70
0
 62
7
  6
CONTINUOUS
370
-3
390
F
  0
LAYER
  5
2A9
100
AcDbSymbolTableRecord
100
AcDbLayerTableRecord
  2
CURVE
 70
0
 62
7
  6
CONTINUOUS
370
-3
390
F
  0
LAYER
  5
2AA
100
AcDbSymbolTableRecord
100
AcDbLayerTableRecord
  2
DRAFT
 70
0
 62
7
  6
CONTINUOUS
370
-3
390
F
  0
LAYER
  5
2AB
100
AcDbSymbolTableRecord
100
AcDbLayerTableRecord
  2
E2_MARK_10000
 70
0
 62
7
  6
CONTINUOUS
370
-3
390
F
  0
LAYER
  5
2AC
100
AcDbSymbolTableRecord
100
AcDbLayerTableRecord
  2
E4_MARK_10000
 70
0
 62
7
  6
CONTINUOUS
370
-3
390
F
  0
LAYER
  5
2AD
100
AcDbSymbolTableRecord
100
AcDbLayerTableRecord
  2
E4_MARK_10000_1
 70
0
 62
7
  6
CONTINUOUS
370
-3
390
F
  0
LAYER
  5
2AE
100
AcDbSymbolTableRecord
100
AcDbLayerTableRecord
  2
IGES
 70
0
 62
7
  6
CONTINUOUS
370
-3
390
F
  0
LAYER
  5
2AF
100
AcDbSymbolTableRecord
100
AcDbLayerTableRecord
  2
IMPORT_IGES
 70
0
 62
7
  6
CONTINUOUS
370
-3
390
F
  0
LAYER
  5
2B0
100
AcDbSymbolTableRecord
100
AcDbLayerTableRecord
  2
INTFCLR_7575
 70
0
 62
7
  6
CONTINUOUS
370
-3
390
F
  0
LAYER
  5
2B1
100
AcDbSymbolTableRecord
100
AcDbLayerTableRecord
  2
INTFCLR_9235
 70
0
 62
7
  6
CONTINUOUS
370
-3
390
F
  0
LAYER
  5
2B2
100
AcDbSymbolTableRecord
100
AcDbLayerTableRecord
  2
INTF_12
 70
0
 62
7
  6
CONTINUOUS
370
-3
390
F
  0
LAYER
  5
2B3
100
AcDbSymbolTableRecord
100
AcDbLayerTableRecord
  2
INTF_5
 70
0
 62
7
  6
CONTINUOUS
370
-3
390
F
  0
LAYER
  5
2B4
100
AcDbSymbolTableRecord
100
AcDbLayerTableRecord
  2
INTF_BLANK
 70
0
 62
7
  6
CONTINUOUS
370
-3
390
F
  0
LAYER
  5
2B5
100
AcDbSymbolTableRecord
100
AcDbLayerTableRecord
  2
LCD_SN278A00RBS-VIMAR_285000
 70
0
 62
7
  6
CONTINUOUS
370
-3
390
F
  0
LAYER
  5
2B6
100
AcDbSymbolTableRecord
100
AcDbLayerTableRecord
  2
LOGO_RESIST-RESTYLING_10000
 70
0
 62
7
  6
CONTINUOUS
370
-3
390
F
  0
LAYER
  5
2B7
100
AcDbSymbolTableRecord
100
AcDbLayerTableRecord
  2
LOGO_RESIST-RESTYLING_10000_1
 70
0
 62
7
  6
CONTINUOUS
370
-3
390
F
  0
LAYER
  5
2B8
100
AcDbSymbolTableRecord
100
AcDbLayerTableRecord
  2
L_SDR0603-RF-VIMAR_390000
 70
0
 62
7
  6
CONTINUOUS
370
-3
390
F
  0
LAYER
  5
2B9
100
AcDbSymbolTableRecord
100
AcDbLayerTableRecord
  2
MM2-X-7-VIMAR_90000
 70
0
 62
7
  6
CONTINUOUS
370
-3
390
F
  0
LAYER
  5
2BA
100
AcDbSymbolTableRecord
100
AcDbLayerTableRecord
  2
MM5-FMT-RF_120000
 70
0
 62
7
  6
CONTINUOUS
370
-3
390
F
  0
LAYER
  5
2BB
100
AcDbSymbolTableRecord
100
AcDbLayerTableRecord
  2
NO-PB_MARK_10000
 70
0
 62
7
  6
CONTINUOUS
370
-3
390
F
  0
LAYER
  5
2BC
100
AcDbSymbolTableRecord
100
AcDbLayerTableRecord
  2
NO-PB_MARK_10000_1
 70
0
 62
7
  6
CONTINUOUS
370
-3
390
F
  0
LAYER
  5
2BD
100
AcDbSymbolTableRecord
100
AcDbLayerTableRecord
  2
NONE
 70
0
 62
7
  6
CONTINUOUS
370
-3
390
F
  0
LAYER
  5
2BE
100
AcDbSymbolTableRecord
100
AcDbLayerTableRecord
  2
NOTE
 70
0
 62
7
  6
CONTINUOUS
370
-3
390
F
  0
LAYER
  5
2BF
100
AcDbSymbolTableRecord
100
AcDbLayerTableRecord
  2
PIANI
 70
0
 62
7
  6
CONTINUOUS
370
-3
390
F
  0
LAYER
  5
2C0
100
AcDbSymbolTableRecord
100
AcDbLayerTableRecord
  2
PIANI_DI_RIFERIMENTO
 70
0
 62
7
  6
CONTINUOUS
370
-3
390
F
  0
LAYER
  5
2C1
100
AcDbSymbolTableRecord
100
AcDbLayerTableRecord
  2
PIANI_ORIGINE
 70
0
 62
7
  6
CONTINUOUS
370
-3
390
F
  0
LAYER
  5
2C2
100
AcDbSymbolTableRecord
100
AcDbLayerTableRecord
  2
PIANI_RIFERIMENTO
 70
0
 62
7
  6
CONTINUOUS
370
-3
390
F
  0
LAYER
  5
2C3
100
AcDbSymbolTableRecord
100
AcDbLayerTableRecord
  2
PUNTI
 70
0
 62
7
  6
CONTINUOUS
370
-3
390
F
  0
LAYER
  5
2C4
100
AcDbSymbolTableRecord
100
AcDbLayerTableRecord
  2
QFN40P300X300X60-20N_60000
 70
0
 62
7
  6
CONTINUOUS
370
-3
390
F
  0
LAYER
  5
2C5
100
AcDbSymbolTableRecord
100
AcDbLayerTableRecord
  2
QFP100-F4-RF-VIMAR_160000
 70
0
 62
7
  6
CONTINUOUS
370
-3
390
F
  0
LAYER
  5
2C6
100
AcDbSymbolTableRecord
100
AcDbLayerTableRecord
  2
RACCORDO
 70
0
 62
7
  6
CONTINUOUS
370
-3
390
F
  0
LAYER
  5
2C7
100
AcDbSymbolTableRecord
100
AcDbLayerTableRecord
  2
RD-C25-NTC-1-VIMAR_1800000
 70
0
 62
7
  6
CONTINUOUS
370
-3
390
F
  0
LAYER
  5
2C8
100
AcDbSymbolTableRecord
100
AcDbLayerTableRecord
  2
SIMBOLI
 70
0
 62
7
  6
CONTINUOUS
370
-3
390
F
  0
LAYER
  5
2C9
100
AcDbSymbolTableRecord
100
AcDbLayerTableRecord
  2
SMUSSO
 70
0
 62
7
  6
CONTINUOUS
370
-3
390
F
  0
LAYER
  5
2CA
100
AcDbSymbolTableRecord
100
AcDbLayerTableRecord
  2
SNAPLINE
 70
0
 62
7
  6
CONTINUOUS
370
-3
390
F
  0
LAYER
  5
2CB
100
AcDbSymbolTableRecord
100
AcDbLayerTableRecord
  2
SOD882_50000
 70
0
 62
7
  6
CONTINUOUS
370
-3
390
F
  0
LAYER
  5
2CC
100
AcDbSymbolTableRecord
100
AcDbLayerTableRecord
  2
SOD882_50000_1
 70
0
 62
7
  6
CONTINUOUS
370
-3
390
F
  0
LAYER
  5
2CD
100
AcDbSymbolTableRecord
100
AcDbLayerTableRecord
  2
SOD882_50000_2
 70
0
 62
7
  6
CONTINUOUS
370
-3
390
F
  0
LAYER
  5
2CE
100
AcDbSymbolTableRecord
100
AcDbLayerTableRecord
  2
SOD882_50000_3
 70
0
 62
7
  6
CONTINUOUS
370
-3
390
F
  0
LAYER
  5
2CF
100
AcDbSymbolTableRecord
100
AcDbLayerTableRecord
  2
SOD882_50000_4
 70
0
 62
7
  6
CONTINUOUS
370
-3
390
F
  0
LAYER
  5
2D0
100
AcDbSymbolTableRecord
100
AcDbLayerTableRecord
  2
SOD882_50000_5
 70
0
 62
7
  6
CONTINUOUS
370
-3
390
F
  0
LAYER
  5
2D1
100
AcDbSymbolTableRecord
100
AcDbLayerTableRecord
  2
SOD882_50000_6
 70
0
 62
7
  6
CONTINUOUS
370
-3
390
F
  0
LAYER
  5
2D2
100
AcDbSymbolTableRecord
100
AcDbLayerTableRecord
  2
SOD882_50000_7
 70
0
 62
7
  6
CONTINUOUS
370
-3
390
F
  0
LAYER
  5
2D3
100
AcDbSymbolTableRecord
100
AcDbLayerTableRecord
  2
SODFL1608X70N_70000
 70
0
 62
7
  6
CONTINUOUS
370
-3
390
F
  0
LAYER
  5
2D4
100
AcDbSymbolTableRecord
100
AcDbLayerTableRecord
  2
SODFL1608X70N_70000_1
 70
0
 62
7
  6
CONTINUOUS
370
-3
390
F
  0
LAYER
  5
2D5
100
AcDbSymbolTableRecord
100
AcDbLayerTableRecord
  2
SODFL1608X70N_70000_2
 70
0
 62
7
  6
CONTINUOUS
370
-3
390
F
  0
LAYER
  5
2D6
100
AcDbSymbolTableRecord
100
AcDbLayerTableRecord
  2
SODFL1608X70N_70000_3
 70
0
 62
7
  6
CONTINUOUS
370
-3
390
F
  0
LAYER
  5
2D7
100
AcDbSymbolTableRecord
100
AcDbLayerTableRecord
  2
SODFL1608X70N_70000_4
 70
0
 62
7
  6
CONTINUOUS
370
-3
390
F
  0
LAYER
  5
2D8
100
AcDbSymbolTableRecord
100
AcDbLayerTableRecord
  2
SOP8-T1-RF-VIMAR_150000
 70
0
 62
7
  6
CONTINUOUS
370
-3
390
F
  0
LAYER
  5
2D9
100
AcDbSymbolTableRecord
100
AcDbLayerTableRecord
  2
SUPERFICI
 70
0
 62
7
  6
CONTINUOUS
370
-3
390
F
  0
LAYER
  5
2DA
100
AcDbSymbolTableRecord
100
AcDbLayerTableRecord
  2
TP15_SMD_0
 70
0
 62
7
  6
CONTINUOUS
370
-3
390
F
  0
LAYER
  5
2DB
100
AcDbSymbolTableRecord
100
AcDbLayerTableRecord
  2
TP15_SMD_0_1
 70
0
 62
7
  6
CONTINUOUS
370
-3
390
F
  0
LAYER
  5
2DC
100
AcDbSymbolTableRecord
100
AcDbLayerTableRecord
  2
TP15_SMD_0_2
 70
0
 62
7
  6
CONTINUOUS
370
-3
390
F
  0
LAYER
  5
2DD
100
AcDbSymbolTableRecord
100
AcDbLayerTableRecord
  2
TP15_SMD_0_3
 70
0
 62
7
  6
CONTINUOUS
370
-3
390
F
  0
LAYER
  5
2DE
100
AcDbSymbolTableRecord
100
AcDbLayerTableRecord
  2
TP15_SMD_0_4
 70
0
 62
7
  6
CONTINUOUS
370
-3
390
F
  0
LAYER
  5
2DF
100
AcDbSymbolTableRecord
100
AcDbLayerTableRecord
  2
TP15_SMD_0_5
 70
0
 62
7
  6
CONTINUOUS
370
-3
390
F
  0
LAYER
  5
2E0
100
AcDbSymbolTableRecord
100
AcDbLayerTableRecord
  2
TP15_SMD_0_6
 70
0
 62
7
  6
CONTINUOUS
370
-3
390
F
  0
LAYER
  5
2E1
100
AcDbSymbolTableRecord
100
AcDbLayerTableRecord
  2
TP15_SMD_0_7
 70
0
 62
7
  6
CONTINUOUS
370
-3
390
F
  0
LAYER
  5
2E2
100
AcDbSymbolTableRecord
100
AcDbLayerTableRecord
  2
TP15_SMD_0_8
 70
0
 62
7
  6
CONTINUOUS
370
-3
390
F
  0
LAYER
  5
2E3
100
AcDbSymbolTableRecord
100
AcDbLayerTableRecord
  2
TP15_SMD_0_9
 70
0
 62
7
  6
CONTINUOUS
370
-3
390
F
  0
LAYER
  5
2E4
100
AcDbSymbolTableRecord
100
AcDbLayerTableRecord
  2
TRASH
 70
0
 62
7
  6
CONTINUOUS
370
-3
390
F
  0
LAYER
  5
2E5
100
AcDbSymbolTableRecord
100
AcDbLayerTableRecord
  2
XSEC_DATUMS
 70
0
 62
7
  6
CONTINUOUS
370
-3
390
F
  0
LAYER
  5
2E6
100
AcDbSymbolTableRecord
100
AcDbLayerTableRecord
  2
___SHELL
 70
0
 62
7
  6
CONTINUOUS
370
-3
390
F
  0
ENDTAB
  0
TABLE
  2
STYLE
  5
3
100
AcDbSymbolTable
 70
1
  0
STYLE
  5
11
100
AcDbSymbolTableRecord
100
AcDbTextStyleTableRecord
  2
STANDARD
 70
0
 40
0.0
 41
0.8
 50
0.0
 71
0
 42
0.2
  3
txt
  4

  0
STYLE
  5
2E7
100
AcDbSymbolTableRecord
100
AcDbTextStyleTableRecord
  2
TEXTSTYLE_1
 70
0
 40
0.0
 41
0.8
 50
0.0
 71
0
 42
0.2
  3
gdt
  4

  0
ENDTAB
  0
TABLE
  2
VIEW
  5
6
100
AcDbSymbolTable
 70
0
  0
ENDTAB
  0
TABLE
  2
UCS
  5
7
100
AcDbSymbolTable
 70
0
  0
ENDTAB
  0
TABLE
  2
APPID
  5
9
100
AcDbSymbolTable
 70
1
  0
APPID
  5
2E8
100
AcDbSymbolTableRecord
100
AcDbRegAppTableRecord
  2
ACAD
 70
0
  0
ENDTAB
  0
TABLE
  2
BLOCK_RECORD
  5
1
100
AcDbSymbolTable
 70
0
  0
BLOCK_RECORD
  5
2E9
100
AcDbSymbolTableRecord
100
AcDbBlockTableRecord
  2
*Model_Space
  0
BLOCK_RECORD
  5
2EA
100
AcDbSymbolTableRecord
100
AcDbBlockTableRecord
  2
*Paper_Space
  0
ENDTAB
  0
TABLE
  2
DIMSTYLE
  5
A
100
AcDbSymbolTable
 70
1
100
AcDbDimStyleTable
 71
0
  0
DIMSTYLE
105
2EB
100
AcDbSymbolTableRecord
100
AcDbDimStyleTableRecord
  2
STANDARD
 70
0
  3

  4

 40
1.0
 41
3.0
 42
0.5
 43
0.38
 44
1.5
 45
0.0
 46
0.0
 47
0.01
 48
0.01
140
3.0
141
0.09
142
0.0
143
25.4
144
1.0
145
0.0
146
1.0
147
0.625
 71
1.0
 72
0.0
 73
0
 74
0
 75
0
 76
0
 77
1
 78
8
170
0
171
2
172
0
173
0
174
0
175
0
176
0
177
0
178
0
270
2
271
2
272
2
273
2
274
2
275
0
280
0
281
0
282
0
283
1
284
8
285
0
286
0
287
3
288
0
340
11
278
44
  0
ENDTAB
  0
ENDSEC
  0
SECTION
  2
BLOCKS
  0
BLOCK
  5
20
100
AcDbEntity
  8
0
100
AcDbBlockBegin
  2
*Model_Space
 70
0
 10
0.0
 20
0.0
 30
0.0
  3
*Model_Space
  1

  0
ENDBLK
  5
21
100
AcDbEntity
  8
0
100
AcDbBlockEnd
  0
BLOCK
  5
1C
100
AcDbEntity
  8
0
100
AcDbBlockBegin
  2
*Paper_Space
 70
0
 10
0.0
 20
0.0
 30
0.0
  3
*Paper_Space
  1

  0
ENDBLK
  5
1D
100
AcDbEntity
  8
0
100
AcDbBlockEnd
  0
ENDSEC
  0
SECTION
  2
ENTITIES
  0
LWPOLYLINE
  5
2EC
100
AcDbEntity
  8
RACCORDO
100
AcDbPolyline
 62
7
  6
CONTINUOUS
 90
19
 70
0
 10
81.8844620922
 20
160.4507454735
 10
81.8174767754
 20
160.4113788247
 10
81.7568548194
 20
160.369707251
 10
81.6987508725
 20
160.3235973418
 10
81.6434116745
 20
160.2731775489
 10
81.5910452505
 20
160.2185679648
 10
81.5418779201
 20
160.1599327307
 10
81.4960813095
 20
160.0974218623
 10
81.453799369
 20
160.031187149
 10
81.4151644108
 20
159.9613759198
 10
81.3802935845
 20
159.8881251537
 10
81.3492789732
 20
159.8115695152
 10
81.3221972263
 20
159.7318071691
 10
81.2991428089
 20
159.6489622431
 10
81.2801937236
 20
159.563131536
 10
81.2654168098
 20
159.4743369996
 10
81.2549108672
 20
159.3826441046
 10
81.2487797446
 20
159.2882047317
 10
81.2470808938
 20
159.2082346649
  0
LINE
  5
2ED
100
AcDbEntity
  8
RACCORDO
100
AcDbLine
 62
7
  6
CONTINUOUS
 10
82.797691461
 20
160.943456435
 11
81.8844872332
 21
160.4507636089
  0
LINE
  5
2EE
100
AcDbEntity
  8
RACCORDO
100
AcDbLine
 62
253
  6
CONTINUOUS
 10
82.8002823866
 20
160.4051841842
 11
83.7104564901
 21
160.8962422241
  0
LWPOLYLINE
  5
2EF
100
AcDbEntity
  8
RACCORDO
100
AcDbPolyline
 62
7
  6
CONTINUOUS
 90
15
 70
0
 10
82.79772893
 20
160.9433830486
 10
82.8236123777
 20
160.9567086229
 10
82.8823639062
 20
160.9825354491
 10
82.9429575178
 20
161.0032033963
 10
83.0055805047
 20
161.018808333
 10
83.0700755085
 20
161.0293533391
 10
83.1365856012
 20
161.0348674104
 10
83.2049677176
 20
161.0353215545
 10
83.2746352857
 20
161.0306318652
 10
83.3456892779
 20
161.0206986374
 10
83.4180287261
 20
161.0056215784
 10
83.4907641269
 20
160.98561589
 10
83.5635989709
 20
160.9607533018
 10
83.6368297581
 20
160.9309620796
 10
83.7104564901
 20
160.8962422241
  0
LINE
  5
2F0
100
AcDbEntity
  8
RACCORDO
100
AcDbLine
 62
7
  6
CONTINUOUS
 10
91.7182963907
 20
164.5386747488
 11
90.206411111
 21
163.8404360244
  0
LINE
  5
2F1
100
AcDbEntity
  8
RACCORDO
100
AcDbLine
 62
253
  6
CONTINUOUS
 10
92.4520494261
 20
164.4778254539
 11
90.9487168286
 21
163.7835366417
  0
LINE
  5
2F2
100
AcDbEntity
  8
RACCORDO
100
AcDbLine
 62
7
  6
CONTINUOUS
 10
89.8263988677
 20
163.7288629784
 11
83.5727144676
 21
160.957045001
  0
LINE
  5
2F3
100
AcDbEntity
  8
RACCORDO
100
AcDbLine
 62
253
  6
CONTINUOUS
 10
90.5595792585
 20
163.6678533063
 11
83.9895579484
 21
160.7558254497
  0
LWPOLYLINE
  5
2F4
100
AcDbEntity
  8
RACCORDO
100
AcDbPolyline
 62
253
  6
CONTINUOUS
 90
12
 70
0
 10
82.4517649079
 20
78.4311834837
 10
82.4531525859
 20
78.3946117063
 10
82.4571619167
 20
78.3596262261
 10
82.4637631509
 20
78.3264866368
 10
82.4729073071
 20
78.2954388357
 10
82.4845265352
 20
78.2667131989
 10
82.4985346201
 20
78.2405228717
 10
82.5148276211
 20
78.2170621877
 10
82.5332846434
 20
78.1965052262
 10
82.5537687351
 20
78.1790045207
 10
82.5761279033
 20
78.1646899273
 10
82.5816932802
 20
78.1617718579
  0
LWPOLYLINE
  5
2F5
100
AcDbEntity
  8
RACCORDO
100
AcDbPolyline
 62
253
  6
CONTINUOUS
 90
31
 70
0
 10
81.3923424327
 20
80.2607537844
 10
81.3939542947
 20
80.1917471742
 10
81.3984199968
 20
80.1218722504
 10
81.4057395362
 20
80.0511290118
 10
81.4159479609
 20
79.9793254076
 10
81.4290102239
 20
79.9066534888
 10
81.4448211772
 20
79.8336894052
 10
81.4634044349
 20
79.7604217434
 10
81.4847363832
 20
79.6868619167
 10
81.5086410238
 20
79.6136203112
 10
81.5351387
 20
79.5407034443
 10
81.5642090687
 20
79.4681047984
 10
81.5956150944
 20
79.3964152029
 10
81.6293762405
 20
79.3256409113
 10
81.6654730439
 20
79.25577567
 10
81.7036100707
 20
79.1873915431
 10
81.7438040932
 20
79.120500761
 10
81.7860383393
 20
79.0550910931
 10
81.8299670507
 20
78.9916979079
 10
81.8756033545
 20
78.9303384837
 10
81.9229341238
 20
78.8709955421
 10
81.9715742106
 20
78.8141526121
 10
82.0215371785
 20
78.7598278149
 10
82.0728094642
 20
78.7080030293
 10
82.1249652217
 20
78.6591074171
 10
82.1780045754
 20
78.6131700017
 10
82.2319274009
 20
78.5701617595
 10
82.2863074703
 20
78.5304247782
 10
82.3410027055
 20
78.4940730858
 10
82.3961551837
 20
78.4609926539
 10
82.4517649079
 20
78.4311834837
  0
LWPOLYLINE
  5
2F6
100
AcDbEntity
  8
RACCORDO
100
AcDbPolyline
 62
7
  6
CONTINUOUS
 90
28
 70
0
 10
81.2470822286
 20
80.4370573743
 10
81.2473571354
 20
80.4067197557
 10
81.2516139267
 20
80.3014986468
 10
81.2608934723
 20
80.1956727605
 10
81.2750506374
 20
80.0895204985
 10
81.2939413167
 20
79.9832660189
 10
81.317439338
 20
79.8771410853
 10
81.3454071239
 20
79.7714046439
 10
81.3777155503
 20
79.6663076651
 10
81.4142392449
 20
79.5621169837
 10
81.4548318942
 20
79.4591110695
 10
81.4993742078
 20
79.3575226402
 10
81.547759897
 20
79.2575645039
 10
81.5998549776
 20
79.1594969964
 10
81.6555392023
 20
79.0635779668
 10
81.7147173765
 20
78.9700109696
 10
81.7772857118
 20
78.8790269259
 10
81.8431067403
 20
78.7909251988
 10
81.9120381105
 20
78.7059829339
 10
81.984044451
 20
78.624369163
 10
82.0589261231
 20
78.5464532103
 10
82.1362919162
 20
78.4727373783
 10
82.2160241341
 20
78.4034337756
 10
82.2979751789
 20
78.3387821333
 10
82.381712961
 20
78.2792118096
 10
82.4670073069
 20
78.2249606397
 10
82.5537903145
 20
78.1761412134
 10
82.5817539045
 20
78.1617451688
  0
LWPOLYLINE
  5
2F7
100
AcDbEntity
  8
RACCORDO
100
AcDbPolyline
 62
7
  6
CONTINUOUS
 90
10
 70
0
 10
81.2105146789
 20
119.8043322488
 10
81.210954839
 20
115.4832951083
 10
81.2123038179
 20
111.0929174618
 10
81.2145617299
 20
106.7029948137
 10
81.2177285749
 20
102.3135274835
 10
81.2218043526
 20
97.9245157376
 10
81.2267890628
 20
93.535959822
 10
81.2326827053
 20
89.147860003
 10
81.2394852796
 20
84.7602165999
 10
81.2470778207
 20
80.4369924568
  0
LWPOLYLINE
  5
2F8
100
AcDbEntity
  8
RACCORDO
100
AcDbPolyline
 62
253
  6
CONTINUOUS
 90
10
 70
0
 10
81.3557792405
 20
119.6281485622
 10
81.3562306613
 20
115.2521840009
 10
81.3575848716
 20
110.8766712548
 10
81.3598418713
 20
106.5016106032
 10
81.36300166
 20
102.127002419
 10
81.3670642374
 20
97.7528468877
 10
81.3720296036
 20
93.3791440075
 10
81.3778977585
 20
89.0058939638
 10
81.3846687016
 20
84.6330971297
 10
81.3923424327
 20
80.2607537844
  0
LWPOLYLINE
  5
2F9
100
AcDbEntity
  8
RACCORDO
100
AcDbPolyline
 62
7
  6
CONTINUOUS
 90
10
 70
0
 10
81.2470778175
 20
159.2082324917
 10
81.239494819
 20
154.8831940552
 10
81.2326910504
 20
150.4887479625
 10
81.2267962135
 20
146.0947543254
 10
81.2218103087
 20
141.7012134639
 10
81.2177333363
 20
137.3081256446
 10
81.2145652966
 20
132.9154911137
 10
81.2123061897
 20
128.5233101378
 10
81.2109560158
 20
124.1315830364
 10
81.2105146789
 20
119.8043322503
  0
LWPOLYLINE
  5
2FA
100
AcDbEntity
  8
RACCORDO
100
AcDbPolyline
 62
253
  6
CONTINUOUS
 90
10
 70
0
 10
81.3923424327
 20
159.0321064266
 10
81.3846687016
 20
154.6520893686
 10
81.3778977585
 20
150.272521608
 10
81.3720296036
 20
145.8934034245
 10
81.3670642374
 20
141.5147351913
 10
81.36300166
 20
137.1365170941
 10
81.3598418713
 20
132.7587491312
 10
81.3575848716
 20
128.3814314884
 10
81.3562306613
 20
124.0045645389
 10
81.3557792405
 20
119.6281485622
  0
LWPOLYLINE
  5
2FB
100
AcDbEntity
  8
RACCORDO
100
AcDbPolyline
 62
253
  6
CONTINUOUS
 90
19
 70
0
 10
82.4517649082
 20
159.8001331188
 10
82.4531529031
 20
159.838083304
 10
82.4571625121
 20
159.8770516865
 10
82.4637639842
 20
159.9167491232
 10
82.4729083369
 20
159.9568810614
 10
82.4845277195
 20
159.9971497244
 10
82.498535917
 20
160.0372563212
 10
82.5148289892
 20
160.076903263
 10
82.5332860427
 20
160.1157963719
 10
82.5537701271
 20
160.1536470633
 10
82.5761292517
 20
160.1901744873
 10
82.6001975131
 20
160.2251076124
 10
82.6257963261
 20
160.258187237
 10
82.6527357492
 20
160.2891679121
 10
82.6808158934
 20
160.317819763
 10
82.7098284055
 20
160.3439301945
 10
82.7395580144
 20
160.3673054688
 10
82.7697841282
 20
160.3877721427
 10
82.8002824708
 20
160.4051783547
  0
LWPOLYLINE
  5
2FC
100
AcDbEntity
  8
RACCORDO
100
AcDbPolyline
 62
253
  6
CONTINUOUS
 90
19
 70
0
 10
176.1147770637
 20
32.8995364689
 10
176.1465914752
 20
32.885045017
 10
176.1807813331
 20
32.871982628
 10
176.2170932739
 20
32.8604461005
 10
176.2552582086
 20
32.8505209258
 10
176.2949933163
 20
32.8422806543
 10
176.3360041407
 20
32.8357863505
 10
176.3779867716
 20
32.8310861401
 10
176.4206300974
 20
32.8282148541
 10
176.4636181102
 20
32.8271937702
 10
176.5066322482
 20
32.8280304549
 10
176.5493537555
 20
32.8307187082
 10
176.5914660451
 20
32.8352386087
 10
176.6326570445
 20
32.8415566617
 10
176.6726215083
 20
32.8496260475
 10
176.7110632805
 20
32.8593869679
 10
176.7476974889
 20
32.8707670899
 10
176.7822526562
 20
32.8836820811
 10
176.8144727118
 20
32.8980362352
  0
LWPOLYLINE
  5
2FD
100
AcDbEntity
  8
RACCORDO
100
AcDbPolyline
 62
253
  6
CONTINUOUS
 90
31
 70
0
 10
175.053233455
 20
32.1304492101
 10
175.109199684
 20
32.104470115
 10
175.1646932092
 20
32.0822273629
 10
175.2197140276
 20
32.0637209524
 10
175.2744052098
 20
32.0489224145
 10
175.3286236863
 20
32.0378602188
 10
175.3819402414
 20
32.0306197703
 10
175.4343544228
 20
32.0272302603
 10
175.485866683
 20
32.0276624976
 10
175.5360491557
 20
32.03191431
 10
175.5848880332
 20
32.0400175462
 10
175.6323971232
 20
32.0519403575
 10
175.6781899753
 20
32.0675850215
 10
175.7222533632
 20
32.0869820148
 10
175.7646005133
 20
32.1101008607
 10
175.8048846452
 20
32.1367524025
 10
175.8430887453
 20
32.1669657041
 10
175.8792298273
 20
32.2007117015
 10
175.9130121436
 20
32.2377140422
 10
175.9444160551
 20
32.2779986309
 10
175.973461201
 20
32.3215395629
 10
175.9999107432
 20
32.367982767
 10
176.0237441718
 20
32.4173551183
 10
176.0449819968
 20
32.4696297419
 10
176.0634489023
 20
32.5243719372
 10
176.0791210142
 20
32.5815937746
 10
176.0920222065
 20
32.6412831838
 10
176.1020487784
 20
32.7029692496
 10
176.1091661605
 20
32.7664949993
 10
176.1134089214
 20
32.8320174053
 10
176.1147770637
 20
32.8995364689
  0
LWPOLYLINE
  5
2FE
100
AcDbEntity
  8
RACCORDO
100
AcDbPolyline
 62
7
  6
CONTINUOUS
 90
15
 70
0
 10
175.1832185602
 20
31.8610149143
 10
175.2075895943
 20
31.8491511133
 10
175.2970959706
 20
31.8096600175
 10
175.3866989185
 20
31.7764787898
 10
175.4762090996
 20
31.7496232174
 10
175.5654086705
 20
31.7290972836
 10
175.6539939376
 20
31.7149178984
 10
175.7417617893
 20
31.7070623219
 10
175.8284120454
 20
31.7054944755
 10
175.9134222945
 20
31.7101404505
 10
175.9964852935
 20
31.7208703664
 10
176.0773165567
 20
31.7375109758
 10
176.1553921991
 20
31.7597873551
 10
176.230361345
 20
31.7873900766
 10
176.2726436429
 20
31.805858137
  0
LWPOLYLINE
  5
2FF
100
AcDbEntity
  8
RACCORDO
100
AcDbPolyline
 62
7
  6
CONTINUOUS
 90
10
 70
0
 10
128.8066510827
 20
54.9734991136
 10
133.9072597605
 20
52.4241142587
 10
139.0667355294
 20
49.8471760406
 10
144.2280901384
 20
47.2711786992
 10
149.3913228102
 20
44.6961226225
 10
154.5564328965
 20
42.1220081336
 10
159.7234197986
 20
39.5488355308
 10
164.8922828677
 20
36.9766051372
 10
170.0630213255
 20
34.40531734
 10
175.1831894617
 20
31.8610237521
  0
LWPOLYLINE
  5
300
100
AcDbEntity
  8
RACCORDO
100
AcDbPolyline
 62
253
  6
CONTINUOUS
 90
10
 70
0
 10
128.6767054652
 20
55.2429193896
 10
133.8221769783
 20
52.6711193602
 10
138.9695189213
 20
50.1002555699
 10
144.1187306128
 20
47.5303283586
 10
149.2698111428
 20
44.9613381801
 10
154.4227600572
 20
42.3932852602
 10
159.5775773589
 20
39.8261695974
 10
164.7342625946
 20
37.2599914181
 10
169.8928148541
 20
34.6947511758
 10
175.053233455
 20
32.1304492101
  0
LWPOLYLINE
  5
301
100
AcDbEntity
  8
RACCORDO
100
AcDbPolyline
 62
7
  6
CONTINUOUS
 90
10
 70
0
 10
82.5816932802
 20
78.1617718579
 10
87.6655821127
 20
75.6040506886
 10
92.8081573291
 20
73.0186799264
 10
97.9526175537
 20
70.4342469517
 10
103.0989620118
 20
67.8507521538
 10
108.2471900569
 20
65.268195857
 10
113.3973010925
 20
62.6865783606
 10
118.549294472
 20
60.1058999887
 10
123.7031694197
 20
57.5261611296
 10
128.8066510827
 20
54.9734991136
  0
LWPOLYLINE
  5
302
100
AcDbEntity
  8
RACCORDO
100
AcDbPolyline
 62
253
  6
CONTINUOUS
 90
10
 70
0
 10
82.4517649079
 20
78.4311834837
 10
87.5803688811
 20
75.8509741623
 10
92.7108494027
 20
73.2716980141
 10
97.8432057933
 20
70.6933553802
 10
102.9774371461
 20
68.1159467157
 10
108.1135430083
 20
65.5394722473
 10
113.2515233826
 20
62.9639319737
 10
118.3913778172
 20
60.389326122
 10
123.5331054047
 20
57.815655147
 10
128.6767054652
 20
55.2429193896
  0
LWPOLYLINE
  5
303
100
AcDbEntity
  8
RACCORDO
100
AcDbPolyline
 62
253
  6
CONTINUOUS
 90
10
 70
0
 10
81.392342433
 20
80.2607537845
 10
81.3633522844
 20
80.2766649289
 10
81.3372057114
 20
80.293771033
 10
81.31409647
 20
80.311945334
 10
81.2941958087
 20
80.3310531533
 10
81.277651199
 20
80.3509528947
 10
81.2645852426
 20
80.3714970936
 10
81.2550947635
 20
80.3925335094
 10
81.2492500896
 20
80.4139062543
 10
81.2470823311
 20
80.4369924654
  0
LINE
  5
304
100
AcDbEntity
  8
RACCORDO
100
AcDbLine
 62
253
  6
CONTINUOUS
 10
129.024087523
 20
137.217489892
 11
129.9503724429
 21
137.7004344721
  0
LINE
  5
305
100
AcDbEntity
  8
0
100
AcDbLine
 62
7
  6
CONTINUOUS
 10
124.0191764561
 20
133.0047440835
 11
124.0898872809
 21
133.0400994959
  0
LINE
  5
306
100
AcDbEntity
  8
0
100
AcDbLine
 62
7
  6
CONTINUOUS
 10
124.5480738293
 20
132.7401340622
 11
124.6187846533
 21
132.7754894742
  0
LINE
  5
307
100
AcDbEntity
  8
0
100
AcDbLine
 62
7
  6
CONTINUOUS
 10
125.450919934
 20
132.2884813458
 11
125.5216307568
 21
132.3238367573
  0
LINE
  5
308
100
AcDbEntity
  8
0
100
AcDbLine
 62
7
  6
CONTINUOUS
 10
125.9375117737
 20
132.0450855677
 11
126.0082225961
 21
132.0804409789
  0
LINE
  5
309
100
AcDbEntity
  8
0
100
AcDbLine
 62
7
  6
CONTINUOUS
 10
126.1182150233
 20
131.9548728794
 11
126.1889258455
 21
131.9902282905
  0
LINE
  5
30A
100
AcDbEntity
  8
0
100
AcDbLine
 62
7
  6
CONTINUOUS
 10
126.6051621255
 20
131.7113223923
 11
126.6758729473
 21
131.7466778032
  0
LINE
  5
30B
100
AcDbEntity
  8
0
100
AcDbLine
 62
7
  6
CONTINUOUS
 10
127.0779561048
 20
131.4746949978
 11
127.1486669263
 21
131.5100504085
  0
LINE
  5
30C
100
AcDbEntity
  8
0
100
AcDbLine
 62
7
  6
CONTINUOUS
 10
127.5645339485
 20
131.2313622252
 11
127.6352447698
 21
131.2667176358
  0
LINE
  5
30D
100
AcDbEntity
  8
0
100
AcDbLine
 62
7
  6
CONTINUOUS
 10
125.1831983179
 20
129.5603639492
 11
125.2539091185
 21
129.5957193495
  0
LINE
  5
30E
100
AcDbEntity
  8
0
100
AcDbLine
 62
7
  6
CONTINUOUS
 10
128.5334017871
 20
130.7468908557
 11
128.6041126082
 21
130.7822462663
  0
LINE
  5
30F
100
AcDbEntity
  8
0
100
AcDbLine
 62
7
  6
CONTINUOUS
 10
129.0152707438
 20
130.5059624683
 11
129.0859815649
 21
130.5413178788
  0
LINE
  5
310
100
AcDbEntity
  8
0
100
AcDbLine
 62
7
  6
CONTINUOUS
 10
126.6006626588
 20
128.8513611655
 11
126.671373458
 21
128.8867165651
  0
LINE
  5
311
100
AcDbEntity
  8
0
100
AcDbLine
 62
7
  6
CONTINUOUS
 10
130.0418234531
 20
129.992753829
 11
130.1125342746
 21
130.0281092397
  0
LINE
  5
312
100
AcDbEntity
  8
0
100
AcDbLine
 62
7
  6
CONTINUOUS
 10
127.3286839432
 20
128.4872667836
 11
127.3993947421
 21
128.522622183
  0
LINE
  5
313
100
AcDbEntity
  8
0
100
AcDbLine
 62
7
  6
CONTINUOUS
 10
130.5130169495
 20
129.7572131071
 11
130.5837277713
 21
129.792568518
  0
LWPOLYLINE
  5
314
100
AcDbEntity
  8
0
100
AcDbPolyline
 62
7
  6
CONTINUOUS
 90
9
 70
0
 10
132.3841099016
 20
127.6484886558
 10
132.3983264201
 20
127.6566305808
 10
132.41242902
 20
127.6669758694
 10
132.4255054744
 20
127.6789860292
 10
132.4375048643
 20
127.69254702
 10
132.4483827404
 20
127.7075489039
 10
132.4580986717
 20
127.7238873541
 10
132.4666106545
 20
127.7414571945
 10
132.4738889668
 20
127.760137184
  0
LWPOLYLINE
  5
315
100
AcDbEntity
  8
0
100
AcDbPolyline
 62
7
  6
CONTINUOUS
 90
48
 70
0
 10
132.7907017095
 20
127.2557936063
 10
132.8008573728
 20
127.2615325794
 10
132.8112031869
 20
127.2677407048
 10
132.821758936
 20
127.2743939628
 10
132.8325048387
 20
127.2815163744
 10
132.8433518111
 20
127.2893264062
 10
132.8543132328
 20
127.2978053068
 10
132.8653757276
 20
127.3069718292
 10
132.8764100785
 20
127.3171006963
 10
132.8874124555
 20
127.3282179431
 10
132.8983866928
 20
127.3402975368
 10
132.90921507
 20
127.3535360994
 10
132.9198983251
 20
127.3679372847
 10
132.9304357254
 20
127.3834974416
 10
132.9407073452
 20
127.4004022352
 10
132.950733043
 20
127.4186401592
 10
132.9604929669
 20
127.4382227232
 10
132.9698076263
 20
127.4593701154
 10
132.9787013569
 20
127.4820651697
 10
132.9871498312
 20
127.5063250565
 10
132.9949005647
 20
127.5324214689
 10
133.0019722519
 20
127.560365345
 10
133.0083462091
 20
127.5901457521
 10
133.013713885
 20
127.6220015777
 10
133.0180888742
 20
127.6559270288
 10
133.0214575956
 20
127.6919279051
 10
133.0234707353
 20
127.7302604832
 10
133.0242075052
 20
127.7708974892
 10
133.0235887114
 20
127.8138662059
 10
133.0210274326
 20
127.8595047472
 10
133.0166121186
 20
127.9081389903
 10
133.0102543458
 20
127.959443071
 10
133.0011018787
 20
128.0127774878
 10
132.9888004279
 20
128.0687648274
 10
132.9737043071
 20
128.1267825152
 10
132.9560241646
 20
128.1843232975
 10
132.9354033506
 20
128.241279792
 10
132.9121985119
 20
128.2977593795
 10
132.8876902114
 20
128.3515769355
 10
132.8619523298
 20
128.4021503578
 10
132.834910961
 20
128.450061736
 10
132.8076249685
 20
128.4948722242
 10
132.780300814
 20
128.5363938104
 10
132.7527320106
 20
128.5748144942
 10
132.7253579947
 20
128.6102594444
 10
132.6983252378
 20
128.6427703806
 10
132.6714872492
 20
128.6723055738
 10
132.644844021
 20
128.69886502
  0
LINE
  5
316
100
AcDbEntity
  8
0
100
AcDbLine
 62
7
  6
CONTINUOUS
 10
128.0733803176
 20
128.114871724
 11
128.1440911162
 21
128.1502271234
  0
LINE
  5
317
100
AcDbEntity
  8
0
100
AcDbLine
 62
7
  6
CONTINUOUS
 10
131.3719936292
 20
129.2944271629
 11
131.4427044514
 21
129.329782574
  0
LINE
  5
318
100
AcDbEntity
  8
0
100
AcDbLine
 62
7
  6
CONTINUOUS
 10
130.0227929316
 20
128.1536692435
 11
130.0935037383
 21
128.1890246469
  0
LINE
  5
319
100
AcDbEntity
  8
0
100
AcDbLine
 62
7
  6
CONTINUOUS
 10
129.2289575137
 20
127.5370880355
 11
129.2996683123
 21
127.5724434348
  0
LINE
  5
31A
100
AcDbEntity
  8
0
100
AcDbLine
 62
253
  6
CONTINUOUS
 10
132.5741331976
 20
128.6635096084
 11
132.644844021
 21
128.69886502
  0
LINE
  5
31B
100
AcDbEntity
  8
0
100
AcDbLine
 62
7
  6
CONTINUOUS
 10
129.7872099644
 20
127.2579980048
 11
129.8579207632
 21
127.2933534043
  0
LINE
  5
31C
100
AcDbEntity
  8
0
100
AcDbLine
 62
7
  6
CONTINUOUS
 10
131.8390149371
 20
127.8211468352
 11
131.9097257498
 21
127.8565022415
  0
LINE
  5
31D
100
AcDbEntity
  8
0
100
AcDbLine
 62
253
  6
CONTINUOUS
 10
132.1174111899
 20
127.6820153143
 11
132.188122003
 21
127.7173707208
  0
LINE
  5
31E
100
AcDbEntity
  8
0
100
AcDbLine
 62
7
  6
CONTINUOUS
 10
131.2245078426
 20
126.5395436279
 11
131.2952186424
 21
126.5748990278
  0
LINE
  5
31F
100
AcDbEntity
  8
0
100
AcDbLine
 62
7
  6
CONTINUOUS
 10
132.622018729
 20
127.1770435683
 11
132.6497220372
 21
127.1908952225
  0
LINE
  5
320
100
AcDbEntity
  8
0
100
AcDbLine
 62
7
  6
CONTINUOUS
 10
132.6897524877
 20
127.2045035697
 11
132.6952922919
 21
127.2072734718
  0
LINE
  5
321
100
AcDbEntity
  8
0
100
AcDbLine
 62
7
  6
CONTINUOUS
 10
131.8527175909
 20
126.2255698304
 11
131.9234283914
 21
126.2609252306
  0
LINE
  5
322
100
AcDbEntity
  8
0
100
AcDbLine
 62
253
  6
CONTINUOUS
 10
132.9019690861
 20
126.4757578704
 11
132.9726798938
 21
126.5111132743
  0
LINE
  5
323
100
AcDbEntity
  8
0
100
AcDbLine
 62
7
  6
CONTINUOUS
 10
133.0673214376
 20
125.618600055
 11
133.1380322397
 21
125.6539554561
  0
LWPOLYLINE
  5
324
100
AcDbEntity
  8
0
100
AcDbPolyline
 62
7
  6
CONTINUOUS
 90
6
 70
0
 10
132.6897522762
 20
127.2045034639
 10
132.6862215348
 20
127.2027599188
 10
132.6775737478
 20
127.1987608632
 10
132.6689170861
 20
127.1953382087
 10
132.6602197077
 20
127.1926950104
 10
132.6512489228
 20
127.1909832026
  0
LWPOLYLINE
  5
325
100
AcDbEntity
  8
0
100
AcDbPolyline
 62
7
  6
CONTINUOUS
 90
4
 70
0
 10
132.7605522507
 20
127.2396791379
 10
132.7617039676
 20
127.2402469629
 10
132.771125008
 20
127.2451507986
 10
132.7907017095
 20
127.2557936063
  0
LINE
  5
326
100
AcDbEntity
  8
0
100
AcDbLine
 62
7
  6
CONTINUOUS
 10
124.9895600094
 20
130.5491990912
 11
125.450919934
 21
132.2884813458
  0
LINE
  5
327
100
AcDbEntity
  8
0
100
AcDbLine
 62
7
  6
CONTINUOUS
 10
125.9375117737
 20
132.0450855677
 11
125.1831983179
 21
129.5603639492
  0
LINE
  5
328
100
AcDbEntity
  8
0
100
AcDbLine
 62
7
  6
CONTINUOUS
 10
125.2539091185
 20
129.5957193495
 11
126.0082225961
 21
132.0804409789
  0
LINE
  5
329
100
AcDbEntity
  8
0
100
AcDbLine
 62
7
  6
CONTINUOUS
 10
128.0438420777
 20
129.4026205078
 11
128.5334017871
 21
130.7468908557
  0
LINE
  5
32A
100
AcDbEntity
  8
0
100
AcDbLine
 62
7
  6
CONTINUOUS
 10
128.6553252113
 20
129.6849133086
 11
128.0733803176
 21
128.114871724
  0
LINE
  5
32B
100
AcDbEntity
  8
0
100
AcDbLine
 62
7
  6
CONTINUOUS
 10
128.1440911162
 20
128.1502271234
 11
128.6622739375
 21
129.5482635404
  0
LINE
  5
32C
100
AcDbEntity
  8
0
100
AcDbLine
 62
7
  6
CONTINUOUS
 10
126.8628092387
 20
128.7202534031
 11
127.0779561048
 21
131.4746949978
  0
LINE
  5
32D
100
AcDbEntity
  8
0
100
AcDbLine
 62
7
  6
CONTINUOUS
 10
130.2669922243
 20
129.0937404606
 11
130.0227929316
 21
128.1536692435
  0
LINE
  5
32E
100
AcDbEntity
  8
0
100
AcDbLine
 62
7
  6
CONTINUOUS
 10
130.0935037383
 20
128.1890246469
 11
130.2929290181
 21
128.9567475707
  0
LINE
  5
32F
100
AcDbEntity
  8
0
100
AcDbLine
 62
7
  6
CONTINUOUS
 10
129.9224778863
 20
127.7617100155
 11
129.7872099644
 21
127.2579980048
  0
LINE
  5
330
100
AcDbEntity
  8
0
100
AcDbLine
 62
7
  6
CONTINUOUS
 10
129.8579207632
 20
127.2933534043
 11
129.9764489235
 21
127.7347297145
  0
LINE
  5
331
100
AcDbEntity
  8
0
100
AcDbLine
 62
7
  6
CONTINUOUS
 10
129.3054368895
 20
127.4988520037
 11
130.0418234531
 21
129.992753829
  0
LWPOLYLINE
  5
332
100
AcDbEntity
  8
0
100
AcDbPolyline
 62
7
  6
CONTINUOUS
 90
9
 70
0
 10
132.4738889668
 20
127.760137184
 10
132.4799967624
 20
127.7798177388
 10
132.4850246743
 20
127.8004207606
 10
132.4890463326
 20
127.8218343285
 10
132.4921321481
 20
127.8439335592
 10
132.494356019
 20
127.8666314462
 10
132.4957866392
 20
127.8898230127
 10
132.4964915281
 20
127.9133824049
 10
132.4965394492
 20
127.9371934908
  0
LINE
  5
333
100
AcDbEntity
  8
0
100
AcDbLine
 62
7
  6
CONTINUOUS
 10
128.752504693
 20
127.7753009819
 11
128.6553252113
 21
129.6849133086
  0
LWPOLYLINE
  5
334
100
AcDbEntity
  8
RACCORDO
100
AcDbPolyline
 62
253
  6
CONTINUOUS
 90
12
 70
0
 10
128.6767054652
 20
55.2429193896
 10
128.6780886226
 20
55.2063498782
 10
128.6820848919
 20
55.1713709487
 10
128.6886646206
 20
55.1382421465
 10
128.6977789868
 20
55.1072092886
 10
128.7093603615
 20
55.0785026404
 10
128.7233228104
 20
55.0523352065
 10
128.7395627315
 20
55.0289011503
 10
128.7579596237
 20
55.0083743538
 10
128.7783769814
 20
54.9909071265
 10
128.8006633069
 20
54.9766290763
 10
128.8066510827
 20
54.9734991136
  0
LWPOLYLINE
  5
335
100
AcDbEntity
  8
RACCORDO
100
AcDbPolyline
 62
253
  6
CONTINUOUS
 90
7
 70
0
 10
128.6767054652
 20
55.2429193896
 10
128.664784489
 20
62.0176951849
 10
128.6550309605
 20
68.7935599041
 10
128.6474448812
 20
75.5705125088
 10
128.6420262523
 20
82.3485519602
 10
128.6387750746
 20
89.1276772196
 10
128.6376913487
 20
95.907887248
  0
LINE
  5
336
100
AcDbEntity
  8
0
100
AcDbLine
 62
253
  6
CONTINUOUS
 10
128.5955726009
 20
130.7158053122
 11
128.5936421521
 21
129.5185166793
  0
LWPOLYLINE
  5
337
100
AcDbEntity
  8
0
100
AcDbPolyline
 62
253
  6
CONTINUOUS
 90
7
 70
0
 10
128.6642873158
 20
129.5086695671
 10
128.6562063602
 20
123.9443618319
 10
128.649540957
 20
118.3355892426
 10
128.6443567538
 20
112.7275549022
 10
128.6406537511
 20
107.1202593981
 10
128.6384319493
 20
101.5137033176
 10
128.6376913487
 20
95.907887248
  0
LINE
  5
338
100
AcDbEntity
  8
0
100
AcDbLine
 62
7
  6
CONTINUOUS
 10
126.1137155566
 20
129.0949116526
 11
126.1182150233
 21
131.9548728794
  0
LINE
  5
339
100
AcDbEntity
  8
0
100
AcDbLine
 62
7
  6
CONTINUOUS
 10
126.6051621255
 20
131.7113223923
 11
126.6006626588
 21
128.8513611655
  0
LINE
  5
33A
100
AcDbEntity
  8
0
100
AcDbLine
 62
7
  6
CONTINUOUS
 10
126.671373458
 20
128.8867165651
 11
126.6758729473
 21
131.7466778032
  0
LINE
  5
33B
100
AcDbEntity
  8
0
100
AcDbLine
 62
253
  6
CONTINUOUS
 10
128.6767054652
 20
136.611869223
 11
128.6748562147
 21
135.6350286565
  0
LINE
  5
33C
100
AcDbEntity
  8
0
100
AcDbLine
 62
253
  6
CONTINUOUS
 10
128.6748562147
 20
135.6350286565
 11
128.6662834211
 21
130.7511607232
  0
LWPOLYLINE
  5
33D
100
AcDbEntity
  8
RACCORDO
100
AcDbPolyline
 62
253
  6
CONTINUOUS
 90
19
 70
0
 10
128.6767054652
 20
136.611869223
 10
128.6780886226
 20
136.6498218918
 10
128.6820848919
 20
136.6887970905
 10
128.6886646206
 20
136.7285056215
 10
128.6977789868
 20
136.7686528455
 10
128.7093603615
 20
136.8089408684
 10
128.7233228104
 20
136.8490707513
 10
128.7395627315
 20
136.8887447284
 10
128.7579596237
 20
136.9276684173
 10
128.7783769814
 20
136.9655530022
 10
128.8006633069
 20
137.0021173779
 10
128.8246532345
 20
137.037090235
 10
128.8501687579
 20
137.0702120734
 10
128.8770205508
 20
137.1012371275
 10
128.9050093716
 20
137.12993519
 10
128.9339275421
 20
137.1560933199
 10
128.963560488
 20
137.1795174228
 10
128.9936883316
 20
137.2000336907
 10
129.024087523
 20
137.217489892
  0
LINE
  5
33E
100
AcDbEntity
  8
0
100
AcDbLine
 62
7
  6
CONTINUOUS
 10
127.436668626
 20
130.3020798712
 11
127.3286839432
 21
128.4872667836
  0
LINE
  5
33F
100
AcDbEntity
  8
0
100
AcDbLine
 62
7
  6
CONTINUOUS
 10
127.3993947421
 20
128.522622183
 11
127.4926475953
 21
130.090004273
  0
LWPOLYLINE
  5
340
100
AcDbEntity
  8
RACCORDO
100
AcDbPolyline
 62
253
  6
CONTINUOUS
 90
19
 70
0
 10
176.0782139566
 20
72.2669311852
 10
176.1100283728
 20
72.2524358029
 10
176.1442182422
 20
72.2393622195
 10
176.1805302013
 20
72.2278073164
 10
176.2186951608
 20
72.2178567212
 10
176.2584302999
 20
72.2095841727
 10
176.2994411618
 20
72.2030509744
 10
176.3414238361
 20
72.1983055405
 10
176.3840672108
 20
72.1953830369
 10
176.4270552778
 20
72.1943051209
 10
176.4700694745
 20
72.1950797803
 10
176.512791045
 20
72.1977012746
 10
176.5549034015
 20
72.2021501771
 10
176.5960944711
 20
72.2083935194
 10
176.6360590079
 20
72.2163850353
 10
176.6745008553
 20
72.2260655036
 10
176.7111351404
 20
72.2373631875
 10
176.7456903855
 20
72.2501943657
 10
176.7779105194
 20
72.2644639528
  0
LINE
  5
341
100
AcDbEntity
  8
RACCORDO
100
AcDbLine
 62
253
  6
CONTINUOUS
 10
160.2471158597
 20
80.1384217818
 11
167.5377707261
 21
76.5113605353
  0
LINE
  5
342
100
AcDbEntity
  8
RACCORDO
100
AcDbLine
 62
253
  6
CONTINUOUS
 10
167.5377707261
 20
76.5113605353
 11
176.0782139566
 21
72.2669311837
  0
LWPOLYLINE
  5
343
100
AcDbEntity
  8
RACCORDO
100
AcDbPolyline
 62
253
  6
CONTINUOUS
 90
5
 70
0
 10
128.6376913487
 20
95.907887248
 10
136.5334448587
 20
91.9622134169
 10
144.4336017549
 20
88.0187437432
 10
152.3381595762
 20
84.0774794556
 10
160.2471158597
 20
80.1384217818
  0
LWPOLYLINE
  5
344
100
AcDbEntity
  8
RACCORDO
100
AcDbPolyline
 62
253
  6
CONTINUOUS
 90
5
 70
0
 10
128.6376913487
 20
95.907887248
 10
120.7463436899
 20
99.8557640047
 10
112.859404346
 20
103.8058424545
 10
104.9768757742
 20
107.7581213669
 10
97.0987604298
 20
111.7125995103
  0
LWPOLYLINE
  5
345
100
AcDbEntity
  8
RACCORDO
100
AcDbPolyline
 62
253
  6
CONTINUOUS
 90
3
 70
0
 10
97.0987604298
 20
111.7125995103
 10
89.2250607677
 20
115.669275653
 10
81.3557792405
 20
119.6281485622
  0
LWPOLYLINE
  5
346
100
AcDbEntity
  8
RACCORDO
100
AcDbPolyline
 62
253
  6
CONTINUOUS
 90
10
 70
0
 10
81.3557792405
 20
119.6281485607
 10
81.3267884758
 20
119.6440557687
 10
81.3006413088
 20
119.6611507033
 10
81.2775315026
 20
119.6793066829
 10
81.2576303123
 20
119.6983891626
 10
81.2410852152
 20
119.7182567321
 10
81.2280188186
 20
119.7387621631
 10
81.2185279509
 20
119.7597535003
 10
81.2126829439
 20
119.7810751878
 10
81.2105146789
 20
119.8043322488
  0
LINE
  5
347
100
AcDbEntity
  8
0
100
AcDbLine
 62
7
  6
CONTINUOUS
 10
129.0152707438
 20
130.5059624683
 11
129.2289575137
 21
127.5370880355
  0
LINE
  5
348
100
AcDbEntity
  8
0
100
AcDbLine
 62
7
  6
CONTINUOUS
 10
129.2996683123
 20
127.5724434348
 11
129.0859815649
 21
130.5413178788
  0
LWPOLYLINE
  5
349
100
AcDbEntity
  8
0
100
AcDbPolyline
 62
7
  6
CONTINUOUS
 90
22
 70
0
 10
132.4965394599
 20
127.9371934857
 10
132.4956639446
 20
127.9605354715
 10
132.4935148738
 20
127.9848420458
 10
132.490072348
 20
128.0100010396
 10
132.4853214134
 20
128.035874723
 10
132.4792430718
 20
128.0623463978
 10
132.4718067491
 20
128.0893213703
 10
132.4629825946
 20
128.1166730489
 10
132.4527587319
 20
128.144207411
 10
132.4411320641
 20
128.1717114375
 10
132.4280553893
 20
128.1990659107
 10
132.4135507627
 20
128.2259893208
 10
132.3977857693
 20
128.2520614446
 10
132.3808969629
 20
128.2771552666
 10
132.3629858356
 20
128.3012244495
 10
132.3442709133
 20
128.3240747294
 10
132.3249498073
 20
128.3455736666
 10
132.3050974303
 20
128.3657301094
 10
132.2847518171
 20
128.3845621253
 10
132.2640066834
 20
128.4020123593
 10
132.2430191794
 20
128.4179679097
 10
132.2219177158
 20
128.4323443218
  0
LINE
  5
34A
100
AcDbEntity
  8
0
100
AcDbLine
 62
7
  6
CONTINUOUS
 10
131.84027038
 20
128.6062250117
 11
131.8390149371
 21
127.8211468352
  0
LINE
  5
34B
100
AcDbEntity
  8
0
100
AcDbLine
 62
7
  6
CONTINUOUS
 10
131.8544324798
 20
127.3447105981
 11
131.8527175909
 21
126.2255698304
  0
LINE
  5
34C
100
AcDbEntity
  8
0
100
AcDbLine
 62
7
  6
CONTINUOUS
 10
131.9097257498
 20
127.8565022415
 11
131.9108882296
 21
128.5840337437
  0
LINE
  5
34D
100
AcDbEntity
  8
0
100
AcDbLine
 62
7
  6
CONTINUOUS
 10
131.9234283914
 20
126.2609252306
 11
131.925033394
 21
127.3094270698
  0
LINE
  5
34E
100
AcDbEntity
  8
0
100
AcDbLine
 62
7
  6
CONTINUOUS
 10
132.6220452464
 20
127.1939423974
 11
132.622018729
 21
127.1770435683
  0
LINE
  5
34F
100
AcDbEntity
  8
0
100
AcDbLine
 62
7
  6
CONTINUOUS
 10
131.3675492317
 20
126.4680504699
 11
131.3719936292
 21
129.2944271629
  0
LINE
  5
350
100
AcDbEntity
  8
0
100
AcDbLine
 62
7
  6
CONTINUOUS
 10
128.0050778821
 20
128.1490256072
 11
127.436668626
 21
130.3020798712
  0
LINE
  5
351
100
AcDbEntity
  8
0
100
AcDbLine
 62
7
  6
CONTINUOUS
 10
127.5645339485
 20
131.2313622252
 11
128.0438420777
 21
129.4026205078
  0
LINE
  5
352
100
AcDbEntity
  8
0
100
AcDbLine
 62
7
  6
CONTINUOUS
 10
128.090345069
 20
129.5303248063
 11
127.6352447698
 21
131.2667176358
  0
LINE
  5
353
100
AcDbEntity
  8
0
100
AcDbLine
 62
7
  6
CONTINUOUS
 10
124.7541177844
 20
129.7750141641
 11
124.0191764561
 21
133.0047440835
  0
LINE
  5
354
100
AcDbEntity
  8
0
100
AcDbLine
 62
7
  6
CONTINUOUS
 10
130.5130169495
 20
129.7572131071
 11
131.2245078426
 21
126.5395436279
  0
LINE
  5
355
100
AcDbEntity
  8
0
100
AcDbLine
 62
7
  6
CONTINUOUS
 10
124.5480738293
 20
132.7401340622
 11
124.9895600094
 21
130.5491990912
  0
LINE
  5
356
100
AcDbEntity
  8
0
100
AcDbLine
 62
7
  6
CONTINUOUS
 10
125.0337867011
 20
130.7159569201
 11
124.6187846533
 21
132.7754894742
  0
LINE
  5
357
100
AcDbEntity
  8
0
100
AcDbLine
 62
7
  6
CONTINUOUS
 10
130.7111179222
 20
126.7961523294
 11
130.5858021979
 21
127.4301258096
  0
LINE
  5
358
100
AcDbEntity
  8
0
100
AcDbLine
 62
7
  6
CONTINUOUS
 10
130.4891387318
 20
127.9205511834
 11
130.2669922243
 21
129.0937404606
  0
LINE
  5
359
100
AcDbEntity
  8
RACCORDO
100
AcDbLine
 62
253
  6
CONTINUOUS
 10
175.3994763022
 20
114.1055872264
 11
176.341987928
 21
114.5804765051
  0
LINE
  5
35A
100
AcDbEntity
  8
RACCORDO
100
AcDbLine
 62
253
  6
CONTINUOUS
 10
184.6075586753
 20
118.4000708294
 11
183.155807261
 21
117.6799914255
  0
LINE
  5
35B
100
AcDbEntity
  8
RACCORDO
100
AcDbLine
 62
253
  6
CONTINUOUS
 10
176.5796569648
 20
114.4374540825
 11
182.83783805
 21
117.5287239106
  0
LINE
  5
35C
100
AcDbEntity
  8
RACCORDO
100
AcDbLine
 62
253
  6
CONTINUOUS
 10
185.7176179896
 20
117.9105898413
 11
186.5316567643
 21
118.2256132397
  0
LINE
  5
35D
100
AcDbEntity
  8
RACCORDO
100
AcDbLine
 62
253
  6
CONTINUOUS
 10
186.0901173201
 20
116.6386861041
 11
187.2022228516
 21
117.0690578196
  0
LWPOLYLINE
  5
35E
100
AcDbEntity
  8
0
100
AcDbPolyline
 62
7
  6
CONTINUOUS
 90
22
 70
0
 10
132.3869662232
 20
126.8265819226
 10
132.380676436
 20
126.8490061076
 10
132.3736457963
 20
126.8715295065
 10
132.3659014884
 20
126.8940516553
 10
132.357481924
 20
126.9164452443
 10
132.3484033831
 20
126.9386450121
 10
132.3386508813
 20
126.9606458821
 10
132.3282337529
 20
126.9823704728
 10
132.31717632
 20
127.0037089725
 10
132.3054744129
 20
127.0246043348
 10
132.2931562441
 20
127.044938257
 10
132.2802230473
 20
127.0646383576
 10
132.2666179001
 20
127.0837024957
 10
132.2523500379
 20
127.1020149687
 10
132.237422342
 20
127.1194658723
 10
132.2217684832
 20
127.136047504
 10
132.2054638896
 20
127.1516808919
 10
132.1885783025
 20
127.1663125557
 10
132.1710698942
 20
127.1799703855
 10
132.1529847305
 20
127.1925857949
 10
132.1344657253
 20
127.2040230754
 10
132.1156259857
 20
127.2141764744
  0
LINE
  5
35F
100
AcDbEntity
  8
0
100
AcDbLine
 62
7
  6
CONTINUOUS
 10
131.2952186424
 20
126.5748990278
 11
130.5837277713
 21
129.792568518
  0
LWPOLYLINE
  5
360
100
AcDbEntity
  8
0
100
AcDbPolyline
 62
7
  6
CONTINUOUS
 90
7
 70
0
 10
132.4513556026
 20
126.5546100615
 10
132.4414993758
 20
126.5997799708
 10
132.4313805583
 20
126.6449340258
 10
132.4209241723
 20
126.6901772593
 10
132.4100685023
 20
126.7355473098
 10
132.3987673145
 20
126.7810142384
 10
132.3869661976
 20
126.8265819236
  0
LWPOLYLINE
  5
361
100
AcDbEntity
  8
0
100
AcDbPolyline
 62
7
  6
CONTINUOUS
 90
25
 70
0
 10
132.9510933677
 20
126.6192539509
 10
132.9465139304
 20
126.6409209045
 10
132.9417423863
 20
126.6627111534
 10
132.9367860584
 20
126.6846186366
 10
132.9315340859
 20
126.7067674025
 10
132.9259800453
 20
126.7291779282
 10
132.9201303613
 20
126.7518297373
 10
132.9138934456
 20
126.7747854482
 10
132.9072710588
 20
126.7980763452
 10
132.900261442
 20
126.8216711449
 10
132.8927677284
 20
126.8455386145
 10
132.8847947767
 20
126.869703615
 10
132.8763377299
 20
126.8941412862
 10
132.8672851475
 20
126.9187458137
 10
132.8576604714
 20
126.9435120761
 10
132.8474402613
 20
126.9684451955
 10
132.8364427526
 20
126.9934547219
 10
132.8247113859
 20
127.0185474529
 10
132.8122027226
 20
127.0437165918
 10
132.7986046788
 20
127.0688512979
 10
132.783842332
 20
127.0941485444
 10
132.7679906086
 20
127.11941136
 10
132.7509621977
 20
127.1439379861
 10
132.7327279959
 20
127.1674945032
 10
132.7133171095
 20
127.1903148322
  0
LINE
  5
362
100
AcDbEntity
  8
0
100
AcDbLine
 62
7
  6
CONTINUOUS
 10
132.4704836486
 20
126.4642171635
 11
132.4513556026
 21
126.5546100615
  0
LINE
  5
363
100
AcDbEntity
  8
0
100
AcDbLine
 62
7
  6
CONTINUOUS
 10
132.5987200243
 20
125.8527602678
 11
132.5177509455
 21
126.2356413445
  0
LINE
  5
364
100
AcDbEntity
  8
0
100
AcDbLine
 62
7
  6
CONTINUOUS
 10
132.5177509455
 20
126.2356413445
 11
132.4704836486
 21
126.4642171635
  0
LINE
  5
365
100
AcDbEntity
  8
0
100
AcDbLine
 62
7
  6
CONTINUOUS
 10
132.8805539374
 20
126.5830238854
 11
132.8892369726
 21
126.5401859981
  0
LINE
  5
366
100
AcDbEntity
  8
0
100
AcDbLine
 62
7
  6
CONTINUOUS
 10
132.9641657396
 20
126.5544823907
 11
132.9510933677
 21
126.6192539509
  0
LINE
  5
367
100
AcDbEntity
  8
0
100
AcDbLine
 62
7
  6
CONTINUOUS
 10
132.8892369726
 20
126.5401859981
 11
132.9407546735
 21
126.2778659964
  0
LINE
  5
368
100
AcDbEntity
  8
0
100
AcDbLine
 62
7
  6
CONTINUOUS
 10
133.0300326071
 20
126.2169249801
 11
132.9641657396
 21
126.5544823907
  0
LINE
  5
369
100
AcDbEntity
  8
0
100
AcDbLine
 62
7
  6
CONTINUOUS
 10
133.0318258788
 20
125.80180222
 11
133.0673214376
 21
125.618600055
  0
LINE
  5
36A
100
AcDbEntity
  8
0
100
AcDbLine
 62
7
  6
CONTINUOUS
 10
132.9407546735
 20
126.2778659964
 11
133.0318258788
 21
125.80180222
  0
LINE
  5
36B
100
AcDbEntity
  8
0
100
AcDbLine
 62
7
  6
CONTINUOUS
 10
133.1380322397
 20
125.6539554561
 11
133.0300326071
 21
126.2169249801
  0
LINE
  5
36C
100
AcDbEntity
  8
RACCORDO
100
AcDbLine
 62
253
  6
CONTINUOUS
 10
176.8144727118
 20
111.6674539696
 11
177.7573440875
 21
112.1425245731
  0
LINE
  5
36D
100
AcDbEntity
  8
RACCORDO
100
AcDbLine
 62
253
  6
CONTINUOUS
 10
185.8094571204
 20
116.3271026501
 11
184.3577057062
 21
115.6070232462
  0
LINE
  5
36E
100
AcDbEntity
  8
RACCORDO
100
AcDbLine
 62
253
  6
CONTINUOUS
 10
177.7478430632
 20
112.3483411959
 11
184.0395076547
 21
115.4561504228
  0
LWPOLYLINE
  5
36F
100
AcDbEntity
  8
RACCORDO
100
AcDbPolyline
 62
253
  6
CONTINUOUS
 90
7
 70
0
 10
186.5316567643
 20
118.2256132397
 10
186.5775697885
 20
118.2275611004
 10
186.6221842473
 20
118.2250148144
 10
186.6652857906
 20
118.2179866152
 10
186.7066673373
 20
118.2065102699
 10
186.7461300698
 20
118.1906409165
 10
186.7545020855
 20
118.1865839172
  0
LWPOLYLINE
  5
370
100
AcDbEntity
  8
0
100
AcDbPolyline
 62
7
  6
CONTINUOUS
 90
54
 70
0
 10
132.5741331976
 20
128.6635096084
 10
132.5996848465
 20
128.6381195201
 10
132.6256078867
 20
128.6097338584
 10
132.6518065409
 20
128.5784484356
 10
132.6781171232
 20
128.5445222933
 10
132.7044943387
 20
128.5080605967
 10
132.7309490448
 20
128.4687857942
 10
132.7573686531
 20
128.4264548811
 10
132.7833814385
 20
128.3812000735
 10
132.8085680634
 20
128.3332823318
 10
132.8327982868
 20
128.2824706235
 10
132.8556300813
 20
128.2292097207
 10
132.876322581
 20
128.1749170765
 10
132.8947588394
 20
128.1197113008
 10
132.9107217259
 20
128.0640129002
 10
132.9237814897
 20
128.0097023125
 10
132.9340892432
 20
127.9572440393
 10
132.9419318716
 20
127.906469334
 10
132.9474896716
 20
127.8581791513
 10
132.951066571
 20
127.8127245081
 10
132.9529917226
 20
127.7697588372
 10
132.9534589439
 20
127.7290193916
 10
132.9525948727
 20
127.6905366564
 10
132.9505266571
 20
127.6543118655
 10
132.9473517435
 20
127.6200582495
 10
132.9431605917
 20
127.5877015997
 10
132.9380595604
 20
127.5572719827
 10
132.9321335383
 20
127.5286475334
 10
132.9254794435
 20
127.5017946701
 10
132.9181871213
 20
127.4766477107
 10
132.910312768
 20
127.4530496276
 10
132.9019597164
 20
127.4309989572
 10
132.8932179241
 20
127.4104553622
 10
132.8841035066
 20
127.3912398774
 10
132.8746785938
 20
127.3733153464
 10
132.865018247
 20
127.3566714185
 10
132.8551274877
 20
127.341186925
 10
132.8450527202
 20
127.3268277075
 10
132.8348485178
 20
127.3135714118
 10
132.8245134164
 20
127.3013287205
 10
132.8140696239
 20
127.2900532415
 10
132.8035711449
 20
127.2797282686
 10
132.7930594336
 20
127.2702745997
 10
132.782571124
 20
127.2615944401
 10
132.7721462581
 20
127.2536048313
 10
132.7618305972
 20
127.2462370105
 10
132.751665433
 20
127.2394275132
 10
132.7416728782
 20
127.2331095627
 10
132.7318663134
 20
127.2272214329
 10
132.7222853382
 20
127.2217257068
 10
132.7129391304
 20
127.2165745057
 10
132.7037891208
 20
127.2117027733
 10
132.6948923385
 20
127.2071035677
 10
132.6897522762
 20
127.2045034639
  0
LINE
  5
371
100
AcDbEntity
  8
0
100
AcDbLine
 62
7
  6
CONTINUOUS
 10
132.622018729
 20
127.1770435683
 11
132.6424586594
 21
127.1555592558
  0
LINE
  5
372
100
AcDbEntity
  8
0
100
AcDbLine
 62
7
  6
CONTINUOUS
 10
132.7133171095
 20
127.1903148322
 11
132.6968033668
 21
127.2080290092
  0
LWPOLYLINE
  5
373
100
AcDbEntity
  8
0
100
AcDbPolyline
 62
7
  6
CONTINUOUS
 90
25
 70
0
 10
132.6424586594
 20
127.1555592558
 10
132.6616998721
 20
127.1328882467
 10
132.6798009359
 20
127.1092029076
 10
132.6968825838
 20
127.0845676316
 10
132.7129284368
 20
127.0592251697
 10
132.7278156504
 20
127.0336359352
 10
132.7415423459
 20
127.008111726
 10
132.7542643259
 20
126.9826558953
 10
132.7661073809
 20
126.9572680429
 10
132.7771092702
 20
126.9320962909
 10
132.7873399125
 20
126.9071990238
 10
132.7969451387
 20
126.8824064236
 10
132.8059781838
 20
126.8577316288
 10
132.8144475151
 20
126.8332976534
 10
132.8224106605
 20
126.8090804163
 10
132.8298907819
 20
126.7851404829
 10
132.8369134331
 20
126.7615238773
 10
132.8435295116
 20
126.7381781533
 10
132.849752123
 20
126.7151667981
 10
132.8556037596
 20
126.692514676
 10
132.8611377563
 20
126.6701119608
 10
132.8663687225
 20
126.6479841918
 10
132.8713093469
 20
126.6261740805
 10
132.8760207209
 20
126.6045494722
 10
132.8805539374
 20
126.5830238854
  0
LWPOLYLINE
  5
374
100
AcDbEntity
  8
0
100
AcDbPolyline
 62
7
  6
CONTINUOUS
 90
15
 70
0
 10
132.1174111899
 20
127.6820153143
 10
132.1401689749
 20
127.6717164501
 10
132.1622950925
 20
127.6626032034
 10
132.1836639785
 20
127.6547033988
 10
132.2039495324
 20
127.6480893054
 10
132.2233004369
 20
127.6426539478
 10
132.2423239126
 20
127.6382215389
 10
132.261044233
 20
127.6348330455
 10
132.2793070006
 20
127.6325638865
 10
132.2974245222
 20
127.631451224
 10
132.3154457207
 20
127.6316255463
 10
132.3331402786
 20
127.6332326415
 10
132.3503773446
 20
127.6364035045
 10
132.3671123758
 20
127.6412916755
 10
132.3841099016
 20
127.6484886558
  0
LINE
  5
375
100
AcDbEntity
  8
0
100
AcDbLine
 62
7
  6
CONTINUOUS
 10
133.0673214376
 20
125.618600055
 11
132.5987200243
 21
125.8527602678
  0
LINE
  5
376
100
AcDbEntity
  8
0
100
AcDbLine
 62
7
  6
CONTINUOUS
 10
129.7872099644
 20
127.2579980048
 11
129.3054368895
 21
127.4988520037
  0
LINE
  5
377
100
AcDbEntity
  8
0
100
AcDbLine
 62
7
  6
CONTINUOUS
 10
131.2245078426
 20
126.5395436279
 11
130.7111179222
 21
126.7961523294
  0
LINE
  5
378
100
AcDbEntity
  8
0
100
AcDbLine
 62
7
  6
CONTINUOUS
 10
131.8527175909
 20
126.2255698304
 11
131.3675492317
 21
126.4680504699
  0
LINE
  5
379
100
AcDbEntity
  8
0
100
AcDbLine
 62
7
  6
CONTINUOUS
 10
130.5858021979
 20
127.4301258096
 11
129.9224778863
 21
127.7617100155
  0
LINE
  5
37A
100
AcDbEntity
  8
0
100
AcDbLine
 62
7
  6
CONTINUOUS
 10
130.0227929316
 20
128.1536692435
 11
130.4891387318
 21
127.9205511834
  0
LINE
  5
37B
100
AcDbEntity
  8
0
100
AcDbLine
 62
7
  6
CONTINUOUS
 10
130.4743493173
 20
127.9986466431
 11
130.0935037383
 21
128.1890246469
  0
LINE
  5
37C
100
AcDbEntity
  8
0
100
AcDbLine
 62
7
  6
CONTINUOUS
 10
132.1156259857
 20
127.2141764744
 11
131.8544324798
 21
127.3447105981
  0
LINE
  5
37D
100
AcDbEntity
  8
0
100
AcDbLine
 62
7
  6
CONTINUOUS
 10
131.8390149371
 20
127.8211468352
 11
132.1174111899
 21
127.6820153143
  0
LINE
  5
37E
100
AcDbEntity
  8
0
100
AcDbLine
 62
7
  6
CONTINUOUS
 10
132.188122003
 20
127.7173707208
 11
131.9097257498
 21
127.8565022415
  0
LINE
  5
37F
100
AcDbEntity
  8
0
100
AcDbLine
 62
7
  6
CONTINUOUS
 10
130.0418234531
 20
129.992753829
 11
130.5130169495
 21
129.7572131071
  0
LINE
  5
380
100
AcDbEntity
  8
0
100
AcDbLine
 62
7
  6
CONTINUOUS
 10
130.5837277713
 20
129.792568518
 11
130.1125342746
 21
130.0281092397
  0
LINE
  5
381
100
AcDbEntity
  8
0
100
AcDbLine
 62
7
  6
CONTINUOUS
 10
126.6006626588
 20
128.8513611655
 11
126.1137155566
 21
129.0949116526
  0
LINE
  5
382
100
AcDbEntity
  8
0
100
AcDbLine
 62
7
  6
CONTINUOUS
 10
127.3286839432
 20
128.4872667836
 11
126.8628092387
 21
128.7202534031
  0
LINE
  5
383
100
AcDbEntity
  8
0
100
AcDbLine
 62
7
  6
CONTINUOUS
 10
128.0733803176
 20
128.114871724
 11
128.0050778821
 21
128.1490256072
  0
LINE
  5
384
100
AcDbEntity
  8
0
100
AcDbLine
 62
7
  6
CONTINUOUS
 10
129.2289575137
 20
127.5370880355
 11
128.752504693
 21
127.7753009819
  0
LINE
  5
385
100
AcDbEntity
  8
0
100
AcDbLine
 62
7
  6
CONTINUOUS
 10
126.1182150233
 20
131.9548728794
 11
126.6051621255
 21
131.7113223923
  0
LINE
  5
386
100
AcDbEntity
  8
0
100
AcDbLine
 62
7
  6
CONTINUOUS
 10
127.0779561048
 20
131.4746949978
 11
127.5645339485
 21
131.2313622252
  0
LINE
  5
387
100
AcDbEntity
  8
0
100
AcDbLine
 62
7
  6
CONTINUOUS
 10
128.5334017871
 20
130.7468908557
 11
129.0152707438
 21
130.5059624683
  0
LINE
  5
388
100
AcDbEntity
  8
0
100
AcDbLine
 62
7
  6
CONTINUOUS
 10
126.6758729473
 20
131.7466778032
 11
126.1889258455
 21
131.9902282905
  0
LINE
  5
389
100
AcDbEntity
  8
0
100
AcDbLine
 62
7
  6
CONTINUOUS
 10
127.6352447698
 20
131.2667176358
 11
127.1486669263
 21
131.5100504085
  0
LINE
  5
38A
100
AcDbEntity
  8
0
100
AcDbLine
 62
7
  6
CONTINUOUS
 10
129.0859815649
 20
130.5413178788
 11
128.6041126082
 21
130.7822462663
  0
LINE
  5
38B
100
AcDbEntity
  8
0
100
AcDbLine
 62
7
  6
CONTINUOUS
 10
125.1831983179
 20
129.5603639492
 11
124.7541177844
 21
129.7750141641
  0
LINE
  5
38C
100
AcDbEntity
  8
0
100
AcDbLine
 62
7
  6
CONTINUOUS
 10
124.0191764561
 20
133.0047440835
 11
124.5480738293
 21
132.7401340622
  0
LINE
  5
38D
100
AcDbEntity
  8
0
100
AcDbLine
 62
7
  6
CONTINUOUS
 10
125.450919934
 20
132.2884813458
 11
125.9375117737
 21
132.0450855677
  0
LINE
  5
38E
100
AcDbEntity
  8
0
100
AcDbLine
 62
7
  6
CONTINUOUS
 10
124.6187846533
 20
132.7754894742
 11
124.0898872809
 21
133.0400994959
  0
LINE
  5
38F
100
AcDbEntity
  8
0
100
AcDbLine
 62
7
  6
CONTINUOUS
 10
126.0082225961
 20
132.0804409789
 11
125.5216307568
 21
132.3238367573
  0
LWPOLYLINE
  5
390
100
AcDbEntity
  8
0
100
AcDbPolyline
 62
7
  6
CONTINUOUS
 90
9
 70
0
 10
132.2219177158
 20
128.4323443216
 10
132.1819448604
 20
128.4572046306
 10
132.14122611
 20
128.4808883289
 10
132.0998165824
 20
128.5032983046
 10
132.0577799765
 20
128.5243323406
 10
132.0151788467
 20
128.5438879338
 10
131.9720748473
 20
128.5618608215
 10
131.9285415198
 20
128.5781417594
 10
131.8846187028
 20
128.592801494
  0
LWPOLYLINE
  5
391
100
AcDbEntity
  8
0
100
AcDbPolyline
 62
7
  6
CONTINUOUS
 90
25
 70
0
 10
132.644844021
 20
128.69886502
 10
132.5964950937
 20
128.7422843641
 10
132.5475766593
 20
128.7836158357
 10
132.4980887181
 20
128.8228594348
 10
132.4478734226
 20
128.8598641585
 10
132.3970886242
 20
128.8947810118
 10
132.3462078684
 20
128.9280630055
 10
132.2953396022
 20
128.9597467281
 10
132.2443753765
 20
128.9897955901
 10
132.1934633882
 20
129.0185528333
 10
132.1426119666
 20
129.0460830949
 10
132.0918127802
 20
129.0723217366
 10
132.0411890321
 20
129.0974180852
 10
131.9907956441
 20
129.1213475945
 10
131.9405776905
 20
129.1441348088
 10
131.8904936014
 20
129.1660026904
 10
131.8405539725
 20
129.1869540653
 10
131.7907482062
 20
129.2069861065
 10
131.7410029436
 20
129.2263132984
 10
131.6913289467
 20
129.2449375437
 10
131.6417154532
 20
129.2628569395
 10
131.5920568202
 20
129.2802802623
 10
131.5423178342
 20
129.2972771046
 10
131.492533711
 20
129.313777875
 10
131.4427044514
 20
129.329782574
  0
LWPOLYLINE
  5
392
100
AcDbEntity
  8
RACCORDO
100
AcDbPolyline
 62
253
  6
CONTINUOUS
 90
8
 70
0
 10
187.2022228516
 20
117.0690578196
 10
187.2309891338
 20
117.1005992148
 10
187.2553152448
 20
117.1330614149
 10
187.2750842504
 20
117.1662883762
 10
187.2902009777
 20
117.2001199922
 10
187.3005930133
 20
117.2343940131
 10
187.306210514
 20
117.2689468678
 10
187.30728849
 20
117.2921562119
  0
LWPOLYLINE
  5
393
100
AcDbEntity
  8
0
100
AcDbPolyline
 62
7
  6
CONTINUOUS
 90
5
 70
0
 10
132.4165750254
 20
127.6707837967
 10
132.399618329
 20
127.6680327247
 10
132.3814951958
 20
127.6668499828
 10
132.3630473515
 20
127.666996178
 10
132.3443365889
 20
127.6684614554
  0
LWPOLYLINE
  5
394
100
AcDbEntity
  8
0
100
AcDbPolyline
 62
7
  6
CONTINUOUS
 90
3
 70
0
 10
132.6512489228
 20
127.1909832026
 10
132.6418917577
 20
127.1904440369
 10
132.6321719566
 20
127.1913450685
  0
LWPOLYLINE
  5
395
100
AcDbEntity
  8
0
100
AcDbPolyline
 62
7
  6
CONTINUOUS
 90
9
 70
0
 10
132.3443365889
 20
127.6684614554
 10
132.3253011147
 20
127.6712556698
 10
132.3060851893
 20
127.6750859105
 10
132.2867060356
 20
127.6799237024
 10
132.2671464307
 20
127.6857975207
 10
132.2474989659
 20
127.6924998802
 10
132.2277945048
 20
127.6999616191
 10
132.2080021837
 20
127.7082518993
 10
132.188122003
 20
127.7173707208
  0
LINE
  5
396
100
AcDbEntity
  8
0
100
AcDbLine
 62
7
  6
CONTINUOUS
 10
132.6321719566
 20
127.1913450685
 11
132.6220452464
 21
127.1939423974
  0
LINE
  5
397
100
AcDbEntity
  8
0
100
AcDbLine
 62
7
  6
CONTINUOUS
 10
131.8846187028
 20
128.592801494
 11
131.84027038
 21
128.6062250117
  0
LWPOLYLINE
  5
398
100
AcDbEntity
  8
0
100
AcDbPolyline
 62
7
  6
CONTINUOUS
 90
19
 70
0
 10
131.3719936292
 20
129.2944271629
 10
131.4546940304
 20
129.2674960723
 10
131.5357402359
 20
129.23993456
 10
131.6150894248
 20
129.2115912952
 10
131.6927081932
 20
129.1823439145
 10
131.7685567417
 20
129.1521024564
 10
131.8425885859
 20
129.1208086694
 10
131.9147775897
 20
129.0884237419
 10
131.9850986092
 20
129.0549337104
 10
132.0535116247
 20
129.0203556955
 10
132.1199805639
 20
128.984728895
 10
132.1845086341
 20
128.948092039
 10
132.2471169532
 20
128.9104854134
 10
132.3077850458
 20
128.8718495321
 10
132.3662696712
 20
128.8321252818
 10
132.4222551459
 20
128.7913809181
 10
132.4755778743
 20
128.7496728974
 10
132.5262193604
 20
128.7070174643
 10
132.5741331976
 20
128.6635096084
  0
LWPOLYLINE
  5
399
100
AcDbEntity
  8
RACCORDO
100
AcDbPolyline
 62
253
  6
CONTINUOUS
 90
19
 70
0
 10
176.114777064
 20
111.6708891113
 10
176.1465914881
 20
111.6563901047
 10
176.1807812967
 20
111.6433056184
 10
176.2170931302
 20
111.6317326135
 10
176.2552579039
 20
111.6217568503
 10
176.2949928023
 20
111.6134522532
 10
176.3360033746
 20
111.6068803624
 10
176.3779857167
 20
111.602089878
 10
176.4206287234
 20
111.5991162995
 10
176.4636163936
 20
111.5979816621
 10
176.5066301723
 20
111.598694374
 10
176.5493513108
 20
111.6012491536
 10
176.5914632293
 20
111.6056270692
 10
176.6326538621
 20
111.6117956786
 10
176.6726179711
 20
111.6197092701
 10
176.7110594067
 20
111.629309201
 10
176.7476933033
 20
111.6405243322
 10
176.7822481897
 20
111.6532715552
 10
176.8144680008
 20
111.6674564081
  0
LINE
  5
39A
100
AcDbEntity
  8
RACCORDO
100
AcDbLine
 62
253
  6
CONTINUOUS
 10
175.053233455
 20
113.4993988451
 11
169.8928148539
 21
116.0637008525
  0
LWPOLYLINE
  5
39B
100
AcDbEntity
  8
RACCORDO
100
AcDbPolyline
 62
253
  6
CONTINUOUS
 90
10
 70
0
 10
175.3994763022
 20
114.1055872264
 10
170.2391844649
 20
116.6698262471
 10
165.0807589248
 20
119.2350035176
 10
159.9242003627
 20
121.8011186973
 10
154.7695096865
 20
124.3681713315
 10
149.6166873501
 20
126.936161194
 10
144.4657333528
 20
129.5050882875
 10
139.3166481484
 20
132.0749523858
 10
134.1694326449
 20
134.6457530341
 10
129.024087523
 20
137.217489892
  0
LWPOLYLINE
  5
39C
100
AcDbEntity
  8
RACCORDO
100
AcDbPolyline
 62
253
  6
CONTINUOUS
 90
9
 70
0
 10
169.8928148539
 20
116.0637008525
 10
164.7342625942
 20
118.6289411317
 10
159.5775773583
 20
121.1951193429
 10
154.4227600563
 20
123.7622350328
 10
149.2698111416
 20
126.3302879749
 10
144.1187306115
 20
128.8992781706
 10
138.9695189202
 20
131.4692053941
 10
133.8221769776
 20
134.0400691915
 10
128.6767054652
 20
136.611869223
  0
LWPOLYLINE
  5
39D
100
AcDbEntity
  8
RACCORDO
100
AcDbPolyline
 62
253
  6
CONTINUOUS
 90
10
 70
0
 10
128.6767054652
 20
136.611869223
 10
123.5331054041
 20
139.1846049783
 10
118.3913778161
 20
141.7582759461
 10
113.2515233813
 20
144.3328817857
 10
108.1135430071
 20
146.9084220422
 10
102.9774371452
 20
149.4848964884
 10
97.8432057928
 20
152.0623051257
 10
92.7108494023
 20
154.6406477276
 10
87.580368881
 20
157.219923839
 10
82.4517649079
 20
159.8001331186
  0
LWPOLYLINE
  5
39E
100
AcDbEntity
  8
RACCORDO
100
AcDbPolyline
 62
253
  6
CONTINUOUS
 90
3
 70
0
 10
129.024087523
 20
137.217489892
 10
123.8806138089
 20
139.790162452
 10
118.7390125191
 20
142.3637702004
  0
LINE
  5
39F
100
AcDbEntity
  8
RACCORDO
100
AcDbLine
 62
253
  6
CONTINUOUS
 10
118.7390125191
 20
142.3637702004
 11
112.5367167151
 21
145.4709512024
  0
LWPOLYLINE
  5
3A0
100
AcDbEntity
  8
RACCORDO
100
AcDbPolyline
 62
253
  6
CONTINUOUS
 90
7
 70
0
 10
112.5367167151
 20
145.4709512024
 10
108.4614301644
 20
147.5137897869
 10
103.3254504612
 20
150.0902009441
 10
98.1913452196
 20
152.6675462688
 10
93.0591148917
 20
155.2458255341
 10
87.9287603871
 20
157.825038286
 10
82.8002823866
 20
160.4051841842
  0
LWPOLYLINE
  5
3A1
100
AcDbEntity
  8
RACCORDO
100
AcDbPolyline
 62
253
  6
CONTINUOUS
 90
10
 70
0
 10
81.3923424327
 20
159.0321064266
 10
81.3633516652
 20
159.0480097006
 10
81.3372044884
 20
159.0650934301
 10
81.3140946657
 20
159.0832310167
 10
81.294193452
 20
159.1022880518
 10
81.2776483251
 20
159.1221233136
 10
81.2645818922
 20
159.1425898133
 10
81.2550909821
 20
159.1635358841
 10
81.249245927
 20
159.1848063053
 10
81.2470778175
 20
159.2082324917
  0
LWPOLYLINE
  5
3A2
100
AcDbEntity
  8
RACCORDO
100
AcDbPolyline
 62
253
  6
CONTINUOUS
 90
6
 70
0
 10
98.6989162697
 20
162.141983487
 10
98.6654122975
 20
162.1645466674
 10
98.6309735443
 20
162.1824276256
 10
98.5957686779
 20
162.1955387873
 10
98.5599701186
 20
162.2038159391
 10
98.5322371216
 20
162.2068615684
  0
LWPOLYLINE
  5
3A3
100
AcDbEntity
  8
RACCORDO
100
AcDbPolyline
 62
253
  6
CONTINUOUS
 90
12
 70
0
 10
175.0532334553
 20
32.1304492103
 10
175.0546123921
 20
32.0938824909
 10
175.0585958328
 20
32.0589106333
 10
175.0651542205
 20
32.0257931265
 10
175.0742388922
 20
31.9947757005
 10
175.0857824403
 20
31.9660885028
 10
175.0996992124
 20
31.9399443908
 10
175.1158859467
 20
31.9165373523
 10
175.1342225386
 20
31.8960410661
 10
175.1545729318
 20
31.8786076134
 10
175.1767861273
 20
31.8643663495
 10
175.1831916975
 20
31.8610282547
  0
LWPOLYLINE
  5
3A4
100
AcDbEntity
  8
RACCORDO
100
AcDbPolyline
 62
253
  6
CONTINUOUS
 90
15
 70
0
 10
82.8002823866
 20
160.4051841842
 10
82.7261112023
 20
160.439755188
 10
82.6521626001
 20
160.4694780759
 10
82.5786419468
 20
160.4942754752
 10
82.5057617043
 20
160.5140832141
 10
82.4337148219
 20
160.5288521572
 10
82.3626750467
 20
160.5385439455
 10
82.2928299724
 20
160.5431318639
 10
82.2243829186
 20
160.5426018324
 10
82.1575263155
 20
160.5369531106
 10
82.092447497
 20
160.5262029106
 10
82.0293228088
 20
160.5103821135
 10
81.9683202499
 20
160.4895324455
 10
81.9096062464
 20
160.4637105899
 10
81.8844868611
 20
160.4507634081
  0
LWPOLYLINE
  5
3A5
100
AcDbEntity
  8
RACCORDO
100
AcDbPolyline
 62
253
  6
CONTINUOUS
 90
31
 70
0
 10
82.4517649079
 20
159.8001331186
 10
82.3961571909
 20
159.8262914698
 10
82.3410061141
 20
159.8487054461
 10
82.2863116746
 20
159.867375046
 10
82.2319315749
 20
159.8823291251
 10
82.1780081134
 20
159.8935388284
 10
82.1249681785
 20
159.900917587
 10
82.0728121071
 20
159.904436152
 10
82.0215395622
 20
159.9041237723
 10
81.9715764138
 20
159.8999816221
 10
81.9229362812
 20
159.8919777583
 10
81.8756055448
 20
159.8801441238
 10
81.8299692072
 20
159.8645777171
 10
81.7860403141
 20
159.8452479712
 10
81.7438058198
 20
159.8221854531
 10
81.7036115812
 20
159.795578858
 10
81.6654744192
 20
159.7653990255
 10
81.6293775129
 20
159.7316751159
 10
81.5956162492
 20
159.6946833015
 10
81.5642100737
 20
159.6543975808
 10
81.5351395408
 20
159.6108439553
 10
81.5086416918
 20
159.5643765978
 10
81.4847368357
 20
159.5149685327
 10
81.4634046635
 20
159.4626467356
 10
81.444821282
 20
159.4078463022
 10
81.4290104033
 20
159.3505550815
 10
81.4159483151
 20
159.2907852244
 10
81.4057399785
 20
159.2290082761
 10
81.3984203783
 20
159.1653814174
 10
81.3939545287
 20
159.0997474671
 10
81.3923424327
 20
159.0321064266
  0
LWPOLYLINE
  5
3A6
100
AcDbEntity
  8
RACCORDO
100
AcDbPolyline
 62
7
  6
CONTINUOUS
 90
10
 70
0
 10
176.341987928
 20
114.5804765051
 10
171.1798879786
 20
117.1456073994
 10
166.019655473
 20
119.7116774029
 10
160.8612910927
 20
122.278686175
 10
155.7047955624
 20
124.846633352
 10
150.5501695205
 20
127.4155186159
 10
145.397413519
 20
129.9853416938
 10
140.2465281963
 20
132.5561022677
 10
135.0975142771
 20
135.1277999741
 10
129.9503724429
 20
137.7004344721
  0
LINE
  5
3A7
100
AcDbEntity
  8
RACCORDO
100
AcDbLine
 62
7
  6
CONTINUOUS
 10
90.5595792585
 20
163.6678533063
 11
182.83783805
 21
117.5287239106
  0
LWPOLYLINE
  5
3A8
100
AcDbEntity
  8
RACCORDO
100
AcDbPolyline
 62
7
  6
CONTINUOUS
 90
4
 70
0
 10
129.9503724429
 20
137.7004344721
 10
124.8051034466
 20
140.2740053893
 10
119.6617080332
 20
142.8485123493
 10
114.5201868843
 20
145.4239550112
  0
LWPOLYLINE
  5
3A9
100
AcDbEntity
  8
RACCORDO
100
AcDbPolyline
 62
7
  6
CONTINUOUS
 90
7
 70
0
 10
114.5201868843
 20
145.4239550112
 10
109.3805407268
 20
148.0003330128
 10
104.2427701969
 20
150.5776460347
 10
99.1068758403
 20
153.1558938012
 10
93.9728582932
 20
155.7350759928
 10
88.8407182827
 20
158.3151922474
 10
83.7104564901
 20
160.8962422241
  0
LWPOLYLINE
  5
3AA
100
AcDbEntity
  8
RACCORDO
100
AcDbPolyline
 62
7
  6
CONTINUOUS
 90
31
 70
0
 10
176.341987928
 20
114.5804765051
 10
176.4160924687
 20
114.5413288987
 10
176.4897759182
 20
114.4976634468
 10
176.5630382746
 20
114.4494801485
 10
176.6361758187
 20
114.3965543811
 10
176.7088922792
 20
114.3391107719
 10
176.7802988168
 20
114.2778231904
 10
176.8502929658
 20
114.212695802
 10
176.918977188
 20
114.1437244392
 10
176.9857700162
 20
114.0715704623
 10
177.0505332396
 20
113.9964000928
 10
177.113405063
 20
113.9180471058
 10
177.1742186342
 20
113.8366741881
 10
177.2331597566
 20
113.7519986039
 10
177.2900426384
 20
113.6643030943
 10
177.3441430236
 20
113.5745985552
 10
177.3953951204
 20
113.4828400499
 10
177.4438647207
 20
113.3890725147
 10
177.4890249202
 20
113.2944416429
 10
177.5307206765
 20
113.1992545855
 10
177.5691070208
 20
113.1032041856
 10
177.6041221471
 20
113.0065146691
 10
177.6358483226
 20
112.9089692633
 10
177.6642032868
 20
112.810784744
 10
177.6888784344
 20
112.7128356557
 10
177.7098335536
 20
112.6150175733
 10
177.7271088603
 20
112.5174349237
 10
177.7405163706
 20
112.4212755202
 10
177.7499934148
 20
112.3269352963
 10
177.7556026533
 20
112.2340183137
 10
177.7573440875
 20
112.1425245731
  0
LWPOLYLINE
  5
3AB
100
AcDbEntity
  8
RACCORDO
100
AcDbPolyline
 62
253
  6
CONTINUOUS
 90
31
 70
0
 10
176.8144727118
 20
111.6674539696
 10
176.8123385152
 20
111.759009761
 10
176.8063353363
 20
111.8522367711
 10
176.7964844206
 20
111.9468800134
 10
176.7828209025
 20
112.0426734429
 10
176.765383681
 20
112.139362445
 10
176.7442120737
 20
112.236705268
 10
176.7193611501
 20
112.3344487155
 10
176.6909029337
 20
112.4323139159
 10
176.6589153476
 20
112.5300193196
 10
176.6234890819
 20
112.6272923444
 10
176.5847217131
 20
112.7238728259
 10
176.542716107
 20
112.8194993886
 10
176.4975865102
 20
112.9139116304
 10
176.4494582868
 20
113.006849907
 10
176.3984631052
 20
113.0980587129
 10
176.3447400007
 20
113.1872877988
 10
176.2884365711
 20
113.2742930405
 10
176.2297082675
 20
113.3588361331
 10
176.1687155616
 20
113.4406836489
 10
176.1056244515
 20
113.5196125987
 10
176.0406074281
 20
113.5954109031
 10
175.9738367593
 20
113.6678733642
 10
175.9054977505
 20
113.7367965028
 10
175.8357896215
 20
113.8019852505
 10
175.7649104868
 20
113.8632528916
 10
175.6930439473
 20
113.920440705
 10
175.6203716927
 20
113.9734095366
 10
175.547085484
 20
114.0220160522
 10
175.4733873714
 20
114.06611693
 10
175.3994763022
 20
114.1055872264
  0
LWPOLYLINE
  5
3AC
100
AcDbEntity
  8
RACCORDO
100
AcDbPolyline
 62
253
  6
CONTINUOUS
 90
31
 70
0
 10
176.1147770637
 20
111.6708891112
 10
176.1134091478
 20
111.7400176944
 10
176.109166529
 20
111.8100041598
 10
176.1020492043
 20
111.8808485058
 10
176.0920225439
 20
111.9527429922
 10
176.0791211785
 20
112.0254953597
 10
176.0634489942
 20
112.0985288278
 10
176.0449822147
 20
112.1718547288
 10
176.0237446163
 20
112.2454617304
 10
175.9999114055
 20
112.3187390508
 10
175.9734620374
 20
112.3916800718
 10
175.9444170568
 20
112.4642914116
 10
175.9130132961
 20
112.5359821397
 10
175.8792310989
 20
112.6067459057
 10
175.8430901217
 20
112.6765890601
 10
175.8048861587
 20
112.7449397189
 10
175.7646022449
 20
112.8117855554
 10
175.7222553453
 20
112.8771388965
 10
175.6781921407
 20
112.9404648351
 10
175.6323993233
 20
113.0017460025
 10
175.584890201
 20
113.0609997676
 10
175.5360513703
 20
113.1177433257
 10
175.4858690803
 20
113.1719584619
 10
175.4343570821
 20
113.2236633911
 10
175.3819432173
 20
113.2724299497
 10
175.3286272469
 20
113.3182290568
 10
175.2744094098
 20
113.3610897931
 10
175.2197182575
 20
113.400671233
 10
175.1646966384
 20
113.4368597335
 10
175.1092017033
 20
113.469768937
 10
175.053233455
 20
113.4993988451
  0
LWPOLYLINE
  5
3AD
100
AcDbEntity
  8
RACCORDO
100
AcDbPolyline
 62
253
  6
CONTINUOUS
 90
10
 70
0
 10
176.1147770637
 20
32.8995364689
 10
176.1071033487
 20
37.2718798039
 10
176.10033242
 20
41.6446766285
 10
176.0944642779
 20
46.0179266636
 10
176.0894989229
 20
50.3916295362
 10
176.0854363549
 20
54.7657850607
 10
176.082276574
 20
59.1403932388
 10
176.0800195805
 20
63.515453885
 10
176.0786653746
 20
67.8909666264
 10
176.0782139566
 20
72.2669311837
  0
LWPOLYLINE
  5
3AE
100
AcDbEntity
  8
RACCORDO
100
AcDbPolyline
 62
253
  6
CONTINUOUS
 90
10
 70
0
 10
176.8144727118
 20
32.8980362352
 10
176.8067991879
 20
37.2702721714
 10
176.8000284285
 20
41.6429615862
 10
176.7941604334
 20
46.0161042001
 10
176.7891952025
 20
50.3896996402
 10
176.785132736
 20
54.7637477206
 10
176.7819730344
 20
59.1382484433
 10
176.7797160978
 20
63.5132016227
 10
176.7783619262
 20
67.8886068857
 10
176.7779105194
 20
72.2644639527
  0
LWPOLYLINE
  5
3AF
100
AcDbEntity
  8
RACCORDO
100
AcDbPolyline
 62
7
  6
CONTINUOUS
 90
10
 70
0
 10
177.7573440875
 20
33.3334871977
 10
177.7496623274
 20
37.7079198797
 10
177.7428843006
 20
42.0828066401
 10
177.7370100069
 20
46.4581471991
 10
177.7320394462
 20
50.8339412584
 10
177.7279726187
 20
55.2101885567
 10
177.7248095251
 20
59.5868888697
 10
177.7225501657
 20
63.9640419362
 10
177.7211945402
 20
68.3416474578
 10
177.7207426487
 20
72.7197051546
  0
LWPOLYLINE
  5
3B0
100
AcDbEntity
  8
RACCORDO
100
AcDbPolyline
 62
253
  6
CONTINUOUS
 90
10
 70
0
 10
176.0782139566
 20
72.2669311837
 10
176.0786653746
 20
76.6433471644
 10
176.0800195805
 20
81.0202141186
 10
176.082276574
 20
85.3975317668
 10
176.0854363549
 20
89.7752997358
 10
176.0894989229
 20
94.1535178397
 10
176.0944642779
 20
98.5321860806
 10
176.10033242
 20
102.9113042727
 10
176.1071033487
 20
107.2908720427
 10
176.1147770637
 20
111.6708891112
  0
LWPOLYLINE
  5
3B1
100
AcDbEntity
  8
RACCORDO
100
AcDbPolyline
 62
253
  6
CONTINUOUS
 90
10
 70
0
 10
176.7779105194
 20
72.2644639527
 10
176.7783619262
 20
76.6407724326
 10
176.7797160978
 20
81.0175318747
 10
176.7819730344
 20
85.3947419996
 10
176.785132736
 20
89.7724024342
 10
176.7891952025
 20
94.1505129928
 10
176.7941604334
 20
98.529073677
 10
176.8000284285
 20
102.9080843009
 10
176.8067991879
 20
107.2875444916
 10
176.8144727118
 20
111.6674539696
  0
LWPOLYLINE
  5
3B2
100
AcDbEntity
  8
RACCORDO
100
AcDbPolyline
 62
7
  6
CONTINUOUS
 90
10
 70
0
 10
177.7207426487
 20
72.7197051546
 10
177.7211945402
 20
77.0982147477
 10
177.7225501657
 20
81.4771758989
 10
177.7248095251
 20
85.8565883284
 10
177.7279726186
 20
90.2364517381
 10
177.7320394462
 20
94.6167658664
 10
177.7370100069
 20
98.9975304884
 10
177.7428843005
 20
103.3787453426
 10
177.7496623274
 20
107.7604101307
 10
177.7573440875
 20
112.1425245731
  0
LWPOLYLINE
  5
3B3
100
AcDbEntity
  8
RACCORDO
100
AcDbPolyline
 62
7
  6
CONTINUOUS
 90
19
 70
0
 10
177.7573440875
 20
33.3334871977
 10
177.7556011588
 20
33.2440560938
 10
177.749992284
 20
33.1570475613
 10
177.7405174613
 20
33.0724615992
 10
177.727114058
 20
32.9899681527
 10
177.7098447161
 20
32.9098972813
 10
177.6888973362
 20
32.8332391512
 10
177.6642334655
 20
32.7601375609
 10
177.6358915524
 20
32.6904487096
 10
177.6041748303
 20
32.6247313552
 10
177.5691627697
 20
32.5631146563
 10
177.5307758934
 20
32.5054694509
 10
177.4890790046
 20
32.4519670111
 10
177.4439168113
 20
32.4024576414
 10
177.3954446165
 20
32.3570910429
 10
177.3441931039
 20
32.3164875757
 10
177.2900986364
 20
32.2807587916
 10
177.2332248507
 20
32.2497931386
 10
177.2174728556
 20
32.2422800161
  0
LWPOLYLINE
  5
3B4
100
AcDbEntity
  8
RACCORDO
100
AcDbPolyline
 62
253
  6
CONTINUOUS
 90
19
 70
0
 10
175.053233455
 20
113.4993988451
 10
175.0546120763
 20
113.5373537721
 10
175.05859524
 20
113.5763354995
 10
175.0651533908
 20
113.6160547813
 10
175.074237867
 20
113.6562168986
 10
175.0857812613
 20
113.6965238467
 10
175.0996979212
 20
113.7366765462
 10
175.1158845844
 20
113.7763770623
 10
175.1342211453
 20
113.8153308155
 10
175.1545715457
 20
113.853248767
 10
175.1767847848
 20
113.8898495641
 10
175.2006960393
 20
113.9248616272
 10
175.2261278866
 20
113.9580251652
 10
175.2528916213
 20
113.9890941032
 10
175.2807886553
 20
114.0178379082
 10
175.3096119913
 20
114.0440433001
 10
175.339147759
 20
114.0675158335
 10
175.3691768016
 20
114.0880813412
 10
175.3994763022
 20
114.1055872264
  0
LINE
  5
3B5
100
AcDbEntity
  8
RACCORDO
100
AcDbLine
 62
253
  6
CONTINUOUS
 10
176.7779105194
 20
72.2644639527
 11
177.7207426487
 21
72.7197051546
  0
LWPOLYLINE
  5
3B6
100
AcDbEntity
  8
RACCORDO
100
AcDbPolyline
 62
7
  6
CONTINUOUS
 90
20
 70
0
 10
92.7754892997
 20
164.5559042453
 10
92.731381495
 20
164.5764296845
 10
92.6860683762
 20
164.5946468844
 10
92.6388807738
 20
164.6109199737
 10
92.5905350599
 20
164.6250275822
 10
92.5398548887
 20
164.6372643555
 10
92.4871199762
 20
164.6474249191
 10
92.4333972335
 20
164.6552374894
 10
92.377705447
 20
164.6607565427
 10
92.3202541522
 20
164.6637940217
 10
92.2616961502
 20
164.6641847492
 10
92.2012160114
 20
164.6617790988
 10
92.1389004225
 20
164.6563533948
 10
92.0753394171
 20
164.647744719
 10
92.0102674965
 20
164.635685337
 10
91.9440580981
 20
164.6199723449
 10
91.877088865
 20
164.6004314897
 10
91.8090207303
 20
164.576680372
 10
91.7400064613
 20
164.548416689
 10
91.7185824632
 20
164.5387484754
  0
LWPOLYLINE
  5
3B7
100
AcDbEntity
  8
RACCORDO
100
AcDbPolyline
 62
253
  6
CONTINUOUS
 90
13
 70
0
 10
92.4520494261
 20
164.4778254539
 10
92.3833625243
 20
164.5108371278
 10
92.3148369875
 20
164.5387227488
 10
92.2467045948
 20
164.5613879974
 10
92.1791957951
 20
164.5787562114
 10
92.1125389283
 20
164.5907686451
 10
92.0469594525
 20
164.5973846677
 10
91.9826791818
 20
164.5985819015
 10
91.919915536
 20
164.594356297
 10
91.858880805
 20
164.5847221467
 10
91.7997814307
 20
164.5697120369
 10
91.7428173094
 20
164.5493767374
 10
91.7185602777
 20
164.538796547
  0
LWPOLYLINE
  5
3B8
100
AcDbEntity
  8
RACCORDO
100
AcDbPolyline
 62
7
  6
CONTINUOUS
 90
8
 70
0
 10
98.921705817
 20
162.1029820457
 10
98.8960184529
 20
162.1153691027
 10
98.8320226554
 20
162.1424498115
 10
98.7661756569
 20
162.1650588899
 10
98.6987869872
 20
162.183061156
 10
98.6301932813
 20
162.1963399843
 10
98.56069073
 20
162.2048097794
 10
98.5322371216
 20
162.2068615684
  0
LWPOLYLINE
  5
3B9
100
AcDbEntity
  8
RACCORDO
100
AcDbPolyline
 62
253
  6
CONTINUOUS
 90
15
 70
0
 10
185.1538274131
 20
118.366735781
 10
185.1465110783
 20
118.3703448233
 10
185.1001208067
 20
118.3913571633
 10
185.0541959911
 20
118.4090388351
 10
185.008887934
 20
118.4234754228
 10
184.9643296352
 20
118.4346551179
 10
184.9206615421
 20
118.4425461275
 10
184.8779465096
 20
118.4472516311
 10
184.8361760574
 20
118.448918801
 10
184.7955299624
 20
118.4476259606
 10
184.7560320169
 20
118.4434539232
 10
184.7174334076
 20
118.43654721
 10
184.6797073926
 20
118.4269832398
 10
184.643054475
 20
118.4148018776
 10
184.6075586753
 20
118.4000708294
  0
LINE
  5
3BA
100
AcDbEntity
  8
RACCORDO
100
AcDbLine
 62
253
  6
CONTINUOUS
 10
98.921705817
 20
162.1029820457
 11
98.9217607623
 21
162.1029545788
  0
LINE
  5
3BB
100
AcDbEntity
  8
RACCORDO
100
AcDbLine
 62
7
  6
CONTINUOUS
 10
183.155807261
 20
117.6799914255
 11
90.9487168286
 21
163.7835366417
  0
LINE
  5
3BC
100
AcDbEntity
  8
RACCORDO
100
AcDbLine
 62
253
  6
CONTINUOUS
 10
184.6075586753
 20
118.4000708294
 11
92.4520494261
 21
164.4778254539
  0
LINE
  5
3BD
100
AcDbEntity
  8
RACCORDO
100
AcDbLine
 62
7
  6
CONTINUOUS
 10
185.1553527075
 20
118.365973149
 11
92.7742313399
 21
164.5565342669
  0
LINE
  5
3BE
100
AcDbEntity
  8
RACCORDO
100
AcDbLine
 62
253
  6
CONTINUOUS
 10
186.5316567643
 20
118.2256132397
 11
98.6989162697
 21
162.141983487
  0
LINE
  5
3BF
100
AcDbEntity
  8
RACCORDO
100
AcDbLine
 62
7
  6
CONTINUOUS
 10
186.7545020855
 20
118.1865839172
 11
98.921761591
 21
162.1029541645
  0
LWPOLYLINE
  5
3C0
100
AcDbEntity
  8
RACCORDO
100
AcDbPolyline
 62
7
  6
CONTINUOUS
 90
19
 70
0
 10
186.7545020855
 20
118.1865839172
 10
186.8102372675
 20
118.1564728879
 10
186.8637895754
 20
118.1230035706
 10
186.9149109552
 20
118.0863827267
 10
186.9631676726
 20
118.0470226035
 10
187.0086022018
 20
118.0050094987
 10
187.0516157624
 20
117.9599717543
 10
187.0920776406
 20
117.9119195734
 10
187.1296010493
 20
117.8611927967
 10
187.1640853913
 20
117.8078107478
 10
187.1953151513
 20
117.7519486856
 10
187.2230375747
 20
117.6939074041
 10
187.2470836009
 20
117.633895149
 10
187.2672717969
 20
117.5722139468
 10
187.2834580804
 20
117.5091657644
 10
187.2955457889
 20
117.4449556505
 10
187.3034358108
 20
117.3798522738
 10
187.3070443832
 20
117.314250794
 10
187.307288483
 20
117.2922158809
  0
LINE
  5
3C1
100
AcDbEntity
  8
RACCORDO
100
AcDbLine
 62
7
  6
CONTINUOUS
 10
184.0395076547
 20
115.4561504228
 11
184.0395076547
 21
37.0798423783
  0
LINE
  5
3C2
100
AcDbEntity
  8
RACCORDO
100
AcDbLine
 62
7
  6
CONTINUOUS
 10
184.3577057062
 20
37.3178782845
 11
184.3577057062
 21
115.6070232462
  0
LWPOLYLINE
  5
3C3
100
AcDbEntity
  8
RACCORDO
100
AcDbPolyline
 62
253
  6
CONTINUOUS
 90
22
 70
0
 10
187.2022228516
 20
117.0690578196
 10
187.2094697503
 20
117.1368026975
 10
187.212298107
 20
117.2053084405
 10
187.2106940695
 20
117.2742395335
 10
187.2046654937
 20
117.3432583782
 10
187.1942419053
 20
117.4120269463
 10
187.1794743551
 20
117.4802084355
 10
187.1604351689
 20
117.5474689187
 10
187.1372175936
 20
117.6134789794
 10
187.1099353399
 20
117.6779153255
 10
187.078722026
 20
117.7404623722
 10
187.043730523
 20
117.8008137876
 10
187.0051322059
 20
117.8586739935
 10
186.9631161146
 20
117.9137596124
 10
186.9178880281
 20
117.9658008558
 10
186.8696694564
 20
118.0145428456
 10
186.8186965558
 20
118.0597468618
 10
186.7652189722
 20
118.1011915123
 10
186.7094986186
 20
118.138673817
 10
186.6518083922
 20
118.1720102016
 10
186.5924308378
 20
118.2010373973
 10
186.5316567643
 20
118.2256132397
  0
LWPOLYLINE
  5
3C4
100
AcDbEntity
  8
RACCORDO
100
AcDbPolyline
 62
253
  6
CONTINUOUS
 90
14
 70
0
 10
186.0840988942
 20
116.7527572779
 10
186.0767745986
 20
116.7064148205
 10
186.0667783566
 20
116.6623809234
 10
186.054243267
 20
116.62065348
 10
186.0392259994
 20
116.5811025206
 10
186.0217977921
 20
116.5437494455
 10
186.0020973376
 20
116.5086823754
 10
185.9802469465
 20
116.4758696616
 10
185.9564054994
 20
116.4453749046
 10
185.9306622115
 20
116.4172129199
 10
185.9030121294
 20
116.3912801965
 10
185.8735075346
 20
116.3675709077
 10
185.8422883668
 20
116.3461674993
 10
185.8094571204
 20
116.3271026501
  0
LWPOLYLINE
  5
3C5
100
AcDbEntity
  8
RACCORDO
100
AcDbPolyline
 62
253
  6
CONTINUOUS
 90
14
 70
0
 10
92.7729754652
 20
164.5570740509
 10
92.7590505597
 20
164.5619164946
 10
92.7427991279
 20
164.5647631821
 10
92.7245912633
 20
164.5656161003
 10
92.7044144539
 20
164.5645626126
 10
92.6823033082
 20
164.5616624953
 10
92.6584376903
 20
164.5569576004
 10
92.6330033796
 20
164.5504788711
 10
92.6061664882
 20
164.5423028376
 10
92.5779633679
 20
164.5325100891
 10
92.5483750898
 20
164.5211170724
 10
92.5174509879
 20
164.508154996
 10
92.4853144579
 20
164.4937028884
 10
92.4520494261
 20
164.4778254539
  0
LWPOLYLINE
  5
3C6
100
AcDbEntity
  8
RACCORDO
100
AcDbPolyline
 62
253
  6
CONTINUOUS
 90
28
 70
0
 10
185.8094571204
 20
116.3271026501
 10
185.8085869503
 20
116.4142951969
 10
185.8035834965
 20
116.5031899799
 10
185.7944636826
 20
116.5934863239
 10
185.7812583554
 20
116.6848788132
 10
185.76401218
 20
116.7770583243
 10
185.7427834892
 20
116.8697130717
 10
185.7176440865
 20
116.9625296627
 10
185.6886790025
 20
117.055194157
 10
185.6559862078
 20
117.1473931288
 10
185.6196762817
 20
117.2388147269
 10
185.5798720377
 20
117.3291497296
 10
185.5367081086
 20
117.4180925902
 10
185.4903304906
 20
117.505342471
 10
185.4408960502
 20
117.5906042604
 10
185.388571993
 20
117.6735895715
 10
185.3335352982
 20
117.754017717
 10
185.2759721204
 20
117.8316166591
 10
185.2160771597
 20
117.9061239293
 10
185.154053003
 20
117.9772875163
 10
185.090109439
 20
118.0448667184
 10
185.0244627486
 20
118.1086329576
 10
184.9573349689
 20
118.1683705504
 10
184.8889531553
 20
118.2238774444
 10
184.8195486135
 20
118.274965901
 10
184.7493560999
 20
118.3214631221
 10
184.6786130273
 20
118.3632118348
 10
184.6075586753
 20
118.4000708294
  0
LWPOLYLINE
  5
3C7
100
AcDbEntity
  8
RACCORDO
100
AcDbPolyline
 62
7
  6
CONTINUOUS
 90
21
 70
0
 10
186.0901132867
 20
116.8520219043
 10
186.0899581405
 20
116.8748045995
 10
186.0857422518
 20
116.9734251081
 10
186.0757508854
 20
117.0718804941
 10
186.0599726536
 20
117.169850981
 10
186.038426389
 20
117.2669527386
 10
186.0111787883
 20
117.3627452199
 10
185.9783055555
 20
117.4568850694
 10
185.9399026553
 20
117.5490354198
 10
185.8961285216
 20
117.6387848865
 10
185.8471296272
 20
117.7258234768
 10
185.7930783866
 20
117.8098371572
 10
185.7342307534
 20
117.8904413094
 10
185.6708077165
 20
117.9673629523
 10
185.6030433717
 20
118.0403461596
 10
185.5312655485
 20
118.1090778977
 10
185.4557331607
 20
118.1733587156
 10
185.3767456051
 20
118.2329800351
 10
185.2947372577
 20
118.2876785417
 10
185.2100583942
 20
118.3373037979
 10
185.1550096184
 20
118.3661525877
  0
LINE
  5
3C8
100
AcDbEntity
  8
RACCORDO
100
AcDbLine
 62
253
  6
CONTINUOUS
 10
185.8094571204
 20
38.1011314782
 11
185.8094571204
 21
116.3271026501
  0
LINE
  5
3C9
100
AcDbEntity
  8
RACCORDO
100
AcDbLine
 62
253
  6
CONTINUOUS
 10
187.2022228516
 20
44.1373755101
 11
187.2022228516
 21
117.0690578196
  0
LINE
  5
3CA
100
AcDbEntity
  8
RACCORDO
100
AcDbLine
 62
7
  6
CONTINUOUS
 10
187.30728849
 20
44.3604744166
 11
187.30728849
 21
117.2921567262
  0
LWPOLYLINE
  5
3CB
100
AcDbEntity
  8
RACCORDO
100
AcDbPolyline
 62
253
  6
CONTINUOUS
 90
3
 70
0
 10
186.0901173201
 20
116.8518965831
 10
186.0885911679
 20
116.8012764391
 10
186.0840988942
 20
116.7527572779
  0
LWPOLYLINE
  5
3CC
100
AcDbEntity
  8
RACCORDO
100
AcDbPolyline
 62
7
  6
CONTINUOUS
 90
3
 70
0
 10
187.30728849
 20
44.3604744166
 10
187.3049271099
 20
44.2917936388
 10
187.2977750752
 20
44.222865414
  0
LWPOLYLINE
  5
3CD
100
AcDbEntity
  8
RACCORDO
100
AcDbPolyline
 62
7
  6
CONTINUOUS
 90
7
 70
0
 10
187.2977750752
 20
44.222865414
 10
187.2857576285
 20
44.1540812359
 10
187.2687976662
 20
44.0857016095
 10
187.2469210804
 20
44.0182893885
 10
187.2203410717
 20
43.9526325561
 10
187.1892336977
 20
43.8891224839
 10
187.1580436631
 20
43.8349122079
  0
LINE
  5
3CE
100
AcDbEntity
  8
RACCORDO
100
AcDbLine
 62
253
  6
CONTINUOUS
 10
98.6989162697
 20
162.141983487
 11
97.4602299519
 21
162.2135349609
  0
LINE
  5
3CF
100
AcDbEntity
  8
RACCORDO
100
AcDbLine
 62
7
  6
CONTINUOUS
 10
98.532215864
 20
162.2068627972
 11
97.335296595
 21
162.2760016394
  0
LWPOLYLINE
  5
3D0
100
AcDbEntity
  8
RACCORDO
100
AcDbPolyline
 62
253
  6
CONTINUOUS
 90
6
 70
0
 10
186.0901173201
 20
38.2709959156
 10
186.0885793366
 20
38.265812924
 10
186.0840628656
 20
38.2597115097
 10
186.0767185761
 20
38.2527672096
 10
186.0667351248
 20
38.2452424036
 10
186.0542540442
 20
38.2370008524
  0
LWPOLYLINE
  5
3D1
100
AcDbEntity
  8
RACCORDO
100
AcDbPolyline
 62
253
  6
CONTINUOUS
 90
6
 70
0
 10
98.6989162697
 20
162.141983487
 10
98.7448408059
 20
162.1439312715
 10
98.7894660615
 20
162.141382626
 10
98.8325775257
 20
162.1343498018
 10
98.8739675054
 20
162.1228667605
 10
98.913437544
 20
162.1069886447
  0
LWPOLYLINE
  5
3D2
100
AcDbEntity
  8
RACCORDO
100
AcDbPolyline
 62
253
  6
CONTINUOUS
 90
9
 70
0
 10
187.1580436631
 20
43.8349122079
 10
187.1604351689
 20
43.8388420247
 10
187.1794743551
 20
43.8753650944
 10
187.1942419053
 20
43.9142640457
 10
187.2046654937
 20
43.9553483663
 10
187.2106940695
 20
43.9984168409
 10
187.212298107
 20
44.0432585363
 10
187.2094697503
 20
44.0896538349
 10
187.2022228516
 20
44.1373755101
  0
LINE
  5
3D3
100
AcDbEntity
  8
RACCORDO
100
AcDbLine
 62
253
  6
CONTINUOUS
 10
187.2022228516
 20
44.1373755101
 11
186.0901173201
 21
42.3372086065
  0
LINE
  5
3D4
100
AcDbEntity
  8
RACCORDO
100
AcDbLine
 62
7
  6
CONTINUOUS
 10
187.1580362515
 20
43.8349002103
 11
186.0901173201
 21
42.1062582231
  0
LWPOLYLINE
  5
3D5
100
AcDbEntity
  8
RACCORDO
100
AcDbPolyline
 62
253
  6
CONTINUOUS
 90
8
 70
0
 10
187.2022228516
 20
44.1373755101
 10
187.2309823838
 20
44.1689087682
 10
187.2553040322
 20
44.2013624028
 10
187.2750709436
 20
44.2345804904
 10
187.2901881479
 20
44.2684034349
 10
187.3005830145
 20
44.3026687341
 10
187.3062056014
 20
44.3372117605
 10
187.30728849
 20
44.3604744166
  0
LWPOLYLINE
  5
3D6
100
AcDbEntity
  8
RACCORDO
100
AcDbPolyline
 62
253
  6
CONTINUOUS
 90
10
 70
0
 10
186.0542540442
 20
38.2370008524
 10
186.0218739358
 20
38.2165733257
 10
186.0021534994
 20
38.2045013569
 10
185.9802763675
 20
38.1916048971
 10
185.9564107966
 20
38.1779544063
 10
185.9306389271
 20
38.1635577951
 10
185.9029695321
 20
38.148622656
 10
185.8734626682
 20
38.1332458161
 10
185.842256864
 20
38.1174049169
 10
185.8094571204
 20
38.1011314782
  0
LWPOLYLINE
  5
3D7
100
AcDbEntity
  8
RACCORDO
100
AcDbPolyline
 62
253
  6
CONTINUOUS
 90
16
 70
0
 10
185.3937799406
 20
37.1954536048
 10
185.4408960472
 20
37.2235365199
 10
185.4903304802
 20
37.2593638719
 10
185.5367080909
 20
37.3000355485
 10
185.5798720129
 20
37.3454139829
 10
185.6196762496
 20
37.3953456884
 10
185.6559861685
 20
37.4496617774
 10
185.6886789558
 20
37.5081785328
 10
185.7176440324
 20
37.5706980292
 10
185.7427834274
 20
37.6370088023
 10
185.7640121057
 20
37.7068865623
 10
185.7812582683
 20
37.7800949587
 10
185.7944635954
 20
37.8563863808
 10
185.8035834258
 20
37.9355027849
 10
185.8085869087
 20
38.0171765677
 10
185.8094571204
 20
38.1011314782
  0
LINE
  5
3D8
100
AcDbEntity
  8
RACCORDO
100
AcDbLine
 62
253
  6
CONTINUOUS
 10
177.7569415517
 20
33.5627140517
 11
184.0395076547
 21
37.0798423783
  0
LINE
  5
3D9
100
AcDbEntity
  8
RACCORDO
100
AcDbLine
 62
7
  6
CONTINUOUS
 10
177.6948843848
 20
32.8551490967
 11
183.6242844813
 21
36.1745667833
  0
LWPOLYLINE
  5
3DA
100
AcDbEntity
  8
RACCORDO
100
AcDbPolyline
 62
7
  6
CONTINUOUS
 90
27
 70
0
 10
185.3937016943
 20
37.1954763889
 10
185.4071438274
 20
37.2028269745
 10
185.4679972799
 20
37.2385696502
 10
185.5250462053
 20
37.2759984683
 10
185.578405699
 20
37.3148071417
 10
185.6287663557
 20
37.3552143279
 10
185.6761109039
 20
37.3969611858
 10
185.7203172391
 20
37.4396453097
 10
185.7618662623
 20
37.4834751267
 10
185.800745784
 20
37.5282413139
 10
185.8368610195
 20
37.5736238281
 10
185.8704653927
 20
37.6197609706
 10
185.9014662774
 20
37.6663767091
 10
185.929864487
 20
37.7132607868
 10
185.9559346535
 20
37.7606801836
 10
185.9796343462
 20
37.8084083477
 10
186.0009212483
 20
37.8561658148
 10
186.0199437749
 20
37.9041077798
 10
186.0366667428
 20
37.9520050313
 10
186.0510063036
 20
37.9994228283
 10
186.0629839931
 20
38.0461328975
 10
186.0724598696
 20
38.090904582
 10
186.0797613009
 20
38.1343004757
 10
186.0852581764
 20
38.1783053243
 10
186.0887923793
 20
38.2227514383
 10
186.0901295386
 20
38.2658409539
 10
186.0901173201
 20
116.8518965831
  0
LINE
  5
3DB
100
AcDbEntity
  8
RACCORDO
100
AcDbLine
 62
253
  6
CONTINUOUS
 10
185.8094571204
 20
38.1011314782
 11
184.3577057062
 21
37.3178782845
  0
LINE
  5
3DC
100
AcDbEntity
  8
RACCORDO
100
AcDbLine
 62
7
  6
CONTINUOUS
 10
185.3937799406
 20
37.1954536047
 11
183.9336056401
 21
36.4076560708
  0
LWPOLYLINE
  5
3DD
100
AcDbEntity
  8
RACCORDO
100
AcDbPolyline
 62
253
  6
CONTINUOUS
 90
19
 70
0
 10
176.2726766347
 20
31.8058697172
 10
176.288434121
 20
31.8133927412
 10
176.3447377995
 20
31.8441358501
 10
176.3984610867
 20
31.8797081407
 10
176.449456325
 20
31.9200119061
 10
176.4975845637
 20
31.964937068
 10
176.542714232
 20
32.014360504
 10
176.5847200163
 20
32.0681453824
 10
176.6234875938
 20
32.126144994
 10
176.6589140103
 20
32.1882037818
 10
176.6909016814
 20
32.2541549387
 10
176.7193599598
 20
32.3238146291
 10
176.744210935
 20
32.3969847774
 10
176.7653825185
 20
32.473452624
 10
176.7828197733
 20
32.5530166939
 10
176.7964835505
 20
32.6354834378
 10
176.8063348594
 20
32.7206363967
 10
176.8123383714
 20
32.8082340317
 10
176.8144727118
 20
32.8980362352
  0
LINE
  5
3DE
100
AcDbEntity
  8
RACCORDO
100
AcDbLine
 62
253
  6
CONTINUOUS
 10
176.8144727118
 20
32.8980362352
 11
177.7573440875
 21
33.3334871977
  0
LINE
  5
3DF
100
AcDbEntity
  8
RACCORDO
100
AcDbLine
 62
7
  6
CONTINUOUS
 10
176.2719003231
 20
31.8055106526
 11
177.2175011686
 21
32.2422222143
  0
ELLIPSE
  5
3E0
100
AcDbEntity
  8
RACCORDO
100
AcDbEllipse
 62
7
  6
CONTINUOUS
 10
183.1554410674
 20
37.9194590976
 30
0.0
 11
-0.7605830964
 21
1.520939386
 31
0.0
 40
0.6121897086
 41
3.0622964204
 42
4.0274505145
  0
ELLIPSE
  5
3E1
100
AcDbEntity
  8
RACCORDO
100
AcDbEllipse
 62
7
  6
CONTINUOUS
 10
90.9490830222
 20
162.3108860945
 30
0.0
 11
-0.7605830964
 21
1.520939386
 31
0.0
 40
0.6121897086
 41
-0.6846338794
 42
0.0869409388
  0
ELLIPSE
  5
3E2
100
AcDbEntity
  8
RACCORDO
100
AcDbEllipse
 62
7
  6
CONTINUOUS
 10
183.1554410674
 20
116.2077070719
 30
0.0
 11
-0.760174637
 21
1.5205763111
 31
0.0
 40
0.6125552124
 41
-2.255296188
 42
-0.6848044477
  0
ELLIPSE
  5
3E3
100
AcDbEntity
  8
RACCORDO
100
AcDbEllipse
 62
7
  6
CONTINUOUS
 10
90.5604032463
 20
162.1946934521
 30
0.0
 11
-0.7609829926
 21
1.5214559605
 31
0.0
 40
0.6119614214
 41
-0.6845271385
 42
-0.0284287002
  0
ELLIPSE
  5
3E4
100
AcDbEntity
  8
RACCORDO
100
AcDbEllipse
 62
7
  6
CONTINUOUS
 10
182.8370140621
 20
37.6820983495
 30
0.0
 11
-0.7609829926
 21
1.5214559605
 31
0.0
 40
0.6119614214
 41
-3.1131372759
 42
-2.2560086979
  0
ELLIPSE
  5
3E5
100
AcDbEntity
  8
RACCORDO
100
AcDbEllipse
 62
7
  6
CONTINUOUS
 10
182.8370140621
 20
116.0563880442
 30
0.0
 11
-0.7600639
 21
1.5206389902
 31
0.0
 40
0.6127837007
 41
-2.2550219623
 42
-0.6849108682
  0
ENDSEC
  0
SECTION
  2
OBJECTS
  0
DICTIONARY
  5
C
100
AcDbDictionary
280
0
281
1
  3
ACAD_GROUP
350
D
  3
ACAD_MLINESTYLE
350
17
  3
ACAD_LAYOUT
350
1A
  3
ACAD_PLOTSETTINGS
350
19
  3
ACAD_PLOTSTYLENAME
350
E
  0
DICTIONARY
  5
D
102
{ACAD_REACTORS
330
C
102
}
100
AcDbDictionary
280
0
281
1
  0
ACDBDICTIONARYWDFLT
  5
E
102
{ACAD_REACTORS
330
C
102
}
100
AcDbDictionary
281
1
  3
Normal
350
F
100
AcDbDictionaryWithDefault
340
F
  0
DICTIONARY
  5
17
102
{ACAD_REACTORS
330
C
102
}
100
AcDbDictionary
280
0
281
1
  3
Standard
350
18
  0
DICTIONARY
  5
19
102
{ACAD_REACTORS
330
C
102
}
100
AcDbDictionary
281
1
  0
DICTIONARY
  5
1A
102
{ACAD_REACTORS
330
C
102
}
100
AcDbDictionary
281
1
  3
Model
350
3E6
  3
Layout1
350
3E7
  0
ACDBPLACEHOLDER
  5
F
102
{ACAD_REACTORS
330
E
102
}
  0
MLINESTYLE
  5
18
102
{ACAD_REACTORS
330
17
102
}
100
AcDbMlineStyle
  2
STANDARD
 70
0
  3

 62
256
 51
90.0
 52
90.0
 71
2
 49
0.5
 62
256
  6
BYLAYER
 49
-0.5
 62
256
  6
BYLAYER
  0
LAYOUT
  5
3E6
102
{ACAD_REACTORS
330
1A
102
}
100
AcDbPlotSettings
  1

  2
none_device
  4
ISO_A4_(297.00_x_210.00_MM)
  6

 40
0.0
 41
0.0
 42
0.0
 43
0.0
 44
297.0
 45
210.0
 46
0.0
 47
0.0
 48
0.0
 49
0.0
140
0.0
141
0.0
142
1.0
143
1.0
 70
1024
 72
1
 73
0
 74
0
  7

 75
0
147
1.0
148
0.0
149
0.0
100
AcDbLayout
  1
Model
 70
0
 71
0
 10
0.0
 20
0.0
 11
297.0
 21
210.0
 12
0.0
 22
0.0
 32
0.0
 14
0.0
 24
0.0
 34
0.0
 15
0.0
 25
0.0
 35
0.0
146
0.0
 13
0.0
 23
0.0
 33
0.0
 16
1.0
 26
0.0
 36
0.0
 17
0.0
 27
1.0
 37
0.0
 76
0
330
2E9
345
0
346
0
  0
LAYOUT
  5
3E7
102
{ACAD_REACTORS
330
1A
102
}
100
AcDbPlotSettings
  1

  2
none_device
  4
ISO_A4_(297.00_x_210.00_MM)
  6

 40
0.0
 41
0.0
 42
0.0
 43
0.0
 44
297.0
 45
210.0
 46
0.0
 47
0.0
 48
0.0
 49
0.0
140
0.0
141
0.0
142
1.0
143
1.0
 70
0
 72
1
 73
0
 74
0
  7

 75
0
147
1.0
148
0.0
149
0.0
100
AcDbLayout
  1
Layout1
 70
0
 71
1
 10
0.0
 20
0.0
 11
297.0
 21
210.0
 12
0.0
 22
0.0
 32
0.0
 14
0.0
 24
0.0
 34
0.0
 15
0.0
 25
0.0
 35
0.0
146
0.0
 13
0.0
 23
0.0
 33
0.0
 16
1.0
 26
0.0
 36
0.0
 17
0.0
 27
1.0
 37
0.0
 76
0
330
2EA
345
0
346
0
  0
ENDSEC
  0
EOF
