  0
SECTION
  2
HEADER
  9
$ACADVER
  1
AC1015
  9
$DWGCODEPAGE
  3
ANSI_1252
  9
$EXTMAX
 10
297.0
 20
210.0
 30
0.0
  9
$EXTMIN
 10
0.0
 20
0.0
 30
0.0
  9
$LIMMIN
 10
0.0
 20
0.0
  9
$LIMMAX
 10
297.0
 20
210.0
  9
$VIEWCTR
 10
148.5
 20
105.0
  9
$VIEWSIZE
 40
210.0
  9
$CLAYER
  8
0
  9
$LTSCALE
 40
16.335
  9
$CELTYPE
  6
BYLAYER
  9
$DIMSCALE
 40
1.0
  9
$DIMASZ
 40
3.0
  9
$DIMEXO
 40
0.5
  9
$DIMDLI
 40
11.286
  9
$DIMEXE
 40
1.5
  9
$DIMCEN
 40
2.673
  9
$DIMLFAC
 40
1.0
  9
$DIMBLK
  1
_FILLED
  9
$DIMTXT
 40
3.0
  9
$DIMTOL
 70
1
  9
$DIMLIM
 70
0
  9
$DIMTFAC
 40
1.0
  9
$DIMTP
 40
0.01
  9
$DIMTM
 40
0.01
  9
$DIMGAP
 40
0.625
  9
$DIMDSEP
 70
44
  9
$PDMODE
 70
3
  9
$PDSIZE
 40
3.0
  9
$HANDSEED
  5
46E
  9
$TILEMODE
 70
1
  9
$MEASUREMENT
 70
1
  9
$INSUNITS
 70
4
  0
ENDSEC
  0
SECTION
  2
CLASSES
  0
CLASS
  1
ACDBDICTIONARYWDFLT
  2
AcDbDictionaryWithDefault
  3
AutoCAD 2000
 90
0
280
0
281
0
  0
CLASS
  1
ACDBPLACEHOLDER
  2
AcDbPlaceHolder
  3
AutoCAD 2000
 90
0
280
0
281
0
  0
CLASS
  1
LAYOUT
  2
AcDbLayout
  3
AutoCAD 2000
 90
0
280
0
281
0
  0
ENDSEC
  0
SECTION
  2
TABLES
  0
TABLE
  2
VPORT
  5
8
100
AcDbSymbolTable
 70
2
  0
VPORT
  5
1F4
100
AcDbSymbolTableRecord
100
AcDbViewportTableRecord
  2
*ACTIVE
 70
0
 10
0.0
 20
0.0
 11
1.0
 21
1.0
 12
148.5
 22
105.0
 13
0.0
 23
0.0
 14
1.0
 24
1.0
 15
0.0
 25
0.0
 16
0.0
 26
0.0
 36
1.0
 17
0.0
 27
0.0
 37
0.0
 40
210.0
 41
1.4142857143
 42
50.0
 43
0.0
 44
0.0
 50
0.0
 51
0.0
 71
0
 72
100
 73
1
 74
1
 75
0
 76
0
 77
0
 78
0
  0
ENDTAB
  0
TABLE
  2
LTYPE
  5
5
100
AcDbSymbolTable
 70
6
  0
LTYPE
  5
14
100
AcDbSymbolTableRecord
100
AcDbLinetypeTableRecord
  2
BYBLOCK
 70
0
  3

 72
65
 73
0
 40
0.0
  0
LTYPE
  5
15
100
AcDbSymbolTableRecord
100
AcDbLinetypeTableRecord
  2
BYLAYER
 70
0
  3

 72
65
 73
0
 40
0.0
  0
LTYPE
  5
16
100
AcDbSymbolTableRecord
100
AcDbLinetypeTableRecord
  2
CONTINUOUS
 70
64
  3
Solid line
 72
65
 73
0
 40
0.0
  0
LTYPE
  5
1F5
100
AcDbSymbolTableRecord
100
AcDbLinetypeTableRecord
  2
CENTER
 70
64
  3
____ _ ____ _ ____ _ ____ _ ____ _ ____ _ ____
 72
65
 73
4
 40
0.6
 49
0.375
 74
0
 49
-0.075
 74
0
 49
0.075
 74
0
 49
-0.075
 74
0
  0
LTYPE
  5
1F6
100
AcDbSymbolTableRecord
100
AcDbLinetypeTableRecord
  2
HIDDEN
 70
64
  3
- - - - - - - - - - - - - - - - - - - -
 72
65
 73
2
 40
0.2
 49
0.1
 74
0
 49
-0.1
 74
0
  0
LTYPE
  5
1F7
100
AcDbSymbolTableRecord
100
AcDbLinetypeTableRecord
  2
PHANTOM
 70
64
  3
_____ _ _ _____ _ _ _____ _ _ _____
 72
65
 73
6
 40
0.8
 49
0.45
 74
0
 49
-0.05
 74
0
 49
0.1
 74
0
 49
-0.05
 74
0
 49
0.1
 74
0
 49
-0.05
 74
0
  0
LTYPE
  5
1F8
100
AcDbSymbolTableRecord
100
AcDbLinetypeTableRecord
  2
DOT
 70
64
  3
. . . . . . . . . . . . . . . . . . . .
 72
65
 73
2
 40
0.2
 49
0.1
 74
0
 49
-0.1
 74
0
  0
LTYPE
  5
1F9
100
AcDbSymbolTableRecord
100
AcDbLinetypeTableRecord
  2
DASHED
 70
64
  3
- - - - - - - - - - - - - - - - - - - -
 72
65
 73
2
 40
0.2
 49
0.1
 74
0
 49
-0.1
 74
0
  0
ENDTAB
  0
TABLE
  2
LAYER
  5
2
100
AcDbSymbolTable
 70
36
  0
LAYER
  5
10
100
AcDbSymbolTableRecord
100
AcDbLayerTableRecord
  2
0
 70
0
 62
7
  6
CONTINUOUS
370
-3
390
F
  0
LAYER
  5
1FA
100
AcDbSymbolTableRecord
100
AcDbLayerTableRecord
  2
DEFAULT_1
 70
0
 62
7
  6
CENTER
370
-3
390
F
  0
LAYER
  5
1FB
100
AcDbSymbolTableRecord
100
AcDbLayerTableRecord
  2
DEFAULT_2
 70
0
 62
7
  6
HIDDEN
370
-3
390
F
  0
LAYER
  5
1FC
100
AcDbSymbolTableRecord
100
AcDbLayerTableRecord
  2
DEFAULT_3
 70
0
 62
7
  6
PHANTOM
370
-3
390
F
  0
LAYER
  5
1FD
100
AcDbSymbolTableRecord
100
AcDbLayerTableRecord
  2
1
 70
0
 62
7
  6
CONTINUOUS
370
-3
390
F
  0
LAYER
  5
1FE
100
AcDbSymbolTableRecord
100
AcDbLayerTableRecord
  2
133A_110000
 70
0
 62
7
  6
CONTINUOUS
370
-3
390
F
  0
LAYER
  5
1FF
100
AcDbSymbolTableRecord
100
AcDbLayerTableRecord
  2
133A_110000_1
 70
0
 62
7
  6
CONTINUOUS
370
-3
390
F
  0
LAYER
  5
200
100
AcDbSymbolTableRecord
100
AcDbLayerTableRecord
  2
1608-CC-RF-VIMAR_80000
 70
0
 62
7
  6
CONTINUOUS
370
-3
390
F
  0
LAYER
  5
201
100
AcDbSymbolTableRecord
100
AcDbLayerTableRecord
  2
1608-CC-RF-VIMAR_80000_1
 70
0
 62
7
  6
CONTINUOUS
370
-3
390
F
  0
LAYER
  5
202
100
AcDbSymbolTableRecord
100
AcDbLayerTableRecord
  2
1608-CC-RF-VIMAR_80000_10
 70
0
 62
7
  6
CONTINUOUS
370
-3
390
F
  0
LAYER
  5
203
100
AcDbSymbolTableRecord
100
AcDbLayerTableRecord
  2
1608-CC-RF-VIMAR_80000_11
 70
0
 62
7
  6
CONTINUOUS
370
-3
390
F
  0
LAYER
  5
204
100
AcDbSymbolTableRecord
100
AcDbLayerTableRecord
  2
1608-CC-RF-VIMAR_80000_12
 70
0
 62
7
  6
CONTINUOUS
370
-3
390
F
  0
LAYER
  5
205
100
AcDbSymbolTableRecord
100
AcDbLayerTableRecord
  2
1608-CC-RF-VIMAR_80000_13
 70
0
 62
7
  6
CONTINUOUS
370
-3
390
F
  0
LAYER
  5
206
100
AcDbSymbolTableRecord
100
AcDbLayerTableRecord
  2
1608-CC-RF-VIMAR_80000_14
 70
0
 62
7
  6
CONTINUOUS
370
-3
390
F
  0
LAYER
  5
207
100
AcDbSymbolTableRecord
100
AcDbLayerTableRecord
  2
1608-CC-RF-VIMAR_80000_15
 70
0
 62
7
  6
CONTINUOUS
370
-3
390
F
  0
LAYER
  5
208
100
AcDbSymbolTableRecord
100
AcDbLayerTableRecord
  2
1608-CC-RF-VIMAR_80000_16
 70
0
 62
7
  6
CONTINUOUS
370
-3
390
F
  0
LAYER
  5
209
100
AcDbSymbolTableRecord
100
AcDbLayerTableRecord
  2
1608-CC-RF-VIMAR_80000_17
 70
0
 62
7
  6
CONTINUOUS
370
-3
390
F
  0
LAYER
  5
20A
100
AcDbSymbolTableRecord
100
AcDbLayerTableRecord
  2
1608-CC-RF-VIMAR_80000_18
 70
0
 62
7
  6
CONTINUOUS
370
-3
390
F
  0
LAYER
  5
20B
100
AcDbSymbolTableRecord
100
AcDbLayerTableRecord
  2
1608-CC-RF-VIMAR_80000_19
 70
0
 62
7
  6
CONTINUOUS
370
-3
390
F
  0
LAYER
  5
20C
100
AcDbSymbolTableRecord
100
AcDbLayerTableRecord
  2
1608-CC-RF-VIMAR_80000_2
 70
0
 62
7
  6
CONTINUOUS
370
-3
390
F
  0
LAYER
  5
20D
100
AcDbSymbolTableRecord
100
AcDbLayerTableRecord
  2
1608-CC-RF-VIMAR_80000_20
 70
0
 62
7
  6
CONTINUOUS
370
-3
390
F
  0
LAYER
  5
20E
100
AcDbSymbolTableRecord
100
AcDbLayerTableRecord
  2
1608-CC-RF-VIMAR_80000_21
 70
0
 62
7
  6
CONTINUOUS
370
-3
390
F
  0
LAYER
  5
20F
100
AcDbSymbolTableRecord
100
AcDbLayerTableRecord
  2
1608-CC-RF-VIMAR_80000_22
 70
0
 62
7
  6
CONTINUOUS
370
-3
390
F
  0
LAYER
  5
210
100
AcDbSymbolTableRecord
100
AcDbLayerTableRecord
  2
1608-CC-RF-VIMAR_80000_3
 70
0
 62
7
  6
CONTINUOUS
370
-3
390
F
  0
LAYER
  5
211
100
AcDbSymbolTableRecord
100
AcDbLayerTableRecord
  2
1608-CC-RF-VIMAR_80000_4
 70
0
 62
7
  6
CONTINUOUS
370
-3
390
F
  0
LAYER
  5
212
100
AcDbSymbolTableRecord
100
AcDbLayerTableRecord
  2
1608-CC-RF-VIMAR_80000_5
 70
0
 62
7
  6
CONTINUOUS
370
-3
390
F
  0
LAYER
  5
213
100
AcDbSymbolTableRecord
100
AcDbLayerTableRecord
  2
1608-CC-RF-VIMAR_80000_6
 70
0
 62
7
  6
CONTINUOUS
370
-3
390
F
  0
LAYER
  5
214
100
AcDbSymbolTableRecord
100
AcDbLayerTableRecord
  2
1608-CC-RF-VIMAR_80000_7
 70
0
 62
7
  6
CONTINUOUS
370
-3
390
F
  0
LAYER
  5
215
100
AcDbSymbolTableRecord
100
AcDbLayerTableRecord
  2
1608-CC-RF-VIMAR_80000_8
 70
0
 62
7
  6
CONTINUOUS
370
-3
390
F
  0
LAYER
  5
216
100
AcDbSymbolTableRecord
100
AcDbLayerTableRecord
  2
1608-CC-RF-VIMAR_80000_9
 70
0
 62
7
  6
CONTINUOUS
370
-3
390
F
  0
LAYER
  5
217
100
AcDbSymbolTableRecord
100
AcDbLayerTableRecord
  2
1608-FL-RF-VIMAR_80000
 70
0
 62
7
  6
CONTINUOUS
370
-3
390
F
  0
LAYER
  5
218
100
AcDbSymbolTableRecord
100
AcDbLayerTableRecord
  2
1608-FL-RF-VIMAR_80000_1
 70
0
 62
7
  6
CONTINUOUS
370
-3
390
F
  0
LAYER
  5
219
100
AcDbSymbolTableRecord
100
AcDbLayerTableRecord
  2
1608-R-RF-VIMAR_45000
 70
0
 62
7
  6
CONTINUOUS
370
-3
390
F
  0
LAYER
  5
21A
100
AcDbSymbolTableRecord
100
AcDbLayerTableRecord
  2
1608-R-RF-VIMAR_45000_1
 70
0
 62
7
  6
CONTINUOUS
370
-3
390
F
  0
LAYER
  5
21B
100
AcDbSymbolTableRecord
100
AcDbLayerTableRecord
  2
1608-R-RF-VIMAR_45000_10
 70
0
 62
7
  6
CONTINUOUS
370
-3
390
F
  0
LAYER
  5
21C
100
AcDbSymbolTableRecord
100
AcDbLayerTableRecord
  2
1608-R-RF-VIMAR_45000_11
 70
0
 62
7
  6
CONTINUOUS
370
-3
390
F
  0
LAYER
  5
21D
100
AcDbSymbolTableRecord
100
AcDbLayerTableRecord
  2
1608-R-RF-VIMAR_45000_12
 70
0
 62
7
  6
CONTINUOUS
370
-3
390
F
  0
LAYER
  5
21E
100
AcDbSymbolTableRecord
100
AcDbLayerTableRecord
  2
1608-R-RF-VIMAR_45000_13
 70
0
 62
7
  6
CONTINUOUS
370
-3
390
F
  0
LAYER
  5
21F
100
AcDbSymbolTableRecord
100
AcDbLayerTableRecord
  2
1608-R-RF-VIMAR_45000_14
 70
0
 62
7
  6
CONTINUOUS
370
-3
390
F
  0
LAYER
  5
220
100
AcDbSymbolTableRecord
100
AcDbLayerTableRecord
  2
1608-R-RF-VIMAR_45000_15
 70
0
 62
7
  6
CONTINUOUS
370
-3
390
F
  0
LAYER
  5
221
100
AcDbSymbolTableRecord
100
AcDbLayerTableRecord
  2
1608-R-RF-VIMAR_45000_16
 70
0
 62
7
  6
CONTINUOUS
370
-3
390
F
  0
LAYER
  5
222
100
AcDbSymbolTableRecord
100
AcDbLayerTableRecord
  2
1608-R-RF-VIMAR_45000_17
 70
0
 62
7
  6
CONTINUOUS
370
-3
390
F
  0
LAYER
  5
223
100
AcDbSymbolTableRecord
100
AcDbLayerTableRecord
  2
1608-R-RF-VIMAR_45000_18
 70
0
 62
7
  6
CONTINUOUS
370
-3
390
F
  0
LAYER
  5
224
100
AcDbSymbolTableRecord
100
AcDbLayerTableRecord
  2
1608-R-RF-VIMAR_45000_19
 70
0
 62
7
  6
CONTINUOUS
370
-3
390
F
  0
LAYER
  5
225
100
AcDbSymbolTableRecord
100
AcDbLayerTableRecord
  2
1608-R-RF-VIMAR_45000_2
 70
0
 62
7
  6
CONTINUOUS
370
-3
390
F
  0
LAYER
  5
226
100
AcDbSymbolTableRecord
100
AcDbLayerTableRecord
  2
1608-R-RF-VIMAR_45000_20
 70
0
 62
7
  6
CONTINUOUS
370
-3
390
F
  0
LAYER
  5
227
100
AcDbSymbolTableRecord
100
AcDbLayerTableRecord
  2
1608-R-RF-VIMAR_45000_3
 70
0
 62
7
  6
CONTINUOUS
370
-3
390
F
  0
LAYER
  5
228
100
AcDbSymbolTableRecord
100
AcDbLayerTableRecord
  2
1608-R-RF-VIMAR_45000_4
 70
0
 62
7
  6
CONTINUOUS
370
-3
390
F
  0
LAYER
  5
229
100
AcDbSymbolTableRecord
100
AcDbLayerTableRecord
  2
1608-R-RF-VIMAR_45000_5
 70
0
 62
7
  6
CONTINUOUS
370
-3
390
F
  0
LAYER
  5
22A
100
AcDbSymbolTableRecord
100
AcDbLayerTableRecord
  2
1608-R-RF-VIMAR_45000_6
 70
0
 62
7
  6
CONTINUOUS
370
-3
390
F
  0
LAYER
  5
22B
100
AcDbSymbolTableRecord
100
AcDbLayerTableRecord
  2
1608-R-RF-VIMAR_45000_7
 70
0
 62
7
  6
CONTINUOUS
370
-3
390
F
  0
LAYER
  5
22C
100
AcDbSymbolTableRecord
100
AcDbLayerTableRecord
  2
1608-R-RF-VIMAR_45000_8
 70
0
 62
7
  6
CONTINUOUS
370
-3
390
F
  0
LAYER
  5
22D
100
AcDbSymbolTableRecord
100
AcDbLayerTableRecord
  2
1608-R-RF-VIMAR_45000_9
 70
0
 62
7
  6
CONTINUOUS
370
-3
390
F
  0
LAYER
  5
22E
100
AcDbSymbolTableRecord
100
AcDbLayerTableRecord
  2
200A_170000
 70
0
 62
7
  6
CONTINUOUS
370
-3
390
F
  0
LAYER
  5
22F
100
AcDbSymbolTableRecord
100
AcDbLayerTableRecord
  2
210_120000
 70
0
 62
7
  6
CONTINUOUS
370
-3
390
F
  0
LAYER
  5
230
100
AcDbSymbolTableRecord
100
AcDbLayerTableRecord
  2
210_120000_1
 70
0
 62
7
  6
CONTINUOUS
370
-3
390
F
  0
LAYER
  5
231
100
AcDbSymbolTableRecord
100
AcDbLayerTableRecord
  2
210_120000_2
 70
0
 62
7
  6
CONTINUOUS
370
-3
390
F
  0
LAYER
  5
232
100
AcDbSymbolTableRecord
100
AcDbLayerTableRecord
  2
210_120000_3
 70
0
 62
7
  6
CONTINUOUS
370
-3
390
F
  0
LAYER
  5
233
100
AcDbSymbolTableRecord
100
AcDbLayerTableRecord
  2
210_120000_4
 70
0
 62
7
  6
CONTINUOUS
370
-3
390
F
  0
LAYER
  5
234
100
AcDbSymbolTableRecord
100
AcDbLayerTableRecord
  2
210_120000_5
 70
0
 62
7
  6
CONTINUOUS
370
-3
390
F
  0
LAYER
  5
235
100
AcDbSymbolTableRecord
100
AcDbLayerTableRecord
  2
210_120000_6
 70
0
 62
7
  6
CONTINUOUS
370
-3
390
F
  0
LAYER
  5
236
100
AcDbSymbolTableRecord
100
AcDbLayerTableRecord
  2
2125-CC-RF-VIMAR_65000
 70
0
 62
7
  6
CONTINUOUS
370
-3
390
F
  0
LAYER
  5
237
100
AcDbSymbolTableRecord
100
AcDbLayerTableRecord
  2
2125-CC-RF-VIMAR_65000_1
 70
0
 62
7
  6
CONTINUOUS
370
-3
390
F
  0
LAYER
  5
238
100
AcDbSymbolTableRecord
100
AcDbLayerTableRecord
  2
2125-CC-RF-VIMAR_65000_2
 70
0
 62
7
  6
CONTINUOUS
370
-3
390
F
  0
LAYER
  5
239
100
AcDbSymbolTableRecord
100
AcDbLayerTableRecord
  2
2125-CC-RF-VIMAR_65000_3
 70
0
 62
7
  6
CONTINUOUS
370
-3
390
F
  0
LAYER
  5
23A
100
AcDbSymbolTableRecord
100
AcDbLayerTableRecord
  2
2125-DL-RF-FINE_VIMAR_110000
 70
0
 62
7
  6
CONTINUOUS
370
-3
390
F
  0
LAYER
  5
23B
100
AcDbSymbolTableRecord
100
AcDbLayerTableRecord
  2
3216-CF-RF-VIMAR_100000
 70
0
 62
7
  6
CONTINUOUS
370
-3
390
F
  0
LAYER
  5
23C
100
AcDbSymbolTableRecord
100
AcDbLayerTableRecord
  2
3216-CF-RF-VIMAR_100000_1
 70
0
 62
7
  6
CONTINUOUS
370
-3
390
F
  0
LAYER
  5
23D
100
AcDbSymbolTableRecord
100
AcDbLayerTableRecord
  2
3216-CF-RF-VIMAR_100000_2
 70
0
 62
7
  6
CONTINUOUS
370
-3
390
F
  0
LAYER
  5
23E
100
AcDbSymbolTableRecord
100
AcDbLayerTableRecord
  2
3216-CF-RF-VIMAR_100000_3
 70
0
 62
7
  6
CONTINUOUS
370
-3
390
F
  0
LAYER
  5
23F
100
AcDbSymbolTableRecord
100
AcDbLayerTableRecord
  2
3216-CS2-RF_1_180000
 70
0
 62
7
  6
CONTINUOUS
370
-3
390
F
  0
LAYER
  5
240
100
AcDbSymbolTableRecord
100
AcDbLayerTableRecord
  2
3216-CS2-RF_1_180000_1
 70
0
 62
7
  6
CONTINUOUS
370
-3
390
F
  0
LAYER
  5
241
100
AcDbSymbolTableRecord
100
AcDbLayerTableRecord
  2
3216-R1-RF-VIMAR_60000
 70
0
 62
7
  6
CONTINUOUS
370
-3
390
F
  0
LAYER
  5
242
100
AcDbSymbolTableRecord
100
AcDbLayerTableRecord
  2
3216-R1-RF-VIMAR_60000_1
 70
0
 62
7
  6
CONTINUOUS
370
-3
390
F
  0
LAYER
  5
243
100
AcDbSymbolTableRecord
100
AcDbLayerTableRecord
  2
43000607A0
 70
0
 62
7
  6
CONTINUOUS
370
-3
390
F
  0
LAYER
  5
244
100
AcDbSymbolTableRecord
100
AcDbLayerTableRecord
  2
43000608A0
 70
0
 62
7
  6
CONTINUOUS
370
-3
390
F
  0
LAYER
  5
245
100
AcDbSymbolTableRecord
100
AcDbLayerTableRecord
  2
43900608A0
 70
0
 62
7
  6
CONTINUOUS
370
-3
390
F
  0
LAYER
  5
246
100
AcDbSymbolTableRecord
100
AcDbLayerTableRecord
  2
6032-CS-RF_280000
 70
0
 62
7
  6
CONTINUOUS
370
-3
390
F
  0
LAYER
  5
247
100
AcDbSymbolTableRecord
100
AcDbLayerTableRecord
  2
7343-CS3-RF_430000
 70
0
 62
7
  6
CONTINUOUS
370
-3
390
F
  0
LAYER
  5
248
100
AcDbSymbolTableRecord
100
AcDbLayerTableRecord
  2
AN_DUAL_BAND_GSM_1_0
 70
0
 62
7
  6
CONTINUOUS
370
-3
390
F
  0
LAYER
  5
249
100
AcDbSymbolTableRecord
100
AcDbLayerTableRecord
  2
ASSI
 70
0
 62
7
  6
CONTINUOUS
370
-3
390
F
  0
LAYER
  5
24A
100
AcDbSymbolTableRecord
100
AcDbLayerTableRecord
  2
BGA112C80P11X11_1000X1000X65_65
 70
0
 62
7
  6
CONTINUOUS
370
-3
390
F
  0
LAYER
  5
24B
100
AcDbSymbolTableRecord
100
AcDbLayerTableRecord
  2
CAPC1005X60N_60000
 70
0
 62
7
  6
CONTINUOUS
370
-3
390
F
  0
LAYER
  5
24C
100
AcDbSymbolTableRecord
100
AcDbLayerTableRecord
  2
CAPC1005X60N_60000_1
 70
0
 62
7
  6
CONTINUOUS
370
-3
390
F
  0
LAYER
  5
24D
100
AcDbSymbolTableRecord
100
AcDbLayerTableRecord
  2
CAPC1005X60N_60000_10
 70
0
 62
7
  6
CONTINUOUS
370
-3
390
F
  0
LAYER
  5
24E
100
AcDbSymbolTableRecord
100
AcDbLayerTableRecord
  2
CAPC1005X60N_60000_11
 70
0
 62
7
  6
CONTINUOUS
370
-3
390
F
  0
LAYER
  5
24F
100
AcDbSymbolTableRecord
100
AcDbLayerTableRecord
  2
CAPC1005X60N_60000_12
 70
0
 62
7
  6
CONTINUOUS
370
-3
390
F
  0
LAYER
  5
250
100
AcDbSymbolTableRecord
100
AcDbLayerTableRecord
  2
CAPC1005X60N_60000_13
 70
0
 62
7
  6
CONTINUOUS
370
-3
390
F
  0
LAYER
  5
251
100
AcDbSymbolTableRecord
100
AcDbLayerTableRecord
  2
CAPC1005X60N_60000_14
 70
0
 62
7
  6
CONTINUOUS
370
-3
390
F
  0
LAYER
  5
252
100
AcDbSymbolTableRecord
100
AcDbLayerTableRecord
  2
CAPC1005X60N_60000_15
 70
0
 62
7
  6
CONTINUOUS
370
-3
390
F
  0
LAYER
  5
253
100
AcDbSymbolTableRecord
100
AcDbLayerTableRecord
  2
CAPC1005X60N_60000_16
 70
0
 62
7
  6
CONTINUOUS
370
-3
390
F
  0
LAYER
  5
254
100
AcDbSymbolTableRecord
100
AcDbLayerTableRecord
  2
CAPC1005X60N_60000_17
 70
0
 62
7
  6
CONTINUOUS
370
-3
390
F
  0
LAYER
  5
255
100
AcDbSymbolTableRecord
100
AcDbLayerTableRecord
  2
CAPC1005X60N_60000_18
 70
0
 62
7
  6
CONTINUOUS
370
-3
390
F
  0
LAYER
  5
256
100
AcDbSymbolTableRecord
100
AcDbLayerTableRecord
  2
CAPC1005X60N_60000_19
 70
0
 62
7
  6
CONTINUOUS
370
-3
390
F
  0
LAYER
  5
257
100
AcDbSymbolTableRecord
100
AcDbLayerTableRecord
  2
CAPC1005X60N_60000_2
 70
0
 62
7
  6
CONTINUOUS
370
-3
390
F
  0
LAYER
  5
258
100
AcDbSymbolTableRecord
100
AcDbLayerTableRecord
  2
CAPC1005X60N_60000_20
 70
0
 62
7
  6
CONTINUOUS
370
-3
390
F
  0
LAYER
  5
259
100
AcDbSymbolTableRecord
100
AcDbLayerTableRecord
  2
CAPC1005X60N_60000_21
 70
0
 62
7
  6
CONTINUOUS
370
-3
390
F
  0
LAYER
  5
25A
100
AcDbSymbolTableRecord
100
AcDbLayerTableRecord
  2
CAPC1005X60N_60000_22
 70
0
 62
7
  6
CONTINUOUS
370
-3
390
F
  0
LAYER
  5
25B
100
AcDbSymbolTableRecord
100
AcDbLayerTableRecord
  2
CAPC1005X60N_60000_23
 70
0
 62
7
  6
CONTINUOUS
370
-3
390
F
  0
LAYER
  5
25C
100
AcDbSymbolTableRecord
100
AcDbLayerTableRecord
  2
CAPC1005X60N_60000_24
 70
0
 62
7
  6
CONTINUOUS
370
-3
390
F
  0
LAYER
  5
25D
100
AcDbSymbolTableRecord
100
AcDbLayerTableRecord
  2
CAPC1005X60N_60000_25
 70
0
 62
7
  6
CONTINUOUS
370
-3
390
F
  0
LAYER
  5
25E
100
AcDbSymbolTableRecord
100
AcDbLayerTableRecord
  2
CAPC1005X60N_60000_26
 70
0
 62
7
  6
CONTINUOUS
370
-3
390
F
  0
LAYER
  5
25F
100
AcDbSymbolTableRecord
100
AcDbLayerTableRecord
  2
CAPC1005X60N_60000_27
 70
0
 62
7
  6
CONTINUOUS
370
-3
390
F
  0
LAYER
  5
260
100
AcDbSymbolTableRecord
100
AcDbLayerTableRecord
  2
CAPC1005X60N_60000_28
 70
0
 62
7
  6
CONTINUOUS
370
-3
390
F
  0
LAYER
  5
261
100
AcDbSymbolTableRecord
100
AcDbLayerTableRecord
  2
CAPC1005X60N_60000_29
 70
0
 62
7
  6
CONTINUOUS
370
-3
390
F
  0
LAYER
  5
262
100
AcDbSymbolTableRecord
100
AcDbLayerTableRecord
  2
CAPC1005X60N_60000_3
 70
0
 62
7
  6
CONTINUOUS
370
-3
390
F
  0
LAYER
  5
263
100
AcDbSymbolTableRecord
100
AcDbLayerTableRecord
  2
CAPC1005X60N_60000_30
 70
0
 62
7
  6
CONTINUOUS
370
-3
390
F
  0
LAYER
  5
264
100
AcDbSymbolTableRecord
100
AcDbLayerTableRecord
  2
CAPC1005X60N_60000_31
 70
0
 62
7
  6
CONTINUOUS
370
-3
390
F
  0
LAYER
  5
265
100
AcDbSymbolTableRecord
100
AcDbLayerTableRecord
  2
CAPC1005X60N_60000_32
 70
0
 62
7
  6
CONTINUOUS
370
-3
390
F
  0
LAYER
  5
266
100
AcDbSymbolTableRecord
100
AcDbLayerTableRecord
  2
CAPC1005X60N_60000_33
 70
0
 62
7
  6
CONTINUOUS
370
-3
390
F
  0
LAYER
  5
267
100
AcDbSymbolTableRecord
100
AcDbLayerTableRecord
  2
CAPC1005X60N_60000_34
 70
0
 62
7
  6
CONTINUOUS
370
-3
390
F
  0
LAYER
  5
268
100
AcDbSymbolTableRecord
100
AcDbLayerTableRecord
  2
CAPC1005X60N_60000_35
 70
0
 62
7
  6
CONTINUOUS
370
-3
390
F
  0
LAYER
  5
269
100
AcDbSymbolTableRecord
100
AcDbLayerTableRecord
  2
CAPC1005X60N_60000_36
 70
0
 62
7
  6
CONTINUOUS
370
-3
390
F
  0
LAYER
  5
26A
100
AcDbSymbolTableRecord
100
AcDbLayerTableRecord
  2
CAPC1005X60N_60000_37
 70
0
 62
7
  6
CONTINUOUS
370
-3
390
F
  0
LAYER
  5
26B
100
AcDbSymbolTableRecord
100
AcDbLayerTableRecord
  2
CAPC1005X60N_60000_38
 70
0
 62
7
  6
CONTINUOUS
370
-3
390
F
  0
LAYER
  5
26C
100
AcDbSymbolTableRecord
100
AcDbLayerTableRecord
  2
CAPC1005X60N_60000_39
 70
0
 62
7
  6
CONTINUOUS
370
-3
390
F
  0
LAYER
  5
26D
100
AcDbSymbolTableRecord
100
AcDbLayerTableRecord
  2
CAPC1005X60N_60000_4
 70
0
 62
7
  6
CONTINUOUS
370
-3
390
F
  0
LAYER
  5
26E
100
AcDbSymbolTableRecord
100
AcDbLayerTableRecord
  2
CAPC1005X60N_60000_40
 70
0
 62
7
  6
CONTINUOUS
370
-3
390
F
  0
LAYER
  5
26F
100
AcDbSymbolTableRecord
100
AcDbLayerTableRecord
  2
CAPC1005X60N_60000_41
 70
0
 62
7
  6
CONTINUOUS
370
-3
390
F
  0
LAYER
  5
270
100
AcDbSymbolTableRecord
100
AcDbLayerTableRecord
  2
CAPC1005X60N_60000_42
 70
0
 62
7
  6
CONTINUOUS
370
-3
390
F
  0
LAYER
  5
271
100
AcDbSymbolTableRecord
100
AcDbLayerTableRecord
  2
CAPC1005X60N_60000_43
 70
0
 62
7
  6
CONTINUOUS
370
-3
390
F
  0
LAYER
  5
272
100
AcDbSymbolTableRecord
100
AcDbLayerTableRecord
  2
CAPC1005X60N_60000_44
 70
0
 62
7
  6
CONTINUOUS
370
-3
390
F
  0
LAYER
  5
273
100
AcDbSymbolTableRecord
100
AcDbLayerTableRecord
  2
CAPC1005X60N_60000_45
 70
0
 62
7
  6
CONTINUOUS
370
-3
390
F
  0
LAYER
  5
274
100
AcDbSymbolTableRecord
100
AcDbLayerTableRecord
  2
CAPC1005X60N_60000_46
 70
0
 62
7
  6
CONTINUOUS
370
-3
390
F
  0
LAYER
  5
275
100
AcDbSymbolTableRecord
100
AcDbLayerTableRecord
  2
CAPC1005X60N_60000_47
 70
0
 62
7
  6
CONTINUOUS
370
-3
390
F
  0
LAYER
  5
276
100
AcDbSymbolTableRecord
100
AcDbLayerTableRecord
  2
CAPC1005X60N_60000_48
 70
0
 62
7
  6
CONTINUOUS
370
-3
390
F
  0
LAYER
  5
277
100
AcDbSymbolTableRecord
100
AcDbLayerTableRecord
  2
CAPC1005X60N_60000_49
 70
0
 62
7
  6
CONTINUOUS
370
-3
390
F
  0
LAYER
  5
278
100
AcDbSymbolTableRecord
100
AcDbLayerTableRecord
  2
CAPC1005X60N_60000_5
 70
0
 62
7
  6
CONTINUOUS
370
-3
390
F
  0
LAYER
  5
279
100
AcDbSymbolTableRecord
100
AcDbLayerTableRecord
  2
CAPC1005X60N_60000_50
 70
0
 62
7
  6
CONTINUOUS
370
-3
390
F
  0
LAYER
  5
27A
100
AcDbSymbolTableRecord
100
AcDbLayerTableRecord
  2
CAPC1005X60N_60000_51
 70
0
 62
7
  6
CONTINUOUS
370
-3
390
F
  0
LAYER
  5
27B
100
AcDbSymbolTableRecord
100
AcDbLayerTableRecord
  2
CAPC1005X60N_60000_52
 70
0
 62
7
  6
CONTINUOUS
370
-3
390
F
  0
LAYER
  5
27C
100
AcDbSymbolTableRecord
100
AcDbLayerTableRecord
  2
CAPC1005X60N_60000_53
 70
0
 62
7
  6
CONTINUOUS
370
-3
390
F
  0
LAYER
  5
27D
100
AcDbSymbolTableRecord
100
AcDbLayerTableRecord
  2
CAPC1005X60N_60000_54
 70
0
 62
7
  6
CONTINUOUS
370
-3
390
F
  0
LAYER
  5
27E
100
AcDbSymbolTableRecord
100
AcDbLayerTableRecord
  2
CAPC1005X60N_60000_55
 70
0
 62
7
  6
CONTINUOUS
370
-3
390
F
  0
LAYER
  5
27F
100
AcDbSymbolTableRecord
100
AcDbLayerTableRecord
  2
CAPC1005X60N_60000_6
 70
0
 62
7
  6
CONTINUOUS
370
-3
390
F
  0
LAYER
  5
280
100
AcDbSymbolTableRecord
100
AcDbLayerTableRecord
  2
CAPC1005X60N_60000_7
 70
0
 62
7
  6
CONTINUOUS
370
-3
390
F
  0
LAYER
  5
281
100
AcDbSymbolTableRecord
100
AcDbLayerTableRecord
  2
CAPC1005X60N_60000_8
 70
0
 62
7
  6
CONTINUOUS
370
-3
390
F
  0
LAYER
  5
282
100
AcDbSymbolTableRecord
100
AcDbLayerTableRecord
  2
CAPC1005X60N_60000_9
 70
0
 62
7
  6
CONTINUOUS
370
-3
390
F
  0
LAYER
  5
283
100
AcDbSymbolTableRecord
100
AcDbLayerTableRecord
  2
CAPC1608N_80000
 70
0
 62
7
  6
CONTINUOUS
370
-3
390
F
  0
LAYER
  5
284
100
AcDbSymbolTableRecord
100
AcDbLayerTableRecord
  2
CAPC1608N_80000_1
 70
0
 62
7
  6
CONTINUOUS
370
-3
390
F
  0
LAYER
  5
285
100
AcDbSymbolTableRecord
100
AcDbLayerTableRecord
  2
CAPC1608N_80000_2
 70
0
 62
7
  6
CONTINUOUS
370
-3
390
F
  0
LAYER
  5
286
100
AcDbSymbolTableRecord
100
AcDbLayerTableRecord
  2
CAPC1608N_80000_3
 70
0
 62
7
  6
CONTINUOUS
370
-3
390
F
  0
LAYER
  5
287
100
AcDbSymbolTableRecord
100
AcDbLayerTableRecord
  2
CAPMP7343X430N_430000
 70
0
 62
7
  6
CONTINUOUS
370
-3
390
F
  0
LAYER
  5
288
100
AcDbSymbolTableRecord
100
AcDbLayerTableRecord
  2
CN-12D-F-SMD-2_54-1-VIMAR_75000
 70
0
 62
7
  6
CONTINUOUS
370
-3
390
F
  0
LAYER
  5
289
100
AcDbSymbolTableRecord
100
AcDbLayerTableRecord
  2
CN-SIMCARD-LIBRO_250000
 70
0
 62
7
  6
CONTINUOUS
370
-3
390
F
  0
LAYER
  5
28A
100
AcDbSymbolTableRecord
100
AcDbLayerTableRecord
  2
CN08-HEADER-SMD2_54-1-VIMAR_918
 70
0
 62
7
  6
CONTINUOUS
370
-3
390
F
  0
LAYER
  5
28B
100
AcDbSymbolTableRecord
100
AcDbLayerTableRecord
  2
CN1-TP15_SMD-VIMAR_5000
 70
0
 62
7
  6
CONTINUOUS
370
-3
390
F
  0
LAYER
  5
28C
100
AcDbSymbolTableRecord
100
AcDbLayerTableRecord
  2
CN1-TP15_SMD-VIMAR_5000_1
 70
0
 62
7
  6
CONTINUOUS
370
-3
390
F
  0
LAYER
  5
28D
100
AcDbSymbolTableRecord
100
AcDbLayerTableRecord
  2
CN1-TP15_SMD-VIMAR_5000_2
 70
0
 62
7
  6
CONTINUOUS
370
-3
390
F
  0
LAYER
  5
28E
100
AcDbSymbolTableRecord
100
AcDbLayerTableRecord
  2
CN1-TP15_SMD-VIMAR_5000_3
 70
0
 62
7
  6
CONTINUOUS
370
-3
390
F
  0
LAYER
  5
28F
100
AcDbSymbolTableRecord
100
AcDbLayerTableRecord
  2
CN1-TP15_SMD-VIMAR_5000_4
 70
0
 62
7
  6
CONTINUOUS
370
-3
390
F
  0
LAYER
  5
290
100
AcDbSymbolTableRecord
100
AcDbLayerTableRecord
  2
CN1-TP15_SMD-VIMAR_5000_5
 70
0
 62
7
  6
CONTINUOUS
370
-3
390
F
  0
LAYER
  5
291
100
AcDbSymbolTableRecord
100
AcDbLayerTableRecord
  2
CN1-TP15_SMD-VIMAR_5000_6
 70
0
 62
7
  6
CONTINUOUS
370
-3
390
F
  0
LAYER
  5
292
100
AcDbSymbolTableRecord
100
AcDbLayerTableRecord
  2
CN1-TP15_SMD-VIMAR_5000_7
 70
0
 62
7
  6
CONTINUOUS
370
-3
390
F
  0
LAYER
  5
293
100
AcDbSymbolTableRecord
100
AcDbLayerTableRecord
  2
CN1-TP15_SMD-VIMAR_5000_8
 70
0
 62
7
  6
CONTINUOUS
370
-3
390
F
  0
LAYER
  5
294
100
AcDbSymbolTableRecord
100
AcDbLayerTableRecord
  2
CN20-VASCHETTA_2500000
 70
0
 62
7
  6
CONTINUOUS
370
-3
390
F
  0
LAYER
  5
295
100
AcDbSymbolTableRecord
100
AcDbLayerTableRecord
  2
COLOR1
 70
0
 62
7
  6
CONTINUOUS
370
-3
390
F
  0
LAYER
  5
296
100
AcDbSymbolTableRecord
100
AcDbLayerTableRecord
  2
COLOR10
 70
0
 62
7
  6
CONTINUOUS
370
-3
390
F
  0
LAYER
  5
297
100
AcDbSymbolTableRecord
100
AcDbLayerTableRecord
  2
COLOR5
 70
0
 62
7
  6
CONTINUOUS
370
-3
390
F
  0
LAYER
  5
298
100
AcDbSymbolTableRecord
100
AcDbLayerTableRecord
  2
COLOR6
 70
0
 62
7
  6
CONTINUOUS
370
-3
390
F
  0
LAYER
  5
299
100
AcDbSymbolTableRecord
100
AcDbLayerTableRecord
  2
COLOR9
 70
0
 62
7
  6
CONTINUOUS
370
-3
390
F
  0
LAYER
  5
29A
100
AcDbSymbolTableRecord
100
AcDbLayerTableRecord
  2
COORDINATE
 70
0
 62
7
  6
CONTINUOUS
370
-3
390
F
  0
LAYER
  5
29B
100
AcDbSymbolTableRecord
100
AcDbLayerTableRecord
  2
COORD_ORIGINE
 70
0
 62
7
  6
CONTINUOUS
370
-3
390
F
  0
LAYER
  5
29C
100
AcDbSymbolTableRecord
100
AcDbLayerTableRecord
  2
COPY_PUBLISH
 70
0
 62
7
  6
CONTINUOUS
370
-3
390
F
  0
LAYER
  5
29D
100
AcDbSymbolTableRecord
100
AcDbLayerTableRecord
  2
COSMETICI
 70
0
 62
7
  6
CONTINUOUS
370
-3
390
F
  0
LAYER
  5
29E
100
AcDbSymbolTableRecord
100
AcDbLayerTableRecord
  2
CP-DO-214AA-D-VIMAR_240000
 70
0
 62
7
  6
CONTINUOUS
370
-3
390
F
  0
LAYER
  5
29F
100
AcDbSymbolTableRecord
100
AcDbLayerTableRecord
  2
CP-DO-214AC-D-VIMAR_240000
 70
0
 62
7
  6
CONTINUOUS
370
-3
390
F
  0
LAYER
  5
2A0
100
AcDbSymbolTableRecord
100
AcDbLayerTableRecord
  2
CURVE
 70
0
 62
7
  6
CONTINUOUS
370
-3
390
F
  0
LAYER
  5
2A1
100
AcDbSymbolTableRecord
100
AcDbLayerTableRecord
  2
DRAFT
 70
0
 62
7
  6
CONTINUOUS
370
-3
390
F
  0
LAYER
  5
2A2
100
AcDbSymbolTableRecord
100
AcDbLayerTableRecord
  2
E2_MARK_10000
 70
0
 62
7
  6
CONTINUOUS
370
-3
390
F
  0
LAYER
  5
2A3
100
AcDbSymbolTableRecord
100
AcDbLayerTableRecord
  2
IGES
 70
0
 62
7
  6
CONTINUOUS
370
-3
390
F
  0
LAYER
  5
2A4
100
AcDbSymbolTableRecord
100
AcDbLayerTableRecord
  2
IMPORT_IGES
 70
0
 62
7
  6
CONTINUOUS
370
-3
390
F
  0
LAYER
  5
2A5
100
AcDbSymbolTableRecord
100
AcDbLayerTableRecord
  2
INTFCLR_7583
 70
0
 62
7
  6
CONTINUOUS
370
-3
390
F
  0
LAYER
  5
2A6
100
AcDbSymbolTableRecord
100
AcDbLayerTableRecord
  2
INTFCLR_9235
 70
0
 62
7
  6
CONTINUOUS
370
-3
390
F
  0
LAYER
  5
2A7
100
AcDbSymbolTableRecord
100
AcDbLayerTableRecord
  2
INTF_1
 70
0
 62
7
  6
CONTINUOUS
370
-3
390
F
  0
LAYER
  5
2A8
100
AcDbSymbolTableRecord
100
AcDbLayerTableRecord
  2
INTF_12
 70
0
 62
7
  6
CONTINUOUS
370
-3
390
F
  0
LAYER
  5
2A9
100
AcDbSymbolTableRecord
100
AcDbLayerTableRecord
  2
INTF_6
 70
0
 62
7
  6
CONTINUOUS
370
-3
390
F
  0
LAYER
  5
2AA
100
AcDbSymbolTableRecord
100
AcDbLayerTableRecord
  2
INTF_GREEN
 70
0
 62
7
  6
CONTINUOUS
370
-3
390
F
  0
LAYER
  5
2AB
100
AcDbSymbolTableRecord
100
AcDbLayerTableRecord
  2
LAYER_13218
 70
0
 62
7
  6
CONTINUOUS
370
-3
390
F
  0
LAYER
  5
2AC
100
AcDbSymbolTableRecord
100
AcDbLayerTableRecord
  2
LCD_YA3LCDSN278A00RBS-VIMAR_285
 70
0
 62
7
  6
CONTINUOUS
370
-3
390
F
  0
LAYER
  5
2AD
100
AcDbSymbolTableRecord
100
AcDbLayerTableRecord
  2
LOGO_RESIST-RESTYLING_10000
 70
0
 62
7
  6
CONTINUOUS
370
-3
390
F
  0
LAYER
  5
2AE
100
AcDbSymbolTableRecord
100
AcDbLayerTableRecord
  2
L_SRR0604-RF-VIMAR_480000
 70
0
 62
7
  6
CONTINUOUS
370
-3
390
F
  0
LAYER
  5
2AF
100
AcDbSymbolTableRecord
100
AcDbLayerTableRecord
  2
MLF48-F1-RF-VIMAR_100000
 70
0
 62
7
  6
CONTINUOUS
370
-3
390
F
  0
LAYER
  5
2B0
100
AcDbSymbolTableRecord
100
AcDbLayerTableRecord
  2
MM2-X-7-VIMAR_90000
 70
0
 62
7
  6
CONTINUOUS
370
-3
390
F
  0
LAYER
  5
2B1
100
AcDbSymbolTableRecord
100
AcDbLayerTableRecord
  2
MM3-MPAK-RF-VIMAR_120000
 70
0
 62
7
  6
CONTINUOUS
370
-3
390
F
  0
LAYER
  5
2B2
100
AcDbSymbolTableRecord
100
AcDbLayerTableRecord
  2
MM3-MPAK-RF-VIMAR_120000_1
 70
0
 62
7
  6
CONTINUOUS
370
-3
390
F
  0
LAYER
  5
2B3
100
AcDbSymbolTableRecord
100
AcDbLayerTableRecord
  2
MM3-MPAK-RF-VIMAR_120000_10
 70
0
 62
7
  6
CONTINUOUS
370
-3
390
F
  0
LAYER
  5
2B4
100
AcDbSymbolTableRecord
100
AcDbLayerTableRecord
  2
MM3-MPAK-RF-VIMAR_120000_11
 70
0
 62
7
  6
CONTINUOUS
370
-3
390
F
  0
LAYER
  5
2B5
100
AcDbSymbolTableRecord
100
AcDbLayerTableRecord
  2
MM3-MPAK-RF-VIMAR_120000_2
 70
0
 62
7
  6
CONTINUOUS
370
-3
390
F
  0
LAYER
  5
2B6
100
AcDbSymbolTableRecord
100
AcDbLayerTableRecord
  2
MM3-MPAK-RF-VIMAR_120000_3
 70
0
 62
7
  6
CONTINUOUS
370
-3
390
F
  0
LAYER
  5
2B7
100
AcDbSymbolTableRecord
100
AcDbLayerTableRecord
  2
MM3-MPAK-RF-VIMAR_120000_4
 70
0
 62
7
  6
CONTINUOUS
370
-3
390
F
  0
LAYER
  5
2B8
100
AcDbSymbolTableRecord
100
AcDbLayerTableRecord
  2
MM3-MPAK-RF-VIMAR_120000_5
 70
0
 62
7
  6
CONTINUOUS
370
-3
390
F
  0
LAYER
  5
2B9
100
AcDbSymbolTableRecord
100
AcDbLayerTableRecord
  2
MM3-MPAK-RF-VIMAR_120000_6
 70
0
 62
7
  6
CONTINUOUS
370
-3
390
F
  0
LAYER
  5
2BA
100
AcDbSymbolTableRecord
100
AcDbLayerTableRecord
  2
MM3-MPAK-RF-VIMAR_120000_7
 70
0
 62
7
  6
CONTINUOUS
370
-3
390
F
  0
LAYER
  5
2BB
100
AcDbSymbolTableRecord
100
AcDbLayerTableRecord
  2
MM3-MPAK-RF-VIMAR_120000_8
 70
0
 62
7
  6
CONTINUOUS
370
-3
390
F
  0
LAYER
  5
2BC
100
AcDbSymbolTableRecord
100
AcDbLayerTableRecord
  2
MM3-MPAK-RF-VIMAR_120000_9
 70
0
 62
7
  6
CONTINUOUS
370
-3
390
F
  0
LAYER
  5
2BD
100
AcDbSymbolTableRecord
100
AcDbLayerTableRecord
  2
MM3-SOT-89-RF-VIMAR_150000
 70
0
 62
7
  6
CONTINUOUS
370
-3
390
F
  0
LAYER
  5
2BE
100
AcDbSymbolTableRecord
100
AcDbLayerTableRecord
  2
MM4-MB-1-VIMAR_290000
 70
0
 62
7
  6
CONTINUOUS
370
-3
390
F
  0
LAYER
  5
2BF
100
AcDbSymbolTableRecord
100
AcDbLayerTableRecord
  2
MSD1006B-VIMAR_70000
 70
0
 62
7
  6
CONTINUOUS
370
-3
390
F
  0
LAYER
  5
2C0
100
AcDbSymbolTableRecord
100
AcDbLayerTableRecord
  2
MSOP8-T1-RF-VIMAR_86000
 70
0
 62
7
  6
CONTINUOUS
370
-3
390
F
  0
LAYER
  5
2C1
100
AcDbSymbolTableRecord
100
AcDbLayerTableRecord
  2
NO-PB_MARK_10000
 70
0
 62
7
  6
CONTINUOUS
370
-3
390
F
  0
LAYER
  5
2C2
100
AcDbSymbolTableRecord
100
AcDbLayerTableRecord
  2
NONE
 70
0
 62
7
  6
CONTINUOUS
370
-3
390
F
  0
LAYER
  5
2C3
100
AcDbSymbolTableRecord
100
AcDbLayerTableRecord
  2
NOTE
 70
0
 62
7
  6
CONTINUOUS
370
-3
390
F
  0
LAYER
  5
2C4
100
AcDbSymbolTableRecord
100
AcDbLayerTableRecord
  2
PIANI
 70
0
 62
7
  6
CONTINUOUS
370
-3
390
F
  0
LAYER
  5
2C5
100
AcDbSymbolTableRecord
100
AcDbLayerTableRecord
  2
PIANI_ORIGINE
 70
0
 62
7
  6
CONTINUOUS
370
-3
390
F
  0
LAYER
  5
2C6
100
AcDbSymbolTableRecord
100
AcDbLayerTableRecord
  2
PIANI_RIFERIMENTO
 70
0
 62
7
  6
CONTINUOUS
370
-3
390
F
  0
LAYER
  5
2C7
100
AcDbSymbolTableRecord
100
AcDbLayerTableRecord
  2
POWERDI-123_100000
 70
0
 62
7
  6
CONTINUOUS
370
-3
390
F
  0
LAYER
  5
2C8
100
AcDbSymbolTableRecord
100
AcDbLayerTableRecord
  2
PUNTI
 70
0
 62
7
  6
CONTINUOUS
370
-3
390
F
  0
LAYER
  5
2C9
100
AcDbSymbolTableRecord
100
AcDbLayerTableRecord
  2
QFN40P300X300X60-20N_60000
 70
0
 62
7
  6
CONTINUOUS
370
-3
390
F
  0
LAYER
  5
2CA
100
AcDbSymbolTableRecord
100
AcDbLayerTableRecord
  2
RACCORDO
 70
0
 62
7
  6
CONTINUOUS
370
-3
390
F
  0
LAYER
  5
2CB
100
AcDbSymbolTableRecord
100
AcDbLayerTableRecord
  2
RD-C100-5-VIMAR_1250000
 70
0
 62
7
  6
CONTINUOUS
370
-3
390
F
  0
LAYER
  5
2CC
100
AcDbSymbolTableRecord
100
AcDbLayerTableRecord
  2
RD-C25-NTC-1-VIMAR_1800000
 70
0
 62
7
  6
CONTINUOUS
370
-3
390
F
  0
LAYER
  5
2CD
100
AcDbSymbolTableRecord
100
AcDbLayerTableRecord
  2
RD-CE35-3-MIRROR-VIMAR_800000
 70
0
 62
7
  6
CONTINUOUS
370
-3
390
F
  0
LAYER
  5
2CE
100
AcDbSymbolTableRecord
100
AcDbLayerTableRecord
  2
RD-CE35-3-VIMAR_800000
 70
0
 62
7
  6
CONTINUOUS
370
-3
390
F
  0
LAYER
  5
2CF
100
AcDbSymbolTableRecord
100
AcDbLayerTableRecord
  2
RD_D6H8_5_VIMAR_850000
 70
0
 62
7
  6
CONTINUOUS
370
-3
390
F
  0
LAYER
  5
2D0
100
AcDbSymbolTableRecord
100
AcDbLayerTableRecord
  2
RESC1005X40N_50000
 70
0
 62
7
  6
CONTINUOUS
370
-3
390
F
  0
LAYER
  5
2D1
100
AcDbSymbolTableRecord
100
AcDbLayerTableRecord
  2
RESC1005X40N_50000_1
 70
0
 62
7
  6
CONTINUOUS
370
-3
390
F
  0
LAYER
  5
2D2
100
AcDbSymbolTableRecord
100
AcDbLayerTableRecord
  2
RESC1005X40N_50000_10
 70
0
 62
7
  6
CONTINUOUS
370
-3
390
F
  0
LAYER
  5
2D3
100
AcDbSymbolTableRecord
100
AcDbLayerTableRecord
  2
RESC1005X40N_50000_100
 70
0
 62
7
  6
CONTINUOUS
370
-3
390
F
  0
LAYER
  5
2D4
100
AcDbSymbolTableRecord
100
AcDbLayerTableRecord
  2
RESC1005X40N_50000_101
 70
0
 62
7
  6
CONTINUOUS
370
-3
390
F
  0
LAYER
  5
2D5
100
AcDbSymbolTableRecord
100
AcDbLayerTableRecord
  2
RESC1005X40N_50000_102
 70
0
 62
7
  6
CONTINUOUS
370
-3
390
F
  0
LAYER
  5
2D6
100
AcDbSymbolTableRecord
100
AcDbLayerTableRecord
  2
RESC1005X40N_50000_103
 70
0
 62
7
  6
CONTINUOUS
370
-3
390
F
  0
LAYER
  5
2D7
100
AcDbSymbolTableRecord
100
AcDbLayerTableRecord
  2
RESC1005X40N_50000_104
 70
0
 62
7
  6
CONTINUOUS
370
-3
390
F
  0
LAYER
  5
2D8
100
AcDbSymbolTableRecord
100
AcDbLayerTableRecord
  2
RESC1005X40N_50000_11
 70
0
 62
7
  6
CONTINUOUS
370
-3
390
F
  0
LAYER
  5
2D9
100
AcDbSymbolTableRecord
100
AcDbLayerTableRecord
  2
RESC1005X40N_50000_12
 70
0
 62
7
  6
CONTINUOUS
370
-3
390
F
  0
LAYER
  5
2DA
100
AcDbSymbolTableRecord
100
AcDbLayerTableRecord
  2
RESC1005X40N_50000_13
 70
0
 62
7
  6
CONTINUOUS
370
-3
390
F
  0
LAYER
  5
2DB
100
AcDbSymbolTableRecord
100
AcDbLayerTableRecord
  2
RESC1005X40N_50000_14
 70
0
 62
7
  6
CONTINUOUS
370
-3
390
F
  0
LAYER
  5
2DC
100
AcDbSymbolTableRecord
100
AcDbLayerTableRecord
  2
RESC1005X40N_50000_15
 70
0
 62
7
  6
CONTINUOUS
370
-3
390
F
  0
LAYER
  5
2DD
100
AcDbSymbolTableRecord
100
AcDbLayerTableRecord
  2
RESC1005X40N_50000_16
 70
0
 62
7
  6
CONTINUOUS
370
-3
390
F
  0
LAYER
  5
2DE
100
AcDbSymbolTableRecord
100
AcDbLayerTableRecord
  2
RESC1005X40N_50000_17
 70
0
 62
7
  6
CONTINUOUS
370
-3
390
F
  0
LAYER
  5
2DF
100
AcDbSymbolTableRecord
100
AcDbLayerTableRecord
  2
RESC1005X40N_50000_18
 70
0
 62
7
  6
CONTINUOUS
370
-3
390
F
  0
LAYER
  5
2E0
100
AcDbSymbolTableRecord
100
AcDbLayerTableRecord
  2
RESC1005X40N_50000_19
 70
0
 62
7
  6
CONTINUOUS
370
-3
390
F
  0
LAYER
  5
2E1
100
AcDbSymbolTableRecord
100
AcDbLayerTableRecord
  2
RESC1005X40N_50000_2
 70
0
 62
7
  6
CONTINUOUS
370
-3
390
F
  0
LAYER
  5
2E2
100
AcDbSymbolTableRecord
100
AcDbLayerTableRecord
  2
RESC1005X40N_50000_20
 70
0
 62
7
  6
CONTINUOUS
370
-3
390
F
  0
LAYER
  5
2E3
100
AcDbSymbolTableRecord
100
AcDbLayerTableRecord
  2
RESC1005X40N_50000_21
 70
0
 62
7
  6
CONTINUOUS
370
-3
390
F
  0
LAYER
  5
2E4
100
AcDbSymbolTableRecord
100
AcDbLayerTableRecord
  2
RESC1005X40N_50000_22
 70
0
 62
7
  6
CONTINUOUS
370
-3
390
F
  0
LAYER
  5
2E5
100
AcDbSymbolTableRecord
100
AcDbLayerTableRecord
  2
RESC1005X40N_50000_23
 70
0
 62
7
  6
CONTINUOUS
370
-3
390
F
  0
LAYER
  5
2E6
100
AcDbSymbolTableRecord
100
AcDbLayerTableRecord
  2
RESC1005X40N_50000_24
 70
0
 62
7
  6
CONTINUOUS
370
-3
390
F
  0
LAYER
  5
2E7
100
AcDbSymbolTableRecord
100
AcDbLayerTableRecord
  2
RESC1005X40N_50000_25
 70
0
 62
7
  6
CONTINUOUS
370
-3
390
F
  0
LAYER
  5
2E8
100
AcDbSymbolTableRecord
100
AcDbLayerTableRecord
  2
RESC1005X40N_50000_26
 70
0
 62
7
  6
CONTINUOUS
370
-3
390
F
  0
LAYER
  5
2E9
100
AcDbSymbolTableRecord
100
AcDbLayerTableRecord
  2
RESC1005X40N_50000_27
 70
0
 62
7
  6
CONTINUOUS
370
-3
390
F
  0
LAYER
  5
2EA
100
AcDbSymbolTableRecord
100
AcDbLayerTableRecord
  2
RESC1005X40N_50000_28
 70
0
 62
7
  6
CONTINUOUS
370
-3
390
F
  0
LAYER
  5
2EB
100
AcDbSymbolTableRecord
100
AcDbLayerTableRecord
  2
RESC1005X40N_50000_29
 70
0
 62
7
  6
CONTINUOUS
370
-3
390
F
  0
LAYER
  5
2EC
100
AcDbSymbolTableRecord
100
AcDbLayerTableRecord
  2
RESC1005X40N_50000_3
 70
0
 62
7
  6
CONTINUOUS
370
-3
390
F
  0
LAYER
  5
2ED
100
AcDbSymbolTableRecord
100
AcDbLayerTableRecord
  2
RESC1005X40N_50000_30
 70
0
 62
7
  6
CONTINUOUS
370
-3
390
F
  0
LAYER
  5
2EE
100
AcDbSymbolTableRecord
100
AcDbLayerTableRecord
  2
RESC1005X40N_50000_31
 70
0
 62
7
  6
CONTINUOUS
370
-3
390
F
  0
LAYER
  5
2EF
100
AcDbSymbolTableRecord
100
AcDbLayerTableRecord
  2
RESC1005X40N_50000_32
 70
0
 62
7
  6
CONTINUOUS
370
-3
390
F
  0
LAYER
  5
2F0
100
AcDbSymbolTableRecord
100
AcDbLayerTableRecord
  2
RESC1005X40N_50000_33
 70
0
 62
7
  6
CONTINUOUS
370
-3
390
F
  0
LAYER
  5
2F1
100
AcDbSymbolTableRecord
100
AcDbLayerTableRecord
  2
RESC1005X40N_50000_34
 70
0
 62
7
  6
CONTINUOUS
370
-3
390
F
  0
LAYER
  5
2F2
100
AcDbSymbolTableRecord
100
AcDbLayerTableRecord
  2
RESC1005X40N_50000_35
 70
0
 62
7
  6
CONTINUOUS
370
-3
390
F
  0
LAYER
  5
2F3
100
AcDbSymbolTableRecord
100
AcDbLayerTableRecord
  2
RESC1005X40N_50000_36
 70
0
 62
7
  6
CONTINUOUS
370
-3
390
F
  0
LAYER
  5
2F4
100
AcDbSymbolTableRecord
100
AcDbLayerTableRecord
  2
RESC1005X40N_50000_37
 70
0
 62
7
  6
CONTINUOUS
370
-3
390
F
  0
LAYER
  5
2F5
100
AcDbSymbolTableRecord
100
AcDbLayerTableRecord
  2
RESC1005X40N_50000_38
 70
0
 62
7
  6
CONTINUOUS
370
-3
390
F
  0
LAYER
  5
2F6
100
AcDbSymbolTableRecord
100
AcDbLayerTableRecord
  2
RESC1005X40N_50000_39
 70
0
 62
7
  6
CONTINUOUS
370
-3
390
F
  0
LAYER
  5
2F7
100
AcDbSymbolTableRecord
100
AcDbLayerTableRecord
  2
RESC1005X40N_50000_4
 70
0
 62
7
  6
CONTINUOUS
370
-3
390
F
  0
LAYER
  5
2F8
100
AcDbSymbolTableRecord
100
AcDbLayerTableRecord
  2
RESC1005X40N_50000_40
 70
0
 62
7
  6
CONTINUOUS
370
-3
390
F
  0
LAYER
  5
2F9
100
AcDbSymbolTableRecord
100
AcDbLayerTableRecord
  2
RESC1005X40N_50000_41
 70
0
 62
7
  6
CONTINUOUS
370
-3
390
F
  0
LAYER
  5
2FA
100
AcDbSymbolTableRecord
100
AcDbLayerTableRecord
  2
RESC1005X40N_50000_42
 70
0
 62
7
  6
CONTINUOUS
370
-3
390
F
  0
LAYER
  5
2FB
100
AcDbSymbolTableRecord
100
AcDbLayerTableRecord
  2
RESC1005X40N_50000_43
 70
0
 62
7
  6
CONTINUOUS
370
-3
390
F
  0
LAYER
  5
2FC
100
AcDbSymbolTableRecord
100
AcDbLayerTableRecord
  2
RESC1005X40N_50000_44
 70
0
 62
7
  6
CONTINUOUS
370
-3
390
F
  0
LAYER
  5
2FD
100
AcDbSymbolTableRecord
100
AcDbLayerTableRecord
  2
RESC1005X40N_50000_45
 70
0
 62
7
  6
CONTINUOUS
370
-3
390
F
  0
LAYER
  5
2FE
100
AcDbSymbolTableRecord
100
AcDbLayerTableRecord
  2
RESC1005X40N_50000_46
 70
0
 62
7
  6
CONTINUOUS
370
-3
390
F
  0
LAYER
  5
2FF
100
AcDbSymbolTableRecord
100
AcDbLayerTableRecord
  2
RESC1005X40N_50000_47
 70
0
 62
7
  6
CONTINUOUS
370
-3
390
F
  0
LAYER
  5
300
100
AcDbSymbolTableRecord
100
AcDbLayerTableRecord
  2
RESC1005X40N_50000_48
 70
0
 62
7
  6
CONTINUOUS
370
-3
390
F
  0
LAYER
  5
301
100
AcDbSymbolTableRecord
100
AcDbLayerTableRecord
  2
RESC1005X40N_50000_49
 70
0
 62
7
  6
CONTINUOUS
370
-3
390
F
  0
LAYER
  5
302
100
AcDbSymbolTableRecord
100
AcDbLayerTableRecord
  2
RESC1005X40N_50000_5
 70
0
 62
7
  6
CONTINUOUS
370
-3
390
F
  0
LAYER
  5
303
100
AcDbSymbolTableRecord
100
AcDbLayerTableRecord
  2
RESC1005X40N_50000_50
 70
0
 62
7
  6
CONTINUOUS
370
-3
390
F
  0
LAYER
  5
304
100
AcDbSymbolTableRecord
100
AcDbLayerTableRecord
  2
RESC1005X40N_50000_51
 70
0
 62
7
  6
CONTINUOUS
370
-3
390
F
  0
LAYER
  5
305
100
AcDbSymbolTableRecord
100
AcDbLayerTableRecord
  2
RESC1005X40N_50000_52
 70
0
 62
7
  6
CONTINUOUS
370
-3
390
F
  0
LAYER
  5
306
100
AcDbSymbolTableRecord
100
AcDbLayerTableRecord
  2
RESC1005X40N_50000_53
 70
0
 62
7
  6
CONTINUOUS
370
-3
390
F
  0
LAYER
  5
307
100
AcDbSymbolTableRecord
100
AcDbLayerTableRecord
  2
RESC1005X40N_50000_54
 70
0
 62
7
  6
CONTINUOUS
370
-3
390
F
  0
LAYER
  5
308
100
AcDbSymbolTableRecord
100
AcDbLayerTableRecord
  2
RESC1005X40N_50000_55
 70
0
 62
7
  6
CONTINUOUS
370
-3
390
F
  0
LAYER
  5
309
100
AcDbSymbolTableRecord
100
AcDbLayerTableRecord
  2
RESC1005X40N_50000_56
 70
0
 62
7
  6
CONTINUOUS
370
-3
390
F
  0
LAYER
  5
30A
100
AcDbSymbolTableRecord
100
AcDbLayerTableRecord
  2
RESC1005X40N_50000_57
 70
0
 62
7
  6
CONTINUOUS
370
-3
390
F
  0
LAYER
  5
30B
100
AcDbSymbolTableRecord
100
AcDbLayerTableRecord
  2
RESC1005X40N_50000_58
 70
0
 62
7
  6
CONTINUOUS
370
-3
390
F
  0
LAYER
  5
30C
100
AcDbSymbolTableRecord
100
AcDbLayerTableRecord
  2
RESC1005X40N_50000_59
 70
0
 62
7
  6
CONTINUOUS
370
-3
390
F
  0
LAYER
  5
30D
100
AcDbSymbolTableRecord
100
AcDbLayerTableRecord
  2
RESC1005X40N_50000_6
 70
0
 62
7
  6
CONTINUOUS
370
-3
390
F
  0
LAYER
  5
30E
100
AcDbSymbolTableRecord
100
AcDbLayerTableRecord
  2
RESC1005X40N_50000_60
 70
0
 62
7
  6
CONTINUOUS
370
-3
390
F
  0
LAYER
  5
30F
100
AcDbSymbolTableRecord
100
AcDbLayerTableRecord
  2
RESC1005X40N_50000_61
 70
0
 62
7
  6
CONTINUOUS
370
-3
390
F
  0
LAYER
  5
310
100
AcDbSymbolTableRecord
100
AcDbLayerTableRecord
  2
RESC1005X40N_50000_62
 70
0
 62
7
  6
CONTINUOUS
370
-3
390
F
  0
LAYER
  5
311
100
AcDbSymbolTableRecord
100
AcDbLayerTableRecord
  2
RESC1005X40N_50000_63
 70
0
 62
7
  6
CONTINUOUS
370
-3
390
F
  0
LAYER
  5
312
100
AcDbSymbolTableRecord
100
AcDbLayerTableRecord
  2
RESC1005X40N_50000_64
 70
0
 62
7
  6
CONTINUOUS
370
-3
390
F
  0
LAYER
  5
313
100
AcDbSymbolTableRecord
100
AcDbLayerTableRecord
  2
RESC1005X40N_50000_65
 70
0
 62
7
  6
CONTINUOUS
370
-3
390
F
  0
LAYER
  5
314
100
AcDbSymbolTableRecord
100
AcDbLayerTableRecord
  2
RESC1005X40N_50000_66
 70
0
 62
7
  6
CONTINUOUS
370
-3
390
F
  0
LAYER
  5
315
100
AcDbSymbolTableRecord
100
AcDbLayerTableRecord
  2
RESC1005X40N_50000_67
 70
0
 62
7
  6
CONTINUOUS
370
-3
390
F
  0
LAYER
  5
316
100
AcDbSymbolTableRecord
100
AcDbLayerTableRecord
  2
RESC1005X40N_50000_68
 70
0
 62
7
  6
CONTINUOUS
370
-3
390
F
  0
LAYER
  5
317
100
AcDbSymbolTableRecord
100
AcDbLayerTableRecord
  2
RESC1005X40N_50000_69
 70
0
 62
7
  6
CONTINUOUS
370
-3
390
F
  0
LAYER
  5
318
100
AcDbSymbolTableRecord
100
AcDbLayerTableRecord
  2
RESC1005X40N_50000_7
 70
0
 62
7
  6
CONTINUOUS
370
-3
390
F
  0
LAYER
  5
319
100
AcDbSymbolTableRecord
100
AcDbLayerTableRecord
  2
RESC1005X40N_50000_70
 70
0
 62
7
  6
CONTINUOUS
370
-3
390
F
  0
LAYER
  5
31A
100
AcDbSymbolTableRecord
100
AcDbLayerTableRecord
  2
RESC1005X40N_50000_71
 70
0
 62
7
  6
CONTINUOUS
370
-3
390
F
  0
LAYER
  5
31B
100
AcDbSymbolTableRecord
100
AcDbLayerTableRecord
  2
RESC1005X40N_50000_72
 70
0
 62
7
  6
CONTINUOUS
370
-3
390
F
  0
LAYER
  5
31C
100
AcDbSymbolTableRecord
100
AcDbLayerTableRecord
  2
RESC1005X40N_50000_73
 70
0
 62
7
  6
CONTINUOUS
370
-3
390
F
  0
LAYER
  5
31D
100
AcDbSymbolTableRecord
100
AcDbLayerTableRecord
  2
RESC1005X40N_50000_74
 70
0
 62
7
  6
CONTINUOUS
370
-3
390
F
  0
LAYER
  5
31E
100
AcDbSymbolTableRecord
100
AcDbLayerTableRecord
  2
RESC1005X40N_50000_75
 70
0
 62
7
  6
CONTINUOUS
370
-3
390
F
  0
LAYER
  5
31F
100
AcDbSymbolTableRecord
100
AcDbLayerTableRecord
  2
RESC1005X40N_50000_76
 70
0
 62
7
  6
CONTINUOUS
370
-3
390
F
  0
LAYER
  5
320
100
AcDbSymbolTableRecord
100
AcDbLayerTableRecord
  2
RESC1005X40N_50000_77
 70
0
 62
7
  6
CONTINUOUS
370
-3
390
F
  0
LAYER
  5
321
100
AcDbSymbolTableRecord
100
AcDbLayerTableRecord
  2
RESC1005X40N_50000_78
 70
0
 62
7
  6
CONTINUOUS
370
-3
390
F
  0
LAYER
  5
322
100
AcDbSymbolTableRecord
100
AcDbLayerTableRecord
  2
RESC1005X40N_50000_79
 70
0
 62
7
  6
CONTINUOUS
370
-3
390
F
  0
LAYER
  5
323
100
AcDbSymbolTableRecord
100
AcDbLayerTableRecord
  2
RESC1005X40N_50000_8
 70
0
 62
7
  6
CONTINUOUS
370
-3
390
F
  0
LAYER
  5
324
100
AcDbSymbolTableRecord
100
AcDbLayerTableRecord
  2
RESC1005X40N_50000_80
 70
0
 62
7
  6
CONTINUOUS
370
-3
390
F
  0
LAYER
  5
325
100
AcDbSymbolTableRecord
100
AcDbLayerTableRecord
  2
RESC1005X40N_50000_81
 70
0
 62
7
  6
CONTINUOUS
370
-3
390
F
  0
LAYER
  5
326
100
AcDbSymbolTableRecord
100
AcDbLayerTableRecord
  2
RESC1005X40N_50000_82
 70
0
 62
7
  6
CONTINUOUS
370
-3
390
F
  0
LAYER
  5
327
100
AcDbSymbolTableRecord
100
AcDbLayerTableRecord
  2
RESC1005X40N_50000_83
 70
0
 62
7
  6
CONTINUOUS
370
-3
390
F
  0
LAYER
  5
328
100
AcDbSymbolTableRecord
100
AcDbLayerTableRecord
  2
RESC1005X40N_50000_84
 70
0
 62
7
  6
CONTINUOUS
370
-3
390
F
  0
LAYER
  5
329
100
AcDbSymbolTableRecord
100
AcDbLayerTableRecord
  2
RESC1005X40N_50000_85
 70
0
 62
7
  6
CONTINUOUS
370
-3
390
F
  0
LAYER
  5
32A
100
AcDbSymbolTableRecord
100
AcDbLayerTableRecord
  2
RESC1005X40N_50000_86
 70
0
 62
7
  6
CONTINUOUS
370
-3
390
F
  0
LAYER
  5
32B
100
AcDbSymbolTableRecord
100
AcDbLayerTableRecord
  2
RESC1005X40N_50000_87
 70
0
 62
7
  6
CONTINUOUS
370
-3
390
F
  0
LAYER
  5
32C
100
AcDbSymbolTableRecord
100
AcDbLayerTableRecord
  2
RESC1005X40N_50000_88
 70
0
 62
7
  6
CONTINUOUS
370
-3
390
F
  0
LAYER
  5
32D
100
AcDbSymbolTableRecord
100
AcDbLayerTableRecord
  2
RESC1005X40N_50000_89
 70
0
 62
7
  6
CONTINUOUS
370
-3
390
F
  0
LAYER
  5
32E
100
AcDbSymbolTableRecord
100
AcDbLayerTableRecord
  2
RESC1005X40N_50000_9
 70
0
 62
7
  6
CONTINUOUS
370
-3
390
F
  0
LAYER
  5
32F
100
AcDbSymbolTableRecord
100
AcDbLayerTableRecord
  2
RESC1005X40N_50000_90
 70
0
 62
7
  6
CONTINUOUS
370
-3
390
F
  0
LAYER
  5
330
100
AcDbSymbolTableRecord
100
AcDbLayerTableRecord
  2
RESC1005X40N_50000_91
 70
0
 62
7
  6
CONTINUOUS
370
-3
390
F
  0
LAYER
  5
331
100
AcDbSymbolTableRecord
100
AcDbLayerTableRecord
  2
RESC1005X40N_50000_92
 70
0
 62
7
  6
CONTINUOUS
370
-3
390
F
  0
LAYER
  5
332
100
AcDbSymbolTableRecord
100
AcDbLayerTableRecord
  2
RESC1005X40N_50000_93
 70
0
 62
7
  6
CONTINUOUS
370
-3
390
F
  0
LAYER
  5
333
100
AcDbSymbolTableRecord
100
AcDbLayerTableRecord
  2
RESC1005X40N_50000_94
 70
0
 62
7
  6
CONTINUOUS
370
-3
390
F
  0
LAYER
  5
334
100
AcDbSymbolTableRecord
100
AcDbLayerTableRecord
  2
RESC1005X40N_50000_95
 70
0
 62
7
  6
CONTINUOUS
370
-3
390
F
  0
LAYER
  5
335
100
AcDbSymbolTableRecord
100
AcDbLayerTableRecord
  2
RESC1005X40N_50000_96
 70
0
 62
7
  6
CONTINUOUS
370
-3
390
F
  0
LAYER
  5
336
100
AcDbSymbolTableRecord
100
AcDbLayerTableRecord
  2
RESC1005X40N_50000_97
 70
0
 62
7
  6
CONTINUOUS
370
-3
390
F
  0
LAYER
  5
337
100
AcDbSymbolTableRecord
100
AcDbLayerTableRecord
  2
RESC1005X40N_50000_98
 70
0
 62
7
  6
CONTINUOUS
370
-3
390
F
  0
LAYER
  5
338
100
AcDbSymbolTableRecord
100
AcDbLayerTableRecord
  2
RESC1005X40N_50000_99
 70
0
 62
7
  6
CONTINUOUS
370
-3
390
F
  0
LAYER
  5
339
100
AcDbSymbolTableRecord
100
AcDbLayerTableRecord
  2
RESC1608N_45000
 70
0
 62
7
  6
CONTINUOUS
370
-3
390
F
  0
LAYER
  5
33A
100
AcDbSymbolTableRecord
100
AcDbLayerTableRecord
  2
RESC1608N_45000_1
 70
0
 62
7
  6
CONTINUOUS
370
-3
390
F
  0
LAYER
  5
33B
100
AcDbSymbolTableRecord
100
AcDbLayerTableRecord
  2
RESC1608N_45000_10
 70
0
 62
7
  6
CONTINUOUS
370
-3
390
F
  0
LAYER
  5
33C
100
AcDbSymbolTableRecord
100
AcDbLayerTableRecord
  2
RESC1608N_45000_11
 70
0
 62
7
  6
CONTINUOUS
370
-3
390
F
  0
LAYER
  5
33D
100
AcDbSymbolTableRecord
100
AcDbLayerTableRecord
  2
RESC1608N_45000_12
 70
0
 62
7
  6
CONTINUOUS
370
-3
390
F
  0
LAYER
  5
33E
100
AcDbSymbolTableRecord
100
AcDbLayerTableRecord
  2
RESC1608N_45000_13
 70
0
 62
7
  6
CONTINUOUS
370
-3
390
F
  0
LAYER
  5
33F
100
AcDbSymbolTableRecord
100
AcDbLayerTableRecord
  2
RESC1608N_45000_14
 70
0
 62
7
  6
CONTINUOUS
370
-3
390
F
  0
LAYER
  5
340
100
AcDbSymbolTableRecord
100
AcDbLayerTableRecord
  2
RESC1608N_45000_15
 70
0
 62
7
  6
CONTINUOUS
370
-3
390
F
  0
LAYER
  5
341
100
AcDbSymbolTableRecord
100
AcDbLayerTableRecord
  2
RESC1608N_45000_16
 70
0
 62
7
  6
CONTINUOUS
370
-3
390
F
  0
LAYER
  5
342
100
AcDbSymbolTableRecord
100
AcDbLayerTableRecord
  2
RESC1608N_45000_17
 70
0
 62
7
  6
CONTINUOUS
370
-3
390
F
  0
LAYER
  5
343
100
AcDbSymbolTableRecord
100
AcDbLayerTableRecord
  2
RESC1608N_45000_18
 70
0
 62
7
  6
CONTINUOUS
370
-3
390
F
  0
LAYER
  5
344
100
AcDbSymbolTableRecord
100
AcDbLayerTableRecord
  2
RESC1608N_45000_19
 70
0
 62
7
  6
CONTINUOUS
370
-3
390
F
  0
LAYER
  5
345
100
AcDbSymbolTableRecord
100
AcDbLayerTableRecord
  2
RESC1608N_45000_2
 70
0
 62
7
  6
CONTINUOUS
370
-3
390
F
  0
LAYER
  5
346
100
AcDbSymbolTableRecord
100
AcDbLayerTableRecord
  2
RESC1608N_45000_3
 70
0
 62
7
  6
CONTINUOUS
370
-3
390
F
  0
LAYER
  5
347
100
AcDbSymbolTableRecord
100
AcDbLayerTableRecord
  2
RESC1608N_45000_4
 70
0
 62
7
  6
CONTINUOUS
370
-3
390
F
  0
LAYER
  5
348
100
AcDbSymbolTableRecord
100
AcDbLayerTableRecord
  2
RESC1608N_45000_5
 70
0
 62
7
  6
CONTINUOUS
370
-3
390
F
  0
LAYER
  5
349
100
AcDbSymbolTableRecord
100
AcDbLayerTableRecord
  2
RESC1608N_45000_6
 70
0
 62
7
  6
CONTINUOUS
370
-3
390
F
  0
LAYER
  5
34A
100
AcDbSymbolTableRecord
100
AcDbLayerTableRecord
  2
RESC1608N_45000_7
 70
0
 62
7
  6
CONTINUOUS
370
-3
390
F
  0
LAYER
  5
34B
100
AcDbSymbolTableRecord
100
AcDbLayerTableRecord
  2
RESC1608N_45000_8
 70
0
 62
7
  6
CONTINUOUS
370
-3
390
F
  0
LAYER
  5
34C
100
AcDbSymbolTableRecord
100
AcDbLayerTableRecord
  2
RESC1608N_45000_9
 70
0
 62
7
  6
CONTINUOUS
370
-3
390
F
  0
LAYER
  5
34D
100
AcDbSymbolTableRecord
100
AcDbLayerTableRecord
  2
SIMBOLI
 70
0
 62
7
  6
CONTINUOUS
370
-3
390
F
  0
LAYER
  5
34E
100
AcDbSymbolTableRecord
100
AcDbLayerTableRecord
  2
SMUSSO
 70
0
 62
7
  6
CONTINUOUS
370
-3
390
F
  0
LAYER
  5
34F
100
AcDbSymbolTableRecord
100
AcDbLayerTableRecord
  2
SNAPLINE
 70
0
 62
7
  6
CONTINUOUS
370
-3
390
F
  0
LAYER
  5
350
100
AcDbSymbolTableRecord
100
AcDbLayerTableRecord
  2
SO8C-VIMAR_343000
 70
0
 62
7
  6
CONTINUOUS
370
-3
390
F
  0
LAYER
  5
351
100
AcDbSymbolTableRecord
100
AcDbLayerTableRecord
  2
SODFL1608X70N_70000
 70
0
 62
7
  6
CONTINUOUS
370
-3
390
F
  0
LAYER
  5
352
100
AcDbSymbolTableRecord
100
AcDbLayerTableRecord
  2
SODFL1608X70N_70000_1
 70
0
 62
7
  6
CONTINUOUS
370
-3
390
F
  0
LAYER
  5
353
100
AcDbSymbolTableRecord
100
AcDbLayerTableRecord
  2
SODFL1608X70N_70000_2
 70
0
 62
7
  6
CONTINUOUS
370
-3
390
F
  0
LAYER
  5
354
100
AcDbSymbolTableRecord
100
AcDbLayerTableRecord
  2
SODFL1608X70N_70000_3
 70
0
 62
7
  6
CONTINUOUS
370
-3
390
F
  0
LAYER
  5
355
100
AcDbSymbolTableRecord
100
AcDbLayerTableRecord
  2
SODFL1608X70N_70000_4
 70
0
 62
7
  6
CONTINUOUS
370
-3
390
F
  0
LAYER
  5
356
100
AcDbSymbolTableRecord
100
AcDbLayerTableRecord
  2
SODFL1608X70N_70000_5
 70
0
 62
7
  6
CONTINUOUS
370
-3
390
F
  0
LAYER
  5
357
100
AcDbSymbolTableRecord
100
AcDbLayerTableRecord
  2
SOP4-T1-RF-VIMAR_350000
 70
0
 62
7
  6
CONTINUOUS
370
-3
390
F
  0
LAYER
  5
358
100
AcDbSymbolTableRecord
100
AcDbLayerTableRecord
  2
SOP8-T1-RF-FINE-VIMAR_150000
 70
0
 62
7
  6
CONTINUOUS
370
-3
390
F
  0
LAYER
  5
359
100
AcDbSymbolTableRecord
100
AcDbLayerTableRecord
  2
SOT95P280X110-6N_110000
 70
0
 62
7
  6
CONTINUOUS
370
-3
390
F
  0
LAYER
  5
35A
100
AcDbSymbolTableRecord
100
AcDbLayerTableRecord
  2
SUPERFICI
 70
0
 62
7
  6
CONTINUOUS
370
-3
390
F
  0
LAYER
  5
35B
100
AcDbSymbolTableRecord
100
AcDbLayerTableRecord
  2
TP10_SMD_0
 70
0
 62
7
  6
CONTINUOUS
370
-3
390
F
  0
LAYER
  5
35C
100
AcDbSymbolTableRecord
100
AcDbLayerTableRecord
  2
TP10_SMD_0_1
 70
0
 62
7
  6
CONTINUOUS
370
-3
390
F
  0
LAYER
  5
35D
100
AcDbSymbolTableRecord
100
AcDbLayerTableRecord
  2
TP10_SMD_0_10
 70
0
 62
7
  6
CONTINUOUS
370
-3
390
F
  0
LAYER
  5
35E
100
AcDbSymbolTableRecord
100
AcDbLayerTableRecord
  2
TP10_SMD_0_11
 70
0
 62
7
  6
CONTINUOUS
370
-3
390
F
  0
LAYER
  5
35F
100
AcDbSymbolTableRecord
100
AcDbLayerTableRecord
  2
TP10_SMD_0_12
 70
0
 62
7
  6
CONTINUOUS
370
-3
390
F
  0
LAYER
  5
360
100
AcDbSymbolTableRecord
100
AcDbLayerTableRecord
  2
TP10_SMD_0_13
 70
0
 62
7
  6
CONTINUOUS
370
-3
390
F
  0
LAYER
  5
361
100
AcDbSymbolTableRecord
100
AcDbLayerTableRecord
  2
TP10_SMD_0_14
 70
0
 62
7
  6
CONTINUOUS
370
-3
390
F
  0
LAYER
  5
362
100
AcDbSymbolTableRecord
100
AcDbLayerTableRecord
  2
TP10_SMD_0_2
 70
0
 62
7
  6
CONTINUOUS
370
-3
390
F
  0
LAYER
  5
363
100
AcDbSymbolTableRecord
100
AcDbLayerTableRecord
  2
TP10_SMD_0_3
 70
0
 62
7
  6
CONTINUOUS
370
-3
390
F
  0
LAYER
  5
364
100
AcDbSymbolTableRecord
100
AcDbLayerTableRecord
  2
TP10_SMD_0_4
 70
0
 62
7
  6
CONTINUOUS
370
-3
390
F
  0
LAYER
  5
365
100
AcDbSymbolTableRecord
100
AcDbLayerTableRecord
  2
TP10_SMD_0_5
 70
0
 62
7
  6
CONTINUOUS
370
-3
390
F
  0
LAYER
  5
366
100
AcDbSymbolTableRecord
100
AcDbLayerTableRecord
  2
TP10_SMD_0_6
 70
0
 62
7
  6
CONTINUOUS
370
-3
390
F
  0
LAYER
  5
367
100
AcDbSymbolTableRecord
100
AcDbLayerTableRecord
  2
TP10_SMD_0_7
 70
0
 62
7
  6
CONTINUOUS
370
-3
390
F
  0
LAYER
  5
368
100
AcDbSymbolTableRecord
100
AcDbLayerTableRecord
  2
TP10_SMD_0_8
 70
0
 62
7
  6
CONTINUOUS
370
-3
390
F
  0
LAYER
  5
369
100
AcDbSymbolTableRecord
100
AcDbLayerTableRecord
  2
TP10_SMD_0_9
 70
0
 62
7
  6
CONTINUOUS
370
-3
390
F
  0
LAYER
  5
36A
100
AcDbSymbolTableRecord
100
AcDbLayerTableRecord
  2
TRASH
 70
0
 62
7
  6
CONTINUOUS
370
-3
390
F
  0
LAYER
  5
36B
100
AcDbSymbolTableRecord
100
AcDbLayerTableRecord
  2
TRA_EFD12_SMD_800000
 70
0
 62
7
  6
CONTINUOUS
370
-3
390
F
  0
LAYER
  5
36C
100
AcDbSymbolTableRecord
100
AcDbLayerTableRecord
  2
TSSOP16-RF-VIMAR_150000
 70
0
 62
7
  6
CONTINUOUS
370
-3
390
F
  0
LAYER
  5
36D
100
AcDbSymbolTableRecord
100
AcDbLayerTableRecord
  2
TSSOP16-RF-VIMAR_150000_1
 70
0
 62
7
  6
CONTINUOUS
370
-3
390
F
  0
LAYER
  5
36E
100
AcDbSymbolTableRecord
100
AcDbLayerTableRecord
  2
XSEC_DATUMS
 70
0
 62
7
  6
CONTINUOUS
370
-3
390
F
  0
LAYER
  5
36F
100
AcDbSymbolTableRecord
100
AcDbLayerTableRecord
  2
___SHELL
 70
0
 62
7
  6
CONTINUOUS
370
-3
390
F
  0
ENDTAB
  0
TABLE
  2
STYLE
  5
3
100
AcDbSymbolTable
 70
1
  0
STYLE
  5
11
100
AcDbSymbolTableRecord
100
AcDbTextStyleTableRecord
  2
STANDARD
 70
0
 40
0.0
 41
0.8
 50
0.0
 71
0
 42
0.2
  3
txt
  4

  0
STYLE
  5
370
100
AcDbSymbolTableRecord
100
AcDbTextStyleTableRecord
  2
TEXTSTYLE_1
 70
0
 40
0.0
 41
0.8
 50
0.0
 71
0
 42
0.2
  3
gdt
  4

  0
ENDTAB
  0
TABLE
  2
VIEW
  5
6
100
AcDbSymbolTable
 70
0
  0
ENDTAB
  0
TABLE
  2
UCS
  5
7
100
AcDbSymbolTable
 70
0
  0
ENDTAB
  0
TABLE
  2
APPID
  5
9
100
AcDbSymbolTable
 70
1
  0
APPID
  5
371
100
AcDbSymbolTableRecord
100
AcDbRegAppTableRecord
  2
ACAD
 70
0
  0
ENDTAB
  0
TABLE
  2
BLOCK_RECORD
  5
1
100
AcDbSymbolTable
 70
0
  0
BLOCK_RECORD
  5
372
100
AcDbSymbolTableRecord
100
AcDbBlockTableRecord
  2
*Model_Space
  0
BLOCK_RECORD
  5
373
100
AcDbSymbolTableRecord
100
AcDbBlockTableRecord
  2
*Paper_Space
  0
ENDTAB
  0
TABLE
  2
DIMSTYLE
  5
A
100
AcDbSymbolTable
 70
1
100
AcDbDimStyleTable
 71
0
  0
DIMSTYLE
105
374
100
AcDbSymbolTableRecord
100
AcDbDimStyleTableRecord
  2
STANDARD
 70
0
  3

  4

 40
1.0
 41
3.0
 42
0.5
 43
0.38
 44
1.5
 45
0.0
 46
0.0
 47
0.01
 48
0.01
140
3.0
141
0.09
142
0.0
143
25.4
144
1.0
145
0.0
146
1.0
147
0.625
 71
1.0
 72
0.0
 73
0
 74
0
 75
0
 76
0
 77
1
 78
8
170
0
171
2
172
0
173
0
174
0
175
0
176
0
177
0
178
0
270
2
271
2
272
2
273
2
274
2
275
0
280
0
281
0
282
0
283
1
284
8
285
0
286
0
287
3
288
0
340
11
278
44
  0
ENDTAB
  0
ENDSEC
  0
SECTION
  2
BLOCKS
  0
BLOCK
  5
20
100
AcDbEntity
  8
0
100
AcDbBlockBegin
  2
*Model_Space
 70
0
 10
0.0
 20
0.0
 30
0.0
  3
*Model_Space
  1

  0
ENDBLK
  5
21
100
AcDbEntity
  8
0
100
AcDbBlockEnd
  0
BLOCK
  5
1C
100
AcDbEntity
  8
0
100
AcDbBlockBegin
  2
*Paper_Space
 70
0
 10
0.0
 20
0.0
 30
0.0
  3
*Paper_Space
  1

  0
ENDBLK
  5
1D
100
AcDbEntity
  8
0
100
AcDbBlockEnd
  0
ENDSEC
  0
SECTION
  2
ENTITIES
  0
LWPOLYLINE
  5
375
100
AcDbEntity
  8
RACCORDO
100
AcDbPolyline
 62
7
  6
CONTINUOUS
 90
19
 70
0
 10
106.1350373071
 20
160.1125663281
 10
106.0680519903
 20
160.0731996792
 10
106.0074300343
 20
160.0315281055
 10
105.9493260874
 20
159.9854181963
 10
105.8939868894
 20
159.9349984034
 10
105.8416204654
 20
159.8803888194
 10
105.7924531349
 20
159.8217535852
 10
105.7466565243
 20
159.7592427169
 10
105.7043745838
 20
159.6930080035
 10
105.6657396257
 20
159.6231967743
 10
105.6308687993
 20
159.5499460082
 10
105.5998541881
 20
159.4733903697
 10
105.5727724412
 20
159.3936280237
 10
105.5497180238
 20
159.3107830976
 10
105.5307689385
 20
159.2249523905
 10
105.5159920246
 20
159.1361578541
 10
105.505486082
 20
159.0444649591
 10
105.4993549595
 20
158.9500255862
 10
105.4976561086
 20
158.8700555194
  0
LINE
  5
376
100
AcDbEntity
  8
RACCORDO
100
AcDbLine
 62
7
  6
CONTINUOUS
 10
107.0482666758
 20
160.6052772895
 11
106.1350624481
 21
160.1125844634
  0
LINE
  5
377
100
AcDbEntity
  8
RACCORDO
100
AcDbLine
 62
253
  6
CONTINUOUS
 10
107.0508576014
 20
160.0670050387
 11
107.961031705
 21
160.5580630786
  0
LWPOLYLINE
  5
378
100
AcDbEntity
  8
RACCORDO
100
AcDbPolyline
 62
7
  6
CONTINUOUS
 90
15
 70
0
 10
107.0483041449
 20
160.6052039031
 10
107.0741875925
 20
160.6185294774
 10
107.1329391211
 20
160.6443563036
 10
107.1935327327
 20
160.6650242509
 10
107.2561557196
 20
160.6806291875
 10
107.3206507234
 20
160.6911741937
 10
107.387160816
 20
160.6966882649
 10
107.4555429325
 20
160.697142409
 10
107.5252105006
 20
160.6924527197
 10
107.5962644928
 20
160.682519492
 10
107.6686039409
 20
160.6674424329
 10
107.7413393418
 20
160.6474367445
 10
107.8141741857
 20
160.6225741564
 10
107.8874049729
 20
160.5927829341
 10
107.961031705
 20
160.5580630786
  0
LINE
  5
379
100
AcDbEntity
  8
RACCORDO
100
AcDbLine
 62
7
  6
CONTINUOUS
 10
114.4401448788
 20
163.531304078
 11
116.1787320135
 21
164.3342412316
  0
LINE
  5
37A
100
AcDbEntity
  8
RACCORDO
100
AcDbLine
 62
253
  6
CONTINUOUS
 10
115.1824505966
 20
163.4744046953
 11
116.9580403977
 21
164.2944309065
  0
LINE
  5
37B
100
AcDbEntity
  8
RACCORDO
100
AcDbLine
 62
7
  6
CONTINUOUS
 10
114.0769740826
 20
163.390683833
 11
107.8232896825
 21
160.6188658555
  0
LINE
  5
37C
100
AcDbEntity
  8
RACCORDO
100
AcDbLine
 62
253
  6
CONTINUOUS
 10
114.8101544733
 20
163.3296741608
 11
108.2401331633
 21
160.4176463042
  0
LWPOLYLINE
  5
37D
100
AcDbEntity
  8
RACCORDO
100
AcDbPolyline
 62
253
  6
CONTINUOUS
 90
14
 70
0
 10
116.1784635894
 20
164.3341172645
 10
116.2152049398
 20
164.3497781377
 10
116.2685402799
 20
164.3681852886
 10
116.3239207993
 20
164.3824273675
 10
116.3812184836
 20
164.3924765238
 10
116.440283318
 20
164.3983086376
 10
116.5009607336
 20
164.3999115109
 10
116.5631103459
 20
164.3972924305
 10
116.6265687778
 20
164.3904638986
 10
116.6911754794
 20
164.3794492698
 10
116.7567908778
 20
164.364287507
 10
116.8232567656
 20
164.3450246397
 10
116.8903963385
 20
164.3217162458
 10
116.9580403977
 20
164.2944309065
  0
LWPOLYLINE
  5
37E
100
AcDbEntity
  8
RACCORDO
100
AcDbPolyline
 62
253
  6
CONTINUOUS
 90
12
 70
0
 10
106.7023401228
 20
78.0930043382
 10
106.7037278007
 20
78.0564325609
 10
106.7077371315
 20
78.0214470806
 10
106.7143383657
 20
77.9883074914
 10
106.7234825219
 20
77.9572596903
 10
106.7351017501
 20
77.9285340534
 10
106.7491098349
 20
77.9023437263
 10
106.7654028359
 20
77.8788830423
 10
106.7838598582
 20
77.8583260807
 10
106.8043439499
 20
77.8408253752
 10
106.8267031182
 20
77.8265107818
 10
106.8322684951
 20
77.8235927124
  0
LWPOLYLINE
  5
37F
100
AcDbEntity
  8
RACCORDO
100
AcDbPolyline
 62
253
  6
CONTINUOUS
 90
31
 70
0
 10
105.6429176476
 20
79.9225746389
 10
105.6445295095
 20
79.8535680287
 10
105.6489952116
 20
79.783693105
 10
105.656314751
 20
79.7129498663
 10
105.6665231758
 20
79.6411462621
 10
105.6795854388
 20
79.5684743433
 10
105.6953963921
 20
79.4955102598
 10
105.7139796498
 20
79.4222425979
 10
105.735311598
 20
79.3486827712
 10
105.7592162387
 20
79.2754411657
 10
105.7857139149
 20
79.2025242988
 10
105.8147842835
 20
79.1299256529
 10
105.8461903092
 20
79.0582360574
 10
105.8799514554
 20
78.9874617659
 10
105.9160482587
 20
78.9175965246
 10
105.9541852855
 20
78.8492123976
 10
105.994379308
 20
78.7823216155
 10
106.0366135542
 20
78.7169119476
 10
106.0805422655
 20
78.6535187624
 10
106.1261785694
 20
78.5921593383
 10
106.1735093386
 20
78.5328163966
 10
106.2221494255
 20
78.4759734666
 10
106.2721123934
 20
78.4216486694
 10
106.3233846791
 20
78.3698238838
 10
106.3755404365
 20
78.3209282717
 10
106.4285797903
 20
78.2749908562
 10
106.4825026158
 20
78.231982614
 10
106.5368826851
 20
78.1922456327
 10
106.5915779203
 20
78.1558939404
 10
106.6467303986
 20
78.1228135084
 10
106.7023401228
 20
78.0930043382
  0
LWPOLYLINE
  5
380
100
AcDbEntity
  8
RACCORDO
100
AcDbPolyline
 62
7
  6
CONTINUOUS
 90
28
 70
0
 10
105.4976574435
 20
80.0988782288
 10
105.4979323503
 20
80.0685406102
 10
105.5021891416
 20
79.9633195013
 10
105.5114686871
 20
79.857493615
 10
105.5256258522
 20
79.751341353
 10
105.5445165316
 20
79.6450868735
 10
105.5680145529
 20
79.5389619398
 10
105.5959823387
 20
79.4332254984
 10
105.6282907652
 20
79.3281285196
 10
105.6648144598
 20
79.2239378382
 10
105.7054071091
 20
79.120931924
 10
105.7499494227
 20
79.0193434947
 10
105.7983351118
 20
78.9193853584
 10
105.8504301925
 20
78.8213178509
 10
105.9061144172
 20
78.7253988213
 10
105.9652925914
 20
78.6318318241
 10
106.0278609266
 20
78.5408477804
 10
106.0936819552
 20
78.4527460533
 10
106.1626133253
 20
78.3678037884
 10
106.2346196658
 20
78.2861900175
 10
106.309501338
 20
78.2082740648
 10
106.386867131
 20
78.1345582328
 10
106.4665993489
 20
78.0652546301
 10
106.5485503937
 20
78.0006029878
 10
106.6322881758
 20
77.9410326641
 10
106.7175825218
 20
77.8867814942
 10
106.8043655293
 20
77.837962068
 10
106.8323291193
 20
77.8235660233
  0
LWPOLYLINE
  5
381
100
AcDbEntity
  8
RACCORDO
100
AcDbPolyline
 62
7
  6
CONTINUOUS
 90
10
 70
0
 10
105.4610898938
 20
119.4661531033
 10
105.4615300539
 20
115.1451159628
 10
105.4628790328
 20
110.7547383163
 10
105.4651369448
 20
106.3648156682
 10
105.4683037897
 20
101.975348338
 10
105.4723795674
 20
97.5863365921
 10
105.4773642777
 20
93.1977806765
 10
105.4832579201
 20
88.8096808575
 10
105.4900604944
 20
84.4220374545
 10
105.4976530356
 20
80.0988133113
  0
LWPOLYLINE
  5
382
100
AcDbEntity
  8
RACCORDO
100
AcDbPolyline
 62
253
  6
CONTINUOUS
 90
10
 70
0
 10
105.6063544554
 20
119.2899694167
 10
105.6068058762
 20
114.9140048554
 10
105.6081600865
 20
110.5384921093
 10
105.6104170861
 20
106.1634314577
 10
105.6135768748
 20
101.7888232735
 10
105.6176394523
 20
97.4146677423
 10
105.6226048185
 20
93.040964862
 10
105.6284729733
 20
88.6677148184
 10
105.6352439165
 20
84.2949179843
 10
105.6429176476
 20
79.9225746389
  0
LWPOLYLINE
  5
383
100
AcDbEntity
  8
RACCORDO
100
AcDbPolyline
 62
7
  6
CONTINUOUS
 90
10
 70
0
 10
105.4976530324
 20
158.8700533462
 10
105.4900700338
 20
154.5450149097
 10
105.4832662653
 20
150.150568817
 10
105.4773714284
 20
145.75657518
 10
105.4723855236
 20
141.3630343184
 10
105.4683085512
 20
136.9699464991
 10
105.4651405114
 20
132.5773119682
 10
105.4628814046
 20
128.1851309923
 10
105.4615312307
 20
123.7934038909
 10
105.4610898938
 20
119.4661531048
  0
LWPOLYLINE
  5
384
100
AcDbEntity
  8
RACCORDO
100
AcDbPolyline
 62
253
  6
CONTINUOUS
 90
10
 70
0
 10
105.6429176476
 20
158.6939272812
 10
105.6352439165
 20
154.3139102231
 10
105.6284729733
 20
149.9343424625
 10
105.6226048185
 20
145.555224279
 10
105.6176394523
 20
141.1765560458
 10
105.6135768748
 20
136.7983379486
 10
105.6104170862
 20
132.4205699857
 10
105.6081600865
 20
128.0432523429
 10
105.6068058762
 20
123.6663853935
 10
105.6063544554
 20
119.2899694167
  0
LWPOLYLINE
  5
385
100
AcDbEntity
  8
RACCORDO
100
AcDbPolyline
 62
253
  6
CONTINUOUS
 90
19
 70
0
 10
106.7023401231
 20
159.4619539733
 10
106.703728118
 20
159.4999041585
 10
106.707737727
 20
159.5388725411
 10
106.7143391991
 20
159.5785699777
 10
106.7234835517
 20
159.6187019159
 10
106.7351029344
 20
159.658970579
 10
106.7491111318
 20
159.6990771757
 10
106.7654042041
 20
159.7387241175
 10
106.7838612576
 20
159.7776172265
 10
106.8043453419
 20
159.8154679179
 10
106.8267044665
 20
159.8519953418
 10
106.8507727279
 20
159.886928467
 10
106.876371541
 20
159.9200080915
 10
106.9033109641
 20
159.9509887666
 10
106.9313911082
 20
159.9796406175
 10
106.9604036203
 20
160.005751049
 10
106.9901332292
 20
160.0291263233
 10
107.020359343
 20
160.0495929972
 10
107.0508576856
 20
160.0669992093
  0
LWPOLYLINE
  5
386
100
AcDbEntity
  8
RACCORDO
100
AcDbPolyline
 62
253
  6
CONTINUOUS
 90
19
 70
0
 10
200.3653522785
 20
32.5613573234
 10
200.39716669
 20
32.5468658715
 10
200.431356548
 20
32.5338034825
 10
200.4676684888
 20
32.522266955
 10
200.5058334234
 20
32.5123417804
 10
200.5455685311
 20
32.5041015089
 10
200.5865793555
 20
32.497607205
 10
200.6285619865
 20
32.4929069946
 10
200.6712053122
 20
32.4900357087
 10
200.7141933251
 20
32.4890146247
 10
200.757207463
 20
32.4898513095
 10
200.7999289703
 20
32.4925395627
 10
200.8420412599
 20
32.4970594632
 10
200.8832322593
 20
32.5033775162
 10
200.9231967231
 20
32.511446902
 10
200.9616384953
 20
32.5212078225
 10
200.9982727037
 20
32.5325879444
 10
201.032827871
 20
32.5455029356
 10
201.0650479266
 20
32.5598570897
  0
LWPOLYLINE
  5
387
100
AcDbEntity
  8
RACCORDO
100
AcDbPolyline
 62
253
  6
CONTINUOUS
 90
31
 70
0
 10
199.3038086698
 20
31.7922700647
 10
199.3597748989
 20
31.7662909695
 10
199.415268424
 20
31.7440482174
 10
199.4702892424
 20
31.7255418069
 10
199.5249804247
 20
31.7107432691
 10
199.5791989012
 20
31.6996810733
 10
199.6325154563
 20
31.6924406248
 10
199.6849296376
 20
31.6890511148
 10
199.7364418978
 20
31.6894833521
 10
199.7866243706
 20
31.6937351645
 10
199.835463248
 20
31.7018384008
 10
199.8829723381
 20
31.7137612121
 10
199.9287651901
 20
31.729405876
 10
199.9728285781
 20
31.7488028693
 10
200.0151757282
 20
31.7719217152
 10
200.05545986
 20
31.798573257
 10
200.0936639601
 20
31.8287865586
 10
200.1298050421
 20
31.862532556
 10
200.1635873585
 20
31.8995348967
 10
200.19499127
 20
31.9398194854
 10
200.2240364159
 20
31.9833604174
 10
200.2504859581
 20
32.0298036215
 10
200.2743193866
 20
32.0791759729
 10
200.2955572116
 20
32.1314505964
 10
200.3140241172
 20
32.1861927917
 10
200.329696229
 20
32.2434146291
 10
200.3425974214
 20
32.3031040383
 10
200.3526239932
 20
32.3647901041
 10
200.3597413754
 20
32.4283158538
 10
200.3639841362
 20
32.4938382598
 10
200.3653522785
 20
32.5613573234
  0
LWPOLYLINE
  5
388
100
AcDbEntity
  8
RACCORDO
100
AcDbPolyline
 62
7
  6
CONTINUOUS
 90
15
 70
0
 10
199.4337937751
 20
31.5228357688
 10
199.4581648091
 20
31.5109719678
 10
199.5476711854
 20
31.471480872
 10
199.6372741334
 20
31.4382996443
 10
199.7267843144
 20
31.4114440719
 10
199.8159838854
 20
31.3909181381
 10
199.9045691525
 20
31.376738753
 10
199.9923370042
 20
31.3688831764
 10
200.0789872602
 20
31.36731533
 10
200.1639975094
 20
31.3719613051
 10
200.2470605084
 20
31.3826912209
 10
200.3278917716
 20
31.3993318303
 10
200.405967414
 20
31.4216082096
 10
200.4809365598
 20
31.4492109311
 10
200.5232188577
 20
31.4676789915
  0
LWPOLYLINE
  5
389
100
AcDbEntity
  8
RACCORDO
100
AcDbPolyline
 62
7
  6
CONTINUOUS
 90
10
 70
0
 10
153.0572262976
 20
54.6353199681
 10
158.1578349754
 20
52.0859351132
 10
163.3173107443
 20
49.5089968951
 10
168.4786653532
 20
46.9329995537
 10
173.6418980251
 20
44.357943477
 10
178.8070081114
 20
41.7838289881
 10
183.9739950135
 20
39.2106563853
 10
189.1428580826
 20
36.6384259918
 10
194.3135965404
 20
34.0671381945
 10
199.4337646765
 20
31.5228446066
  0
LWPOLYLINE
  5
38A
100
AcDbEntity
  8
RACCORDO
100
AcDbPolyline
 62
253
  6
CONTINUOUS
 90
10
 70
0
 10
152.9272806801
 20
54.9047402441
 10
158.0727521931
 20
52.3329402147
 10
163.2200941362
 20
49.7620764244
 10
168.3693058276
 20
47.1921492131
 10
173.5203863576
 20
44.6231590346
 10
178.6733352721
 20
42.0551061147
 10
183.8281525737
 20
39.4879904519
 10
188.9848378094
 20
36.9218122727
 10
194.1433900689
 20
34.3565720304
 10
199.3038086698
 20
31.7922700647
  0
LWPOLYLINE
  5
38B
100
AcDbEntity
  8
RACCORDO
100
AcDbPolyline
 62
7
  6
CONTINUOUS
 90
10
 70
0
 10
106.8322684951
 20
77.8235927124
 10
111.9161573275
 20
75.2658715432
 10
117.058732544
 20
72.680500781
 10
122.2031927686
 20
70.0960678063
 10
127.3495372267
 20
67.5125730084
 10
132.4977652718
 20
64.9300167116
 10
137.6478763073
 20
62.3483992151
 10
142.7998696869
 20
59.7677208432
 10
147.9537446345
 20
57.1879819841
 10
153.0572262976
 20
54.6353199681
  0
LINE
  5
38C
100
AcDbEntity
  8
RACCORDO
100
AcDbLine
 62
7
  6
CONTINUOUS
 10
106.8322684951
 20
77.8235927124
 11
106.8323275901
 21
77.8235629837
  0
LWPOLYLINE
  5
38D
100
AcDbEntity
  8
RACCORDO
100
AcDbPolyline
 62
253
  6
CONTINUOUS
 90
10
 70
0
 10
106.7023401228
 20
78.0930043382
 10
111.830944096
 20
75.5127950168
 10
116.9614246175
 20
72.9335188686
 10
122.0937810082
 20
70.3551762347
 10
127.228012361
 20
67.7777675703
 10
132.3641182232
 20
65.2012931019
 10
137.5020985974
 20
62.6257528282
 10
142.641953032
 20
60.0511469765
 10
147.7836806196
 20
57.4774760015
 10
152.9272806801
 20
54.9047402441
  0
LWPOLYLINE
  5
38E
100
AcDbEntity
  8
RACCORDO
100
AcDbPolyline
 62
253
  6
CONTINUOUS
 90
10
 70
0
 10
105.6429176479
 20
79.922574639
 10
105.6139274993
 20
79.9384857835
 10
105.5877809262
 20
79.9555918875
 10
105.5646716849
 20
79.9737661885
 10
105.5447710236
 20
79.9928740078
 10
105.5282264138
 20
80.0127737493
 10
105.5151604575
 20
80.0333179481
 10
105.5056699784
 20
80.0543543639
 10
105.4998253045
 20
80.0757271089
 10
105.497657546
 20
80.09881332
  0
LINE
  5
38F
100
AcDbEntity
  8
RACCORDO
100
AcDbLine
 62
253
  6
CONTINUOUS
 10
153.2746627379
 20
136.8793107465
 11
154.2009476578
 21
137.3622553266
  0
LINE
  5
390
100
AcDbEntity
  8
0
100
AcDbLine
 62
7
  6
CONTINUOUS
 10
148.2697516709
 20
132.6665649381
 11
148.3404624957
 21
132.7019203505
  0
LINE
  5
391
100
AcDbEntity
  8
0
100
AcDbLine
 62
7
  6
CONTINUOUS
 10
148.7986490441
 20
132.4019549168
 11
148.8693598681
 21
132.4373103288
  0
LINE
  5
392
100
AcDbEntity
  8
0
100
AcDbLine
 62
7
  6
CONTINUOUS
 10
149.7014951488
 20
131.9503022004
 11
149.7722059716
 21
131.9856576118
  0
LINE
  5
393
100
AcDbEntity
  8
0
100
AcDbLine
 62
7
  6
CONTINUOUS
 10
150.1880869886
 20
131.7069064223
 11
150.2587978109
 21
131.7422618334
  0
LINE
  5
394
100
AcDbEntity
  8
0
100
AcDbLine
 62
7
  6
CONTINUOUS
 10
150.3687902382
 20
131.6166937339
 11
150.4395010603
 21
131.652049145
  0
LINE
  5
395
100
AcDbEntity
  8
0
100
AcDbLine
 62
7
  6
CONTINUOUS
 10
150.8557373403
 20
131.3731432468
 11
150.9264481621
 21
131.4084986577
  0
LINE
  5
396
100
AcDbEntity
  8
0
100
AcDbLine
 62
7
  6
CONTINUOUS
 10
151.3285313197
 20
131.1365158523
 11
151.3992421412
 21
131.171871263
  0
LINE
  5
397
100
AcDbEntity
  8
0
100
AcDbLine
 62
7
  6
CONTINUOUS
 10
151.8151091634
 20
130.8931830797
 11
151.8858199846
 21
130.9285384903
  0
LINE
  5
398
100
AcDbEntity
  8
0
100
AcDbLine
 62
7
  6
CONTINUOUS
 10
149.4337735327
 20
129.2221848037
 11
149.5044843334
 21
129.2575402041
  0
LINE
  5
399
100
AcDbEntity
  8
0
100
AcDbLine
 62
7
  6
CONTINUOUS
 10
152.783977002
 20
130.4087117103
 11
152.854687823
 21
130.4440671208
  0
LINE
  5
39A
100
AcDbEntity
  8
0
100
AcDbLine
 62
7
  6
CONTINUOUS
 10
153.2658459586
 20
130.1677833228
 11
153.3365567797
 21
130.2031387333
  0
LINE
  5
39B
100
AcDbEntity
  8
0
100
AcDbLine
 62
7
  6
CONTINUOUS
 10
150.8512378736
 20
128.51318202
 11
150.9219486729
 21
128.5485374197
  0
LINE
  5
39C
100
AcDbEntity
  8
0
100
AcDbLine
 62
7
  6
CONTINUOUS
 10
154.292398668
 20
129.6545746835
 11
154.3631094894
 21
129.6899300943
  0
LINE
  5
39D
100
AcDbEntity
  8
0
100
AcDbLine
 62
7
  6
CONTINUOUS
 10
151.5792591581
 20
128.1490876381
 11
151.6499699569
 21
128.1844430375
  0
LINE
  5
39E
100
AcDbEntity
  8
0
100
AcDbLine
 62
7
  6
CONTINUOUS
 10
154.7635921644
 20
129.4190339616
 11
154.8343029861
 21
129.4543893725
  0
LINE
  5
39F
100
AcDbEntity
  8
0
100
AcDbLine
 62
7
  6
CONTINUOUS
 10
152.3239555325
 20
127.7766925786
 11
152.3946663311
 21
127.8120479779
  0
LINE
  5
3A0
100
AcDbEntity
  8
0
100
AcDbLine
 62
7
  6
CONTINUOUS
 10
155.6225688441
 20
128.9562480175
 11
155.6932796662
 21
128.9916034286
  0
LINE
  5
3A1
100
AcDbEntity
  8
0
100
AcDbLine
 62
7
  6
CONTINUOUS
 10
154.2733681465
 20
127.8154900981
 11
154.3440789532
 21
127.8508455014
  0
LINE
  5
3A2
100
AcDbEntity
  8
0
100
AcDbLine
 62
7
  6
CONTINUOUS
 10
153.4795327285
 20
127.19890889
 11
153.5502435272
 21
127.2342642893
  0
LINE
  5
3A3
100
AcDbEntity
  8
0
100
AcDbLine
 62
253
  6
CONTINUOUS
 10
156.8247084125
 20
128.3253304629
 11
156.8954192358
 21
128.3606858746
  0
LINE
  5
3A4
100
AcDbEntity
  8
0
100
AcDbLine
 62
7
  6
CONTINUOUS
 10
154.0377851793
 20
126.9198188594
 11
154.1084959781
 21
126.9551742588
  0
LINE
  5
3A5
100
AcDbEntity
  8
0
100
AcDbLine
 62
7
  6
CONTINUOUS
 10
156.089590152
 20
127.4829676897
 11
156.1603009647
 21
127.5183230961
  0
LINE
  5
3A6
100
AcDbEntity
  8
0
100
AcDbLine
 62
253
  6
CONTINUOUS
 10
156.3679864048
 20
127.3438361688
 11
156.4386972178
 21
127.3791915753
  0
LWPOLYLINE
  5
3A7
100
AcDbEntity
  8
0
100
AcDbPolyline
 62
7
  6
CONTINUOUS
 90
9
 70
0
 10
156.6346851164
 20
127.3103095103
 10
156.648901635
 20
127.3184514354
 10
156.6630042348
 20
127.328796724
 10
156.6760806893
 20
127.3408068837
 10
156.6880800792
 20
127.3543678746
 10
156.6989579553
 20
127.3693697584
 10
156.7086738865
 20
127.3857082086
 10
156.7171858693
 20
127.403278049
 10
156.7244641817
 20
127.4219580385
  0
LWPOLYLINE
  5
3A8
100
AcDbEntity
  8
0
100
AcDbPolyline
 62
7
  6
CONTINUOUS
 90
48
 70
0
 10
157.0412769243
 20
126.9176144608
 10
157.0514325876
 20
126.9233534339
 10
157.0617784018
 20
126.9295615593
 10
157.0723341509
 20
126.9362148173
 10
157.0830800535
 20
126.943337229
 10
157.093927026
 20
126.9511472607
 10
157.1048884477
 20
126.9596261613
 10
157.1159509425
 20
126.9687926837
 10
157.1269852934
 20
126.9789215509
 10
157.1379876704
 20
126.9900387976
 10
157.1489619076
 20
127.0021183913
 10
157.1597902849
 20
127.0153569539
 10
157.17047354
 20
127.0297581393
 10
157.1810109403
 20
127.0453182962
 10
157.1912825601
 20
127.0622230897
 10
157.2013082579
 20
127.0804610138
 10
157.2110681818
 20
127.1000435777
 10
157.2203828412
 20
127.1211909699
 10
157.2292765717
 20
127.1438860243
 10
157.237725046
 20
127.168145911
 10
157.2454757795
 20
127.1942423234
 10
157.2525474668
 20
127.2221861995
 10
157.258921424
 20
127.2519666067
 10
157.2642890998
 20
127.2838224322
 10
157.268664089
 20
127.3177478833
 10
157.2720328105
 20
127.3537487596
 10
157.2740459501
 20
127.3920813378
 10
157.2747827201
 20
127.4327183437
 10
157.2741639263
 20
127.4756870605
 10
157.2716026475
 20
127.5213256017
 10
157.2671873335
 20
127.5699598449
 10
157.2608295607
 20
127.6212639255
 10
157.2516770936
 20
127.6745983423
 10
157.2393756428
 20
127.7305856819
 10
157.2242795219
 20
127.7886033697
 10
157.2065993795
 20
127.846144152
 10
157.1859785654
 20
127.9031006465
 10
157.1627737267
 20
127.959580234
 10
157.1382654262
 20
128.01339779
 10
157.1125275447
 20
128.0639712123
 10
157.0854861759
 20
128.1118825905
 10
157.0582001833
 20
128.1566930787
 10
157.0308760288
 20
128.1982146649
 10
157.0033072255
 20
128.2366353487
 10
156.9759332095
 20
128.2720802989
 10
156.9489004527
 20
128.3045912352
 10
156.922062464
 20
128.3341264283
 10
156.8954192358
 20
128.3606858746
  0
LINE
  5
3A9
100
AcDbEntity
  8
0
100
AcDbLine
 62
7
  6
CONTINUOUS
 10
155.4750830574
 20
126.2013644825
 11
155.5457938572
 21
126.2367198824
  0
LINE
  5
3AA
100
AcDbEntity
  8
0
100
AcDbLine
 62
7
  6
CONTINUOUS
 10
156.8725939438
 20
126.8388644229
 11
156.9002972521
 21
126.852716077
  0
LINE
  5
3AB
100
AcDbEntity
  8
0
100
AcDbLine
 62
7
  6
CONTINUOUS
 10
156.9403277026
 20
126.8663244242
 11
156.9458675068
 21
126.8690943263
  0
LINE
  5
3AC
100
AcDbEntity
  8
0
100
AcDbLine
 62
7
  6
CONTINUOUS
 10
156.1032928058
 20
125.8873906849
 11
156.1740036063
 21
125.9227460852
  0
LINE
  5
3AD
100
AcDbEntity
  8
0
100
AcDbLine
 62
253
  6
CONTINUOUS
 10
157.1525443009
 20
126.137578725
 11
157.2232551087
 21
126.1729341289
  0
LINE
  5
3AE
100
AcDbEntity
  8
0
100
AcDbLine
 62
7
  6
CONTINUOUS
 10
157.3178966524
 20
125.2804209095
 11
157.3886074546
 21
125.3157763106
  0
LWPOLYLINE
  5
3AF
100
AcDbEntity
  8
0
100
AcDbPolyline
 62
7
  6
CONTINUOUS
 90
6
 70
0
 10
156.9403274911
 20
126.8663243185
 10
156.9367967497
 20
126.8645807734
 10
156.9281489626
 20
126.8605817177
 10
156.9194923009
 20
126.8571590632
 10
156.9107949226
 20
126.854515865
 10
156.9018241377
 20
126.8528040571
  0
LWPOLYLINE
  5
3B0
100
AcDbEntity
  8
0
100
AcDbPolyline
 62
7
  6
CONTINUOUS
 90
4
 70
0
 10
157.0111274656
 20
126.9014999925
 10
157.0122791824
 20
126.9020678174
 10
157.0217002228
 20
126.9069716531
 10
157.0412769243
 20
126.9176144608
  0
LINE
  5
3B1
100
AcDbEntity
  8
0
100
AcDbLine
 62
7
  6
CONTINUOUS
 10
149.2535426739
 20
130.2615730645
 11
149.7014951488
 21
131.9503022004
  0
LINE
  5
3B2
100
AcDbEntity
  8
0
100
AcDbLine
 62
7
  6
CONTINUOUS
 10
149.2401352243
 20
130.2110199458
 11
149.2535426739
 21
130.2615730645
  0
LINE
  5
3B3
100
AcDbEntity
  8
0
100
AcDbLine
 62
7
  6
CONTINUOUS
 10
150.1880869886
 20
131.7069064223
 11
149.4337735327
 21
129.2221848037
  0
LINE
  5
3B4
100
AcDbEntity
  8
0
100
AcDbLine
 62
7
  6
CONTINUOUS
 10
149.5044843334
 20
129.2575402041
 11
150.2587978109
 21
131.7422618334
  0
LINE
  5
3B5
100
AcDbEntity
  8
0
100
AcDbLine
 62
7
  6
CONTINUOUS
 10
154.5175674392
 20
128.7555613151
 11
154.2733681465
 21
127.8154900981
  0
LINE
  5
3B6
100
AcDbEntity
  8
0
100
AcDbLine
 62
7
  6
CONTINUOUS
 10
154.3440789532
 20
127.8508455014
 11
154.5435042329
 21
128.6185684252
  0
LINE
  5
3B7
100
AcDbEntity
  8
0
100
AcDbLine
 62
7
  6
CONTINUOUS
 10
154.1730531012
 20
127.42353087
 11
154.0377851793
 21
126.9198188594
  0
LINE
  5
3B8
100
AcDbEntity
  8
0
100
AcDbLine
 62
7
  6
CONTINUOUS
 10
154.1084959781
 20
126.9551742588
 11
154.2270241384
 21
127.3965505691
  0
LINE
  5
3B9
100
AcDbEntity
  8
0
100
AcDbLine
 62
7
  6
CONTINUOUS
 10
153.5560121044
 20
127.1606728582
 11
154.292398668
 21
129.6545746835
  0
LINE
  5
3BA
100
AcDbEntity
  8
0
100
AcDbLine
 62
7
  6
CONTINUOUS
 10
152.2944172925
 20
129.0644413624
 11
152.783977002
 21
130.4087117103
  0
LINE
  5
3BB
100
AcDbEntity
  8
0
100
AcDbLine
 62
7
  6
CONTINUOUS
 10
152.9059004261
 20
129.3467341632
 11
152.844217367
 21
129.1803375338
  0
LINE
  5
3BC
100
AcDbEntity
  8
0
100
AcDbLine
 62
7
  6
CONTINUOUS
 10
152.844217367
 20
129.1803375338
 11
152.3239555325
 21
127.7766925786
  0
LINE
  5
3BD
100
AcDbEntity
  8
0
100
AcDbLine
 62
7
  6
CONTINUOUS
 10
152.3946663311
 20
127.8120479779
 11
152.9128491523
 21
129.2100843949
  0
LWPOLYLINE
  5
3BE
100
AcDbEntity
  8
RACCORDO
100
AcDbPolyline
 62
253
  6
CONTINUOUS
 90
12
 70
0
 10
152.9272806801
 20
54.9047402441
 10
152.9286638375
 20
54.8681707327
 10
152.9326601068
 20
54.8331918033
 10
152.9392398355
 20
54.800063001
 10
152.9483542017
 20
54.7690301432
 10
152.9599355764
 20
54.740323495
 10
152.9738980253
 20
54.714156061
 10
152.9901379463
 20
54.6907220049
 10
153.0085348386
 20
54.6701952083
 10
153.0289521963
 20
54.6527279811
 10
153.0512385217
 20
54.6384499308
 10
153.0572262976
 20
54.6353199681
  0
LWPOLYLINE
  5
3BF
100
AcDbEntity
  8
RACCORDO
100
AcDbPolyline
 62
253
  6
CONTINUOUS
 90
7
 70
0
 10
152.9272806801
 20
54.9047402441
 10
152.9153597039
 20
61.6795160394
 10
152.9056061753
 20
68.4553807586
 10
152.8980200961
 20
75.2323333633
 10
152.8926014672
 20
82.0103728147
 10
152.8893502895
 20
88.7894980741
 10
152.8882665635
 20
95.5697081025
  0
LINE
  5
3C0
100
AcDbEntity
  8
0
100
AcDbLine
 62
253
  6
CONTINUOUS
 10
152.8461478157
 20
130.3776261667
 11
152.844217367
 21
129.1803375338
  0
LWPOLYLINE
  5
3C1
100
AcDbEntity
  8
0
100
AcDbPolyline
 62
253
  6
CONTINUOUS
 90
7
 70
0
 10
152.9148625306
 20
129.1704904216
 10
152.906781575
 20
123.6061826864
 10
152.9001161719
 20
117.9974100971
 10
152.8949319686
 20
112.3893757567
 10
152.8912289659
 20
106.7820802526
 10
152.8890071642
 20
101.1755241722
 10
152.8882665635
 20
95.5697081025
  0
LINE
  5
3C2
100
AcDbEntity
  8
0
100
AcDbLine
 62
7
  6
CONTINUOUS
 10
150.3642907714
 20
128.7567325071
 11
150.3687902382
 21
131.6166937339
  0
LINE
  5
3C3
100
AcDbEntity
  8
0
100
AcDbLine
 62
7
  6
CONTINUOUS
 10
150.8557373403
 20
131.3731432468
 11
150.8512378736
 21
128.51318202
  0
LINE
  5
3C4
100
AcDbEntity
  8
0
100
AcDbLine
 62
7
  6
CONTINUOUS
 10
150.9219486729
 20
128.5485374197
 11
150.9264481621
 21
131.4084986577
  0
LWPOLYLINE
  5
3C5
100
AcDbEntity
  8
0
100
AcDbPolyline
 62
253
  6
CONTINUOUS
 90
4
 70
0
 10
152.9272806801
 20
136.2736900775
 10
152.9254314296
 20
135.296849511
 10
152.9236270763
 20
134.320031267
 10
152.9168586359
 20
130.4129815777
  0
LWPOLYLINE
  5
3C6
100
AcDbEntity
  8
RACCORDO
100
AcDbPolyline
 62
253
  6
CONTINUOUS
 90
19
 70
0
 10
152.9272806801
 20
136.2736900775
 10
152.9286638375
 20
136.3116427463
 10
152.9326601068
 20
136.350617945
 10
152.9392398355
 20
136.390326476
 10
152.9483542017
 20
136.4304737
 10
152.9599355764
 20
136.4707617229
 10
152.9738980253
 20
136.5108916058
 10
152.9901379463
 20
136.550565583
 10
153.0085348386
 20
136.5894892718
 10
153.0289521963
 20
136.6273738567
 10
153.0512385217
 20
136.6639382324
 10
153.0752284493
 20
136.6989110896
 10
153.1007439727
 20
136.732032928
 10
153.1275957656
 20
136.763057982
 10
153.1555845864
 20
136.7917560445
 10
153.1845027569
 20
136.8179141744
 10
153.2141357029
 20
136.8413382773
 10
153.2442635465
 20
136.8618545452
 10
153.2746627379
 20
136.8793107465
  0
LINE
  5
3C7
100
AcDbEntity
  8
0
100
AcDbLine
 62
7
  6
CONTINUOUS
 10
151.6872438408
 20
129.9639007257
 11
151.5792591581
 21
128.1490876381
  0
LINE
  5
3C8
100
AcDbEntity
  8
0
100
AcDbLine
 62
7
  6
CONTINUOUS
 10
151.6499699569
 20
128.1844430375
 11
151.7432228102
 21
129.7518251276
  0
LINE
  5
3C9
100
AcDbEntity
  8
0
100
AcDbLine
 62
7
  6
CONTINUOUS
 10
151.1133844535
 20
128.3820742576
 11
151.3285313197
 21
131.1365158523
  0
LWPOLYLINE
  5
3CA
100
AcDbEntity
  8
0
100
AcDbPolyline
 62
7
  6
CONTINUOUS
 90
9
 70
0
 10
156.7244641817
 20
127.4219580385
 10
156.7305719772
 20
127.4416385933
 10
156.7355998891
 20
127.4622416151
 10
156.7396215475
 20
127.483655183
 10
156.742707363
 20
127.5057544137
 10
156.7449312338
 20
127.5284523007
 10
156.7463618541
 20
127.5516438672
 10
156.7470667429
 20
127.5752032595
 10
156.7471146641
 20
127.5990143453
  0
LWPOLYLINE
  5
3CB
100
AcDbEntity
  8
RACCORDO
100
AcDbPolyline
 62
253
  6
CONTINUOUS
 90
10
 70
0
 10
105.6063544554
 20
119.2899694152
 10
105.5773636906
 20
119.3058766232
 10
105.5512165236
 20
119.3229715579
 10
105.5281067175
 20
119.3411275374
 10
105.5082055271
 20
119.3602100171
 10
105.4916604301
 20
119.3800775867
 10
105.4785940335
 20
119.4005830177
 10
105.4691031657
 20
119.4215743549
 10
105.4632581588
 20
119.4428960423
 10
105.4610898938
 20
119.4661531033
  0
LINE
  5
3CC
100
AcDbEntity
  8
0
100
AcDbLine
 62
7
  6
CONTINUOUS
 10
153.2658459586
 20
130.1677833228
 11
153.4795327285
 21
127.19890889
  0
LINE
  5
3CD
100
AcDbEntity
  8
0
100
AcDbLine
 62
7
  6
CONTINUOUS
 10
153.5502435272
 20
127.2342642893
 11
153.3365567797
 21
130.2031387333
  0
LINE
  5
3CE
100
AcDbEntity
  8
0
100
AcDbLine
 62
7
  6
CONTINUOUS
 10
152.9166900728
 20
129.1345509982
 11
152.9059004261
 21
129.3467341632
  0
LINE
  5
3CF
100
AcDbEntity
  8
0
100
AcDbLine
 62
7
  6
CONTINUOUS
 10
153.0030799078
 20
127.4371218364
 11
152.9166900728
 21
129.1345509982
  0
LWPOLYLINE
  5
3D0
100
AcDbEntity
  8
0
100
AcDbPolyline
 62
7
  6
CONTINUOUS
 90
22
 70
0
 10
156.7471146747
 20
127.5990143402
 10
156.7462391595
 20
127.622356326
 10
156.7440900886
 20
127.6466629003
 10
156.7406475628
 20
127.6718218941
 10
156.7358966283
 20
127.6976955776
 10
156.7298182867
 20
127.7241672523
 10
156.7223819639
 20
127.7511422248
 10
156.7135578095
 20
127.7784939034
 10
156.7033339467
 20
127.8060282655
 10
156.6917072789
 20
127.833532292
 10
156.6786306042
 20
127.8608867652
 10
156.6641259775
 20
127.8878101753
 10
156.6483609841
 20
127.9138822991
 10
156.6314721777
 20
127.9389761211
 10
156.6135610505
 20
127.963045304
 10
156.5948461282
 20
127.9858955839
 10
156.5755250222
 20
128.0073945211
 10
156.5556726452
 20
128.027550964
 10
156.5353270319
 20
128.0463829799
 10
156.5145818983
 20
128.0638332138
 10
156.4935943943
 20
128.0797887643
 10
156.4724929307
 20
128.0941651763
  0
LINE
  5
3D1
100
AcDbEntity
  8
0
100
AcDbLine
 62
7
  6
CONTINUOUS
 10
156.0908455949
 20
128.2680458663
 11
156.089590152
 21
127.4829676897
  0
LINE
  5
3D2
100
AcDbEntity
  8
0
100
AcDbLine
 62
7
  6
CONTINUOUS
 10
156.1050076947
 20
127.0065314527
 11
156.1032928058
 21
125.8873906849
  0
LINE
  5
3D3
100
AcDbEntity
  8
0
100
AcDbLine
 62
7
  6
CONTINUOUS
 10
156.1603009647
 20
127.5183230961
 11
156.1614634444
 21
128.2458545982
  0
LINE
  5
3D4
100
AcDbEntity
  8
0
100
AcDbLine
 62
7
  6
CONTINUOUS
 10
156.1740036063
 20
125.9227460852
 11
156.1756086088
 21
126.9712479244
  0
LINE
  5
3D5
100
AcDbEntity
  8
0
100
AcDbLine
 62
7
  6
CONTINUOUS
 10
156.8726204613
 20
126.8557632519
 11
156.8725939438
 21
126.8388644229
  0
LINE
  5
3D6
100
AcDbEntity
  8
0
100
AcDbLine
 62
7
  6
CONTINUOUS
 10
155.6181244466
 20
126.1298713244
 11
155.6225688441
 21
128.9562480175
  0
LWPOLYLINE
  5
3D7
100
AcDbEntity
  8
RACCORDO
100
AcDbPolyline
 62
253
  6
CONTINUOUS
 90
19
 70
0
 10
200.3287891715
 20
71.9287520397
 10
200.3606035876
 20
71.9142566574
 10
200.394793457
 20
71.901183074
 10
200.4311054161
 20
71.8896281709
 10
200.4692703756
 20
71.8796775758
 10
200.5090055147
 20
71.8714050272
 10
200.5500163766
 20
71.8648718289
 10
200.5919990509
 20
71.860126395
 10
200.6346424256
 20
71.8572038914
 10
200.6776304926
 20
71.8561259754
 10
200.7206446894
 20
71.8569006349
 10
200.7633662598
 20
71.8595221291
 10
200.8054786164
 20
71.8639710317
 10
200.846669686
 20
71.8702143739
 10
200.8866342228
 20
71.8782058898
 10
200.9250760701
 20
71.8878863581
 10
200.9617103553
 20
71.8991840421
 10
200.9962656004
 20
71.9120152202
 10
201.0284857342
 20
71.9262848073
  0
LINE
  5
3D8
100
AcDbEntity
  8
RACCORDO
100
AcDbLine
 62
253
  6
CONTINUOUS
 10
184.4976910746
 20
79.8002426363
 11
191.7883459409
 21
76.1731813898
  0
LINE
  5
3D9
100
AcDbEntity
  8
RACCORDO
100
AcDbLine
 62
253
  6
CONTINUOUS
 10
191.7883459409
 20
76.1731813898
 11
200.3287891715
 21
71.9287520382
  0
LWPOLYLINE
  5
3DA
100
AcDbEntity
  8
RACCORDO
100
AcDbPolyline
 62
253
  6
CONTINUOUS
 90
5
 70
0
 10
152.8882665635
 20
95.5697081025
 10
160.7840200736
 20
91.6240342714
 10
168.6841769698
 20
87.6805645978
 10
176.5887347911
 20
83.7393003101
 10
184.4976910746
 20
79.8002426363
  0
LWPOLYLINE
  5
3DB
100
AcDbEntity
  8
RACCORDO
100
AcDbPolyline
 62
253
  6
CONTINUOUS
 90
5
 70
0
 10
152.8882665635
 20
95.5697081025
 10
144.9969189047
 20
99.5175848593
 10
137.1099795608
 20
103.4676633091
 10
129.227450989
 20
107.4199422214
 10
121.3493356447
 20
111.3744203649
  0
LWPOLYLINE
  5
3DC
100
AcDbEntity
  8
RACCORDO
100
AcDbPolyline
 62
253
  6
CONTINUOUS
 90
3
 70
0
 10
121.3493356447
 20
111.3744203649
 10
113.4756359825
 20
115.3310965075
 10
105.6063544554
 20
119.2899694167
  0
LINE
  5
3DD
100
AcDbEntity
  8
0
100
AcDbLine
 62
7
  6
CONTINUOUS
 10
149.0046929993
 20
129.4368350186
 11
148.2697516709
 21
132.6665649381
  0
LINE
  5
3DE
100
AcDbEntity
  8
0
100
AcDbLine
 62
7
  6
CONTINUOUS
 10
148.7986490441
 20
132.4019549168
 11
149.2401352243
 21
130.2110199458
  0
LINE
  5
3DF
100
AcDbEntity
  8
0
100
AcDbLine
 62
7
  6
CONTINUOUS
 10
149.2843619159
 20
130.3777777746
 11
148.8693598681
 21
132.4373103288
  0
LINE
  5
3E0
100
AcDbEntity
  8
RACCORDO
100
AcDbLine
 62
253
  6
CONTINUOUS
 10
199.6500515171
 20
113.7674080809
 11
200.5925631429
 21
114.2422973596
  0
LINE
  5
3E1
100
AcDbEntity
  8
RACCORDO
100
AcDbLine
 62
253
  6
CONTINUOUS
 10
201.0650479266
 20
111.3292748241
 11
202.0079193024
 21
111.8043454276
  0
LINE
  5
3E2
100
AcDbEntity
  8
RACCORDO
100
AcDbLine
 62
253
  6
CONTINUOUS
 10
207.4232239228
 20
117.3540180322
 11
209.1378910624
 21
118.2045055742
  0
LINE
  5
3E3
100
AcDbEntity
  8
RACCORDO
100
AcDbLine
 62
253
  6
CONTINUOUS
 10
208.6251223679
 20
115.281049853
 11
210.3192264033
 21
116.1213379436
  0
LINE
  5
3E4
100
AcDbEntity
  8
RACCORDO
100
AcDbLine
 62
253
  6
CONTINUOUS
 10
200.8302321796
 20
114.0992749371
 11
207.0884132648
 21
117.1905447651
  0
LINE
  5
3E5
100
AcDbEntity
  8
RACCORDO
100
AcDbLine
 62
253
  6
CONTINUOUS
 10
201.998418278
 20
112.0101620504
 11
208.2900828695
 21
115.1179712773
  0
LINE
  5
3E6
100
AcDbEntity
  8
0
100
AcDbLine
 62
7
  6
CONTINUOUS
 10
152.255653097
 20
127.8108464617
 11
151.6872438408
 21
129.9639007257
  0
LINE
  5
3E7
100
AcDbEntity
  8
0
100
AcDbLine
 62
7
  6
CONTINUOUS
 10
151.8151091634
 20
130.8931830797
 11
152.2944172925
 21
129.0644413624
  0
LINE
  5
3E8
100
AcDbEntity
  8
0
100
AcDbLine
 62
7
  6
CONTINUOUS
 10
152.3409202838
 20
129.1921456608
 11
151.8858199846
 21
130.9285384903
  0
LINE
  5
3E9
100
AcDbEntity
  8
0
100
AcDbLine
 62
7
  6
CONTINUOUS
 10
154.7635921644
 20
129.4190339616
 11
155.4750830574
 21
126.2013644825
  0
LINE
  5
3EA
100
AcDbEntity
  8
0
100
AcDbLine
 62
7
  6
CONTINUOUS
 10
155.5457938572
 20
126.2367198824
 11
154.8343029861
 21
129.4543893725
  0
LWPOLYLINE
  5
3EB
100
AcDbEntity
  8
0
100
AcDbPolyline
 62
7
  6
CONTINUOUS
 90
7
 70
0
 10
156.7019308174
 20
126.216430916
 10
156.6920745906
 20
126.2616008254
 10
156.6819557731
 20
126.3067548803
 10
156.6714993872
 20
126.3519981138
 10
156.6606437172
 20
126.3973681643
 10
156.6493425293
 20
126.442835093
 10
156.6375414125
 20
126.4884027781
  0
LWPOLYLINE
  5
3EC
100
AcDbEntity
  8
0
100
AcDbPolyline
 62
7
  6
CONTINUOUS
 90
25
 70
0
 10
157.2016685825
 20
126.2810748054
 10
157.1970891453
 20
126.302741759
 10
157.1923176012
 20
126.3245320079
 10
157.1873612733
 20
126.3464394911
 10
157.1821093008
 20
126.368588257
 10
157.1765552602
 20
126.3909987828
 10
157.1707055762
 20
126.4136505919
 10
157.1644686605
 20
126.4366063028
 10
157.1578462736
 20
126.4598971997
 10
157.1508366569
 20
126.4834919994
 10
157.1433429432
 20
126.507359469
 10
157.1353699915
 20
126.5315244695
 10
157.1269129447
 20
126.5559621408
 10
157.1178603623
 20
126.5805666682
 10
157.1082356863
 20
126.6053329307
 10
157.0980154762
 20
126.6302660501
 10
157.0870179674
 20
126.6552755765
 10
157.0752866008
 20
126.6803683074
 10
157.0627779375
 20
126.7055374464
 10
157.0491798937
 20
126.7306721524
 10
157.0344175468
 20
126.7559693989
 10
157.0185658234
 20
126.7812322146
 10
157.0015374125
 20
126.8057588406
 10
156.9833032108
 20
126.8293153577
 10
156.9638923243
 20
126.8521356867
  0
LINE
  5
3ED
100
AcDbEntity
  8
0
100
AcDbLine
 62
7
  6
CONTINUOUS
 10
156.7210588634
 20
126.126038018
 11
156.7019308174
 21
126.216430916
  0
LINE
  5
3EE
100
AcDbEntity
  8
0
100
AcDbLine
 62
7
  6
CONTINUOUS
 10
156.8492952392
 20
125.5145811224
 11
156.7683261603
 21
125.8974621991
  0
LINE
  5
3EF
100
AcDbEntity
  8
0
100
AcDbLine
 62
7
  6
CONTINUOUS
 10
156.7683261603
 20
125.8974621991
 11
156.7210588634
 21
126.126038018
  0
LINE
  5
3F0
100
AcDbEntity
  8
0
100
AcDbLine
 62
7
  6
CONTINUOUS
 10
157.1311291522
 20
126.2448447399
 11
157.1398121875
 21
126.2020068526
  0
LINE
  5
3F1
100
AcDbEntity
  8
0
100
AcDbLine
 62
7
  6
CONTINUOUS
 10
157.2147409544
 20
126.2163032453
 11
157.2016685825
 21
126.2810748054
  0
LINE
  5
3F2
100
AcDbEntity
  8
0
100
AcDbLine
 62
7
  6
CONTINUOUS
 10
154.961693137
 20
126.457973184
 11
154.8363774128
 21
127.0919466641
  0
LINE
  5
3F3
100
AcDbEntity
  8
0
100
AcDbLine
 62
7
  6
CONTINUOUS
 10
157.1398121875
 20
126.2020068526
 11
157.1721688868
 21
126.0380885292
  0
LINE
  5
3F4
100
AcDbEntity
  8
0
100
AcDbLine
 62
7
  6
CONTINUOUS
 10
157.2232551328
 20
126.1729340066
 11
157.2147409544
 21
126.2163032453
  0
LINE
  5
3F5
100
AcDbEntity
  8
0
100
AcDbLine
 62
7
  6
CONTINUOUS
 10
157.280607822
 20
125.8787458346
 11
157.2232551328
 21
126.1729340066
  0
LINE
  5
3F6
100
AcDbEntity
  8
0
100
AcDbLine
 62
7
  6
CONTINUOUS
 10
157.1721688868
 20
126.0380885292
 11
157.2100945143
 21
125.8423620614
  0
LINE
  5
3F7
100
AcDbEntity
  8
0
100
AcDbLine
 62
7
  6
CONTINUOUS
 10
157.2824010937
 20
125.4636230745
 11
157.3178966524
 21
125.2804209095
  0
LINE
  5
3F8
100
AcDbEntity
  8
0
100
AcDbLine
 62
7
  6
CONTINUOUS
 10
157.3886074546
 20
125.3157763106
 11
157.3351401
 21
125.5931255458
  0
LINE
  5
3F9
100
AcDbEntity
  8
0
100
AcDbLine
 62
7
  6
CONTINUOUS
 10
157.2100945143
 20
125.8423620614
 11
157.2824010937
 21
125.4636230745
  0
LINE
  5
3FA
100
AcDbEntity
  8
0
100
AcDbLine
 62
7
  6
CONTINUOUS
 10
157.3351401
 20
125.5931255458
 11
157.280607822
 21
125.8787458346
  0
LINE
  5
3FB
100
AcDbEntity
  8
0
100
AcDbLine
 62
7
  6
CONTINUOUS
 10
154.7397139466
 20
127.5823720379
 11
154.5175674392
 21
128.7555613151
  0
LWPOLYLINE
  5
3FC
100
AcDbEntity
  8
0
100
AcDbPolyline
 62
7
  6
CONTINUOUS
 90
22
 70
0
 10
156.6375414381
 20
126.4884027771
 10
156.6312516509
 20
126.5108269621
 10
156.6242210111
 20
126.533350361
 10
156.6164767033
 20
126.5558725098
 10
156.6080571389
 20
126.5782660988
 10
156.5989785979
 20
126.6004658666
 10
156.5892260962
 20
126.6224667367
 10
156.5788089677
 20
126.6441913273
 10
156.5677515349
 20
126.6655298271
 10
156.5560496278
 20
126.6864251894
 10
156.543731459
 20
126.7067591115
 10
156.5307982622
 20
126.7264592121
 10
156.517193115
 20
126.7455233502
 10
156.5029252528
 20
126.7638358232
 10
156.4879975568
 20
126.7812867268
 10
156.4723436981
 20
126.7978683585
 10
156.4560391045
 20
126.8135017465
 10
156.4391535173
 20
126.8281334102
 10
156.4216451091
 20
126.84179124
 10
156.4035599454
 20
126.8544066495
 10
156.3850409402
 20
126.8658439299
 10
156.3662012005
 20
126.8759973289
  0
LWPOLYLINE
  5
3FD
100
AcDbEntity
  8
0
100
AcDbPolyline
 62
7
  6
CONTINUOUS
 90
25
 70
0
 10
156.8954192358
 20
128.3606858746
 10
156.8470703086
 20
128.4041052187
 10
156.7981518742
 20
128.4454366902
 10
156.748663933
 20
128.4846802894
 10
156.6984486375
 20
128.521685013
 10
156.647663839
 20
128.5566018663
 10
156.5967830833
 20
128.58988386
 10
156.545914817
 20
128.6215675826
 10
156.4949505913
 20
128.6516164446
 10
156.444038603
 20
128.6803736878
 10
156.3931871815
 20
128.7079039494
 10
156.3423879951
 20
128.7341425911
 10
156.2917642469
 20
128.7592389398
 10
156.241370859
 20
128.783168449
 10
156.1911529053
 20
128.8059556633
 10
156.1410688162
 20
128.827823545
 10
156.0911291874
 20
128.8487749198
 10
156.041323421
 20
128.8688069611
 10
155.9915781585
 20
128.8881341529
 10
155.9419041615
 20
128.9067583982
 10
155.8922906681
 20
128.9246777941
 10
155.842632035
 20
128.9421011168
 10
155.7928930491
 20
128.9590979591
 10
155.7431089258
 20
128.9755987296
 10
155.6932796662
 20
128.9916034286
  0
LWPOLYLINE
  5
3FE
100
AcDbEntity
  8
0
100
AcDbPolyline
 62
7
  6
CONTINUOUS
 90
54
 70
0
 10
156.8247084125
 20
128.3253304629
 10
156.8502600614
 20
128.2999403746
 10
156.8761831016
 20
128.2715547129
 10
156.9023817558
 20
128.2402692901
 10
156.9286923381
 20
128.2063431478
 10
156.9550695536
 20
128.1698814513
 10
156.9815242596
 20
128.1306066487
 10
157.007943868
 20
128.0882757356
 10
157.0339566533
 20
128.043020928
 10
157.0591432783
 20
127.9951031864
 10
157.0833735016
 20
127.9442914781
 10
157.1062052962
 20
127.8910305752
 10
157.1268977959
 20
127.836737931
 10
157.1453340542
 20
127.7815321554
 10
157.1612969408
 20
127.7258337547
 10
157.1743567046
 20
127.671523167
 10
157.1846644581
 20
127.6190648938
 10
157.1925070865
 20
127.5682901885
 10
157.1980648864
 20
127.5200000058
 10
157.2016417859
 20
127.4745453626
 10
157.2035669375
 20
127.4315796917
 10
157.2040341588
 20
127.3908402462
 10
157.2031700876
 20
127.3523575109
 10
157.201101872
 20
127.31613272
 10
157.1979269583
 20
127.281879104
 10
157.1937358066
 20
127.2495224542
 10
157.1886347752
 20
127.2190928373
 10
157.1827087532
 20
127.1904683879
 10
157.1760546583
 20
127.1636155246
 10
157.1687623361
 20
127.1384685652
 10
157.1608879828
 20
127.1148704821
 10
157.1525349312
 20
127.0928198117
 10
157.1437931389
 20
127.0722762167
 10
157.1346787214
 20
127.0530607319
 10
157.1252538087
 20
127.0351362009
 10
157.1155934619
 20
127.018492273
 10
157.1057027026
 20
127.0030077795
 10
157.0956279351
 20
126.988648562
 10
157.0854237327
 20
126.9753922664
 10
157.0750886312
 20
126.9631495751
 10
157.0646448387
 20
126.951874096
 10
157.0541463598
 20
126.9415491232
 10
157.0436346484
 20
126.9320954542
 10
157.0331463388
 20
126.9234152946
 10
157.0227214729
 20
126.9154256858
 10
157.0124058121
 20
126.908057865
 10
157.0022406479
 20
126.9012483677
 10
156.992248093
 20
126.8949304173
 10
156.9824415283
 20
126.8890422874
 10
156.972860553
 20
126.8835465613
 10
156.9635143453
 20
126.8783953602
 10
156.9543643356
 20
126.8735236278
 10
156.9454675534
 20
126.8689244222
 10
156.9403274911
 20
126.8663243185
  0
LINE
  5
3FF
100
AcDbEntity
  8
0
100
AcDbLine
 62
7
  6
CONTINUOUS
 10
156.8725939438
 20
126.8388644229
 11
156.8930338742
 21
126.8173801103
  0
LINE
  5
400
100
AcDbEntity
  8
0
100
AcDbLine
 62
7
  6
CONTINUOUS
 10
156.9638923243
 20
126.8521356867
 11
156.9473785817
 21
126.8698498638
  0
LWPOLYLINE
  5
401
100
AcDbEntity
  8
0
100
AcDbPolyline
 62
7
  6
CONTINUOUS
 90
25
 70
0
 10
156.8930338742
 20
126.8173801103
 10
156.912275087
 20
126.7947091012
 10
156.9303761508
 20
126.7710237621
 10
156.9474577986
 20
126.7463884861
 10
156.9635036517
 20
126.7210460242
 10
156.9783908652
 20
126.6954567897
 10
156.9921175607
 20
126.6699325805
 10
157.0048395407
 20
126.6444767498
 10
157.0166825958
 20
126.6190888974
 10
157.0276844851
 20
126.5939171454
 10
157.0379151274
 20
126.5690198784
 10
157.0475203536
 20
126.5442272781
 10
157.0565533987
 20
126.5195524834
 10
157.06502273
 20
126.4951185079
 10
157.0729858754
 20
126.4709012708
 10
157.0804659968
 20
126.4469613374
 10
157.087488648
 20
126.4233447318
 10
157.0941047265
 20
126.3999990078
 10
157.1003273379
 20
126.3769876526
 10
157.1061789745
 20
126.3543355306
 10
157.1117129712
 20
126.3319328153
 10
157.1169439373
 20
126.3098050463
 10
157.1218845618
 20
126.287994935
 10
157.1265959357
 20
126.2663703267
 10
157.1311291522
 20
126.2448447399
  0
LINE
  5
402
100
AcDbEntity
  8
0
100
AcDbLine
 62
7
  6
CONTINUOUS
 10
156.8827471714
 20
126.853165923
 11
156.8726204613
 21
126.8557632519
  0
LWPOLYLINE
  5
403
100
AcDbEntity
  8
0
100
AcDbPolyline
 62
7
  6
CONTINUOUS
 90
15
 70
0
 10
156.3679864048
 20
127.3438361688
 10
156.3907441897
 20
127.3335373046
 10
156.4128703074
 20
127.324424058
 10
156.4342391934
 20
127.3165242533
 10
156.4545247472
 20
127.3099101599
 10
156.4738756518
 20
127.3044748024
 10
156.4928991275
 20
127.3000423934
 10
156.5116194479
 20
127.2966539001
 10
156.5298822155
 20
127.294384741
 10
156.5479997371
 20
127.2932720785
 10
156.5660209355
 20
127.2934464008
 10
156.5837154934
 20
127.2950534961
 10
156.6009525594
 20
127.298224359
 10
156.6176875906
 20
127.3031125301
 10
156.6346851164
 20
127.3103095103
  0
LINE
  5
404
100
AcDbEntity
  8
0
100
AcDbLine
 62
7
  6
CONTINUOUS
 10
157.3178966524
 20
125.2804209095
 11
156.8492952392
 21
125.5145811224
  0
LINE
  5
405
100
AcDbEntity
  8
0
100
AcDbLine
 62
7
  6
CONTINUOUS
 10
154.0377851793
 20
126.9198188594
 11
153.5560121044
 21
127.1606728582
  0
LINE
  5
406
100
AcDbEntity
  8
0
100
AcDbLine
 62
7
  6
CONTINUOUS
 10
155.4750830574
 20
126.2013644825
 11
154.961693137
 21
126.457973184
  0
LINE
  5
407
100
AcDbEntity
  8
0
100
AcDbLine
 62
7
  6
CONTINUOUS
 10
156.1032928058
 20
125.8873906849
 11
155.6181244466
 21
126.1298713244
  0
LINE
  5
408
100
AcDbEntity
  8
0
100
AcDbLine
 62
7
  6
CONTINUOUS
 10
154.8363774128
 20
127.0919466641
 11
154.1730531012
 21
127.42353087
  0
LINE
  5
409
100
AcDbEntity
  8
0
100
AcDbLine
 62
7
  6
CONTINUOUS
 10
154.2733681465
 20
127.8154900981
 11
154.7397139466
 21
127.5823720379
  0
LINE
  5
40A
100
AcDbEntity
  8
0
100
AcDbLine
 62
7
  6
CONTINUOUS
 10
154.7249245321
 20
127.6604674977
 11
154.3440789532
 21
127.8508455014
  0
LINE
  5
40B
100
AcDbEntity
  8
0
100
AcDbLine
 62
7
  6
CONTINUOUS
 10
156.3662012005
 20
126.8759973289
 11
156.1050076947
 21
127.0065314527
  0
LINE
  5
40C
100
AcDbEntity
  8
0
100
AcDbLine
 62
7
  6
CONTINUOUS
 10
156.089590152
 20
127.4829676897
 11
156.3679864048
 21
127.3438361688
  0
LINE
  5
40D
100
AcDbEntity
  8
0
100
AcDbLine
 62
7
  6
CONTINUOUS
 10
156.4386972178
 20
127.3791915753
 11
156.1603009647
 21
127.5183230961
  0
LINE
  5
40E
100
AcDbEntity
  8
0
100
AcDbLine
 62
7
  6
CONTINUOUS
 10
154.292398668
 20
129.6545746835
 11
154.7635921644
 21
129.4190339616
  0
LINE
  5
40F
100
AcDbEntity
  8
0
100
AcDbLine
 62
7
  6
CONTINUOUS
 10
154.8343029861
 20
129.4543893725
 11
154.3631094894
 21
129.6899300943
  0
LINE
  5
410
100
AcDbEntity
  8
0
100
AcDbLine
 62
7
  6
CONTINUOUS
 10
150.8512378736
 20
128.51318202
 11
150.3642907714
 21
128.7567325071
  0
LINE
  5
411
100
AcDbEntity
  8
0
100
AcDbLine
 62
7
  6
CONTINUOUS
 10
151.5792591581
 20
128.1490876381
 11
151.1133844535
 21
128.3820742576
  0
LINE
  5
412
100
AcDbEntity
  8
0
100
AcDbLine
 62
7
  6
CONTINUOUS
 10
152.3239555325
 20
127.7766925786
 11
152.255653097
 21
127.8108464617
  0
LINE
  5
413
100
AcDbEntity
  8
0
100
AcDbLine
 62
7
  6
CONTINUOUS
 10
153.4795327285
 20
127.19890889
 11
153.0030799078
 21
127.4371218364
  0
LINE
  5
414
100
AcDbEntity
  8
0
100
AcDbLine
 62
7
  6
CONTINUOUS
 10
150.3687902382
 20
131.6166937339
 11
150.8557373403
 21
131.3731432468
  0
LINE
  5
415
100
AcDbEntity
  8
0
100
AcDbLine
 62
7
  6
CONTINUOUS
 10
151.3285313197
 20
131.1365158523
 11
151.8151091634
 21
130.8931830797
  0
LINE
  5
416
100
AcDbEntity
  8
0
100
AcDbLine
 62
7
  6
CONTINUOUS
 10
152.783977002
 20
130.4087117103
 11
153.2658459586
 21
130.1677833228
  0
LINE
  5
417
100
AcDbEntity
  8
0
100
AcDbLine
 62
7
  6
CONTINUOUS
 10
150.9264481621
 20
131.4084986577
 11
150.4395010603
 21
131.652049145
  0
LINE
  5
418
100
AcDbEntity
  8
0
100
AcDbLine
 62
7
  6
CONTINUOUS
 10
151.8858199846
 20
130.9285384903
 11
151.3992421412
 21
131.171871263
  0
LINE
  5
419
100
AcDbEntity
  8
0
100
AcDbLine
 62
7
  6
CONTINUOUS
 10
153.3365567797
 20
130.2031387333
 11
152.854687823
 21
130.4440671208
  0
LINE
  5
41A
100
AcDbEntity
  8
0
100
AcDbLine
 62
7
  6
CONTINUOUS
 10
149.4337735327
 20
129.2221848037
 11
149.0046929993
 21
129.4368350186
  0
LINE
  5
41B
100
AcDbEntity
  8
0
100
AcDbLine
 62
7
  6
CONTINUOUS
 10
148.2697516709
 20
132.6665649381
 11
148.7986490441
 21
132.4019549168
  0
LINE
  5
41C
100
AcDbEntity
  8
0
100
AcDbLine
 62
7
  6
CONTINUOUS
 10
149.7014951488
 20
131.9503022004
 11
150.1880869886
 21
131.7069064223
  0
LINE
  5
41D
100
AcDbEntity
  8
0
100
AcDbLine
 62
7
  6
CONTINUOUS
 10
148.8693598681
 20
132.4373103288
 11
148.3404624957
 21
132.7019203505
  0
LINE
  5
41E
100
AcDbEntity
  8
0
100
AcDbLine
 62
7
  6
CONTINUOUS
 10
150.2587978109
 20
131.7422618334
 11
149.7722059716
 21
131.9856576118
  0
LWPOLYLINE
  5
41F
100
AcDbEntity
  8
RACCORDO
100
AcDbPolyline
 62
253
  6
CONTINUOUS
 90
10
 70
0
 10
105.6429176476
 20
158.6939272812
 10
105.6139268801
 20
158.7098305551
 10
105.5877797033
 20
158.7269142847
 10
105.5646698806
 20
158.7450518712
 10
105.5447686669
 20
158.7641089063
 10
105.5282235399
 20
158.7839441682
 10
105.5151571071
 20
158.8044106678
 10
105.5056661969
 20
158.8253567386
 10
105.4998211418
 20
158.8466271599
 10
105.4976530324
 20
158.8700533462
  0
LWPOLYLINE
  5
420
100
AcDbEntity
  8
0
100
AcDbPolyline
 62
7
  6
CONTINUOUS
 90
9
 70
0
 10
156.4724929307
 20
128.0941651762
 10
156.4325200753
 20
128.1190254851
 10
156.3918013249
 20
128.1427091835
 10
156.3503917973
 20
128.1651191591
 10
156.3083551914
 20
128.1861531951
 10
156.2657540616
 20
128.2057087883
 10
156.2226500621
 20
128.2236816761
 10
156.1791167346
 20
128.2399626139
 10
156.1351939177
 20
128.2546223485
  0
LWPOLYLINE
  5
421
100
AcDbEntity
  8
0
100
AcDbPolyline
 62
7
  6
CONTINUOUS
 90
5
 70
0
 10
156.6671502403
 20
127.3326046512
 10
156.6501935438
 20
127.3298535793
 10
156.6320704107
 20
127.3286708374
 10
156.6136225663
 20
127.3288170325
 10
156.5949118037
 20
127.33028231
  0
LWPOLYLINE
  5
422
100
AcDbEntity
  8
0
100
AcDbPolyline
 62
7
  6
CONTINUOUS
 90
3
 70
0
 10
156.9018241377
 20
126.8528040571
 10
156.8924669726
 20
126.8522648914
 10
156.8827471714
 20
126.853165923
  0
LWPOLYLINE
  5
423
100
AcDbEntity
  8
0
100
AcDbPolyline
 62
7
  6
CONTINUOUS
 90
9
 70
0
 10
156.5949118037
 20
127.33028231
 10
156.5758763296
 20
127.3330765243
 10
156.5566604042
 20
127.336906765
 10
156.5372812505
 20
127.3417445569
 10
156.5177216456
 20
127.3476183752
 10
156.4980741808
 20
127.3543207347
 10
156.4783697196
 20
127.3617824736
 10
156.4585773986
 20
127.3700727538
 10
156.4386972178
 20
127.3791915753
  0
LINE
  5
424
100
AcDbEntity
  8
0
100
AcDbLine
 62
7
  6
CONTINUOUS
 10
156.1351939177
 20
128.2546223485
 11
156.0908455949
 21
128.2680458663
  0
LWPOLYLINE
  5
425
100
AcDbEntity
  8
0
100
AcDbPolyline
 62
7
  6
CONTINUOUS
 90
19
 70
0
 10
155.6225688441
 20
128.9562480175
 10
155.7052692452
 20
128.9293169269
 10
155.7863154508
 20
128.9017554145
 10
155.8656646396
 20
128.8734121497
 10
155.9432834081
 20
128.8441647691
 10
156.0191319565
 20
128.813923311
 10
156.0931638008
 20
128.7826295239
 10
156.1653528045
 20
128.7502445965
 10
156.2356738241
 20
128.7167545649
 10
156.3040868395
 20
128.68217655
 10
156.3705557787
 20
128.6465497495
 10
156.4350838489
 20
128.6099128935
 10
156.497692168
 20
128.5723062679
 10
156.5583602607
 20
128.5336703867
 10
156.616844886
 20
128.4939461363
 10
156.6728303608
 20
128.4532017726
 10
156.7261530892
 20
128.4114937519
 10
156.7767945752
 20
128.3688383188
 10
156.8247084125
 20
128.3253304629
  0
LWPOLYLINE
  5
426
100
AcDbEntity
  8
RACCORDO
100
AcDbPolyline
 62
253
  6
CONTINUOUS
 90
19
 70
0
 10
200.3653522788
 20
111.3327099658
 10
200.397166703
 20
111.3182109592
 10
200.4313565116
 20
111.3051264729
 10
200.467668345
 20
111.293553468
 10
200.5058331188
 20
111.2835777049
 10
200.5455680172
 20
111.2752731078
 10
200.5865785895
 20
111.2687012169
 10
200.6285609316
 20
111.2639107326
 10
200.6712039382
 20
111.260937154
 10
200.7141916084
 20
111.2598025166
 10
200.7572053871
 20
111.2605152285
 10
200.7999265257
 20
111.2630700082
 10
200.8420384441
 20
111.2674479237
 10
200.883229077
 20
111.2736165331
 10
200.9231931859
 20
111.2815301246
 10
200.9616346216
 20
111.2911300556
 10
200.9982685182
 20
111.3023451867
 10
201.0328234045
 20
111.3150924097
 10
201.0650432157
 20
111.3292772627
  0
LWPOLYLINE
  5
427
100
AcDbEntity
  8
RACCORDO
100
AcDbPolyline
 62
253
  6
CONTINUOUS
 90
31
 70
0
 10
106.7023401228
 20
159.4619539732
 10
106.6467324058
 20
159.4881123243
 10
106.5915813289
 20
159.5105263006
 10
106.5368868894
 20
159.5291959005
 10
106.4825067898
 20
159.5441499797
 10
106.4285833283
 20
159.5553596829
 10
106.3755433934
 20
159.5627384415
 10
106.3233873219
 20
159.5662570065
 10
106.2721147771
 20
159.5659446269
 10
106.2221516286
 20
159.5618024766
 10
106.173511496
 20
159.5537986128
 10
106.1261807597
 20
159.5419649783
 10
106.080544422
 20
159.5263985716
 10
106.036615529
 20
159.5070688258
 10
105.9943810346
 20
159.4840063077
 10
105.9541867961
 20
159.4573997126
 10
105.916049634
 20
159.42721988
 10
105.8799527277
 20
159.3934959704
 10
105.846191464
 20
159.3565041561
 10
105.8147852886
 20
159.3162184354
 10
105.7857147557
 20
159.2726648099
 10
105.7592169067
 20
159.2261974524
 10
105.7353120506
 20
159.1767893872
 10
105.7139798784
 20
159.1244675901
 10
105.6953964968
 20
159.0696671568
 10
105.6795856182
 20
159.012375936
 10
105.66652353
 20
158.9526060789
 10
105.6563151933
 20
158.8908291307
 10
105.6489955931
 20
158.8272022719
 10
105.6445297436
 20
158.7615683216
 10
105.6429176476
 20
158.6939272812
  0
LINE
  5
428
100
AcDbEntity
  8
RACCORDO
100
AcDbLine
 62
253
  6
CONTINUOUS
 10
199.3038086698
 20
113.1612196996
 11
194.1433900687
 21
115.7255217071
  0
LWPOLYLINE
  5
429
100
AcDbEntity
  8
RACCORDO
100
AcDbPolyline
 62
253
  6
CONTINUOUS
 90
10
 70
0
 10
199.6500515171
 20
113.7674080809
 10
194.4897596798
 20
116.3316471016
 10
189.3313341397
 20
118.8968243721
 10
184.1747755775
 20
121.4629395518
 10
179.0200849014
 20
124.029992186
 10
173.867262565
 20
126.5979820486
 10
168.7163085677
 20
129.166909142
 10
163.5672233633
 20
131.7367732403
 10
158.4200078597
 20
134.3075738886
 10
153.2746627379
 20
136.8793107465
  0
LWPOLYLINE
  5
42A
100
AcDbEntity
  8
RACCORDO
100
AcDbPolyline
 62
7
  6
CONTINUOUS
 90
10
 70
0
 10
200.5925631429
 20
114.2422973596
 10
195.4304631935
 20
116.8074282539
 10
190.2702306879
 20
119.3734982575
 10
185.1118663075
 20
121.9405070295
 10
179.9553707772
 20
124.5084542065
 10
174.8007447354
 20
127.0773394704
 10
169.6479887339
 20
129.6471625484
 10
164.4971034111
 20
132.2179231222
 10
159.3480894919
 20
134.7896208286
 10
154.2009476578
 20
137.3622553266
  0
LWPOLYLINE
  5
42B
100
AcDbEntity
  8
RACCORDO
100
AcDbPolyline
 62
253
  6
CONTINUOUS
 90
9
 70
0
 10
194.1433900687
 20
115.7255217071
 10
188.9848378091
 20
118.2907619862
 10
183.8281525731
 20
120.8569401975
 10
178.6733352712
 20
123.4240558873
 10
173.5203863564
 20
125.9921088295
 10
168.3693058263
 20
128.5610990252
 10
163.2200941351
 20
131.1310262486
 10
158.0727521925
 20
133.701890046
 10
152.9272806801
 20
136.2736900775
  0
LWPOLYLINE
  5
42C
100
AcDbEntity
  8
RACCORDO
100
AcDbPolyline
 62
253
  6
CONTINUOUS
 90
10
 70
0
 10
152.9272806801
 20
136.2736900775
 10
147.7836806189
 20
138.8464258328
 10
142.641953031
 20
141.4200968007
 10
137.5020985961
 20
143.9947026403
 10
132.3641182219
 20
146.5702428967
 10
127.2280123601
 20
149.1467173429
 10
122.0937810076
 20
151.7241259802
 10
116.9614246172
 20
154.3024685822
 10
111.8309440958
 20
156.8817446935
 10
106.7023401228
 20
159.4619539732
  0
LWPOLYLINE
  5
42D
100
AcDbEntity
  8
RACCORDO
100
AcDbPolyline
 62
253
  6
CONTINUOUS
 90
4
 70
0
 10
153.2746627379
 20
136.8793107465
 10
148.1311890238
 20
139.4519833066
 10
142.989587734
 20
142.025591055
 10
137.8498595493
 20
144.6001336512
  0
LWPOLYLINE
  5
42E
100
AcDbEntity
  8
RACCORDO
100
AcDbPolyline
 62
7
  6
CONTINUOUS
 90
4
 70
0
 10
154.2009476578
 20
137.3622553266
 10
149.0556786615
 20
139.9358262438
 10
143.912283248
 20
142.5103332038
 10
138.7707620991
 20
145.0857758657
  0
LWPOLYLINE
  5
42F
100
AcDbEntity
  8
RACCORDO
100
AcDbPolyline
 62
253
  6
CONTINUOUS
 90
7
 70
0
 10
137.8498595493
 20
144.6001336512
 10
132.7120053793
 20
147.1756106414
 10
127.5760256761
 20
149.7520217987
 10
122.4419204345
 20
152.3293671233
 10
117.3096901066
 20
154.9076463886
 10
112.1793356019
 20
157.4868591406
 10
107.0508576014
 20
160.0670050387
  0
LWPOLYLINE
  5
430
100
AcDbEntity
  8
RACCORDO
100
AcDbPolyline
 62
7
  6
CONTINUOUS
 90
7
 70
0
 10
138.7707620991
 20
145.0857758657
 10
133.6311159416
 20
147.6621538673
 10
128.4933454117
 20
150.2394668893
 10
123.3574510551
 20
152.8177146557
 10
118.2234335081
 20
155.3968968473
 10
113.0912934975
 20
157.9770131019
 10
107.961031705
 20
160.5580630786
  0
LWPOLYLINE
  5
431
100
AcDbEntity
  8
RACCORDO
100
AcDbPolyline
 62
253
  6
CONTINUOUS
 90
12
 70
0
 10
199.3038086701
 20
31.7922700648
 10
199.305187607
 20
31.7557033455
 10
199.3091710477
 20
31.7207314878
 10
199.3157294353
 20
31.687613981
 10
199.3248141071
 20
31.656596555
 10
199.3363576552
 20
31.6279093573
 10
199.3502744272
 20
31.6017652453
 10
199.3664611615
 20
31.5783582068
 10
199.3847977535
 20
31.5578619206
 10
199.4051481466
 20
31.5404284679
 10
199.4273613422
 20
31.5261872041
 10
199.4337669124
 20
31.5228491093
  0
LWPOLYLINE
  5
432
100
AcDbEntity
  8
RACCORDO
100
AcDbPolyline
 62
253
  6
CONTINUOUS
 90
19
 70
0
 10
199.3038086698
 20
113.1612196996
 10
199.3051872912
 20
113.1991746266
 10
199.3091704549
 20
113.2381563541
 10
199.3157286057
 20
113.2778756359
 10
199.3248130819
 20
113.3180377532
 10
199.3363564761
 20
113.3583447012
 10
199.350273136
 20
113.3984974007
 10
199.3664597993
 20
113.4381979169
 10
199.3847963602
 20
113.47715167
 10
199.4051467606
 20
113.5150696216
 10
199.4273599996
 20
113.5516704186
 10
199.4512712541
 20
113.5866824817
 10
199.4767031014
 20
113.6198460197
 10
199.5034668361
 20
113.6509149577
 10
199.5313638701
 20
113.6796587628
 10
199.5601872062
 20
113.7058641546
 10
199.5897229738
 20
113.729336688
 10
199.6197520164
 20
113.7499021958
 10
199.6500515171
 20
113.7674080809
  0
LWPOLYLINE
  5
433
100
AcDbEntity
  8
RACCORDO
100
AcDbPolyline
 62
253
  6
CONTINUOUS
 90
15
 70
0
 10
107.0508576014
 20
160.0670050387
 10
106.9766864172
 20
160.1015760425
 10
106.9027378149
 20
160.1312989304
 10
106.8292171617
 20
160.1560963298
 10
106.7563369192
 20
160.1759040686
 10
106.6842900367
 20
160.1906730117
 10
106.6132502615
 20
160.2003648
 10
106.5434051873
 20
160.2049527184
 10
106.4749581335
 20
160.204422687
 10
106.4081015303
 20
160.1987739652
 10
106.3430227119
 20
160.1880237651
 10
106.2798980237
 20
160.172202968
 10
106.2188954648
 20
160.1513533001
 10
106.1601814613
 20
160.1255314444
 10
106.135062076
 20
160.1125842627
  0
LINE
  5
434
100
AcDbEntity
  8
RACCORDO
100
AcDbLine
 62
7
  6
CONTINUOUS
 10
114.8101544733
 20
163.3296741608
 11
207.0884132648
 21
117.1905447651
  0
LINE
  5
435
100
AcDbEntity
  8
RACCORDO
100
AcDbLine
 62
7
  6
CONTINUOUS
 10
207.4232239228
 20
117.3540180322
 11
115.1824505966
 21
163.4744046953
  0
LWPOLYLINE
  5
436
100
AcDbEntity
  8
RACCORDO
100
AcDbPolyline
 62
7
  6
CONTINUOUS
 90
31
 70
0
 10
200.5925631429
 20
114.2422973596
 10
200.6666676836
 20
114.2031497532
 10
200.740351133
 20
114.1594843013
 10
200.8136134894
 20
114.1113010031
 10
200.8867510335
 20
114.0583752356
 10
200.959467494
 20
114.0009316264
 10
201.0308740317
 20
113.9396440449
 10
201.1008681807
 20
113.8745166566
 10
201.1695524028
 20
113.8055452937
 10
201.2363452311
 20
113.7333913168
 10
201.3011084545
 20
113.6582209473
 10
201.3639802778
 20
113.5798679603
 10
201.4247938491
 20
113.4984950426
 10
201.4837349714
 20
113.4138194584
 10
201.5406178533
 20
113.3261239489
 10
201.5947182385
 20
113.2364194097
 10
201.6459703353
 20
113.1446609044
 10
201.6944399356
 20
113.0508933692
 10
201.739600135
 20
112.9562624975
 10
201.7812958914
 20
112.86107544
 10
201.8196822357
 20
112.7650250401
 10
201.854697362
 20
112.6683355236
 10
201.8864235374
 20
112.5707901178
 10
201.9147785017
 20
112.4726055985
 10
201.9394536493
 20
112.3746565103
 10
201.9604087684
 20
112.2768384278
 10
201.9776840751
 20
112.1792557782
 10
201.9910915855
 20
112.0830963747
 10
202.0005686297
 20
111.9887561508
 10
202.0061778681
 20
111.8958391682
 10
202.0079193024
 20
111.8043454276
  0
LWPOLYLINE
  5
437
100
AcDbEntity
  8
RACCORDO
100
AcDbPolyline
 62
253
  6
CONTINUOUS
 90
31
 70
0
 10
201.0650479266
 20
111.3292748241
 10
201.06291373
 20
111.4208306155
 10
201.0569105511
 20
111.5140576257
 10
201.0470596354
 20
111.6087008679
 10
201.0333961174
 20
111.7044942975
 10
201.0159588958
 20
111.8011832995
 10
200.9947872886
 20
111.8985261226
 10
200.9699363649
 20
111.99626957
 10
200.9414781485
 20
112.0941347704
 10
200.9094905625
 20
112.1918401741
 10
200.8740642968
 20
112.2891131989
 10
200.8352969279
 20
112.3856936804
 10
200.7932913218
 20
112.4813202431
 10
200.7481617251
 20
112.5757324849
 10
200.7000335017
 20
112.6686707615
 10
200.6490383201
 20
112.7598795675
 10
200.5953152155
 20
112.8491086534
 10
200.5390117859
 20
112.936113895
 10
200.4802834824
 20
113.0206569876
 10
200.4192907765
 20
113.1025045034
 10
200.3561996663
 20
113.1814334532
 10
200.2911826429
 20
113.2572317576
 10
200.2244119741
 20
113.3296942188
 10
200.1560729653
 20
113.3986173573
 10
200.0863648364
 20
113.463806105
 10
200.0154857017
 20
113.5250737461
 10
199.9436191622
 20
113.5822615596
 10
199.8709469076
 20
113.6352303911
 10
199.7976606989
 20
113.6838369067
 10
199.7239625863
 20
113.7279377846
 10
199.6500515171
 20
113.7674080809
  0
LWPOLYLINE
  5
438
100
AcDbEntity
  8
RACCORDO
100
AcDbPolyline
 62
253
  6
CONTINUOUS
 90
31
 70
0
 10
200.3653522785
 20
111.3327099657
 10
200.3639843627
 20
111.4018385489
 10
200.3597417438
 20
111.4718250143
 10
200.3526244192
 20
111.5426693603
 10
200.3425977588
 20
111.6145638467
 10
200.3296963934
 20
111.6873162143
 10
200.314024209
 20
111.7603496823
 10
200.2955574296
 20
111.8336755833
 10
200.2743198312
 20
111.9072825849
 10
200.2504866204
 20
111.9805599054
 10
200.2240372523
 20
112.0535009263
 10
200.1949922716
 20
112.1261122662
 10
200.163588511
 20
112.1978029942
 10
200.1298063138
 20
112.2685667602
 10
200.0936653366
 20
112.3384099146
 10
200.0554613736
 20
112.4067605735
 10
200.0151774598
 20
112.4736064099
 10
199.9728305601
 20
112.538959751
 10
199.9287673556
 20
112.6022856896
 10
199.8829745382
 20
112.663566857
 10
199.8354654158
 20
112.7228206222
 10
199.7866265852
 20
112.7795641802
 10
199.7364442952
 20
112.8337793164
 10
199.6849322969
 20
112.8854842457
 10
199.6325184322
 20
112.9342508042
 10
199.5792024617
 20
112.9800499113
 10
199.5249846246
 20
113.0229106477
 10
199.4702934724
 20
113.0624920876
 10
199.4152718533
 20
113.098680588
 10
199.3597769182
 20
113.1315897915
 10
199.3038086698
 20
113.1612196996
  0
LWPOLYLINE
  5
439
100
AcDbEntity
  8
RACCORDO
100
AcDbPolyline
 62
253
  6
CONTINUOUS
 90
10
 70
0
 10
200.3653522785
 20
32.5613573234
 10
200.3576785635
 20
36.9337006584
 10
200.3509076348
 20
41.3064974831
 10
200.3450394928
 20
45.6797475181
 10
200.3400741377
 20
50.0534503907
 10
200.3360115698
 20
54.4276059152
 10
200.3328517889
 20
58.8022140933
 10
200.3305947954
 20
63.1772747395
 10
200.3292405895
 20
67.5527874809
 10
200.3287891715
 20
71.9287520382
  0
LWPOLYLINE
  5
43A
100
AcDbEntity
  8
RACCORDO
100
AcDbPolyline
 62
253
  6
CONTINUOUS
 90
10
 70
0
 10
201.0650479266
 20
32.5598570897
 10
201.0573744028
 20
36.9320930259
 10
201.0506036434
 20
41.3047824407
 10
201.0447356483
 20
45.6779250547
 10
201.0397704174
 20
50.0515204947
 10
201.0357079509
 20
54.4255685751
 10
201.0325482492
 20
58.8000692978
 10
201.0302913127
 20
63.1750224773
 10
201.028937141
 20
67.5504277402
 10
201.0284857342
 20
71.9262848072
  0
LWPOLYLINE
  5
43B
100
AcDbEntity
  8
RACCORDO
100
AcDbPolyline
 62
7
  6
CONTINUOUS
 90
10
 70
0
 10
202.0079193024
 20
32.9953080522
 10
202.0002375423
 20
37.3697407342
 10
201.9934595154
 20
41.7446274946
 10
201.9875852217
 20
46.1199680536
 10
201.982614661
 20
50.4957621129
 10
201.9785478335
 20
54.8720094112
 10
201.9753847399
 20
59.2487097243
 10
201.9731253806
 20
63.6258627907
 10
201.9717697551
 20
68.0034683123
 10
201.9713178636
 20
72.3815260092
  0
LWPOLYLINE
  5
43C
100
AcDbEntity
  8
RACCORDO
100
AcDbPolyline
 62
253
  6
CONTINUOUS
 90
10
 70
0
 10
200.3287891715
 20
71.9287520382
 10
200.3292405895
 20
76.3051680189
 10
200.3305947954
 20
80.6820349731
 10
200.3328517889
 20
85.0593526213
 10
200.3360115697
 20
89.4371205903
 10
200.3400741377
 20
93.8153386943
 10
200.3450394928
 20
98.1940069351
 10
200.3509076348
 20
102.5731251272
 10
200.3576785635
 20
106.9526928973
 10
200.3653522785
 20
111.3327099657
  0
LWPOLYLINE
  5
43D
100
AcDbEntity
  8
RACCORDO
100
AcDbPolyline
 62
253
  6
CONTINUOUS
 90
10
 70
0
 10
201.0284857342
 20
71.9262848072
 10
201.028937141
 20
76.3025932872
 10
201.0302913127
 20
80.6793527293
 10
201.0325482492
 20
85.0565628541
 10
201.0357079509
 20
89.4342232887
 10
201.0397704174
 20
93.8123338474
 10
201.0447356483
 20
98.1908945315
 10
201.0506036433
 20
102.5699051554
 10
201.0573744028
 20
106.9493653461
 10
201.0650479266
 20
111.3292748241
  0
LWPOLYLINE
  5
43E
100
AcDbEntity
  8
RACCORDO
100
AcDbPolyline
 62
7
  6
CONTINUOUS
 90
10
 70
0
 10
201.9713178636
 20
72.3815260092
 10
201.9717697551
 20
76.7600356023
 10
201.9731253805
 20
81.1389967535
 10
201.9753847399
 20
85.5184091829
 10
201.9785478335
 20
89.8982725926
 10
201.982614661
 20
94.278586721
 10
201.9875852217
 20
98.659351343
 10
201.9934595154
 20
103.0405661971
 10
202.0002375423
 20
107.4222309853
 10
202.0079193024
 20
111.8043454276
  0
LWPOLYLINE
  5
43F
100
AcDbEntity
  8
RACCORDO
100
AcDbPolyline
 62
7
  6
CONTINUOUS
 90
19
 70
0
 10
202.0079193024
 20
32.9953080522
 10
202.0061763737
 20
32.9058769483
 10
202.0005674989
 20
32.8188684158
 10
201.9910926761
 20
32.7342824537
 10
201.9776892728
 20
32.6517890072
 10
201.960419931
 20
32.5717181359
 10
201.9394725511
 20
32.4950600058
 10
201.9148086803
 20
32.4219584154
 10
201.8864667673
 20
32.3522695642
 10
201.8547500451
 20
32.2865522097
 10
201.8197379845
 20
32.2249355108
 10
201.7813511083
 20
32.1672903055
 10
201.7396542195
 20
32.1137878656
 10
201.6944920261
 20
32.064278496
 10
201.6460198314
 20
32.0189118974
 10
201.5947683187
 20
31.9783084302
 10
201.5406738512
 20
31.9425796461
 10
201.4838000655
 20
31.9116139931
 10
201.4680480704
 20
31.9041008707
  0
LINE
  5
440
100
AcDbEntity
  8
RACCORDO
100
AcDbLine
 62
253
  6
CONTINUOUS
 10
201.0284857342
 20
71.9262848072
 11
201.9713178636
 21
72.3815260092
  0
LWPOLYLINE
  5
441
100
AcDbEntity
  8
RACCORDO
100
AcDbPolyline
 62
253
  6
CONTINUOUS
 90
11
 70
0
 10
208.2733147542
 20
119.0361839346
 10
208.2457116919
 20
119.0486204731
 10
208.205682354
 20
119.0622163322
 10
208.1638648389
 20
119.0714759807
 10
208.1204561456
 20
119.0763557968
 10
208.075660769
 20
119.076832792
 10
208.0296897362
 20
119.0729047191
 10
207.9827596133
 20
119.0645900827
 10
207.9350914844
 20
119.0519280522
 10
207.88690991
 20
119.0349782773
 10
207.8384418697
 20
119.013820607
  0
LWPOLYLINE
  5
442
100
AcDbEntity
  8
RACCORDO
100
AcDbPolyline
 62
253
  6
CONTINUOUS
 90
11
 70
0
 10
119.0185158512
 20
163.6635833861
 10
118.9909127745
 20
163.6760199304
 10
118.9508834353
 20
163.689615788
 10
118.9090659197
 20
163.6988754348
 10
118.8656572268
 20
163.7037552491
 10
118.8208618513
 20
163.7042322427
 10
118.7748908207
 20
163.7003041683
 10
118.7279607007
 20
163.6919895309
 10
118.6802925755
 20
163.6793275001
 10
118.6321110056
 20
163.6623777256
 10
118.5836429707
 20
163.6412200565
  0
LWPOLYLINE
  5
443
100
AcDbEntity
  8
RACCORDO
100
AcDbPolyline
 62
7
  6
CONTINUOUS
 90
10
 70
0
 10
119.018545891
 20
163.6635685224
 10
118.9038492497
 20
163.7199244474
 10
118.7244822091
 20
163.8043438792
 10
118.5354092502
 20
163.8889323636
 10
118.3365264645
 20
163.973580308
 10
118.1277396681
 20
164.0581820405
 10
117.9089704297
 20
164.1426302835
 10
117.6801609746
 20
164.2268182455
 10
117.4412502139
 20
164.3106425892
 10
117.2599853561
 20
164.3716958506
  0
LINE
  5
444
100
AcDbEntity
  8
RACCORDO
100
AcDbLine
 62
253
  6
CONTINUOUS
 10
118.5229683007
 20
163.6713462397
 11
207.8384418697
 21
119.013820607
  0
LINE
  5
445
100
AcDbEntity
  8
RACCORDO
100
AcDbLine
 62
7
  6
CONTINUOUS
 10
119.0185458279
 20
163.6635683961
 11
119.0185158512
 21
163.6635833861
  0
LINE
  5
446
100
AcDbEntity
  8
RACCORDO
100
AcDbLine
 62
7
  6
CONTINUOUS
 10
119.0185158512
 20
163.6635833861
 11
208.2733147536
 21
119.0361839349
  0
LWPOLYLINE
  5
447
100
AcDbEntity
  8
RACCORDO
100
AcDbPolyline
 62
253
  6
CONTINUOUS
 90
19
 70
0
 10
207.8384418697
 20
119.013820607
 10
207.8985530807
 20
118.9835560155
 10
207.9603448174
 20
118.9516508129
 10
208.0238170797
 20
118.918104999
 10
208.0890448216
 20
118.8829439726
 10
208.1559530892
 20
118.8461423349
 10
208.2243170203
 20
118.8076238905
 10
208.2941350197
 20
118.7673879695
 10
208.3654086826
 20
118.7254352417
 10
208.4379179318
 20
118.6816915205
 10
208.5116603092
 20
118.6361565368
 10
208.586638273
 20
118.5888305595
 10
208.6626391201
 20
118.5396402095
 10
208.7396589233
 20
118.4885867284
 10
208.8177016099
 20
118.4356688745
 10
208.8965662592
 20
118.3808095426
 10
208.9761858976
 20
118.3239830311
 10
209.0566274986
 20
118.2652150416
 10
209.1378910624
 20
118.2045055742
  0
LWPOLYLINE
  5
448
100
AcDbEntity
  8
RACCORDO
100
AcDbPolyline
 62
253
  6
CONTINUOUS
 90
31
 70
0
 10
209.1378910624
 20
118.2045055742
 10
209.1963034408
 20
118.1687624561
 10
209.254838447
 20
118.1292336997
 10
209.3133214595
 20
118.086022999
 10
209.3715796676
 20
118.0392501962
 10
209.4294412216
 20
117.9890344703
 10
209.4867351121
 20
117.9354914784
 10
209.5432979999
 20
117.8787594953
 10
209.5989616618
 20
117.8189920052
 10
209.6535515612
 20
117.7563387097
 10
209.7069103132
 20
117.690967562
 10
209.7588853699
 20
117.6230537447
 10
209.8093154431
 20
117.5527689956
 10
209.8580575263
 20
117.48029957
 10
209.9049731856
 20
117.40584479
 10
209.9499162839
 20
117.3296057077
 10
209.9927600436
 20
117.2517882763
 10
210.0333868512
 20
117.172606912
 10
210.071675324
 20
117.0922832828
 10
210.1075170222
 20
117.0110423183
 10
210.1408204751
 20
116.9291033956
 10
210.1715009527
 20
116.8466843278
 10
210.1994768551
 20
116.7640065565
 10
210.2246748883
 20
116.6813043648
 10
210.2470349779
 20
116.5988163363
 10
210.2665013883
 20
116.5167660688
 10
210.2830276368
 20
116.4353868009
 10
210.2965838312
 20
116.3549298751
 10
210.3071466665
 20
116.2756271369
 10
210.3146968156
 20
116.1976908365
 10
210.3192264033
 20
116.1213379436
  0
LINE
  5
449
100
AcDbEntity
  8
RACCORDO
100
AcDbLine
 62
7
  6
CONTINUOUS
 10
208.2900828695
 20
115.1179712773
 11
208.2900828695
 21
36.7416632329
  0
LINE
  5
44A
100
AcDbEntity
  8
RACCORDO
100
AcDbLine
 62
7
  6
CONTINUOUS
 10
208.6251223679
 20
36.9506519399
 11
208.6251223679
 21
115.281049853
  0
LWPOLYLINE
  5
44B
100
AcDbEntity
  8
RACCORDO
100
AcDbPolyline
 62
253
  6
CONTINUOUS
 90
11
 70
0
 10
210.6461093012
 20
115.7077555121
 10
210.642746688
 20
115.6667865406
 10
210.6336149535
 20
115.6289640017
 10
210.6187501893
 20
115.5915988938
 10
210.5982386939
 20
115.5549081424
 10
210.5721995482
 20
115.5191047583
 10
210.540783924
 20
115.4843966003
 10
210.5041742069
 20
115.4509851689
 10
210.4625829371
 20
115.4190644364
 10
210.4162515753
 20
115.3888197208
 10
210.3654491015
 20
115.3604266097
  0
LWPOLYLINE
  5
44C
100
AcDbEntity
  8
RACCORDO
100
AcDbPolyline
 62
7
  6
CONTINUOUS
 90
14
 70
0
 10
117.259764872
 20
164.3717640988
 10
117.2310976459
 20
164.3809893675
 10
117.1340271132
 20
164.4083583838
 10
117.0372598574
 20
164.4296639758
 10
116.9409417368
 20
164.4448986271
 10
116.8452729439
 20
164.4540498946
 10
116.7506650882
 20
164.4571136375
 10
116.6574984412
 20
164.4541619434
 10
116.5660580048
 20
164.4452964287
 10
116.4767957766
 20
164.4306786415
 10
116.3901605722
 20
164.4105571988
 10
116.3064152342
 20
164.3851890654
 10
116.2257969047
 20
164.3548439869
 10
116.1782162722
 20
164.3339998508
  0
LINE
  5
44D
100
AcDbEntity
  8
RACCORDO
100
AcDbLine
 62
7
  6
CONTINUOUS
 10
117.2599853561
 20
164.3716958506
 11
117.2597662442
 21
164.3717682492
  0
LWPOLYLINE
  5
44E
100
AcDbEntity
  8
RACCORDO
100
AcDbPolyline
 62
253
  6
CONTINUOUS
 90
18
 70
0
 10
116.9580403977
 20
164.2944309065
 10
117.0801794781
 20
164.2534146064
 10
117.1983887069
 20
164.2128374785
 10
117.3126680842
 20
164.1726995227
 10
117.4229639378
 20
164.1329689013
 10
117.5293299399
 20
164.0936774521
 10
117.6319271065
 20
164.0549206881
 10
117.730758077
 20
164.0166966031
 10
117.8258202119
 20
163.9790072035
 10
117.9172666089
 20
163.9419540208
 10
118.0050967384
 20
163.9055358143
 10
118.08931113
 20
163.8697538248
 10
118.1700644698
 20
163.8347133068
 10
118.2473553133
 20
163.8004134768
 10
118.321185105
 20
163.7668551182
 10
118.3917128646
 20
163.7341458363
 10
118.4589915987
 20
163.7023214996
 10
118.5229683007
 20
163.6713462397
  0
LWPOLYLINE
  5
44F
100
AcDbEntity
  8
RACCORDO
100
AcDbPolyline
 62
253
  6
CONTINUOUS
 90
13
 70
0
 10
209.728744421
 20
118.1300332205
 10
209.7134138957
 20
118.1411771525
 10
209.6706633837
 20
118.1681499868
 10
209.6252816414
 20
118.1910888929
 10
209.5774877242
 20
118.209883146
 10
209.5275123307
 20
118.2244420273
 10
209.4755966896
 20
118.2346952616
 10
209.421991395
 20
118.2405933573
 10
209.3669551968
 20
118.2421078444
 10
209.3107537518
 20
118.2392314127
 10
209.2536583415
 20
118.2319779465
 10
209.1959445626
 20
118.2203824579
 10
209.1378909962
 20
118.2045009176
  0
LWPOLYLINE
  5
450
100
AcDbEntity
  8
RACCORDO
100
AcDbPolyline
 62
7
  6
CONTINUOUS
 90
10
 70
0
 10
209.7296114062
 20
118.1293801595
 10
209.5987814121
 20
118.226785702
 10
209.424481087
 20
118.3512326129
 10
209.2498736521
 20
118.4700454748
 10
209.0752391526
 20
118.5832541977
 10
208.9008817893
 20
118.6908795067
 10
208.7271337091
 20
118.7929404133
 10
208.5543196732
 20
118.8894723414
 10
208.3827576166
 20
118.9805281571
 10
208.2733222348
 20
119.0361803337
  0
LINE
  5
451
100
AcDbEntity
  8
RACCORDO
100
AcDbLine
 62
7
  6
CONTINUOUS
 10
209.7296101157
 20
118.1293784553
 11
209.728744421
 21
118.1300332205
  0
LWPOLYLINE
  5
452
100
AcDbEntity
  8
RACCORDO
100
AcDbPolyline
 62
7
  6
CONTINUOUS
 90
9
 70
0
 10
210.6459844775
 20
115.7505691461
 10
210.6444868363
 20
115.8620411388
 10
210.6412635956
 20
115.9742399651
 10
210.6362768563
 20
116.0871069014
 10
210.6294887295
 20
116.2005904799
 10
210.6208627113
 20
116.3146401137
 10
210.6103642112
 20
116.4292039154
 10
210.5979590194
 20
116.5442269179
 10
210.5924527835
 20
116.5903742394
  0
LINE
  5
453
100
AcDbEntity
  8
RACCORDO
100
AcDbLine
 62
253
  6
CONTINUOUS
 10
210.3654491015
 20
115.3604266097
 11
210.3654491015
 21
38.6734362718
  0
LINE
  5
454
100
AcDbEntity
  8
RACCORDO
100
AcDbLine
 62
7
  6
CONTINUOUS
 10
210.6459844775
 20
115.7505691461
 11
210.6461093012
 21
39.020765465
  0
LWPOLYLINE
  5
455
100
AcDbEntity
  8
RACCORDO
100
AcDbPolyline
 62
253
  6
CONTINUOUS
 90
10
 70
0
 10
210.3654491015
 20
38.6734362718
 10
210.3649338921
 20
38.5896736429
 10
210.3632779586
 20
38.5043907603
 10
210.3604813011
 20
38.4175876239
 10
210.3565631696
 20
38.3292710316
 10
210.3515043142
 20
38.2394341855
 10
210.3452469848
 20
38.1480566919
 10
210.3377719315
 20
38.055131753
 10
210.3290984043
 20
37.9606661665
 10
210.3192264033
 20
37.8646599326
  0
LWPOLYLINE
  5
456
100
AcDbEntity
  8
RACCORDO
100
AcDbPolyline
 62
253
  6
CONTINUOUS
 90
17
 70
0
 10
210.3192264033
 20
37.8646599326
 10
210.3146992085
 20
37.7869966789
 10
210.3071536012
 20
37.7112983315
 10
210.2965964851
 20
37.6377686989
 10
210.2830459367
 20
37.5666016121
 10
210.2665244644
 20
37.4979955707
 10
210.2470621398
 20
37.4321507635
 10
210.2247049825
 20
37.3692476245
 10
210.1995082457
 20
37.3094534211
 10
210.1715330793
 20
37.2529340164
 10
210.140853006
 20
37.1998443888
 10
210.1075494265
 20
37.1503252648
 10
210.0717082205
 20
37.1045072926
 10
210.033421949
 20
37.0625127105
 10
209.9927985703
 20
37.0244601561
 10
209.9499582745
 20
36.9904598431
 10
209.905018612
 20
36.9606046116
  0
LWPOLYLINE
  5
457
100
AcDbEntity
  8
RACCORDO
100
AcDbPolyline
 62
253
  6
CONTINUOUS
 90
11
 70
0
 10
210.6461093012
 20
39.0207654655
 10
210.6427466883
 20
38.9797962136
 10
210.633614954
 20
38.9419736747
 10
210.6187501899
 20
38.9046085665
 10
210.5982386945
 20
38.8679178144
 10
210.5721995485
 20
38.8321144293
 10
210.5407839241
 20
38.7974062699
 10
210.5041742069
 20
38.7639948369
 10
210.4625829369
 20
38.7320741027
 10
210.4162515752
 20
38.7018293851
 10
210.3654491015
 20
38.6734362718
  0
LWPOLYLINE
  5
458
100
AcDbEntity
  8
RACCORDO
100
AcDbPolyline
 62
253
  6
CONTINUOUS
 90
10
 70
0
 10
117.2597662442
 20
164.3717682492
 10
117.2452003016
 20
164.3760303723
 10
117.2126290956
 20
164.3818873726
 10
117.178769435
 20
164.383112812
 10
117.1437847587
 20
164.3797007754
 10
117.1078439362
 20
164.3716677326
 10
117.0711204522
 20
164.3590524587
 10
117.0337915691
 20
164.3419158471
 10
116.9960374719
 20
164.3203406155
 10
116.9580403977
 20
164.2944309065
  0
LWPOLYLINE
  5
459
100
AcDbEntity
  8
RACCORDO
100
AcDbPolyline
 62
7
  6
CONTINUOUS
 90
22
 70
0
 10
210.5925065362
 20
116.5899128614
 10
210.5881012731
 20
116.6235239691
 10
210.5728468923
 20
116.7169506106
 10
210.5535725215
 20
116.809029261
 10
210.5305959845
 20
116.899586565
 10
210.5041156429
 20
116.9887186713
 10
210.4742793689
 20
117.0765108694
 10
210.4412976423
 20
117.1627233616
 10
210.4053100079
 20
117.2473105937
 10
210.3663332112
 20
117.3303991672
 10
210.3244939142
 20
117.4118235095
 10
210.279896068
 20
117.4914308892
 10
210.232478321
 20
117.569329438
 10
210.1822683812
 20
117.645394022
 10
210.1293578749
 20
117.7193868005
 10
210.0736009616
 20
117.7913561141
 10
210.0148708347
 20
117.8612305272
 10
209.9532413122
 20
117.9286464385
 10
209.8884660257
 20
117.9935338621
 10
209.8201463971
 20
118.0558368432
 10
209.7480974933
 20
118.1151619938
 10
209.728744421
 20
118.1300332205
  0
LWPOLYLINE
  5
45A
100
AcDbEntity
  8
RACCORDO
100
AcDbPolyline
 62
253
  6
CONTINUOUS
 90
10
 70
0
 10
210.3192264033
 20
116.1213379436
 10
210.3290981079
 20
116.0355581567
 10
210.3377714389
 20
115.9500769305
 10
210.3452463964
 20
115.864894265
 10
210.3515037654
 20
115.77999688
 10
210.3565627609
 20
115.6953980557
 10
210.3604810277
 20
115.6111376325
 10
210.3632777809
 20
115.5272288905
 10
210.3649338055
 20
115.4436585495
 10
210.3654491015
 20
115.3604266097
  0
LWPOLYLINE
  5
45B
100
AcDbEntity
  8
RACCORDO
100
AcDbPolyline
 62
253
  6
CONTINUOUS
 90
14
 70
0
 10
210.5925090017
 20
116.5899131631
 10
210.5933021616
 20
116.5827345977
 10
210.5949391645
 20
116.5427601031
 10
210.5919191949
 20
116.502438844
 10
210.5842563867
 20
116.461959529
 10
210.5719866027
 20
116.4215116065
 10
210.5551672673
 20
116.3812843778
 10
210.5338770968
 20
116.3414661114
 10
210.5082157321
 20
116.3022431619
 10
210.4783032717
 20
116.2637990977
 10
210.4442797095
 20
116.2263138418
 10
210.4063042803
 20
116.1899628301
 10
210.3645547138
 20
116.1549161898
 10
210.3192264033
 20
116.1213379436
  0
LWPOLYLINE
  5
45C
100
AcDbEntity
  8
RACCORDO
100
AcDbPolyline
 62
7
  6
CONTINUOUS
 90
10
 70
0
 10
210.594019195
 20
38.1038201778
 10
210.5999642139
 20
38.1599801981
 10
210.6118321688
 20
38.2832056147
 10
210.6219052691
 20
38.4046361207
 10
210.6302021583
 20
38.5242517867
 10
210.6367414469
 20
38.6420352903
 10
210.6415432637
 20
38.7579727332
 10
210.6446287838
 20
38.8720508622
 10
210.6460188975
 20
38.9842482406
 10
210.6461092952
 20
39.020772284
  0
LWPOLYLINE
  5
45D
100
AcDbEntity
  8
RACCORDO
100
AcDbPolyline
 62
253
  6
CONTINUOUS
 90
12
 70
0
 10
210.5940033292
 20
38.1036950831
 10
210.5919169545
 20
38.0899934509
 10
210.5842539787
 20
38.0629349411
 10
210.5719840388
 20
38.0365740252
 10
210.5551645593
 20
38.0110340757
 10
210.5338742576
 20
37.9864346225
 10
210.5082127749
 20
37.9628907943
 10
210.4783002099
 20
37.9405127789
 10
210.4442765571
 20
37.9194053083
 10
210.4063010513
 20
37.899667168
 10
210.3645514224
 20
37.881390735
 10
210.3192230638
 20
37.8646615454
  0
LWPOLYLINE
  5
45E
100
AcDbEntity
  8
RACCORDO
100
AcDbPolyline
 62
7
  6
CONTINUOUS
 90
17
 70
0
 10
209.8787233603
 20
36.9455919086
 10
209.9297769588
 20
36.9747035827
 10
210.0007782116
 20
37.0208044868
 10
210.069563194
 20
37.0724378274
 10
210.1357284489
 20
37.1295597393
 10
210.1988242506
 20
37.1920387569
 10
210.2584150341
 20
37.2596918216
 10
210.314179638
 20
37.3324006372
 10
210.3657933609
 20
37.4099831032
 10
210.4128986733
 20
37.4921327419
 10
210.4552449082
 20
37.5786196975
 10
210.4926524871
 20
37.6692543603
 10
210.5249226792
 20
37.763742641
 10
210.5519265476
 20
37.861849054
 10
210.5735930608
 20
37.9634569855
 10
210.5898454648
 20
38.0684223724
 10
210.5940033292
 20
38.1036950831
  0
LINE
  5
45F
100
AcDbEntity
  8
RACCORDO
100
AcDbLine
 62
253
  6
CONTINUOUS
 10
202.0075167666
 20
33.2245349063
 11
208.2900828695
 21
36.7416632329
  0
LINE
  5
460
100
AcDbEntity
  8
RACCORDO
100
AcDbLine
 62
7
  6
CONTINUOUS
 10
201.9454595997
 20
32.5169699512
 11
207.8748596962
 21
35.8363876378
  0
LINE
  5
461
100
AcDbEntity
  8
RACCORDO
100
AcDbLine
 62
253
  6
CONTINUOUS
 10
208.6251223679
 20
36.9506519399
 11
210.3192264033
 21
37.8646599326
  0
LINE
  5
462
100
AcDbEntity
  8
RACCORDO
100
AcDbLine
 62
7
  6
CONTINUOUS
 10
208.2010223021
 20
36.0404297263
 11
209.8793468962
 21
36.9459243484
  0
LWPOLYLINE
  5
463
100
AcDbEntity
  8
RACCORDO
100
AcDbPolyline
 62
253
  6
CONTINUOUS
 90
19
 70
0
 10
200.5232518496
 20
31.4676905717
 10
200.5390093359
 20
31.4752135957
 10
200.5953130143
 20
31.5059567046
 10
200.6490363016
 20
31.5415289953
 10
200.7000315399
 20
31.5818327606
 10
200.7481597786
 20
31.6267579226
 10
200.7932894468
 20
31.6761813585
 10
200.8352952312
 20
31.7299662369
 10
200.8740628087
 20
31.7879658485
 10
200.9094892252
 20
31.8500246363
 10
200.9414768963
 20
31.9159757933
 10
200.9699351746
 20
31.9856354837
 10
200.9947861498
 20
32.0588056319
 10
201.0159577333
 20
32.1352734785
 10
201.0333949881
 20
32.2148375484
 10
201.0470587653
 20
32.2973042923
 10
201.0569100743
 20
32.3824572512
 10
201.0629135863
 20
32.4700548862
 10
201.0650479266
 20
32.5598570897
  0
LINE
  5
464
100
AcDbEntity
  8
RACCORDO
100
AcDbLine
 62
253
  6
CONTINUOUS
 10
201.0650479266
 20
32.5598570897
 11
202.0079193024
 21
32.9953080522
  0
LINE
  5
465
100
AcDbEntity
  8
RACCORDO
100
AcDbLine
 62
7
  6
CONTINUOUS
 10
200.522475538
 20
31.4673315071
 11
201.4680763834
 21
31.9040430688
  0
ELLIPSE
  5
466
100
AcDbEntity
  8
RACCORDO
100
AcDbEllipse
 62
7
  6
CONTINUOUS
 10
115.1828167901
 20
162.0017541482
 30
0.0
 11
-0.7605830964
 21
1.520939386
 31
0.0
 40
0.6121897086
 41
-0.6846338794
 42
0.1362379104
  0
ELLIPSE
  5
467
100
AcDbEntity
  8
RACCORDO
100
AcDbEllipse
 62
7
  6
CONTINUOUS
 10
207.4228577292
 20
115.8817336787
 30
0.0
 11
-0.760174637
 21
1.5205763111
 31
0.0
 40
0.6125552124
 41
-2.255296188
 42
-0.6848044477
  0
ELLIPSE
  5
468
100
AcDbEntity
  8
RACCORDO
100
AcDbEllipse
 62
7
  6
CONTINUOUS
 10
207.4228577292
 20
37.552232753
 30
0.0
 11
-0.7605830964
 21
1.520939386
 31
0.0
 40
0.6121897086
 41
3.0097736649
 42
4.0274505145
  0
ELLIPSE
  5
469
100
AcDbEntity
  8
RACCORDO
100
AcDbEllipse
 62
7
  6
CONTINUOUS
 10
114.8109784612
 20
161.8565143066
 30
0.0
 11
-0.7609829926
 21
1.5214559605
 31
0.0
 40
0.6119614214
 41
-0.6845271385
 42
-0.0284287002
  0
ELLIPSE
  5
46A
100
AcDbEntity
  8
RACCORDO
100
AcDbEllipse
 62
7
  6
CONTINUOUS
 10
207.087589277
 20
37.343919204
 30
0.0
 11
-0.7609829926
 21
1.5214559605
 31
0.0
 40
0.6119614214
 41
-3.1131372759
 42
-2.2560086979
  0
ELLIPSE
  5
46B
100
AcDbEntity
  8
RACCORDO
100
AcDbEllipse
 62
7
  6
CONTINUOUS
 10
207.087589277
 20
115.7182088987
 30
0.0
 11
-0.7600639
 21
1.5206389902
 31
0.0
 40
0.6127837007
 41
-2.2550219623
 42
-0.6849108682
  0
ENDSEC
  0
SECTION
  2
OBJECTS
  0
DICTIONARY
  5
C
100
AcDbDictionary
280
0
281
1
  3
ACAD_GROUP
350
D
  3
ACAD_MLINESTYLE
350
17
  3
ACAD_LAYOUT
350
1A
  3
ACAD_PLOTSETTINGS
350
19
  3
ACAD_PLOTSTYLENAME
350
E
  0
DICTIONARY
  5
D
102
{ACAD_REACTORS
330
C
102
}
100
AcDbDictionary
280
0
281
1
  0
ACDBDICTIONARYWDFLT
  5
E
102
{ACAD_REACTORS
330
C
102
}
100
AcDbDictionary
281
1
  3
Normal
350
F
100
AcDbDictionaryWithDefault
340
F
  0
DICTIONARY
  5
17
102
{ACAD_REACTORS
330
C
102
}
100
AcDbDictionary
280
0
281
1
  3
Standard
350
18
  0
DICTIONARY
  5
19
102
{ACAD_REACTORS
330
C
102
}
100
AcDbDictionary
281
1
  0
DICTIONARY
  5
1A
102
{ACAD_REACTORS
330
C
102
}
100
AcDbDictionary
281
1
  3
Model
350
46C
  3
Layout1
350
46D
  0
ACDBPLACEHOLDER
  5
F
102
{ACAD_REACTORS
330
E
102
}
  0
MLINESTYLE
  5
18
102
{ACAD_REACTORS
330
17
102
}
100
AcDbMlineStyle
  2
STANDARD
 70
0
  3

 62
256
 51
90.0
 52
90.0
 71
2
 49
0.5
 62
256
  6
BYLAYER
 49
-0.5
 62
256
  6
BYLAYER
  0
LAYOUT
  5
46C
102
{ACAD_REACTORS
330
1A
102
}
100
AcDbPlotSettings
  1

  2
none_device
  4
ISO_A4_(297.00_x_210.00_MM)
  6

 40
0.0
 41
0.0
 42
0.0
 43
0.0
 44
297.0
 45
210.0
 46
0.0
 47
0.0
 48
0.0
 49
0.0
140
0.0
141
0.0
142
1.0
143
1.0
 70
1024
 72
1
 73
0
 74
0
  7

 75
0
147
1.0
148
0.0
149
0.0
100
AcDbLayout
  1
Model
 70
0
 71
0
 10
0.0
 20
0.0
 11
297.0
 21
210.0
 12
0.0
 22
0.0
 32
0.0
 14
0.0
 24
0.0
 34
0.0
 15
0.0
 25
0.0
 35
0.0
146
0.0
 13
0.0
 23
0.0
 33
0.0
 16
1.0
 26
0.0
 36
0.0
 17
0.0
 27
1.0
 37
0.0
 76
0
330
372
345
0
346
0
  0
LAYOUT
  5
46D
102
{ACAD_REACTORS
330
1A
102
}
100
AcDbPlotSettings
  1

  2
none_device
  4
ISO_A4_(297.00_x_210.00_MM)
  6

 40
0.0
 41
0.0
 42
0.0
 43
0.0
 44
297.0
 45
210.0
 46
0.0
 47
0.0
 48
0.0
 49
0.0
140
0.0
141
0.0
142
1.0
143
1.0
 70
0
 72
1
 73
0
 74
0
  7

 75
0
147
1.0
148
0.0
149
0.0
100
AcDbLayout
  1
Layout1
 70
0
 71
1
 10
0.0
 20
0.0
 11
297.0
 21
210.0
 12
0.0
 22
0.0
 32
0.0
 14
0.0
 24
0.0
 34
0.0
 15
0.0
 25
0.0
 35
0.0
146
0.0
 13
0.0
 23
0.0
 33
0.0
 16
1.0
 26
0.0
 36
0.0
 17
0.0
 27
1.0
 37
0.0
 76
0
330
373
345
0
346
0
  0
ENDSEC
  0
EOF
