  0
SECTION
  2
HEADER
  9
$ACADVER
  1
AC1024
  9
$DWGCODEPAGE
  3
ANSI_1252
  9
$EXTMAX
 10
297.0
 20
210.0
 30
0.0
  9
$EXTMIN
 10
0.0
 20
0.0
 30
0.0
  9
$LIMMIN
 10
0.0
 20
0.0
  9
$LIMMAX
 10
297.0
 20
210.0
  9
$VIEWCTR
 10
148.5
 20
105.0
  9
$VIEWSIZE
 40
210.0
  9
$CLAYER
  8
0
  9
$LTSCALE
 40
16.335
  9
$CELTYPE
  6
BYLAYER
  9
$DIMSCALE
 40
1.0
  9
$DIMASZ
 40
3.0
  9
$DIMEXO
 40
0.5
  9
$DIMDLI
 40
11.286
  9
$DIMEXE
 40
1.5
  9
$DIMCEN
 40
2.673
  9
$DIMLFAC
 40
1.0
  9
$DIMBLK
  1
_FILLED
  9
$DIMALT
 70
0
  9
$DIMALTF
 40
0.0393700787
  9
$DIMTXT
 40
3.0
  9
$DIMTOL
 70
1
  9
$DIMLIM
 70
0
  9
$DIMTFAC
 40
1.0
  9
$DIMTP
 40
0.01
  9
$DIMTM
 40
0.01
  9
$DIMGAP
 40
0.625
  9
$DIMDSEP
 70
44
  9
$AUNITS
 70
0
  9
$PDMODE
 70
3
  9
$PDSIZE
 40
3.0
  9
$HANDSEED
  5
8F1
  9
$TILEMODE
 70
1
  9
$MEASUREMENT
 70
1
  9
$INSUNITS
 70
4
  0
ENDSEC
  0
SECTION
  2
CLASSES
  0
CLASS
  1
ACDBDICTIONARYWDFLT
  2
AcDbDictionaryWithDefault
  3
AutoCAD 2000
 90
0
 91
1
280
0
281
0
  0
CLASS
  1
ACDBPLACEHOLDER
  2
AcDbPlaceHolder
  3
AutoCAD 2000
 90
0
 91
1
280
0
281
0
  0
CLASS
  1
LAYOUT
  2
AcDbLayout
  3
AutoCAD 2000
 90
0
 91
0
280
0
281
0
  0
ENDSEC
  0
SECTION
  2
TABLES
  0
TABLE
  2
VPORT
  5
8
100
AcDbSymbolTable
 70
2
  0
VPORT
  5
1F4
100
AcDbSymbolTableRecord
100
AcDbViewportTableRecord
  2
*ACTIVE
 70
0
 10
0.0
 20
0.0
 11
1.0
 21
1.0
 12
148.5
 22
105.0
 13
0.0
 23
0.0
 14
1.0
 24
1.0
 15
0.0
 25
0.0
 16
0.0
 26
0.0
 36
1.0
 17
0.0
 27
0.0
 37
0.0
 40
210.0
 41
1.4142857143
 42
50.0
 43
0.0
 44
0.0
 50
0.0
 51
0.0
 71
0
 72
100
 73
1
 74
1
 75
0
 76
0
 77
0
 78
0
  0
ENDTAB
  0
TABLE
  2
LTYPE
  5
5
100
AcDbSymbolTable
 70
6
  0
LTYPE
  5
14
100
AcDbSymbolTableRecord
100
AcDbLinetypeTableRecord
  2
BYBLOCK
 70
0
  3

 72
65
 73
0
 40
0.0
  0
LTYPE
  5
15
100
AcDbSymbolTableRecord
100
AcDbLinetypeTableRecord
  2
BYLAYER
 70
0
  3

 72
65
 73
0
 40
0.0
  0
LTYPE
  5
16
100
AcDbSymbolTableRecord
100
AcDbLinetypeTableRecord
  2
CONTINUOUS
 70
64
  3
Solid line
 72
65
 73
0
 40
0.0
  0
LTYPE
  5
1F5
100
AcDbSymbolTableRecord
100
AcDbLinetypeTableRecord
  2
CENTER
 70
64
  3
____ _ ____ _ ____ _ ____ _ ____ _ ____ _ ____
 72
65
 73
4
 40
0.6
 49
0.375
 74
0
 49
-0.075
 74
0
 49
0.075
 74
0
 49
-0.075
 74
0
  0
LTYPE
  5
1F6
100
AcDbSymbolTableRecord
100
AcDbLinetypeTableRecord
  2
HIDDEN
 70
64
  3
- - - - - - - - - - - - - - - - - - - -
 72
65
 73
2
 40
0.2
 49
0.1
 74
0
 49
-0.1
 74
0
  0
LTYPE
  5
1F7
100
AcDbSymbolTableRecord
100
AcDbLinetypeTableRecord
  2
PHANTOM
 70
64
  3
_____ _ _ _____ _ _ _____ _ _ _____
 72
65
 73
6
 40
0.8
 49
0.45
 74
0
 49
-0.05
 74
0
 49
0.1
 74
0
 49
-0.05
 74
0
 49
0.1
 74
0
 49
-0.05
 74
0
  0
LTYPE
  5
1F8
100
AcDbSymbolTableRecord
100
AcDbLinetypeTableRecord
  2
DOT
 70
64
  3
. . . . . . . . . . . . . . . . . . . .
 72
65
 73
2
 40
0.2
 49
0.1
 74
0
 49
-0.1
 74
0
  0
LTYPE
  5
1F9
100
AcDbSymbolTableRecord
100
AcDbLinetypeTableRecord
  2
DASHED
 70
64
  3
- - - - - - - - - - - - - - - - - - - -
 72
65
 73
2
 40
0.2
 49
0.1
 74
0
 49
-0.1
 74
0
  0
ENDTAB
  0
TABLE
  2
LAYER
  5
2
100
AcDbSymbolTable
 70
36
  0
LAYER
  5
10
100
AcDbSymbolTableRecord
100
AcDbLayerTableRecord
  2
0
 70
0
 62
7
  6
CONTINUOUS
370
-3
390
F
  0
LAYER
  5
1FA
100
AcDbSymbolTableRecord
100
AcDbLayerTableRecord
  2
DEFAULT_1
 70
0
 62
7
  6
CENTER
370
-3
390
F
  0
LAYER
  5
1FB
100
AcDbSymbolTableRecord
100
AcDbLayerTableRecord
  2
DEFAULT_2
 70
0
 62
7
  6
HIDDEN
370
-3
390
F
  0
LAYER
  5
1FC
100
AcDbSymbolTableRecord
100
AcDbLayerTableRecord
  2
DEFAULT_3
 70
0
 62
7
  6
PHANTOM
370
-3
390
F
  0
LAYER
  5
1FD
100
AcDbSymbolTableRecord
100
AcDbLayerTableRecord
  2
0402_C_REF
 70
0
 62
7
  6
CONTINUOUS
370
-3
390
F
  0
LAYER
  5
1FE
100
AcDbSymbolTableRecord
100
AcDbLayerTableRecord
  2
0402_C_REF_1
 70
0
 62
7
  6
CONTINUOUS
370
-3
390
F
  0
LAYER
  5
1FF
100
AcDbSymbolTableRecord
100
AcDbLayerTableRecord
  2
0402_C_REF_10
 70
0
 62
7
  6
CONTINUOUS
370
-3
390
F
  0
LAYER
  5
200
100
AcDbSymbolTableRecord
100
AcDbLayerTableRecord
  2
0402_C_REF_11
 70
0
 62
7
  6
CONTINUOUS
370
-3
390
F
  0
LAYER
  5
201
100
AcDbSymbolTableRecord
100
AcDbLayerTableRecord
  2
0402_C_REF_12
 70
0
 62
7
  6
CONTINUOUS
370
-3
390
F
  0
LAYER
  5
202
100
AcDbSymbolTableRecord
100
AcDbLayerTableRecord
  2
0402_C_REF_13
 70
0
 62
7
  6
CONTINUOUS
370
-3
390
F
  0
LAYER
  5
203
100
AcDbSymbolTableRecord
100
AcDbLayerTableRecord
  2
0402_C_REF_14
 70
0
 62
7
  6
CONTINUOUS
370
-3
390
F
  0
LAYER
  5
204
100
AcDbSymbolTableRecord
100
AcDbLayerTableRecord
  2
0402_C_REF_15
 70
0
 62
7
  6
CONTINUOUS
370
-3
390
F
  0
LAYER
  5
205
100
AcDbSymbolTableRecord
100
AcDbLayerTableRecord
  2
0402_C_REF_16
 70
0
 62
7
  6
CONTINUOUS
370
-3
390
F
  0
LAYER
  5
206
100
AcDbSymbolTableRecord
100
AcDbLayerTableRecord
  2
0402_C_REF_17
 70
0
 62
7
  6
CONTINUOUS
370
-3
390
F
  0
LAYER
  5
207
100
AcDbSymbolTableRecord
100
AcDbLayerTableRecord
  2
0402_C_REF_18
 70
0
 62
7
  6
CONTINUOUS
370
-3
390
F
  0
LAYER
  5
208
100
AcDbSymbolTableRecord
100
AcDbLayerTableRecord
  2
0402_C_REF_19
 70
0
 62
7
  6
CONTINUOUS
370
-3
390
F
  0
LAYER
  5
209
100
AcDbSymbolTableRecord
100
AcDbLayerTableRecord
  2
0402_C_REF_1_1
 70
0
 62
7
  6
CONTINUOUS
370
-3
390
F
  0
LAYER
  5
20A
100
AcDbSymbolTableRecord
100
AcDbLayerTableRecord
  2
0402_C_REF_1_10
 70
0
 62
7
  6
CONTINUOUS
370
-3
390
F
  0
LAYER
  5
20B
100
AcDbSymbolTableRecord
100
AcDbLayerTableRecord
  2
0402_C_REF_1_11
 70
0
 62
7
  6
CONTINUOUS
370
-3
390
F
  0
LAYER
  5
20C
100
AcDbSymbolTableRecord
100
AcDbLayerTableRecord
  2
0402_C_REF_1_12
 70
0
 62
7
  6
CONTINUOUS
370
-3
390
F
  0
LAYER
  5
20D
100
AcDbSymbolTableRecord
100
AcDbLayerTableRecord
  2
0402_C_REF_1_13
 70
0
 62
7
  6
CONTINUOUS
370
-3
390
F
  0
LAYER
  5
20E
100
AcDbSymbolTableRecord
100
AcDbLayerTableRecord
  2
0402_C_REF_1_14
 70
0
 62
7
  6
CONTINUOUS
370
-3
390
F
  0
LAYER
  5
20F
100
AcDbSymbolTableRecord
100
AcDbLayerTableRecord
  2
0402_C_REF_1_15
 70
0
 62
7
  6
CONTINUOUS
370
-3
390
F
  0
LAYER
  5
210
100
AcDbSymbolTableRecord
100
AcDbLayerTableRecord
  2
0402_C_REF_1_16
 70
0
 62
7
  6
CONTINUOUS
370
-3
390
F
  0
LAYER
  5
211
100
AcDbSymbolTableRecord
100
AcDbLayerTableRecord
  2
0402_C_REF_1_17
 70
0
 62
7
  6
CONTINUOUS
370
-3
390
F
  0
LAYER
  5
212
100
AcDbSymbolTableRecord
100
AcDbLayerTableRecord
  2
0402_C_REF_1_18
 70
0
 62
7
  6
CONTINUOUS
370
-3
390
F
  0
LAYER
  5
213
100
AcDbSymbolTableRecord
100
AcDbLayerTableRecord
  2
0402_C_REF_1_19
 70
0
 62
7
  6
CONTINUOUS
370
-3
390
F
  0
LAYER
  5
214
100
AcDbSymbolTableRecord
100
AcDbLayerTableRecord
  2
0402_C_REF_1_2
 70
0
 62
7
  6
CONTINUOUS
370
-3
390
F
  0
LAYER
  5
215
100
AcDbSymbolTableRecord
100
AcDbLayerTableRecord
  2
0402_C_REF_1_20
 70
0
 62
7
  6
CONTINUOUS
370
-3
390
F
  0
LAYER
  5
216
100
AcDbSymbolTableRecord
100
AcDbLayerTableRecord
  2
0402_C_REF_1_21
 70
0
 62
7
  6
CONTINUOUS
370
-3
390
F
  0
LAYER
  5
217
100
AcDbSymbolTableRecord
100
AcDbLayerTableRecord
  2
0402_C_REF_1_22
 70
0
 62
7
  6
CONTINUOUS
370
-3
390
F
  0
LAYER
  5
218
100
AcDbSymbolTableRecord
100
AcDbLayerTableRecord
  2
0402_C_REF_1_23
 70
0
 62
7
  6
CONTINUOUS
370
-3
390
F
  0
LAYER
  5
219
100
AcDbSymbolTableRecord
100
AcDbLayerTableRecord
  2
0402_C_REF_1_24
 70
0
 62
7
  6
CONTINUOUS
370
-3
390
F
  0
LAYER
  5
21A
100
AcDbSymbolTableRecord
100
AcDbLayerTableRecord
  2
0402_C_REF_1_25
 70
0
 62
7
  6
CONTINUOUS
370
-3
390
F
  0
LAYER
  5
21B
100
AcDbSymbolTableRecord
100
AcDbLayerTableRecord
  2
0402_C_REF_1_26
 70
0
 62
7
  6
CONTINUOUS
370
-3
390
F
  0
LAYER
  5
21C
100
AcDbSymbolTableRecord
100
AcDbLayerTableRecord
  2
0402_C_REF_1_27
 70
0
 62
7
  6
CONTINUOUS
370
-3
390
F
  0
LAYER
  5
21D
100
AcDbSymbolTableRecord
100
AcDbLayerTableRecord
  2
0402_C_REF_1_28
 70
0
 62
7
  6
CONTINUOUS
370
-3
390
F
  0
LAYER
  5
21E
100
AcDbSymbolTableRecord
100
AcDbLayerTableRecord
  2
0402_C_REF_1_3
 70
0
 62
7
  6
CONTINUOUS
370
-3
390
F
  0
LAYER
  5
21F
100
AcDbSymbolTableRecord
100
AcDbLayerTableRecord
  2
0402_C_REF_1_4
 70
0
 62
7
  6
CONTINUOUS
370
-3
390
F
  0
LAYER
  5
220
100
AcDbSymbolTableRecord
100
AcDbLayerTableRecord
  2
0402_C_REF_1_5
 70
0
 62
7
  6
CONTINUOUS
370
-3
390
F
  0
LAYER
  5
221
100
AcDbSymbolTableRecord
100
AcDbLayerTableRecord
  2
0402_C_REF_1_6
 70
0
 62
7
  6
CONTINUOUS
370
-3
390
F
  0
LAYER
  5
222
100
AcDbSymbolTableRecord
100
AcDbLayerTableRecord
  2
0402_C_REF_1_7
 70
0
 62
7
  6
CONTINUOUS
370
-3
390
F
  0
LAYER
  5
223
100
AcDbSymbolTableRecord
100
AcDbLayerTableRecord
  2
0402_C_REF_1_8
 70
0
 62
7
  6
CONTINUOUS
370
-3
390
F
  0
LAYER
  5
224
100
AcDbSymbolTableRecord
100
AcDbLayerTableRecord
  2
0402_C_REF_1_9
 70
0
 62
7
  6
CONTINUOUS
370
-3
390
F
  0
LAYER
  5
225
100
AcDbSymbolTableRecord
100
AcDbLayerTableRecord
  2
0402_C_REF_2
 70
0
 62
7
  6
CONTINUOUS
370
-3
390
F
  0
LAYER
  5
226
100
AcDbSymbolTableRecord
100
AcDbLayerTableRecord
  2
0402_C_REF_20
 70
0
 62
7
  6
CONTINUOUS
370
-3
390
F
  0
LAYER
  5
227
100
AcDbSymbolTableRecord
100
AcDbLayerTableRecord
  2
0402_C_REF_21
 70
0
 62
7
  6
CONTINUOUS
370
-3
390
F
  0
LAYER
  5
228
100
AcDbSymbolTableRecord
100
AcDbLayerTableRecord
  2
0402_C_REF_22
 70
0
 62
7
  6
CONTINUOUS
370
-3
390
F
  0
LAYER
  5
229
100
AcDbSymbolTableRecord
100
AcDbLayerTableRecord
  2
0402_C_REF_23
 70
0
 62
7
  6
CONTINUOUS
370
-3
390
F
  0
LAYER
  5
22A
100
AcDbSymbolTableRecord
100
AcDbLayerTableRecord
  2
0402_C_REF_24
 70
0
 62
7
  6
CONTINUOUS
370
-3
390
F
  0
LAYER
  5
22B
100
AcDbSymbolTableRecord
100
AcDbLayerTableRecord
  2
0402_C_REF_25
 70
0
 62
7
  6
CONTINUOUS
370
-3
390
F
  0
LAYER
  5
22C
100
AcDbSymbolTableRecord
100
AcDbLayerTableRecord
  2
0402_C_REF_26
 70
0
 62
7
  6
CONTINUOUS
370
-3
390
F
  0
LAYER
  5
22D
100
AcDbSymbolTableRecord
100
AcDbLayerTableRecord
  2
0402_C_REF_27
 70
0
 62
7
  6
CONTINUOUS
370
-3
390
F
  0
LAYER
  5
22E
100
AcDbSymbolTableRecord
100
AcDbLayerTableRecord
  2
0402_C_REF_28
 70
0
 62
7
  6
CONTINUOUS
370
-3
390
F
  0
LAYER
  5
22F
100
AcDbSymbolTableRecord
100
AcDbLayerTableRecord
  2
0402_C_REF_3
 70
0
 62
7
  6
CONTINUOUS
370
-3
390
F
  0
LAYER
  5
230
100
AcDbSymbolTableRecord
100
AcDbLayerTableRecord
  2
0402_C_REF_4
 70
0
 62
7
  6
CONTINUOUS
370
-3
390
F
  0
LAYER
  5
231
100
AcDbSymbolTableRecord
100
AcDbLayerTableRecord
  2
0402_C_REF_5
 70
0
 62
7
  6
CONTINUOUS
370
-3
390
F
  0
LAYER
  5
232
100
AcDbSymbolTableRecord
100
AcDbLayerTableRecord
  2
0402_C_REF_6
 70
0
 62
7
  6
CONTINUOUS
370
-3
390
F
  0
LAYER
  5
233
100
AcDbSymbolTableRecord
100
AcDbLayerTableRecord
  2
0402_C_REF_7
 70
0
 62
7
  6
CONTINUOUS
370
-3
390
F
  0
LAYER
  5
234
100
AcDbSymbolTableRecord
100
AcDbLayerTableRecord
  2
0402_C_REF_70000
 70
0
 62
7
  6
CONTINUOUS
370
-3
390
F
  0
LAYER
  5
235
100
AcDbSymbolTableRecord
100
AcDbLayerTableRecord
  2
0402_C_REF_70000_1
 70
0
 62
7
  6
CONTINUOUS
370
-3
390
F
  0
LAYER
  5
236
100
AcDbSymbolTableRecord
100
AcDbLayerTableRecord
  2
0402_C_REF_70000_10
 70
0
 62
7
  6
CONTINUOUS
370
-3
390
F
  0
LAYER
  5
237
100
AcDbSymbolTableRecord
100
AcDbLayerTableRecord
  2
0402_C_REF_70000_11
 70
0
 62
7
  6
CONTINUOUS
370
-3
390
F
  0
LAYER
  5
238
100
AcDbSymbolTableRecord
100
AcDbLayerTableRecord
  2
0402_C_REF_70000_12
 70
0
 62
7
  6
CONTINUOUS
370
-3
390
F
  0
LAYER
  5
239
100
AcDbSymbolTableRecord
100
AcDbLayerTableRecord
  2
0402_C_REF_70000_13
 70
0
 62
7
  6
CONTINUOUS
370
-3
390
F
  0
LAYER
  5
23A
100
AcDbSymbolTableRecord
100
AcDbLayerTableRecord
  2
0402_C_REF_70000_14
 70
0
 62
7
  6
CONTINUOUS
370
-3
390
F
  0
LAYER
  5
23B
100
AcDbSymbolTableRecord
100
AcDbLayerTableRecord
  2
0402_C_REF_70000_15
 70
0
 62
7
  6
CONTINUOUS
370
-3
390
F
  0
LAYER
  5
23C
100
AcDbSymbolTableRecord
100
AcDbLayerTableRecord
  2
0402_C_REF_70000_16
 70
0
 62
7
  6
CONTINUOUS
370
-3
390
F
  0
LAYER
  5
23D
100
AcDbSymbolTableRecord
100
AcDbLayerTableRecord
  2
0402_C_REF_70000_17
 70
0
 62
7
  6
CONTINUOUS
370
-3
390
F
  0
LAYER
  5
23E
100
AcDbSymbolTableRecord
100
AcDbLayerTableRecord
  2
0402_C_REF_70000_18
 70
0
 62
7
  6
CONTINUOUS
370
-3
390
F
  0
LAYER
  5
23F
100
AcDbSymbolTableRecord
100
AcDbLayerTableRecord
  2
0402_C_REF_70000_19
 70
0
 62
7
  6
CONTINUOUS
370
-3
390
F
  0
LAYER
  5
240
100
AcDbSymbolTableRecord
100
AcDbLayerTableRecord
  2
0402_C_REF_70000_2
 70
0
 62
7
  6
CONTINUOUS
370
-3
390
F
  0
LAYER
  5
241
100
AcDbSymbolTableRecord
100
AcDbLayerTableRecord
  2
0402_C_REF_70000_20
 70
0
 62
7
  6
CONTINUOUS
370
-3
390
F
  0
LAYER
  5
242
100
AcDbSymbolTableRecord
100
AcDbLayerTableRecord
  2
0402_C_REF_70000_21
 70
0
 62
7
  6
CONTINUOUS
370
-3
390
F
  0
LAYER
  5
243
100
AcDbSymbolTableRecord
100
AcDbLayerTableRecord
  2
0402_C_REF_70000_22
 70
0
 62
7
  6
CONTINUOUS
370
-3
390
F
  0
LAYER
  5
244
100
AcDbSymbolTableRecord
100
AcDbLayerTableRecord
  2
0402_C_REF_70000_23
 70
0
 62
7
  6
CONTINUOUS
370
-3
390
F
  0
LAYER
  5
245
100
AcDbSymbolTableRecord
100
AcDbLayerTableRecord
  2
0402_C_REF_70000_24
 70
0
 62
7
  6
CONTINUOUS
370
-3
390
F
  0
LAYER
  5
246
100
AcDbSymbolTableRecord
100
AcDbLayerTableRecord
  2
0402_C_REF_70000_25
 70
0
 62
7
  6
CONTINUOUS
370
-3
390
F
  0
LAYER
  5
247
100
AcDbSymbolTableRecord
100
AcDbLayerTableRecord
  2
0402_C_REF_70000_26
 70
0
 62
7
  6
CONTINUOUS
370
-3
390
F
  0
LAYER
  5
248
100
AcDbSymbolTableRecord
100
AcDbLayerTableRecord
  2
0402_C_REF_70000_27
 70
0
 62
7
  6
CONTINUOUS
370
-3
390
F
  0
LAYER
  5
249
100
AcDbSymbolTableRecord
100
AcDbLayerTableRecord
  2
0402_C_REF_70000_28
 70
0
 62
7
  6
CONTINUOUS
370
-3
390
F
  0
LAYER
  5
24A
100
AcDbSymbolTableRecord
100
AcDbLayerTableRecord
  2
0402_C_REF_70000_29
 70
0
 62
7
  6
CONTINUOUS
370
-3
390
F
  0
LAYER
  5
24B
100
AcDbSymbolTableRecord
100
AcDbLayerTableRecord
  2
0402_C_REF_70000_3
 70
0
 62
7
  6
CONTINUOUS
370
-3
390
F
  0
LAYER
  5
24C
100
AcDbSymbolTableRecord
100
AcDbLayerTableRecord
  2
0402_C_REF_70000_30
 70
0
 62
7
  6
CONTINUOUS
370
-3
390
F
  0
LAYER
  5
24D
100
AcDbSymbolTableRecord
100
AcDbLayerTableRecord
  2
0402_C_REF_70000_31
 70
0
 62
7
  6
CONTINUOUS
370
-3
390
F
  0
LAYER
  5
24E
100
AcDbSymbolTableRecord
100
AcDbLayerTableRecord
  2
0402_C_REF_70000_32
 70
0
 62
7
  6
CONTINUOUS
370
-3
390
F
  0
LAYER
  5
24F
100
AcDbSymbolTableRecord
100
AcDbLayerTableRecord
  2
0402_C_REF_70000_33
 70
0
 62
7
  6
CONTINUOUS
370
-3
390
F
  0
LAYER
  5
250
100
AcDbSymbolTableRecord
100
AcDbLayerTableRecord
  2
0402_C_REF_70000_34
 70
0
 62
7
  6
CONTINUOUS
370
-3
390
F
  0
LAYER
  5
251
100
AcDbSymbolTableRecord
100
AcDbLayerTableRecord
  2
0402_C_REF_70000_35
 70
0
 62
7
  6
CONTINUOUS
370
-3
390
F
  0
LAYER
  5
252
100
AcDbSymbolTableRecord
100
AcDbLayerTableRecord
  2
0402_C_REF_70000_36
 70
0
 62
7
  6
CONTINUOUS
370
-3
390
F
  0
LAYER
  5
253
100
AcDbSymbolTableRecord
100
AcDbLayerTableRecord
  2
0402_C_REF_70000_37
 70
0
 62
7
  6
CONTINUOUS
370
-3
390
F
  0
LAYER
  5
254
100
AcDbSymbolTableRecord
100
AcDbLayerTableRecord
  2
0402_C_REF_70000_38
 70
0
 62
7
  6
CONTINUOUS
370
-3
390
F
  0
LAYER
  5
255
100
AcDbSymbolTableRecord
100
AcDbLayerTableRecord
  2
0402_C_REF_70000_39
 70
0
 62
7
  6
CONTINUOUS
370
-3
390
F
  0
LAYER
  5
256
100
AcDbSymbolTableRecord
100
AcDbLayerTableRecord
  2
0402_C_REF_70000_4
 70
0
 62
7
  6
CONTINUOUS
370
-3
390
F
  0
LAYER
  5
257
100
AcDbSymbolTableRecord
100
AcDbLayerTableRecord
  2
0402_C_REF_70000_40
 70
0
 62
7
  6
CONTINUOUS
370
-3
390
F
  0
LAYER
  5
258
100
AcDbSymbolTableRecord
100
AcDbLayerTableRecord
  2
0402_C_REF_70000_41
 70
0
 62
7
  6
CONTINUOUS
370
-3
390
F
  0
LAYER
  5
259
100
AcDbSymbolTableRecord
100
AcDbLayerTableRecord
  2
0402_C_REF_70000_42
 70
0
 62
7
  6
CONTINUOUS
370
-3
390
F
  0
LAYER
  5
25A
100
AcDbSymbolTableRecord
100
AcDbLayerTableRecord
  2
0402_C_REF_70000_43
 70
0
 62
7
  6
CONTINUOUS
370
-3
390
F
  0
LAYER
  5
25B
100
AcDbSymbolTableRecord
100
AcDbLayerTableRecord
  2
0402_C_REF_70000_44
 70
0
 62
7
  6
CONTINUOUS
370
-3
390
F
  0
LAYER
  5
25C
100
AcDbSymbolTableRecord
100
AcDbLayerTableRecord
  2
0402_C_REF_70000_45
 70
0
 62
7
  6
CONTINUOUS
370
-3
390
F
  0
LAYER
  5
25D
100
AcDbSymbolTableRecord
100
AcDbLayerTableRecord
  2
0402_C_REF_70000_46
 70
0
 62
7
  6
CONTINUOUS
370
-3
390
F
  0
LAYER
  5
25E
100
AcDbSymbolTableRecord
100
AcDbLayerTableRecord
  2
0402_C_REF_70000_47
 70
0
 62
7
  6
CONTINUOUS
370
-3
390
F
  0
LAYER
  5
25F
100
AcDbSymbolTableRecord
100
AcDbLayerTableRecord
  2
0402_C_REF_70000_48
 70
0
 62
7
  6
CONTINUOUS
370
-3
390
F
  0
LAYER
  5
260
100
AcDbSymbolTableRecord
100
AcDbLayerTableRecord
  2
0402_C_REF_70000_49
 70
0
 62
7
  6
CONTINUOUS
370
-3
390
F
  0
LAYER
  5
261
100
AcDbSymbolTableRecord
100
AcDbLayerTableRecord
  2
0402_C_REF_70000_5
 70
0
 62
7
  6
CONTINUOUS
370
-3
390
F
  0
LAYER
  5
262
100
AcDbSymbolTableRecord
100
AcDbLayerTableRecord
  2
0402_C_REF_70000_50
 70
0
 62
7
  6
CONTINUOUS
370
-3
390
F
  0
LAYER
  5
263
100
AcDbSymbolTableRecord
100
AcDbLayerTableRecord
  2
0402_C_REF_70000_51
 70
0
 62
7
  6
CONTINUOUS
370
-3
390
F
  0
LAYER
  5
264
100
AcDbSymbolTableRecord
100
AcDbLayerTableRecord
  2
0402_C_REF_70000_52
 70
0
 62
7
  6
CONTINUOUS
370
-3
390
F
  0
LAYER
  5
265
100
AcDbSymbolTableRecord
100
AcDbLayerTableRecord
  2
0402_C_REF_70000_53
 70
0
 62
7
  6
CONTINUOUS
370
-3
390
F
  0
LAYER
  5
266
100
AcDbSymbolTableRecord
100
AcDbLayerTableRecord
  2
0402_C_REF_70000_54
 70
0
 62
7
  6
CONTINUOUS
370
-3
390
F
  0
LAYER
  5
267
100
AcDbSymbolTableRecord
100
AcDbLayerTableRecord
  2
0402_C_REF_70000_55
 70
0
 62
7
  6
CONTINUOUS
370
-3
390
F
  0
LAYER
  5
268
100
AcDbSymbolTableRecord
100
AcDbLayerTableRecord
  2
0402_C_REF_70000_56
 70
0
 62
7
  6
CONTINUOUS
370
-3
390
F
  0
LAYER
  5
269
100
AcDbSymbolTableRecord
100
AcDbLayerTableRecord
  2
0402_C_REF_70000_57
 70
0
 62
7
  6
CONTINUOUS
370
-3
390
F
  0
LAYER
  5
26A
100
AcDbSymbolTableRecord
100
AcDbLayerTableRecord
  2
0402_C_REF_70000_58
 70
0
 62
7
  6
CONTINUOUS
370
-3
390
F
  0
LAYER
  5
26B
100
AcDbSymbolTableRecord
100
AcDbLayerTableRecord
  2
0402_C_REF_70000_59
 70
0
 62
7
  6
CONTINUOUS
370
-3
390
F
  0
LAYER
  5
26C
100
AcDbSymbolTableRecord
100
AcDbLayerTableRecord
  2
0402_C_REF_70000_6
 70
0
 62
7
  6
CONTINUOUS
370
-3
390
F
  0
LAYER
  5
26D
100
AcDbSymbolTableRecord
100
AcDbLayerTableRecord
  2
0402_C_REF_70000_60
 70
0
 62
7
  6
CONTINUOUS
370
-3
390
F
  0
LAYER
  5
26E
100
AcDbSymbolTableRecord
100
AcDbLayerTableRecord
  2
0402_C_REF_70000_61
 70
0
 62
7
  6
CONTINUOUS
370
-3
390
F
  0
LAYER
  5
26F
100
AcDbSymbolTableRecord
100
AcDbLayerTableRecord
  2
0402_C_REF_70000_62
 70
0
 62
7
  6
CONTINUOUS
370
-3
390
F
  0
LAYER
  5
270
100
AcDbSymbolTableRecord
100
AcDbLayerTableRecord
  2
0402_C_REF_70000_63
 70
0
 62
7
  6
CONTINUOUS
370
-3
390
F
  0
LAYER
  5
271
100
AcDbSymbolTableRecord
100
AcDbLayerTableRecord
  2
0402_C_REF_70000_64
 70
0
 62
7
  6
CONTINUOUS
370
-3
390
F
  0
LAYER
  5
272
100
AcDbSymbolTableRecord
100
AcDbLayerTableRecord
  2
0402_C_REF_70000_65
 70
0
 62
7
  6
CONTINUOUS
370
-3
390
F
  0
LAYER
  5
273
100
AcDbSymbolTableRecord
100
AcDbLayerTableRecord
  2
0402_C_REF_70000_7
 70
0
 62
7
  6
CONTINUOUS
370
-3
390
F
  0
LAYER
  5
274
100
AcDbSymbolTableRecord
100
AcDbLayerTableRecord
  2
0402_C_REF_70000_8
 70
0
 62
7
  6
CONTINUOUS
370
-3
390
F
  0
LAYER
  5
275
100
AcDbSymbolTableRecord
100
AcDbLayerTableRecord
  2
0402_C_REF_70000_9
 70
0
 62
7
  6
CONTINUOUS
370
-3
390
F
  0
LAYER
  5
276
100
AcDbSymbolTableRecord
100
AcDbLayerTableRecord
  2
0402_C_REF_8
 70
0
 62
7
  6
CONTINUOUS
370
-3
390
F
  0
LAYER
  5
277
100
AcDbSymbolTableRecord
100
AcDbLayerTableRecord
  2
0402_C_REF_9
 70
0
 62
7
  6
CONTINUOUS
370
-3
390
F
  0
LAYER
  5
278
100
AcDbSymbolTableRecord
100
AcDbLayerTableRecord
  2
0402_C_REF_B_
 70
0
 62
7
  6
CONTINUOUS
370
-3
390
F
  0
LAYER
  5
279
100
AcDbSymbolTableRecord
100
AcDbLayerTableRecord
  2
0402_C_REF_B__1
 70
0
 62
7
  6
CONTINUOUS
370
-3
390
F
  0
LAYER
  5
27A
100
AcDbSymbolTableRecord
100
AcDbLayerTableRecord
  2
0402_C_REF_B__10
 70
0
 62
7
  6
CONTINUOUS
370
-3
390
F
  0
LAYER
  5
27B
100
AcDbSymbolTableRecord
100
AcDbLayerTableRecord
  2
0402_C_REF_B__11
 70
0
 62
7
  6
CONTINUOUS
370
-3
390
F
  0
LAYER
  5
27C
100
AcDbSymbolTableRecord
100
AcDbLayerTableRecord
  2
0402_C_REF_B__12
 70
0
 62
7
  6
CONTINUOUS
370
-3
390
F
  0
LAYER
  5
27D
100
AcDbSymbolTableRecord
100
AcDbLayerTableRecord
  2
0402_C_REF_B__13
 70
0
 62
7
  6
CONTINUOUS
370
-3
390
F
  0
LAYER
  5
27E
100
AcDbSymbolTableRecord
100
AcDbLayerTableRecord
  2
0402_C_REF_B__14
 70
0
 62
7
  6
CONTINUOUS
370
-3
390
F
  0
LAYER
  5
27F
100
AcDbSymbolTableRecord
100
AcDbLayerTableRecord
  2
0402_C_REF_B__15
 70
0
 62
7
  6
CONTINUOUS
370
-3
390
F
  0
LAYER
  5
280
100
AcDbSymbolTableRecord
100
AcDbLayerTableRecord
  2
0402_C_REF_B__16
 70
0
 62
7
  6
CONTINUOUS
370
-3
390
F
  0
LAYER
  5
281
100
AcDbSymbolTableRecord
100
AcDbLayerTableRecord
  2
0402_C_REF_B__17
 70
0
 62
7
  6
CONTINUOUS
370
-3
390
F
  0
LAYER
  5
282
100
AcDbSymbolTableRecord
100
AcDbLayerTableRecord
  2
0402_C_REF_B__18
 70
0
 62
7
  6
CONTINUOUS
370
-3
390
F
  0
LAYER
  5
283
100
AcDbSymbolTableRecord
100
AcDbLayerTableRecord
  2
0402_C_REF_B__19
 70
0
 62
7
  6
CONTINUOUS
370
-3
390
F
  0
LAYER
  5
284
100
AcDbSymbolTableRecord
100
AcDbLayerTableRecord
  2
0402_C_REF_B__1_1
 70
0
 62
7
  6
CONTINUOUS
370
-3
390
F
  0
LAYER
  5
285
100
AcDbSymbolTableRecord
100
AcDbLayerTableRecord
  2
0402_C_REF_B__1_10
 70
0
 62
7
  6
CONTINUOUS
370
-3
390
F
  0
LAYER
  5
286
100
AcDbSymbolTableRecord
100
AcDbLayerTableRecord
  2
0402_C_REF_B__1_11
 70
0
 62
7
  6
CONTINUOUS
370
-3
390
F
  0
LAYER
  5
287
100
AcDbSymbolTableRecord
100
AcDbLayerTableRecord
  2
0402_C_REF_B__1_12
 70
0
 62
7
  6
CONTINUOUS
370
-3
390
F
  0
LAYER
  5
288
100
AcDbSymbolTableRecord
100
AcDbLayerTableRecord
  2
0402_C_REF_B__1_13
 70
0
 62
7
  6
CONTINUOUS
370
-3
390
F
  0
LAYER
  5
289
100
AcDbSymbolTableRecord
100
AcDbLayerTableRecord
  2
0402_C_REF_B__1_14
 70
0
 62
7
  6
CONTINUOUS
370
-3
390
F
  0
LAYER
  5
28A
100
AcDbSymbolTableRecord
100
AcDbLayerTableRecord
  2
0402_C_REF_B__1_15
 70
0
 62
7
  6
CONTINUOUS
370
-3
390
F
  0
LAYER
  5
28B
100
AcDbSymbolTableRecord
100
AcDbLayerTableRecord
  2
0402_C_REF_B__1_16
 70
0
 62
7
  6
CONTINUOUS
370
-3
390
F
  0
LAYER
  5
28C
100
AcDbSymbolTableRecord
100
AcDbLayerTableRecord
  2
0402_C_REF_B__1_17
 70
0
 62
7
  6
CONTINUOUS
370
-3
390
F
  0
LAYER
  5
28D
100
AcDbSymbolTableRecord
100
AcDbLayerTableRecord
  2
0402_C_REF_B__1_18
 70
0
 62
7
  6
CONTINUOUS
370
-3
390
F
  0
LAYER
  5
28E
100
AcDbSymbolTableRecord
100
AcDbLayerTableRecord
  2
0402_C_REF_B__1_19
 70
0
 62
7
  6
CONTINUOUS
370
-3
390
F
  0
LAYER
  5
28F
100
AcDbSymbolTableRecord
100
AcDbLayerTableRecord
  2
0402_C_REF_B__1_2
 70
0
 62
7
  6
CONTINUOUS
370
-3
390
F
  0
LAYER
  5
290
100
AcDbSymbolTableRecord
100
AcDbLayerTableRecord
  2
0402_C_REF_B__1_20
 70
0
 62
7
  6
CONTINUOUS
370
-3
390
F
  0
LAYER
  5
291
100
AcDbSymbolTableRecord
100
AcDbLayerTableRecord
  2
0402_C_REF_B__1_21
 70
0
 62
7
  6
CONTINUOUS
370
-3
390
F
  0
LAYER
  5
292
100
AcDbSymbolTableRecord
100
AcDbLayerTableRecord
  2
0402_C_REF_B__1_22
 70
0
 62
7
  6
CONTINUOUS
370
-3
390
F
  0
LAYER
  5
293
100
AcDbSymbolTableRecord
100
AcDbLayerTableRecord
  2
0402_C_REF_B__1_23
 70
0
 62
7
  6
CONTINUOUS
370
-3
390
F
  0
LAYER
  5
294
100
AcDbSymbolTableRecord
100
AcDbLayerTableRecord
  2
0402_C_REF_B__1_24
 70
0
 62
7
  6
CONTINUOUS
370
-3
390
F
  0
LAYER
  5
295
100
AcDbSymbolTableRecord
100
AcDbLayerTableRecord
  2
0402_C_REF_B__1_25
 70
0
 62
7
  6
CONTINUOUS
370
-3
390
F
  0
LAYER
  5
296
100
AcDbSymbolTableRecord
100
AcDbLayerTableRecord
  2
0402_C_REF_B__1_26
 70
0
 62
7
  6
CONTINUOUS
370
-3
390
F
  0
LAYER
  5
297
100
AcDbSymbolTableRecord
100
AcDbLayerTableRecord
  2
0402_C_REF_B__1_27
 70
0
 62
7
  6
CONTINUOUS
370
-3
390
F
  0
LAYER
  5
298
100
AcDbSymbolTableRecord
100
AcDbLayerTableRecord
  2
0402_C_REF_B__1_28
 70
0
 62
7
  6
CONTINUOUS
370
-3
390
F
  0
LAYER
  5
299
100
AcDbSymbolTableRecord
100
AcDbLayerTableRecord
  2
0402_C_REF_B__1_29
 70
0
 62
7
  6
CONTINUOUS
370
-3
390
F
  0
LAYER
  5
29A
100
AcDbSymbolTableRecord
100
AcDbLayerTableRecord
  2
0402_C_REF_B__1_3
 70
0
 62
7
  6
CONTINUOUS
370
-3
390
F
  0
LAYER
  5
29B
100
AcDbSymbolTableRecord
100
AcDbLayerTableRecord
  2
0402_C_REF_B__1_30
 70
0
 62
7
  6
CONTINUOUS
370
-3
390
F
  0
LAYER
  5
29C
100
AcDbSymbolTableRecord
100
AcDbLayerTableRecord
  2
0402_C_REF_B__1_31
 70
0
 62
7
  6
CONTINUOUS
370
-3
390
F
  0
LAYER
  5
29D
100
AcDbSymbolTableRecord
100
AcDbLayerTableRecord
  2
0402_C_REF_B__1_32
 70
0
 62
7
  6
CONTINUOUS
370
-3
390
F
  0
LAYER
  5
29E
100
AcDbSymbolTableRecord
100
AcDbLayerTableRecord
  2
0402_C_REF_B__1_33
 70
0
 62
7
  6
CONTINUOUS
370
-3
390
F
  0
LAYER
  5
29F
100
AcDbSymbolTableRecord
100
AcDbLayerTableRecord
  2
0402_C_REF_B__1_34
 70
0
 62
7
  6
CONTINUOUS
370
-3
390
F
  0
LAYER
  5
2A0
100
AcDbSymbolTableRecord
100
AcDbLayerTableRecord
  2
0402_C_REF_B__1_35
 70
0
 62
7
  6
CONTINUOUS
370
-3
390
F
  0
LAYER
  5
2A1
100
AcDbSymbolTableRecord
100
AcDbLayerTableRecord
  2
0402_C_REF_B__1_36
 70
0
 62
7
  6
CONTINUOUS
370
-3
390
F
  0
LAYER
  5
2A2
100
AcDbSymbolTableRecord
100
AcDbLayerTableRecord
  2
0402_C_REF_B__1_4
 70
0
 62
7
  6
CONTINUOUS
370
-3
390
F
  0
LAYER
  5
2A3
100
AcDbSymbolTableRecord
100
AcDbLayerTableRecord
  2
0402_C_REF_B__1_5
 70
0
 62
7
  6
CONTINUOUS
370
-3
390
F
  0
LAYER
  5
2A4
100
AcDbSymbolTableRecord
100
AcDbLayerTableRecord
  2
0402_C_REF_B__1_6
 70
0
 62
7
  6
CONTINUOUS
370
-3
390
F
  0
LAYER
  5
2A5
100
AcDbSymbolTableRecord
100
AcDbLayerTableRecord
  2
0402_C_REF_B__1_7
 70
0
 62
7
  6
CONTINUOUS
370
-3
390
F
  0
LAYER
  5
2A6
100
AcDbSymbolTableRecord
100
AcDbLayerTableRecord
  2
0402_C_REF_B__1_8
 70
0
 62
7
  6
CONTINUOUS
370
-3
390
F
  0
LAYER
  5
2A7
100
AcDbSymbolTableRecord
100
AcDbLayerTableRecord
  2
0402_C_REF_B__1_9
 70
0
 62
7
  6
CONTINUOUS
370
-3
390
F
  0
LAYER
  5
2A8
100
AcDbSymbolTableRecord
100
AcDbLayerTableRecord
  2
0402_C_REF_B__2
 70
0
 62
7
  6
CONTINUOUS
370
-3
390
F
  0
LAYER
  5
2A9
100
AcDbSymbolTableRecord
100
AcDbLayerTableRecord
  2
0402_C_REF_B__20
 70
0
 62
7
  6
CONTINUOUS
370
-3
390
F
  0
LAYER
  5
2AA
100
AcDbSymbolTableRecord
100
AcDbLayerTableRecord
  2
0402_C_REF_B__21
 70
0
 62
7
  6
CONTINUOUS
370
-3
390
F
  0
LAYER
  5
2AB
100
AcDbSymbolTableRecord
100
AcDbLayerTableRecord
  2
0402_C_REF_B__22
 70
0
 62
7
  6
CONTINUOUS
370
-3
390
F
  0
LAYER
  5
2AC
100
AcDbSymbolTableRecord
100
AcDbLayerTableRecord
  2
0402_C_REF_B__23
 70
0
 62
7
  6
CONTINUOUS
370
-3
390
F
  0
LAYER
  5
2AD
100
AcDbSymbolTableRecord
100
AcDbLayerTableRecord
  2
0402_C_REF_B__24
 70
0
 62
7
  6
CONTINUOUS
370
-3
390
F
  0
LAYER
  5
2AE
100
AcDbSymbolTableRecord
100
AcDbLayerTableRecord
  2
0402_C_REF_B__25
 70
0
 62
7
  6
CONTINUOUS
370
-3
390
F
  0
LAYER
  5
2AF
100
AcDbSymbolTableRecord
100
AcDbLayerTableRecord
  2
0402_C_REF_B__26
 70
0
 62
7
  6
CONTINUOUS
370
-3
390
F
  0
LAYER
  5
2B0
100
AcDbSymbolTableRecord
100
AcDbLayerTableRecord
  2
0402_C_REF_B__27
 70
0
 62
7
  6
CONTINUOUS
370
-3
390
F
  0
LAYER
  5
2B1
100
AcDbSymbolTableRecord
100
AcDbLayerTableRecord
  2
0402_C_REF_B__28
 70
0
 62
7
  6
CONTINUOUS
370
-3
390
F
  0
LAYER
  5
2B2
100
AcDbSymbolTableRecord
100
AcDbLayerTableRecord
  2
0402_C_REF_B__29
 70
0
 62
7
  6
CONTINUOUS
370
-3
390
F
  0
LAYER
  5
2B3
100
AcDbSymbolTableRecord
100
AcDbLayerTableRecord
  2
0402_C_REF_B__3
 70
0
 62
7
  6
CONTINUOUS
370
-3
390
F
  0
LAYER
  5
2B4
100
AcDbSymbolTableRecord
100
AcDbLayerTableRecord
  2
0402_C_REF_B__30
 70
0
 62
7
  6
CONTINUOUS
370
-3
390
F
  0
LAYER
  5
2B5
100
AcDbSymbolTableRecord
100
AcDbLayerTableRecord
  2
0402_C_REF_B__31
 70
0
 62
7
  6
CONTINUOUS
370
-3
390
F
  0
LAYER
  5
2B6
100
AcDbSymbolTableRecord
100
AcDbLayerTableRecord
  2
0402_C_REF_B__32
 70
0
 62
7
  6
CONTINUOUS
370
-3
390
F
  0
LAYER
  5
2B7
100
AcDbSymbolTableRecord
100
AcDbLayerTableRecord
  2
0402_C_REF_B__33
 70
0
 62
7
  6
CONTINUOUS
370
-3
390
F
  0
LAYER
  5
2B8
100
AcDbSymbolTableRecord
100
AcDbLayerTableRecord
  2
0402_C_REF_B__34
 70
0
 62
7
  6
CONTINUOUS
370
-3
390
F
  0
LAYER
  5
2B9
100
AcDbSymbolTableRecord
100
AcDbLayerTableRecord
  2
0402_C_REF_B__35
 70
0
 62
7
  6
CONTINUOUS
370
-3
390
F
  0
LAYER
  5
2BA
100
AcDbSymbolTableRecord
100
AcDbLayerTableRecord
  2
0402_C_REF_B__36
 70
0
 62
7
  6
CONTINUOUS
370
-3
390
F
  0
LAYER
  5
2BB
100
AcDbSymbolTableRecord
100
AcDbLayerTableRecord
  2
0402_C_REF_B__37
 70
0
 62
7
  6
CONTINUOUS
370
-3
390
F
  0
LAYER
  5
2BC
100
AcDbSymbolTableRecord
100
AcDbLayerTableRecord
  2
0402_C_REF_B__4
 70
0
 62
7
  6
CONTINUOUS
370
-3
390
F
  0
LAYER
  5
2BD
100
AcDbSymbolTableRecord
100
AcDbLayerTableRecord
  2
0402_C_REF_B__5
 70
0
 62
7
  6
CONTINUOUS
370
-3
390
F
  0
LAYER
  5
2BE
100
AcDbSymbolTableRecord
100
AcDbLayerTableRecord
  2
0402_C_REF_B__6
 70
0
 62
7
  6
CONTINUOUS
370
-3
390
F
  0
LAYER
  5
2BF
100
AcDbSymbolTableRecord
100
AcDbLayerTableRecord
  2
0402_C_REF_B__7
 70
0
 62
7
  6
CONTINUOUS
370
-3
390
F
  0
LAYER
  5
2C0
100
AcDbSymbolTableRecord
100
AcDbLayerTableRecord
  2
0402_C_REF_B__8
 70
0
 62
7
  6
CONTINUOUS
370
-3
390
F
  0
LAYER
  5
2C1
100
AcDbSymbolTableRecord
100
AcDbLayerTableRecord
  2
0402_C_REF_B__9
 70
0
 62
7
  6
CONTINUOUS
370
-3
390
F
  0
LAYER
  5
2C2
100
AcDbSymbolTableRecord
100
AcDbLayerTableRecord
  2
0402_L_REF
 70
0
 62
7
  6
CONTINUOUS
370
-3
390
F
  0
LAYER
  5
2C3
100
AcDbSymbolTableRecord
100
AcDbLayerTableRecord
  2
0402_L_REF_1
 70
0
 62
7
  6
CONTINUOUS
370
-3
390
F
  0
LAYER
  5
2C4
100
AcDbSymbolTableRecord
100
AcDbLayerTableRecord
  2
0402_L_REF_55000
 70
0
 62
7
  6
CONTINUOUS
370
-3
390
F
  0
LAYER
  5
2C5
100
AcDbSymbolTableRecord
100
AcDbLayerTableRecord
  2
0402_L_REF_55000_1
 70
0
 62
7
  6
CONTINUOUS
370
-3
390
F
  0
LAYER
  5
2C6
100
AcDbSymbolTableRecord
100
AcDbLayerTableRecord
  2
0402_L_REF_55000_2
 70
0
 62
7
  6
CONTINUOUS
370
-3
390
F
  0
LAYER
  5
2C7
100
AcDbSymbolTableRecord
100
AcDbLayerTableRecord
  2
0402_L_REF_55000_3
 70
0
 62
7
  6
CONTINUOUS
370
-3
390
F
  0
LAYER
  5
2C8
100
AcDbSymbolTableRecord
100
AcDbLayerTableRecord
  2
0402_R_REF
 70
0
 62
7
  6
CONTINUOUS
370
-3
390
F
  0
LAYER
  5
2C9
100
AcDbSymbolTableRecord
100
AcDbLayerTableRecord
  2
0402_R_REF_1
 70
0
 62
7
  6
CONTINUOUS
370
-3
390
F
  0
LAYER
  5
2CA
100
AcDbSymbolTableRecord
100
AcDbLayerTableRecord
  2
0402_R_REF_10
 70
0
 62
7
  6
CONTINUOUS
370
-3
390
F
  0
LAYER
  5
2CB
100
AcDbSymbolTableRecord
100
AcDbLayerTableRecord
  2
0402_R_REF_11
 70
0
 62
7
  6
CONTINUOUS
370
-3
390
F
  0
LAYER
  5
2CC
100
AcDbSymbolTableRecord
100
AcDbLayerTableRecord
  2
0402_R_REF_12
 70
0
 62
7
  6
CONTINUOUS
370
-3
390
F
  0
LAYER
  5
2CD
100
AcDbSymbolTableRecord
100
AcDbLayerTableRecord
  2
0402_R_REF_13
 70
0
 62
7
  6
CONTINUOUS
370
-3
390
F
  0
LAYER
  5
2CE
100
AcDbSymbolTableRecord
100
AcDbLayerTableRecord
  2
0402_R_REF_14
 70
0
 62
7
  6
CONTINUOUS
370
-3
390
F
  0
LAYER
  5
2CF
100
AcDbSymbolTableRecord
100
AcDbLayerTableRecord
  2
0402_R_REF_15
 70
0
 62
7
  6
CONTINUOUS
370
-3
390
F
  0
LAYER
  5
2D0
100
AcDbSymbolTableRecord
100
AcDbLayerTableRecord
  2
0402_R_REF_16
 70
0
 62
7
  6
CONTINUOUS
370
-3
390
F
  0
LAYER
  5
2D1
100
AcDbSymbolTableRecord
100
AcDbLayerTableRecord
  2
0402_R_REF_17
 70
0
 62
7
  6
CONTINUOUS
370
-3
390
F
  0
LAYER
  5
2D2
100
AcDbSymbolTableRecord
100
AcDbLayerTableRecord
  2
0402_R_REF_18
 70
0
 62
7
  6
CONTINUOUS
370
-3
390
F
  0
LAYER
  5
2D3
100
AcDbSymbolTableRecord
100
AcDbLayerTableRecord
  2
0402_R_REF_19
 70
0
 62
7
  6
CONTINUOUS
370
-3
390
F
  0
LAYER
  5
2D4
100
AcDbSymbolTableRecord
100
AcDbLayerTableRecord
  2
0402_R_REF_1_1
 70
0
 62
7
  6
CONTINUOUS
370
-3
390
F
  0
LAYER
  5
2D5
100
AcDbSymbolTableRecord
100
AcDbLayerTableRecord
  2
0402_R_REF_1_10
 70
0
 62
7
  6
CONTINUOUS
370
-3
390
F
  0
LAYER
  5
2D6
100
AcDbSymbolTableRecord
100
AcDbLayerTableRecord
  2
0402_R_REF_1_11
 70
0
 62
7
  6
CONTINUOUS
370
-3
390
F
  0
LAYER
  5
2D7
100
AcDbSymbolTableRecord
100
AcDbLayerTableRecord
  2
0402_R_REF_1_12
 70
0
 62
7
  6
CONTINUOUS
370
-3
390
F
  0
LAYER
  5
2D8
100
AcDbSymbolTableRecord
100
AcDbLayerTableRecord
  2
0402_R_REF_1_13
 70
0
 62
7
  6
CONTINUOUS
370
-3
390
F
  0
LAYER
  5
2D9
100
AcDbSymbolTableRecord
100
AcDbLayerTableRecord
  2
0402_R_REF_1_14
 70
0
 62
7
  6
CONTINUOUS
370
-3
390
F
  0
LAYER
  5
2DA
100
AcDbSymbolTableRecord
100
AcDbLayerTableRecord
  2
0402_R_REF_1_15
 70
0
 62
7
  6
CONTINUOUS
370
-3
390
F
  0
LAYER
  5
2DB
100
AcDbSymbolTableRecord
100
AcDbLayerTableRecord
  2
0402_R_REF_1_16
 70
0
 62
7
  6
CONTINUOUS
370
-3
390
F
  0
LAYER
  5
2DC
100
AcDbSymbolTableRecord
100
AcDbLayerTableRecord
  2
0402_R_REF_1_17
 70
0
 62
7
  6
CONTINUOUS
370
-3
390
F
  0
LAYER
  5
2DD
100
AcDbSymbolTableRecord
100
AcDbLayerTableRecord
  2
0402_R_REF_1_18
 70
0
 62
7
  6
CONTINUOUS
370
-3
390
F
  0
LAYER
  5
2DE
100
AcDbSymbolTableRecord
100
AcDbLayerTableRecord
  2
0402_R_REF_1_19
 70
0
 62
7
  6
CONTINUOUS
370
-3
390
F
  0
LAYER
  5
2DF
100
AcDbSymbolTableRecord
100
AcDbLayerTableRecord
  2
0402_R_REF_1_2
 70
0
 62
7
  6
CONTINUOUS
370
-3
390
F
  0
LAYER
  5
2E0
100
AcDbSymbolTableRecord
100
AcDbLayerTableRecord
  2
0402_R_REF_1_20
 70
0
 62
7
  6
CONTINUOUS
370
-3
390
F
  0
LAYER
  5
2E1
100
AcDbSymbolTableRecord
100
AcDbLayerTableRecord
  2
0402_R_REF_1_21
 70
0
 62
7
  6
CONTINUOUS
370
-3
390
F
  0
LAYER
  5
2E2
100
AcDbSymbolTableRecord
100
AcDbLayerTableRecord
  2
0402_R_REF_1_22
 70
0
 62
7
  6
CONTINUOUS
370
-3
390
F
  0
LAYER
  5
2E3
100
AcDbSymbolTableRecord
100
AcDbLayerTableRecord
  2
0402_R_REF_1_23
 70
0
 62
7
  6
CONTINUOUS
370
-3
390
F
  0
LAYER
  5
2E4
100
AcDbSymbolTableRecord
100
AcDbLayerTableRecord
  2
0402_R_REF_1_24
 70
0
 62
7
  6
CONTINUOUS
370
-3
390
F
  0
LAYER
  5
2E5
100
AcDbSymbolTableRecord
100
AcDbLayerTableRecord
  2
0402_R_REF_1_25
 70
0
 62
7
  6
CONTINUOUS
370
-3
390
F
  0
LAYER
  5
2E6
100
AcDbSymbolTableRecord
100
AcDbLayerTableRecord
  2
0402_R_REF_1_26
 70
0
 62
7
  6
CONTINUOUS
370
-3
390
F
  0
LAYER
  5
2E7
100
AcDbSymbolTableRecord
100
AcDbLayerTableRecord
  2
0402_R_REF_1_27
 70
0
 62
7
  6
CONTINUOUS
370
-3
390
F
  0
LAYER
  5
2E8
100
AcDbSymbolTableRecord
100
AcDbLayerTableRecord
  2
0402_R_REF_1_28
 70
0
 62
7
  6
CONTINUOUS
370
-3
390
F
  0
LAYER
  5
2E9
100
AcDbSymbolTableRecord
100
AcDbLayerTableRecord
  2
0402_R_REF_1_29
 70
0
 62
7
  6
CONTINUOUS
370
-3
390
F
  0
LAYER
  5
2EA
100
AcDbSymbolTableRecord
100
AcDbLayerTableRecord
  2
0402_R_REF_1_3
 70
0
 62
7
  6
CONTINUOUS
370
-3
390
F
  0
LAYER
  5
2EB
100
AcDbSymbolTableRecord
100
AcDbLayerTableRecord
  2
0402_R_REF_1_30
 70
0
 62
7
  6
CONTINUOUS
370
-3
390
F
  0
LAYER
  5
2EC
100
AcDbSymbolTableRecord
100
AcDbLayerTableRecord
  2
0402_R_REF_1_31
 70
0
 62
7
  6
CONTINUOUS
370
-3
390
F
  0
LAYER
  5
2ED
100
AcDbSymbolTableRecord
100
AcDbLayerTableRecord
  2
0402_R_REF_1_32
 70
0
 62
7
  6
CONTINUOUS
370
-3
390
F
  0
LAYER
  5
2EE
100
AcDbSymbolTableRecord
100
AcDbLayerTableRecord
  2
0402_R_REF_1_33
 70
0
 62
7
  6
CONTINUOUS
370
-3
390
F
  0
LAYER
  5
2EF
100
AcDbSymbolTableRecord
100
AcDbLayerTableRecord
  2
0402_R_REF_1_34
 70
0
 62
7
  6
CONTINUOUS
370
-3
390
F
  0
LAYER
  5
2F0
100
AcDbSymbolTableRecord
100
AcDbLayerTableRecord
  2
0402_R_REF_1_35
 70
0
 62
7
  6
CONTINUOUS
370
-3
390
F
  0
LAYER
  5
2F1
100
AcDbSymbolTableRecord
100
AcDbLayerTableRecord
  2
0402_R_REF_1_4
 70
0
 62
7
  6
CONTINUOUS
370
-3
390
F
  0
LAYER
  5
2F2
100
AcDbSymbolTableRecord
100
AcDbLayerTableRecord
  2
0402_R_REF_1_5
 70
0
 62
7
  6
CONTINUOUS
370
-3
390
F
  0
LAYER
  5
2F3
100
AcDbSymbolTableRecord
100
AcDbLayerTableRecord
  2
0402_R_REF_1_6
 70
0
 62
7
  6
CONTINUOUS
370
-3
390
F
  0
LAYER
  5
2F4
100
AcDbSymbolTableRecord
100
AcDbLayerTableRecord
  2
0402_R_REF_1_7
 70
0
 62
7
  6
CONTINUOUS
370
-3
390
F
  0
LAYER
  5
2F5
100
AcDbSymbolTableRecord
100
AcDbLayerTableRecord
  2
0402_R_REF_1_8
 70
0
 62
7
  6
CONTINUOUS
370
-3
390
F
  0
LAYER
  5
2F6
100
AcDbSymbolTableRecord
100
AcDbLayerTableRecord
  2
0402_R_REF_1_9
 70
0
 62
7
  6
CONTINUOUS
370
-3
390
F
  0
LAYER
  5
2F7
100
AcDbSymbolTableRecord
100
AcDbLayerTableRecord
  2
0402_R_REF_2
 70
0
 62
7
  6
CONTINUOUS
370
-3
390
F
  0
LAYER
  5
2F8
100
AcDbSymbolTableRecord
100
AcDbLayerTableRecord
  2
0402_R_REF_20
 70
0
 62
7
  6
CONTINUOUS
370
-3
390
F
  0
LAYER
  5
2F9
100
AcDbSymbolTableRecord
100
AcDbLayerTableRecord
  2
0402_R_REF_21
 70
0
 62
7
  6
CONTINUOUS
370
-3
390
F
  0
LAYER
  5
2FA
100
AcDbSymbolTableRecord
100
AcDbLayerTableRecord
  2
0402_R_REF_22
 70
0
 62
7
  6
CONTINUOUS
370
-3
390
F
  0
LAYER
  5
2FB
100
AcDbSymbolTableRecord
100
AcDbLayerTableRecord
  2
0402_R_REF_23
 70
0
 62
7
  6
CONTINUOUS
370
-3
390
F
  0
LAYER
  5
2FC
100
AcDbSymbolTableRecord
100
AcDbLayerTableRecord
  2
0402_R_REF_24
 70
0
 62
7
  6
CONTINUOUS
370
-3
390
F
  0
LAYER
  5
2FD
100
AcDbSymbolTableRecord
100
AcDbLayerTableRecord
  2
0402_R_REF_25
 70
0
 62
7
  6
CONTINUOUS
370
-3
390
F
  0
LAYER
  5
2FE
100
AcDbSymbolTableRecord
100
AcDbLayerTableRecord
  2
0402_R_REF_26
 70
0
 62
7
  6
CONTINUOUS
370
-3
390
F
  0
LAYER
  5
2FF
100
AcDbSymbolTableRecord
100
AcDbLayerTableRecord
  2
0402_R_REF_27
 70
0
 62
7
  6
CONTINUOUS
370
-3
390
F
  0
LAYER
  5
300
100
AcDbSymbolTableRecord
100
AcDbLayerTableRecord
  2
0402_R_REF_28
 70
0
 62
7
  6
CONTINUOUS
370
-3
390
F
  0
LAYER
  5
301
100
AcDbSymbolTableRecord
100
AcDbLayerTableRecord
  2
0402_R_REF_29
 70
0
 62
7
  6
CONTINUOUS
370
-3
390
F
  0
LAYER
  5
302
100
AcDbSymbolTableRecord
100
AcDbLayerTableRecord
  2
0402_R_REF_3
 70
0
 62
7
  6
CONTINUOUS
370
-3
390
F
  0
LAYER
  5
303
100
AcDbSymbolTableRecord
100
AcDbLayerTableRecord
  2
0402_R_REF_30
 70
0
 62
7
  6
CONTINUOUS
370
-3
390
F
  0
LAYER
  5
304
100
AcDbSymbolTableRecord
100
AcDbLayerTableRecord
  2
0402_R_REF_30000
 70
0
 62
7
  6
CONTINUOUS
370
-3
390
F
  0
LAYER
  5
305
100
AcDbSymbolTableRecord
100
AcDbLayerTableRecord
  2
0402_R_REF_30000_1
 70
0
 62
7
  6
CONTINUOUS
370
-3
390
F
  0
LAYER
  5
306
100
AcDbSymbolTableRecord
100
AcDbLayerTableRecord
  2
0402_R_REF_30000_10
 70
0
 62
7
  6
CONTINUOUS
370
-3
390
F
  0
LAYER
  5
307
100
AcDbSymbolTableRecord
100
AcDbLayerTableRecord
  2
0402_R_REF_30000_11
 70
0
 62
7
  6
CONTINUOUS
370
-3
390
F
  0
LAYER
  5
308
100
AcDbSymbolTableRecord
100
AcDbLayerTableRecord
  2
0402_R_REF_30000_12
 70
0
 62
7
  6
CONTINUOUS
370
-3
390
F
  0
LAYER
  5
309
100
AcDbSymbolTableRecord
100
AcDbLayerTableRecord
  2
0402_R_REF_30000_13
 70
0
 62
7
  6
CONTINUOUS
370
-3
390
F
  0
LAYER
  5
30A
100
AcDbSymbolTableRecord
100
AcDbLayerTableRecord
  2
0402_R_REF_30000_14
 70
0
 62
7
  6
CONTINUOUS
370
-3
390
F
  0
LAYER
  5
30B
100
AcDbSymbolTableRecord
100
AcDbLayerTableRecord
  2
0402_R_REF_30000_15
 70
0
 62
7
  6
CONTINUOUS
370
-3
390
F
  0
LAYER
  5
30C
100
AcDbSymbolTableRecord
100
AcDbLayerTableRecord
  2
0402_R_REF_30000_16
 70
0
 62
7
  6
CONTINUOUS
370
-3
390
F
  0
LAYER
  5
30D
100
AcDbSymbolTableRecord
100
AcDbLayerTableRecord
  2
0402_R_REF_30000_17
 70
0
 62
7
  6
CONTINUOUS
370
-3
390
F
  0
LAYER
  5
30E
100
AcDbSymbolTableRecord
100
AcDbLayerTableRecord
  2
0402_R_REF_30000_18
 70
0
 62
7
  6
CONTINUOUS
370
-3
390
F
  0
LAYER
  5
30F
100
AcDbSymbolTableRecord
100
AcDbLayerTableRecord
  2
0402_R_REF_30000_19
 70
0
 62
7
  6
CONTINUOUS
370
-3
390
F
  0
LAYER
  5
310
100
AcDbSymbolTableRecord
100
AcDbLayerTableRecord
  2
0402_R_REF_30000_2
 70
0
 62
7
  6
CONTINUOUS
370
-3
390
F
  0
LAYER
  5
311
100
AcDbSymbolTableRecord
100
AcDbLayerTableRecord
  2
0402_R_REF_30000_20
 70
0
 62
7
  6
CONTINUOUS
370
-3
390
F
  0
LAYER
  5
312
100
AcDbSymbolTableRecord
100
AcDbLayerTableRecord
  2
0402_R_REF_30000_21
 70
0
 62
7
  6
CONTINUOUS
370
-3
390
F
  0
LAYER
  5
313
100
AcDbSymbolTableRecord
100
AcDbLayerTableRecord
  2
0402_R_REF_30000_22
 70
0
 62
7
  6
CONTINUOUS
370
-3
390
F
  0
LAYER
  5
314
100
AcDbSymbolTableRecord
100
AcDbLayerTableRecord
  2
0402_R_REF_30000_23
 70
0
 62
7
  6
CONTINUOUS
370
-3
390
F
  0
LAYER
  5
315
100
AcDbSymbolTableRecord
100
AcDbLayerTableRecord
  2
0402_R_REF_30000_24
 70
0
 62
7
  6
CONTINUOUS
370
-3
390
F
  0
LAYER
  5
316
100
AcDbSymbolTableRecord
100
AcDbLayerTableRecord
  2
0402_R_REF_30000_25
 70
0
 62
7
  6
CONTINUOUS
370
-3
390
F
  0
LAYER
  5
317
100
AcDbSymbolTableRecord
100
AcDbLayerTableRecord
  2
0402_R_REF_30000_26
 70
0
 62
7
  6
CONTINUOUS
370
-3
390
F
  0
LAYER
  5
318
100
AcDbSymbolTableRecord
100
AcDbLayerTableRecord
  2
0402_R_REF_30000_27
 70
0
 62
7
  6
CONTINUOUS
370
-3
390
F
  0
LAYER
  5
319
100
AcDbSymbolTableRecord
100
AcDbLayerTableRecord
  2
0402_R_REF_30000_28
 70
0
 62
7
  6
CONTINUOUS
370
-3
390
F
  0
LAYER
  5
31A
100
AcDbSymbolTableRecord
100
AcDbLayerTableRecord
  2
0402_R_REF_30000_29
 70
0
 62
7
  6
CONTINUOUS
370
-3
390
F
  0
LAYER
  5
31B
100
AcDbSymbolTableRecord
100
AcDbLayerTableRecord
  2
0402_R_REF_30000_3
 70
0
 62
7
  6
CONTINUOUS
370
-3
390
F
  0
LAYER
  5
31C
100
AcDbSymbolTableRecord
100
AcDbLayerTableRecord
  2
0402_R_REF_30000_30
 70
0
 62
7
  6
CONTINUOUS
370
-3
390
F
  0
LAYER
  5
31D
100
AcDbSymbolTableRecord
100
AcDbLayerTableRecord
  2
0402_R_REF_30000_31
 70
0
 62
7
  6
CONTINUOUS
370
-3
390
F
  0
LAYER
  5
31E
100
AcDbSymbolTableRecord
100
AcDbLayerTableRecord
  2
0402_R_REF_30000_32
 70
0
 62
7
  6
CONTINUOUS
370
-3
390
F
  0
LAYER
  5
31F
100
AcDbSymbolTableRecord
100
AcDbLayerTableRecord
  2
0402_R_REF_30000_33
 70
0
 62
7
  6
CONTINUOUS
370
-3
390
F
  0
LAYER
  5
320
100
AcDbSymbolTableRecord
100
AcDbLayerTableRecord
  2
0402_R_REF_30000_34
 70
0
 62
7
  6
CONTINUOUS
370
-3
390
F
  0
LAYER
  5
321
100
AcDbSymbolTableRecord
100
AcDbLayerTableRecord
  2
0402_R_REF_30000_35
 70
0
 62
7
  6
CONTINUOUS
370
-3
390
F
  0
LAYER
  5
322
100
AcDbSymbolTableRecord
100
AcDbLayerTableRecord
  2
0402_R_REF_30000_36
 70
0
 62
7
  6
CONTINUOUS
370
-3
390
F
  0
LAYER
  5
323
100
AcDbSymbolTableRecord
100
AcDbLayerTableRecord
  2
0402_R_REF_30000_37
 70
0
 62
7
  6
CONTINUOUS
370
-3
390
F
  0
LAYER
  5
324
100
AcDbSymbolTableRecord
100
AcDbLayerTableRecord
  2
0402_R_REF_30000_38
 70
0
 62
7
  6
CONTINUOUS
370
-3
390
F
  0
LAYER
  5
325
100
AcDbSymbolTableRecord
100
AcDbLayerTableRecord
  2
0402_R_REF_30000_39
 70
0
 62
7
  6
CONTINUOUS
370
-3
390
F
  0
LAYER
  5
326
100
AcDbSymbolTableRecord
100
AcDbLayerTableRecord
  2
0402_R_REF_30000_4
 70
0
 62
7
  6
CONTINUOUS
370
-3
390
F
  0
LAYER
  5
327
100
AcDbSymbolTableRecord
100
AcDbLayerTableRecord
  2
0402_R_REF_30000_40
 70
0
 62
7
  6
CONTINUOUS
370
-3
390
F
  0
LAYER
  5
328
100
AcDbSymbolTableRecord
100
AcDbLayerTableRecord
  2
0402_R_REF_30000_41
 70
0
 62
7
  6
CONTINUOUS
370
-3
390
F
  0
LAYER
  5
329
100
AcDbSymbolTableRecord
100
AcDbLayerTableRecord
  2
0402_R_REF_30000_42
 70
0
 62
7
  6
CONTINUOUS
370
-3
390
F
  0
LAYER
  5
32A
100
AcDbSymbolTableRecord
100
AcDbLayerTableRecord
  2
0402_R_REF_30000_43
 70
0
 62
7
  6
CONTINUOUS
370
-3
390
F
  0
LAYER
  5
32B
100
AcDbSymbolTableRecord
100
AcDbLayerTableRecord
  2
0402_R_REF_30000_44
 70
0
 62
7
  6
CONTINUOUS
370
-3
390
F
  0
LAYER
  5
32C
100
AcDbSymbolTableRecord
100
AcDbLayerTableRecord
  2
0402_R_REF_30000_45
 70
0
 62
7
  6
CONTINUOUS
370
-3
390
F
  0
LAYER
  5
32D
100
AcDbSymbolTableRecord
100
AcDbLayerTableRecord
  2
0402_R_REF_30000_46
 70
0
 62
7
  6
CONTINUOUS
370
-3
390
F
  0
LAYER
  5
32E
100
AcDbSymbolTableRecord
100
AcDbLayerTableRecord
  2
0402_R_REF_30000_47
 70
0
 62
7
  6
CONTINUOUS
370
-3
390
F
  0
LAYER
  5
32F
100
AcDbSymbolTableRecord
100
AcDbLayerTableRecord
  2
0402_R_REF_30000_48
 70
0
 62
7
  6
CONTINUOUS
370
-3
390
F
  0
LAYER
  5
330
100
AcDbSymbolTableRecord
100
AcDbLayerTableRecord
  2
0402_R_REF_30000_49
 70
0
 62
7
  6
CONTINUOUS
370
-3
390
F
  0
LAYER
  5
331
100
AcDbSymbolTableRecord
100
AcDbLayerTableRecord
  2
0402_R_REF_30000_5
 70
0
 62
7
  6
CONTINUOUS
370
-3
390
F
  0
LAYER
  5
332
100
AcDbSymbolTableRecord
100
AcDbLayerTableRecord
  2
0402_R_REF_30000_50
 70
0
 62
7
  6
CONTINUOUS
370
-3
390
F
  0
LAYER
  5
333
100
AcDbSymbolTableRecord
100
AcDbLayerTableRecord
  2
0402_R_REF_30000_51
 70
0
 62
7
  6
CONTINUOUS
370
-3
390
F
  0
LAYER
  5
334
100
AcDbSymbolTableRecord
100
AcDbLayerTableRecord
  2
0402_R_REF_30000_52
 70
0
 62
7
  6
CONTINUOUS
370
-3
390
F
  0
LAYER
  5
335
100
AcDbSymbolTableRecord
100
AcDbLayerTableRecord
  2
0402_R_REF_30000_53
 70
0
 62
7
  6
CONTINUOUS
370
-3
390
F
  0
LAYER
  5
336
100
AcDbSymbolTableRecord
100
AcDbLayerTableRecord
  2
0402_R_REF_30000_54
 70
0
 62
7
  6
CONTINUOUS
370
-3
390
F
  0
LAYER
  5
337
100
AcDbSymbolTableRecord
100
AcDbLayerTableRecord
  2
0402_R_REF_30000_55
 70
0
 62
7
  6
CONTINUOUS
370
-3
390
F
  0
LAYER
  5
338
100
AcDbSymbolTableRecord
100
AcDbLayerTableRecord
  2
0402_R_REF_30000_56
 70
0
 62
7
  6
CONTINUOUS
370
-3
390
F
  0
LAYER
  5
339
100
AcDbSymbolTableRecord
100
AcDbLayerTableRecord
  2
0402_R_REF_30000_57
 70
0
 62
7
  6
CONTINUOUS
370
-3
390
F
  0
LAYER
  5
33A
100
AcDbSymbolTableRecord
100
AcDbLayerTableRecord
  2
0402_R_REF_30000_58
 70
0
 62
7
  6
CONTINUOUS
370
-3
390
F
  0
LAYER
  5
33B
100
AcDbSymbolTableRecord
100
AcDbLayerTableRecord
  2
0402_R_REF_30000_59
 70
0
 62
7
  6
CONTINUOUS
370
-3
390
F
  0
LAYER
  5
33C
100
AcDbSymbolTableRecord
100
AcDbLayerTableRecord
  2
0402_R_REF_30000_6
 70
0
 62
7
  6
CONTINUOUS
370
-3
390
F
  0
LAYER
  5
33D
100
AcDbSymbolTableRecord
100
AcDbLayerTableRecord
  2
0402_R_REF_30000_60
 70
0
 62
7
  6
CONTINUOUS
370
-3
390
F
  0
LAYER
  5
33E
100
AcDbSymbolTableRecord
100
AcDbLayerTableRecord
  2
0402_R_REF_30000_61
 70
0
 62
7
  6
CONTINUOUS
370
-3
390
F
  0
LAYER
  5
33F
100
AcDbSymbolTableRecord
100
AcDbLayerTableRecord
  2
0402_R_REF_30000_62
 70
0
 62
7
  6
CONTINUOUS
370
-3
390
F
  0
LAYER
  5
340
100
AcDbSymbolTableRecord
100
AcDbLayerTableRecord
  2
0402_R_REF_30000_63
 70
0
 62
7
  6
CONTINUOUS
370
-3
390
F
  0
LAYER
  5
341
100
AcDbSymbolTableRecord
100
AcDbLayerTableRecord
  2
0402_R_REF_30000_64
 70
0
 62
7
  6
CONTINUOUS
370
-3
390
F
  0
LAYER
  5
342
100
AcDbSymbolTableRecord
100
AcDbLayerTableRecord
  2
0402_R_REF_30000_65
 70
0
 62
7
  6
CONTINUOUS
370
-3
390
F
  0
LAYER
  5
343
100
AcDbSymbolTableRecord
100
AcDbLayerTableRecord
  2
0402_R_REF_30000_66
 70
0
 62
7
  6
CONTINUOUS
370
-3
390
F
  0
LAYER
  5
344
100
AcDbSymbolTableRecord
100
AcDbLayerTableRecord
  2
0402_R_REF_30000_67
 70
0
 62
7
  6
CONTINUOUS
370
-3
390
F
  0
LAYER
  5
345
100
AcDbSymbolTableRecord
100
AcDbLayerTableRecord
  2
0402_R_REF_30000_68
 70
0
 62
7
  6
CONTINUOUS
370
-3
390
F
  0
LAYER
  5
346
100
AcDbSymbolTableRecord
100
AcDbLayerTableRecord
  2
0402_R_REF_30000_7
 70
0
 62
7
  6
CONTINUOUS
370
-3
390
F
  0
LAYER
  5
347
100
AcDbSymbolTableRecord
100
AcDbLayerTableRecord
  2
0402_R_REF_30000_8
 70
0
 62
7
  6
CONTINUOUS
370
-3
390
F
  0
LAYER
  5
348
100
AcDbSymbolTableRecord
100
AcDbLayerTableRecord
  2
0402_R_REF_30000_9
 70
0
 62
7
  6
CONTINUOUS
370
-3
390
F
  0
LAYER
  5
349
100
AcDbSymbolTableRecord
100
AcDbLayerTableRecord
  2
0402_R_REF_31
 70
0
 62
7
  6
CONTINUOUS
370
-3
390
F
  0
LAYER
  5
34A
100
AcDbSymbolTableRecord
100
AcDbLayerTableRecord
  2
0402_R_REF_32
 70
0
 62
7
  6
CONTINUOUS
370
-3
390
F
  0
LAYER
  5
34B
100
AcDbSymbolTableRecord
100
AcDbLayerTableRecord
  2
0402_R_REF_33
 70
0
 62
7
  6
CONTINUOUS
370
-3
390
F
  0
LAYER
  5
34C
100
AcDbSymbolTableRecord
100
AcDbLayerTableRecord
  2
0402_R_REF_34
 70
0
 62
7
  6
CONTINUOUS
370
-3
390
F
  0
LAYER
  5
34D
100
AcDbSymbolTableRecord
100
AcDbLayerTableRecord
  2
0402_R_REF_35
 70
0
 62
7
  6
CONTINUOUS
370
-3
390
F
  0
LAYER
  5
34E
100
AcDbSymbolTableRecord
100
AcDbLayerTableRecord
  2
0402_R_REF_4
 70
0
 62
7
  6
CONTINUOUS
370
-3
390
F
  0
LAYER
  5
34F
100
AcDbSymbolTableRecord
100
AcDbLayerTableRecord
  2
0402_R_REF_5
 70
0
 62
7
  6
CONTINUOUS
370
-3
390
F
  0
LAYER
  5
350
100
AcDbSymbolTableRecord
100
AcDbLayerTableRecord
  2
0402_R_REF_6
 70
0
 62
7
  6
CONTINUOUS
370
-3
390
F
  0
LAYER
  5
351
100
AcDbSymbolTableRecord
100
AcDbLayerTableRecord
  2
0402_R_REF_7
 70
0
 62
7
  6
CONTINUOUS
370
-3
390
F
  0
LAYER
  5
352
100
AcDbSymbolTableRecord
100
AcDbLayerTableRecord
  2
0402_R_REF_8
 70
0
 62
7
  6
CONTINUOUS
370
-3
390
F
  0
LAYER
  5
353
100
AcDbSymbolTableRecord
100
AcDbLayerTableRecord
  2
0402_R_REF_9
 70
0
 62
7
  6
CONTINUOUS
370
-3
390
F
  0
LAYER
  5
354
100
AcDbSymbolTableRecord
100
AcDbLayerTableRecord
  2
0402_R_REF_B_
 70
0
 62
7
  6
CONTINUOUS
370
-3
390
F
  0
LAYER
  5
355
100
AcDbSymbolTableRecord
100
AcDbLayerTableRecord
  2
0402_R_REF_B__1
 70
0
 62
7
  6
CONTINUOUS
370
-3
390
F
  0
LAYER
  5
356
100
AcDbSymbolTableRecord
100
AcDbLayerTableRecord
  2
0402_R_REF_B__10
 70
0
 62
7
  6
CONTINUOUS
370
-3
390
F
  0
LAYER
  5
357
100
AcDbSymbolTableRecord
100
AcDbLayerTableRecord
  2
0402_R_REF_B__11
 70
0
 62
7
  6
CONTINUOUS
370
-3
390
F
  0
LAYER
  5
358
100
AcDbSymbolTableRecord
100
AcDbLayerTableRecord
  2
0402_R_REF_B__12
 70
0
 62
7
  6
CONTINUOUS
370
-3
390
F
  0
LAYER
  5
359
100
AcDbSymbolTableRecord
100
AcDbLayerTableRecord
  2
0402_R_REF_B__13
 70
0
 62
7
  6
CONTINUOUS
370
-3
390
F
  0
LAYER
  5
35A
100
AcDbSymbolTableRecord
100
AcDbLayerTableRecord
  2
0402_R_REF_B__14
 70
0
 62
7
  6
CONTINUOUS
370
-3
390
F
  0
LAYER
  5
35B
100
AcDbSymbolTableRecord
100
AcDbLayerTableRecord
  2
0402_R_REF_B__15
 70
0
 62
7
  6
CONTINUOUS
370
-3
390
F
  0
LAYER
  5
35C
100
AcDbSymbolTableRecord
100
AcDbLayerTableRecord
  2
0402_R_REF_B__16
 70
0
 62
7
  6
CONTINUOUS
370
-3
390
F
  0
LAYER
  5
35D
100
AcDbSymbolTableRecord
100
AcDbLayerTableRecord
  2
0402_R_REF_B__17
 70
0
 62
7
  6
CONTINUOUS
370
-3
390
F
  0
LAYER
  5
35E
100
AcDbSymbolTableRecord
100
AcDbLayerTableRecord
  2
0402_R_REF_B__18
 70
0
 62
7
  6
CONTINUOUS
370
-3
390
F
  0
LAYER
  5
35F
100
AcDbSymbolTableRecord
100
AcDbLayerTableRecord
  2
0402_R_REF_B__19
 70
0
 62
7
  6
CONTINUOUS
370
-3
390
F
  0
LAYER
  5
360
100
AcDbSymbolTableRecord
100
AcDbLayerTableRecord
  2
0402_R_REF_B__1_1
 70
0
 62
7
  6
CONTINUOUS
370
-3
390
F
  0
LAYER
  5
361
100
AcDbSymbolTableRecord
100
AcDbLayerTableRecord
  2
0402_R_REF_B__1_10
 70
0
 62
7
  6
CONTINUOUS
370
-3
390
F
  0
LAYER
  5
362
100
AcDbSymbolTableRecord
100
AcDbLayerTableRecord
  2
0402_R_REF_B__1_11
 70
0
 62
7
  6
CONTINUOUS
370
-3
390
F
  0
LAYER
  5
363
100
AcDbSymbolTableRecord
100
AcDbLayerTableRecord
  2
0402_R_REF_B__1_12
 70
0
 62
7
  6
CONTINUOUS
370
-3
390
F
  0
LAYER
  5
364
100
AcDbSymbolTableRecord
100
AcDbLayerTableRecord
  2
0402_R_REF_B__1_13
 70
0
 62
7
  6
CONTINUOUS
370
-3
390
F
  0
LAYER
  5
365
100
AcDbSymbolTableRecord
100
AcDbLayerTableRecord
  2
0402_R_REF_B__1_14
 70
0
 62
7
  6
CONTINUOUS
370
-3
390
F
  0
LAYER
  5
366
100
AcDbSymbolTableRecord
100
AcDbLayerTableRecord
  2
0402_R_REF_B__1_15
 70
0
 62
7
  6
CONTINUOUS
370
-3
390
F
  0
LAYER
  5
367
100
AcDbSymbolTableRecord
100
AcDbLayerTableRecord
  2
0402_R_REF_B__1_16
 70
0
 62
7
  6
CONTINUOUS
370
-3
390
F
  0
LAYER
  5
368
100
AcDbSymbolTableRecord
100
AcDbLayerTableRecord
  2
0402_R_REF_B__1_17
 70
0
 62
7
  6
CONTINUOUS
370
-3
390
F
  0
LAYER
  5
369
100
AcDbSymbolTableRecord
100
AcDbLayerTableRecord
  2
0402_R_REF_B__1_18
 70
0
 62
7
  6
CONTINUOUS
370
-3
390
F
  0
LAYER
  5
36A
100
AcDbSymbolTableRecord
100
AcDbLayerTableRecord
  2
0402_R_REF_B__1_19
 70
0
 62
7
  6
CONTINUOUS
370
-3
390
F
  0
LAYER
  5
36B
100
AcDbSymbolTableRecord
100
AcDbLayerTableRecord
  2
0402_R_REF_B__1_2
 70
0
 62
7
  6
CONTINUOUS
370
-3
390
F
  0
LAYER
  5
36C
100
AcDbSymbolTableRecord
100
AcDbLayerTableRecord
  2
0402_R_REF_B__1_20
 70
0
 62
7
  6
CONTINUOUS
370
-3
390
F
  0
LAYER
  5
36D
100
AcDbSymbolTableRecord
100
AcDbLayerTableRecord
  2
0402_R_REF_B__1_21
 70
0
 62
7
  6
CONTINUOUS
370
-3
390
F
  0
LAYER
  5
36E
100
AcDbSymbolTableRecord
100
AcDbLayerTableRecord
  2
0402_R_REF_B__1_22
 70
0
 62
7
  6
CONTINUOUS
370
-3
390
F
  0
LAYER
  5
36F
100
AcDbSymbolTableRecord
100
AcDbLayerTableRecord
  2
0402_R_REF_B__1_23
 70
0
 62
7
  6
CONTINUOUS
370
-3
390
F
  0
LAYER
  5
370
100
AcDbSymbolTableRecord
100
AcDbLayerTableRecord
  2
0402_R_REF_B__1_24
 70
0
 62
7
  6
CONTINUOUS
370
-3
390
F
  0
LAYER
  5
371
100
AcDbSymbolTableRecord
100
AcDbLayerTableRecord
  2
0402_R_REF_B__1_25
 70
0
 62
7
  6
CONTINUOUS
370
-3
390
F
  0
LAYER
  5
372
100
AcDbSymbolTableRecord
100
AcDbLayerTableRecord
  2
0402_R_REF_B__1_26
 70
0
 62
7
  6
CONTINUOUS
370
-3
390
F
  0
LAYER
  5
373
100
AcDbSymbolTableRecord
100
AcDbLayerTableRecord
  2
0402_R_REF_B__1_27
 70
0
 62
7
  6
CONTINUOUS
370
-3
390
F
  0
LAYER
  5
374
100
AcDbSymbolTableRecord
100
AcDbLayerTableRecord
  2
0402_R_REF_B__1_28
 70
0
 62
7
  6
CONTINUOUS
370
-3
390
F
  0
LAYER
  5
375
100
AcDbSymbolTableRecord
100
AcDbLayerTableRecord
  2
0402_R_REF_B__1_29
 70
0
 62
7
  6
CONTINUOUS
370
-3
390
F
  0
LAYER
  5
376
100
AcDbSymbolTableRecord
100
AcDbLayerTableRecord
  2
0402_R_REF_B__1_3
 70
0
 62
7
  6
CONTINUOUS
370
-3
390
F
  0
LAYER
  5
377
100
AcDbSymbolTableRecord
100
AcDbLayerTableRecord
  2
0402_R_REF_B__1_30
 70
0
 62
7
  6
CONTINUOUS
370
-3
390
F
  0
LAYER
  5
378
100
AcDbSymbolTableRecord
100
AcDbLayerTableRecord
  2
0402_R_REF_B__1_4
 70
0
 62
7
  6
CONTINUOUS
370
-3
390
F
  0
LAYER
  5
379
100
AcDbSymbolTableRecord
100
AcDbLayerTableRecord
  2
0402_R_REF_B__1_5
 70
0
 62
7
  6
CONTINUOUS
370
-3
390
F
  0
LAYER
  5
37A
100
AcDbSymbolTableRecord
100
AcDbLayerTableRecord
  2
0402_R_REF_B__1_6
 70
0
 62
7
  6
CONTINUOUS
370
-3
390
F
  0
LAYER
  5
37B
100
AcDbSymbolTableRecord
100
AcDbLayerTableRecord
  2
0402_R_REF_B__1_7
 70
0
 62
7
  6
CONTINUOUS
370
-3
390
F
  0
LAYER
  5
37C
100
AcDbSymbolTableRecord
100
AcDbLayerTableRecord
  2
0402_R_REF_B__1_8
 70
0
 62
7
  6
CONTINUOUS
370
-3
390
F
  0
LAYER
  5
37D
100
AcDbSymbolTableRecord
100
AcDbLayerTableRecord
  2
0402_R_REF_B__1_9
 70
0
 62
7
  6
CONTINUOUS
370
-3
390
F
  0
LAYER
  5
37E
100
AcDbSymbolTableRecord
100
AcDbLayerTableRecord
  2
0402_R_REF_B__2
 70
0
 62
7
  6
CONTINUOUS
370
-3
390
F
  0
LAYER
  5
37F
100
AcDbSymbolTableRecord
100
AcDbLayerTableRecord
  2
0402_R_REF_B__20
 70
0
 62
7
  6
CONTINUOUS
370
-3
390
F
  0
LAYER
  5
380
100
AcDbSymbolTableRecord
100
AcDbLayerTableRecord
  2
0402_R_REF_B__21
 70
0
 62
7
  6
CONTINUOUS
370
-3
390
F
  0
LAYER
  5
381
100
AcDbSymbolTableRecord
100
AcDbLayerTableRecord
  2
0402_R_REF_B__22
 70
0
 62
7
  6
CONTINUOUS
370
-3
390
F
  0
LAYER
  5
382
100
AcDbSymbolTableRecord
100
AcDbLayerTableRecord
  2
0402_R_REF_B__23
 70
0
 62
7
  6
CONTINUOUS
370
-3
390
F
  0
LAYER
  5
383
100
AcDbSymbolTableRecord
100
AcDbLayerTableRecord
  2
0402_R_REF_B__24
 70
0
 62
7
  6
CONTINUOUS
370
-3
390
F
  0
LAYER
  5
384
100
AcDbSymbolTableRecord
100
AcDbLayerTableRecord
  2
0402_R_REF_B__25
 70
0
 62
7
  6
CONTINUOUS
370
-3
390
F
  0
LAYER
  5
385
100
AcDbSymbolTableRecord
100
AcDbLayerTableRecord
  2
0402_R_REF_B__26
 70
0
 62
7
  6
CONTINUOUS
370
-3
390
F
  0
LAYER
  5
386
100
AcDbSymbolTableRecord
100
AcDbLayerTableRecord
  2
0402_R_REF_B__27
 70
0
 62
7
  6
CONTINUOUS
370
-3
390
F
  0
LAYER
  5
387
100
AcDbSymbolTableRecord
100
AcDbLayerTableRecord
  2
0402_R_REF_B__28
 70
0
 62
7
  6
CONTINUOUS
370
-3
390
F
  0
LAYER
  5
388
100
AcDbSymbolTableRecord
100
AcDbLayerTableRecord
  2
0402_R_REF_B__29
 70
0
 62
7
  6
CONTINUOUS
370
-3
390
F
  0
LAYER
  5
389
100
AcDbSymbolTableRecord
100
AcDbLayerTableRecord
  2
0402_R_REF_B__3
 70
0
 62
7
  6
CONTINUOUS
370
-3
390
F
  0
LAYER
  5
38A
100
AcDbSymbolTableRecord
100
AcDbLayerTableRecord
  2
0402_R_REF_B__30
 70
0
 62
7
  6
CONTINUOUS
370
-3
390
F
  0
LAYER
  5
38B
100
AcDbSymbolTableRecord
100
AcDbLayerTableRecord
  2
0402_R_REF_B__4
 70
0
 62
7
  6
CONTINUOUS
370
-3
390
F
  0
LAYER
  5
38C
100
AcDbSymbolTableRecord
100
AcDbLayerTableRecord
  2
0402_R_REF_B__5
 70
0
 62
7
  6
CONTINUOUS
370
-3
390
F
  0
LAYER
  5
38D
100
AcDbSymbolTableRecord
100
AcDbLayerTableRecord
  2
0402_R_REF_B__6
 70
0
 62
7
  6
CONTINUOUS
370
-3
390
F
  0
LAYER
  5
38E
100
AcDbSymbolTableRecord
100
AcDbLayerTableRecord
  2
0402_R_REF_B__7
 70
0
 62
7
  6
CONTINUOUS
370
-3
390
F
  0
LAYER
  5
38F
100
AcDbSymbolTableRecord
100
AcDbLayerTableRecord
  2
0402_R_REF_B__8
 70
0
 62
7
  6
CONTINUOUS
370
-3
390
F
  0
LAYER
  5
390
100
AcDbSymbolTableRecord
100
AcDbLayerTableRecord
  2
0402_R_REF_B__9
 70
0
 62
7
  6
CONTINUOUS
370
-3
390
F
  0
LAYER
  5
391
100
AcDbSymbolTableRecord
100
AcDbLayerTableRecord
  2
0603_C_REF
 70
0
 62
7
  6
CONTINUOUS
370
-3
390
F
  0
LAYER
  5
392
100
AcDbSymbolTableRecord
100
AcDbLayerTableRecord
  2
0603_C_REF_1
 70
0
 62
7
  6
CONTINUOUS
370
-3
390
F
  0
LAYER
  5
393
100
AcDbSymbolTableRecord
100
AcDbLayerTableRecord
  2
0603_C_REF_1_1
 70
0
 62
7
  6
CONTINUOUS
370
-3
390
F
  0
LAYER
  5
394
100
AcDbSymbolTableRecord
100
AcDbLayerTableRecord
  2
0603_C_REF_1_2
 70
0
 62
7
  6
CONTINUOUS
370
-3
390
F
  0
LAYER
  5
395
100
AcDbSymbolTableRecord
100
AcDbLayerTableRecord
  2
0603_C_REF_1_3
 70
0
 62
7
  6
CONTINUOUS
370
-3
390
F
  0
LAYER
  5
396
100
AcDbSymbolTableRecord
100
AcDbLayerTableRecord
  2
0603_C_REF_1_4
 70
0
 62
7
  6
CONTINUOUS
370
-3
390
F
  0
LAYER
  5
397
100
AcDbSymbolTableRecord
100
AcDbLayerTableRecord
  2
0603_C_REF_2
 70
0
 62
7
  6
CONTINUOUS
370
-3
390
F
  0
LAYER
  5
398
100
AcDbSymbolTableRecord
100
AcDbLayerTableRecord
  2
0603_C_REF_3
 70
0
 62
7
  6
CONTINUOUS
370
-3
390
F
  0
LAYER
  5
399
100
AcDbSymbolTableRecord
100
AcDbLayerTableRecord
  2
0603_C_REF_4
 70
0
 62
7
  6
CONTINUOUS
370
-3
390
F
  0
LAYER
  5
39A
100
AcDbSymbolTableRecord
100
AcDbLayerTableRecord
  2
0603_C_REF_90000
 70
0
 62
7
  6
CONTINUOUS
370
-3
390
F
  0
LAYER
  5
39B
100
AcDbSymbolTableRecord
100
AcDbLayerTableRecord
  2
0603_C_REF_90000_1
 70
0
 62
7
  6
CONTINUOUS
370
-3
390
F
  0
LAYER
  5
39C
100
AcDbSymbolTableRecord
100
AcDbLayerTableRecord
  2
0603_C_REF_90000_2
 70
0
 62
7
  6
CONTINUOUS
370
-3
390
F
  0
LAYER
  5
39D
100
AcDbSymbolTableRecord
100
AcDbLayerTableRecord
  2
0603_C_REF_90000_3
 70
0
 62
7
  6
CONTINUOUS
370
-3
390
F
  0
LAYER
  5
39E
100
AcDbSymbolTableRecord
100
AcDbLayerTableRecord
  2
0603_C_REF_90000_4
 70
0
 62
7
  6
CONTINUOUS
370
-3
390
F
  0
LAYER
  5
39F
100
AcDbSymbolTableRecord
100
AcDbLayerTableRecord
  2
0603_C_REF_90000_5
 70
0
 62
7
  6
CONTINUOUS
370
-3
390
F
  0
LAYER
  5
3A0
100
AcDbSymbolTableRecord
100
AcDbLayerTableRecord
  2
0603_C_REF_90000_6
 70
0
 62
7
  6
CONTINUOUS
370
-3
390
F
  0
LAYER
  5
3A1
100
AcDbSymbolTableRecord
100
AcDbLayerTableRecord
  2
0603_C_REF_90000_7
 70
0
 62
7
  6
CONTINUOUS
370
-3
390
F
  0
LAYER
  5
3A2
100
AcDbSymbolTableRecord
100
AcDbLayerTableRecord
  2
0603_C_REF_90000_8
 70
0
 62
7
  6
CONTINUOUS
370
-3
390
F
  0
LAYER
  5
3A3
100
AcDbSymbolTableRecord
100
AcDbLayerTableRecord
  2
0603_C_REF_90000_9
 70
0
 62
7
  6
CONTINUOUS
370
-3
390
F
  0
LAYER
  5
3A4
100
AcDbSymbolTableRecord
100
AcDbLayerTableRecord
  2
0603_C_REF_B_
 70
0
 62
7
  6
CONTINUOUS
370
-3
390
F
  0
LAYER
  5
3A5
100
AcDbSymbolTableRecord
100
AcDbLayerTableRecord
  2
0603_C_REF_B__1
 70
0
 62
7
  6
CONTINUOUS
370
-3
390
F
  0
LAYER
  5
3A6
100
AcDbSymbolTableRecord
100
AcDbLayerTableRecord
  2
0603_C_REF_B__1_1
 70
0
 62
7
  6
CONTINUOUS
370
-3
390
F
  0
LAYER
  5
3A7
100
AcDbSymbolTableRecord
100
AcDbLayerTableRecord
  2
0603_C_REF_B__1_2
 70
0
 62
7
  6
CONTINUOUS
370
-3
390
F
  0
LAYER
  5
3A8
100
AcDbSymbolTableRecord
100
AcDbLayerTableRecord
  2
0603_C_REF_B__1_3
 70
0
 62
7
  6
CONTINUOUS
370
-3
390
F
  0
LAYER
  5
3A9
100
AcDbSymbolTableRecord
100
AcDbLayerTableRecord
  2
0603_C_REF_B__2
 70
0
 62
7
  6
CONTINUOUS
370
-3
390
F
  0
LAYER
  5
3AA
100
AcDbSymbolTableRecord
100
AcDbLayerTableRecord
  2
0603_C_REF_B__3
 70
0
 62
7
  6
CONTINUOUS
370
-3
390
F
  0
LAYER
  5
3AB
100
AcDbSymbolTableRecord
100
AcDbLayerTableRecord
  2
0603_R_REF
 70
0
 62
7
  6
CONTINUOUS
370
-3
390
F
  0
LAYER
  5
3AC
100
AcDbSymbolTableRecord
100
AcDbLayerTableRecord
  2
0603_R_REF_1
 70
0
 62
7
  6
CONTINUOUS
370
-3
390
F
  0
LAYER
  5
3AD
100
AcDbSymbolTableRecord
100
AcDbLayerTableRecord
  2
0603_R_REF_55000
 70
0
 62
7
  6
CONTINUOUS
370
-3
390
F
  0
LAYER
  5
3AE
100
AcDbSymbolTableRecord
100
AcDbLayerTableRecord
  2
0603_R_REF_55000_1
 70
0
 62
7
  6
CONTINUOUS
370
-3
390
F
  0
LAYER
  5
3AF
100
AcDbSymbolTableRecord
100
AcDbLayerTableRecord
  2
0603_R_REF_55000_10
 70
0
 62
7
  6
CONTINUOUS
370
-3
390
F
  0
LAYER
  5
3B0
100
AcDbSymbolTableRecord
100
AcDbLayerTableRecord
  2
0603_R_REF_55000_11
 70
0
 62
7
  6
CONTINUOUS
370
-3
390
F
  0
LAYER
  5
3B1
100
AcDbSymbolTableRecord
100
AcDbLayerTableRecord
  2
0603_R_REF_55000_2
 70
0
 62
7
  6
CONTINUOUS
370
-3
390
F
  0
LAYER
  5
3B2
100
AcDbSymbolTableRecord
100
AcDbLayerTableRecord
  2
0603_R_REF_55000_3
 70
0
 62
7
  6
CONTINUOUS
370
-3
390
F
  0
LAYER
  5
3B3
100
AcDbSymbolTableRecord
100
AcDbLayerTableRecord
  2
0603_R_REF_55000_4
 70
0
 62
7
  6
CONTINUOUS
370
-3
390
F
  0
LAYER
  5
3B4
100
AcDbSymbolTableRecord
100
AcDbLayerTableRecord
  2
0603_R_REF_55000_5
 70
0
 62
7
  6
CONTINUOUS
370
-3
390
F
  0
LAYER
  5
3B5
100
AcDbSymbolTableRecord
100
AcDbLayerTableRecord
  2
0603_R_REF_55000_6
 70
0
 62
7
  6
CONTINUOUS
370
-3
390
F
  0
LAYER
  5
3B6
100
AcDbSymbolTableRecord
100
AcDbLayerTableRecord
  2
0603_R_REF_55000_7
 70
0
 62
7
  6
CONTINUOUS
370
-3
390
F
  0
LAYER
  5
3B7
100
AcDbSymbolTableRecord
100
AcDbLayerTableRecord
  2
0603_R_REF_55000_8
 70
0
 62
7
  6
CONTINUOUS
370
-3
390
F
  0
LAYER
  5
3B8
100
AcDbSymbolTableRecord
100
AcDbLayerTableRecord
  2
0603_R_REF_55000_9
 70
0
 62
7
  6
CONTINUOUS
370
-3
390
F
  0
LAYER
  5
3B9
100
AcDbSymbolTableRecord
100
AcDbLayerTableRecord
  2
06___PRT_ALL_SURFS
 70
0
 62
7
  6
CONTINUOUS
370
-3
390
F
  0
LAYER
  5
3BA
100
AcDbSymbolTableRecord
100
AcDbLayerTableRecord
  2
06___PRT_ALL_SURFS_1
 70
0
 62
7
  6
CONTINUOUS
370
-3
390
F
  0
LAYER
  5
3BB
100
AcDbSymbolTableRecord
100
AcDbLayerTableRecord
  2
06___PRT_ALL_SURFS_10
 70
0
 62
7
  6
CONTINUOUS
370
-3
390
F
  0
LAYER
  5
3BC
100
AcDbSymbolTableRecord
100
AcDbLayerTableRecord
  2
06___PRT_ALL_SURFS_11
 70
0
 62
7
  6
CONTINUOUS
370
-3
390
F
  0
LAYER
  5
3BD
100
AcDbSymbolTableRecord
100
AcDbLayerTableRecord
  2
06___PRT_ALL_SURFS_12
 70
0
 62
7
  6
CONTINUOUS
370
-3
390
F
  0
LAYER
  5
3BE
100
AcDbSymbolTableRecord
100
AcDbLayerTableRecord
  2
06___PRT_ALL_SURFS_13
 70
0
 62
7
  6
CONTINUOUS
370
-3
390
F
  0
LAYER
  5
3BF
100
AcDbSymbolTableRecord
100
AcDbLayerTableRecord
  2
06___PRT_ALL_SURFS_14
 70
0
 62
7
  6
CONTINUOUS
370
-3
390
F
  0
LAYER
  5
3C0
100
AcDbSymbolTableRecord
100
AcDbLayerTableRecord
  2
06___PRT_ALL_SURFS_15
 70
0
 62
7
  6
CONTINUOUS
370
-3
390
F
  0
LAYER
  5
3C1
100
AcDbSymbolTableRecord
100
AcDbLayerTableRecord
  2
06___PRT_ALL_SURFS_16
 70
0
 62
7
  6
CONTINUOUS
370
-3
390
F
  0
LAYER
  5
3C2
100
AcDbSymbolTableRecord
100
AcDbLayerTableRecord
  2
06___PRT_ALL_SURFS_17
 70
0
 62
7
  6
CONTINUOUS
370
-3
390
F
  0
LAYER
  5
3C3
100
AcDbSymbolTableRecord
100
AcDbLayerTableRecord
  2
06___PRT_ALL_SURFS_18
 70
0
 62
7
  6
CONTINUOUS
370
-3
390
F
  0
LAYER
  5
3C4
100
AcDbSymbolTableRecord
100
AcDbLayerTableRecord
  2
06___PRT_ALL_SURFS_19
 70
0
 62
7
  6
CONTINUOUS
370
-3
390
F
  0
LAYER
  5
3C5
100
AcDbSymbolTableRecord
100
AcDbLayerTableRecord
  2
06___PRT_ALL_SURFS_2
 70
0
 62
7
  6
CONTINUOUS
370
-3
390
F
  0
LAYER
  5
3C6
100
AcDbSymbolTableRecord
100
AcDbLayerTableRecord
  2
06___PRT_ALL_SURFS_20
 70
0
 62
7
  6
CONTINUOUS
370
-3
390
F
  0
LAYER
  5
3C7
100
AcDbSymbolTableRecord
100
AcDbLayerTableRecord
  2
06___PRT_ALL_SURFS_21
 70
0
 62
7
  6
CONTINUOUS
370
-3
390
F
  0
LAYER
  5
3C8
100
AcDbSymbolTableRecord
100
AcDbLayerTableRecord
  2
06___PRT_ALL_SURFS_22
 70
0
 62
7
  6
CONTINUOUS
370
-3
390
F
  0
LAYER
  5
3C9
100
AcDbSymbolTableRecord
100
AcDbLayerTableRecord
  2
06___PRT_ALL_SURFS_23
 70
0
 62
7
  6
CONTINUOUS
370
-3
390
F
  0
LAYER
  5
3CA
100
AcDbSymbolTableRecord
100
AcDbLayerTableRecord
  2
06___PRT_ALL_SURFS_24
 70
0
 62
7
  6
CONTINUOUS
370
-3
390
F
  0
LAYER
  5
3CB
100
AcDbSymbolTableRecord
100
AcDbLayerTableRecord
  2
06___PRT_ALL_SURFS_25
 70
0
 62
7
  6
CONTINUOUS
370
-3
390
F
  0
LAYER
  5
3CC
100
AcDbSymbolTableRecord
100
AcDbLayerTableRecord
  2
06___PRT_ALL_SURFS_26
 70
0
 62
7
  6
CONTINUOUS
370
-3
390
F
  0
LAYER
  5
3CD
100
AcDbSymbolTableRecord
100
AcDbLayerTableRecord
  2
06___PRT_ALL_SURFS_27
 70
0
 62
7
  6
CONTINUOUS
370
-3
390
F
  0
LAYER
  5
3CE
100
AcDbSymbolTableRecord
100
AcDbLayerTableRecord
  2
06___PRT_ALL_SURFS_3
 70
0
 62
7
  6
CONTINUOUS
370
-3
390
F
  0
LAYER
  5
3CF
100
AcDbSymbolTableRecord
100
AcDbLayerTableRecord
  2
06___PRT_ALL_SURFS_34
 70
0
 62
7
  6
CONTINUOUS
370
-3
390
F
  0
LAYER
  5
3D0
100
AcDbSymbolTableRecord
100
AcDbLayerTableRecord
  2
06___PRT_ALL_SURFS_35
 70
0
 62
7
  6
CONTINUOUS
370
-3
390
F
  0
LAYER
  5
3D1
100
AcDbSymbolTableRecord
100
AcDbLayerTableRecord
  2
06___PRT_ALL_SURFS_37
 70
0
 62
7
  6
CONTINUOUS
370
-3
390
F
  0
LAYER
  5
3D2
100
AcDbSymbolTableRecord
100
AcDbLayerTableRecord
  2
06___PRT_ALL_SURFS_4
 70
0
 62
7
  6
CONTINUOUS
370
-3
390
F
  0
LAYER
  5
3D3
100
AcDbSymbolTableRecord
100
AcDbLayerTableRecord
  2
06___PRT_ALL_SURFS_5
 70
0
 62
7
  6
CONTINUOUS
370
-3
390
F
  0
LAYER
  5
3D4
100
AcDbSymbolTableRecord
100
AcDbLayerTableRecord
  2
06___PRT_ALL_SURFS_6
 70
0
 62
7
  6
CONTINUOUS
370
-3
390
F
  0
LAYER
  5
3D5
100
AcDbSymbolTableRecord
100
AcDbLayerTableRecord
  2
06___PRT_ALL_SURFS_7
 70
0
 62
7
  6
CONTINUOUS
370
-3
390
F
  0
LAYER
  5
3D6
100
AcDbSymbolTableRecord
100
AcDbLayerTableRecord
  2
06___PRT_ALL_SURFS_8
 70
0
 62
7
  6
CONTINUOUS
370
-3
390
F
  0
LAYER
  5
3D7
100
AcDbSymbolTableRecord
100
AcDbLayerTableRecord
  2
06___PRT_ALL_SURFS_9
 70
0
 62
7
  6
CONTINUOUS
370
-3
390
F
  0
LAYER
  5
3D8
100
AcDbSymbolTableRecord
100
AcDbLayerTableRecord
  2
0805_C_REF
 70
0
 62
7
  6
CONTINUOUS
370
-3
390
F
  0
LAYER
  5
3D9
100
AcDbSymbolTableRecord
100
AcDbLayerTableRecord
  2
0805_C_REF_1
 70
0
 62
7
  6
CONTINUOUS
370
-3
390
F
  0
LAYER
  5
3DA
100
AcDbSymbolTableRecord
100
AcDbLayerTableRecord
  2
0805_C_REF_145000
 70
0
 62
7
  6
CONTINUOUS
370
-3
390
F
  0
LAYER
  5
3DB
100
AcDbSymbolTableRecord
100
AcDbLayerTableRecord
  2
0805_C_REF_145000_1
 70
0
 62
7
  6
CONTINUOUS
370
-3
390
F
  0
LAYER
  5
3DC
100
AcDbSymbolTableRecord
100
AcDbLayerTableRecord
  2
0805_C_REF_145000_2
 70
0
 62
7
  6
CONTINUOUS
370
-3
390
F
  0
LAYER
  5
3DD
100
AcDbSymbolTableRecord
100
AcDbLayerTableRecord
  2
0805_C_REF_145000_3
 70
0
 62
7
  6
CONTINUOUS
370
-3
390
F
  0
LAYER
  5
3DE
100
AcDbSymbolTableRecord
100
AcDbLayerTableRecord
  2
0805_C_REF_145000_4
 70
0
 62
7
  6
CONTINUOUS
370
-3
390
F
  0
LAYER
  5
3DF
100
AcDbSymbolTableRecord
100
AcDbLayerTableRecord
  2
0805_C_REF_145000_5
 70
0
 62
7
  6
CONTINUOUS
370
-3
390
F
  0
LAYER
  5
3E0
100
AcDbSymbolTableRecord
100
AcDbLayerTableRecord
  2
0805_C_REF_145000_6
 70
0
 62
7
  6
CONTINUOUS
370
-3
390
F
  0
LAYER
  5
3E1
100
AcDbSymbolTableRecord
100
AcDbLayerTableRecord
  2
0805_C_REF_1_1
 70
0
 62
7
  6
CONTINUOUS
370
-3
390
F
  0
LAYER
  5
3E2
100
AcDbSymbolTableRecord
100
AcDbLayerTableRecord
  2
0805_R_REF_60000
 70
0
 62
7
  6
CONTINUOUS
370
-3
390
F
  0
LAYER
  5
3E3
100
AcDbSymbolTableRecord
100
AcDbLayerTableRecord
  2
0805_R_REF_60000_1
 70
0
 62
7
  6
CONTINUOUS
370
-3
390
F
  0
LAYER
  5
3E4
100
AcDbSymbolTableRecord
100
AcDbLayerTableRecord
  2
0805_R_REF_60000_2
 70
0
 62
7
  6
CONTINUOUS
370
-3
390
F
  0
LAYER
  5
3E5
100
AcDbSymbolTableRecord
100
AcDbLayerTableRecord
  2
0805_R_REF_B_
 70
0
 62
7
  6
CONTINUOUS
370
-3
390
F
  0
LAYER
  5
3E6
100
AcDbSymbolTableRecord
100
AcDbLayerTableRecord
  2
0805_R_REF_B__1
 70
0
 62
7
  6
CONTINUOUS
370
-3
390
F
  0
LAYER
  5
3E7
100
AcDbSymbolTableRecord
100
AcDbLayerTableRecord
  2
1206_C_REF_180000
 70
0
 62
7
  6
CONTINUOUS
370
-3
390
F
  0
LAYER
  5
3E8
100
AcDbSymbolTableRecord
100
AcDbLayerTableRecord
  2
1206_C_REF_180000_1
 70
0
 62
7
  6
CONTINUOUS
370
-3
390
F
  0
LAYER
  5
3E9
100
AcDbSymbolTableRecord
100
AcDbLayerTableRecord
  2
1206_C_REF_180000_10
 70
0
 62
7
  6
CONTINUOUS
370
-3
390
F
  0
LAYER
  5
3EA
100
AcDbSymbolTableRecord
100
AcDbLayerTableRecord
  2
1206_C_REF_180000_11
 70
0
 62
7
  6
CONTINUOUS
370
-3
390
F
  0
LAYER
  5
3EB
100
AcDbSymbolTableRecord
100
AcDbLayerTableRecord
  2
1206_C_REF_180000_2
 70
0
 62
7
  6
CONTINUOUS
370
-3
390
F
  0
LAYER
  5
3EC
100
AcDbSymbolTableRecord
100
AcDbLayerTableRecord
  2
1206_C_REF_180000_3
 70
0
 62
7
  6
CONTINUOUS
370
-3
390
F
  0
LAYER
  5
3ED
100
AcDbSymbolTableRecord
100
AcDbLayerTableRecord
  2
1206_C_REF_180000_4
 70
0
 62
7
  6
CONTINUOUS
370
-3
390
F
  0
LAYER
  5
3EE
100
AcDbSymbolTableRecord
100
AcDbLayerTableRecord
  2
1206_C_REF_180000_5
 70
0
 62
7
  6
CONTINUOUS
370
-3
390
F
  0
LAYER
  5
3EF
100
AcDbSymbolTableRecord
100
AcDbLayerTableRecord
  2
1206_C_REF_180000_6
 70
0
 62
7
  6
CONTINUOUS
370
-3
390
F
  0
LAYER
  5
3F0
100
AcDbSymbolTableRecord
100
AcDbLayerTableRecord
  2
1206_C_REF_180000_7
 70
0
 62
7
  6
CONTINUOUS
370
-3
390
F
  0
LAYER
  5
3F1
100
AcDbSymbolTableRecord
100
AcDbLayerTableRecord
  2
1206_C_REF_180000_8
 70
0
 62
7
  6
CONTINUOUS
370
-3
390
F
  0
LAYER
  5
3F2
100
AcDbSymbolTableRecord
100
AcDbLayerTableRecord
  2
1206_C_REF_180000_9
 70
0
 62
7
  6
CONTINUOUS
370
-3
390
F
  0
LAYER
  5
3F3
100
AcDbSymbolTableRecord
100
AcDbLayerTableRecord
  2
1206_C_REF_B_
 70
0
 62
7
  6
CONTINUOUS
370
-3
390
F
  0
LAYER
  5
3F4
100
AcDbSymbolTableRecord
100
AcDbLayerTableRecord
  2
1206_C_REF_B__1
 70
0
 62
7
  6
CONTINUOUS
370
-3
390
F
  0
LAYER
  5
3F5
100
AcDbSymbolTableRecord
100
AcDbLayerTableRecord
  2
1206_C_REF_B__10
 70
0
 62
7
  6
CONTINUOUS
370
-3
390
F
  0
LAYER
  5
3F6
100
AcDbSymbolTableRecord
100
AcDbLayerTableRecord
  2
1206_C_REF_B__11
 70
0
 62
7
  6
CONTINUOUS
370
-3
390
F
  0
LAYER
  5
3F7
100
AcDbSymbolTableRecord
100
AcDbLayerTableRecord
  2
1206_C_REF_B__1_1
 70
0
 62
7
  6
CONTINUOUS
370
-3
390
F
  0
LAYER
  5
3F8
100
AcDbSymbolTableRecord
100
AcDbLayerTableRecord
  2
1206_C_REF_B__1_10
 70
0
 62
7
  6
CONTINUOUS
370
-3
390
F
  0
LAYER
  5
3F9
100
AcDbSymbolTableRecord
100
AcDbLayerTableRecord
  2
1206_C_REF_B__1_11
 70
0
 62
7
  6
CONTINUOUS
370
-3
390
F
  0
LAYER
  5
3FA
100
AcDbSymbolTableRecord
100
AcDbLayerTableRecord
  2
1206_C_REF_B__1_2
 70
0
 62
7
  6
CONTINUOUS
370
-3
390
F
  0
LAYER
  5
3FB
100
AcDbSymbolTableRecord
100
AcDbLayerTableRecord
  2
1206_C_REF_B__1_3
 70
0
 62
7
  6
CONTINUOUS
370
-3
390
F
  0
LAYER
  5
3FC
100
AcDbSymbolTableRecord
100
AcDbLayerTableRecord
  2
1206_C_REF_B__1_4
 70
0
 62
7
  6
CONTINUOUS
370
-3
390
F
  0
LAYER
  5
3FD
100
AcDbSymbolTableRecord
100
AcDbLayerTableRecord
  2
1206_C_REF_B__1_5
 70
0
 62
7
  6
CONTINUOUS
370
-3
390
F
  0
LAYER
  5
3FE
100
AcDbSymbolTableRecord
100
AcDbLayerTableRecord
  2
1206_C_REF_B__1_6
 70
0
 62
7
  6
CONTINUOUS
370
-3
390
F
  0
LAYER
  5
3FF
100
AcDbSymbolTableRecord
100
AcDbLayerTableRecord
  2
1206_C_REF_B__1_7
 70
0
 62
7
  6
CONTINUOUS
370
-3
390
F
  0
LAYER
  5
400
100
AcDbSymbolTableRecord
100
AcDbLayerTableRecord
  2
1206_C_REF_B__1_8
 70
0
 62
7
  6
CONTINUOUS
370
-3
390
F
  0
LAYER
  5
401
100
AcDbSymbolTableRecord
100
AcDbLayerTableRecord
  2
1206_C_REF_B__1_9
 70
0
 62
7
  6
CONTINUOUS
370
-3
390
F
  0
LAYER
  5
402
100
AcDbSymbolTableRecord
100
AcDbLayerTableRecord
  2
1206_C_REF_B__2
 70
0
 62
7
  6
CONTINUOUS
370
-3
390
F
  0
LAYER
  5
403
100
AcDbSymbolTableRecord
100
AcDbLayerTableRecord
  2
1206_C_REF_B__3
 70
0
 62
7
  6
CONTINUOUS
370
-3
390
F
  0
LAYER
  5
404
100
AcDbSymbolTableRecord
100
AcDbLayerTableRecord
  2
1206_C_REF_B__4
 70
0
 62
7
  6
CONTINUOUS
370
-3
390
F
  0
LAYER
  5
405
100
AcDbSymbolTableRecord
100
AcDbLayerTableRecord
  2
1206_C_REF_B__5
 70
0
 62
7
  6
CONTINUOUS
370
-3
390
F
  0
LAYER
  5
406
100
AcDbSymbolTableRecord
100
AcDbLayerTableRecord
  2
1206_C_REF_B__6
 70
0
 62
7
  6
CONTINUOUS
370
-3
390
F
  0
LAYER
  5
407
100
AcDbSymbolTableRecord
100
AcDbLayerTableRecord
  2
1206_C_REF_B__7
 70
0
 62
7
  6
CONTINUOUS
370
-3
390
F
  0
LAYER
  5
408
100
AcDbSymbolTableRecord
100
AcDbLayerTableRecord
  2
1206_C_REF_B__8
 70
0
 62
7
  6
CONTINUOUS
370
-3
390
F
  0
LAYER
  5
409
100
AcDbSymbolTableRecord
100
AcDbLayerTableRecord
  2
1206_C_REF_B__9
 70
0
 62
7
  6
CONTINUOUS
370
-3
390
F
  0
LAYER
  5
40A
100
AcDbSymbolTableRecord
100
AcDbLayerTableRecord
  2
1206_R_REF
 70
0
 62
7
  6
CONTINUOUS
370
-3
390
F
  0
LAYER
  5
40B
100
AcDbSymbolTableRecord
100
AcDbLayerTableRecord
  2
1206_R_REF_1
 70
0
 62
7
  6
CONTINUOUS
370
-3
390
F
  0
LAYER
  5
40C
100
AcDbSymbolTableRecord
100
AcDbLayerTableRecord
  2
1206_R_REF_65000
 70
0
 62
7
  6
CONTINUOUS
370
-3
390
F
  0
LAYER
  5
40D
100
AcDbSymbolTableRecord
100
AcDbLayerTableRecord
  2
1206_R_REF_65000_1
 70
0
 62
7
  6
CONTINUOUS
370
-3
390
F
  0
LAYER
  5
40E
100
AcDbSymbolTableRecord
100
AcDbLayerTableRecord
  2
1206_R_REF_65000_2
 70
0
 62
7
  6
CONTINUOUS
370
-3
390
F
  0
LAYER
  5
40F
100
AcDbSymbolTableRecord
100
AcDbLayerTableRecord
  2
1206_R_REF_65000_3
 70
0
 62
7
  6
CONTINUOUS
370
-3
390
F
  0
LAYER
  5
410
100
AcDbSymbolTableRecord
100
AcDbLayerTableRecord
  2
1210_C_REF_250000
 70
0
 62
7
  6
CONTINUOUS
370
-3
390
F
  0
LAYER
  5
411
100
AcDbSymbolTableRecord
100
AcDbLayerTableRecord
  2
1210_C_REF_250000_1
 70
0
 62
7
  6
CONTINUOUS
370
-3
390
F
  0
LAYER
  5
412
100
AcDbSymbolTableRecord
100
AcDbLayerTableRecord
  2
1210_C_REF_250000_2
 70
0
 62
7
  6
CONTINUOUS
370
-3
390
F
  0
LAYER
  5
413
100
AcDbSymbolTableRecord
100
AcDbLayerTableRecord
  2
1615-LED-1-1-VIMAR_110000
 70
0
 62
7
  6
CONTINUOUS
370
-3
390
F
  0
LAYER
  5
414
100
AcDbSymbolTableRecord
100
AcDbLayerTableRecord
  2
1615-LED-1-1-VIMAR_110000_1
 70
0
 62
7
  6
CONTINUOUS
370
-3
390
F
  0
LAYER
  5
415
100
AcDbSymbolTableRecord
100
AcDbLayerTableRecord
  2
1615-LED-1-1-VIMAR_110000_2
 70
0
 62
7
  6
CONTINUOUS
370
-3
390
F
  0
LAYER
  5
416
100
AcDbSymbolTableRecord
100
AcDbLayerTableRecord
  2
1615-LED-1-1-VIMAR_110000_3
 70
0
 62
7
  6
CONTINUOUS
370
-3
390
F
  0
LAYER
  5
417
100
AcDbSymbolTableRecord
100
AcDbLayerTableRecord
  2
1615-LED-1-1-VIMAR_110000_4
 70
0
 62
7
  6
CONTINUOUS
370
-3
390
F
  0
LAYER
  5
418
100
AcDbSymbolTableRecord
100
AcDbLayerTableRecord
  2
1615-LED-1-1-VIMAR_110000_5
 70
0
 62
7
  6
CONTINUOUS
370
-3
390
F
  0
LAYER
  5
419
100
AcDbSymbolTableRecord
100
AcDbLayerTableRecord
  2
243-131_850000
 70
0
 62
7
  6
CONTINUOUS
370
-3
390
F
  0
LAYER
  5
41A
100
AcDbSymbolTableRecord
100
AcDbLayerTableRecord
  2
243-131_850000_1
 70
0
 62
7
  6
CONTINUOUS
370
-3
390
F
  0
LAYER
  5
41B
100
AcDbSymbolTableRecord
100
AcDbLayerTableRecord
  2
3216-CF-RF-VIMAR
 70
0
 62
7
  6
CONTINUOUS
370
-3
390
F
  0
LAYER
  5
41C
100
AcDbSymbolTableRecord
100
AcDbLayerTableRecord
  2
3216-CF-RF-VIMAR_1
 70
0
 62
7
  6
CONTINUOUS
370
-3
390
F
  0
LAYER
  5
41D
100
AcDbSymbolTableRecord
100
AcDbLayerTableRecord
  2
3216-CF-RF-VIMAR_100000
 70
0
 62
7
  6
CONTINUOUS
370
-3
390
F
  0
LAYER
  5
41E
100
AcDbSymbolTableRecord
100
AcDbLayerTableRecord
  2
3216-CF-RF-VIMAR_100000_1
 70
0
 62
7
  6
CONTINUOUS
370
-3
390
F
  0
LAYER
  5
41F
100
AcDbSymbolTableRecord
100
AcDbLayerTableRecord
  2
3216-CF-RF-VIMAR_B_
 70
0
 62
7
  6
CONTINUOUS
370
-3
390
F
  0
LAYER
  5
420
100
AcDbSymbolTableRecord
100
AcDbLayerTableRecord
  2
3216-CF-RF-VIMAR_B__1
 70
0
 62
7
  6
CONTINUOUS
370
-3
390
F
  0
LAYER
  5
421
100
AcDbSymbolTableRecord
100
AcDbLayerTableRecord
  2
3216-CS2-RF_1_180000
 70
0
 62
7
  6
CONTINUOUS
370
-3
390
F
  0
LAYER
  5
422
100
AcDbSymbolTableRecord
100
AcDbLayerTableRecord
  2
3216-CS2-RF_1_180000_1
 70
0
 62
7
  6
CONTINUOUS
370
-3
390
F
  0
LAYER
  5
423
100
AcDbSymbolTableRecord
100
AcDbLayerTableRecord
  2
3216-CS2-RF_1_B_
 70
0
 62
7
  6
CONTINUOUS
370
-3
390
F
  0
LAYER
  5
424
100
AcDbSymbolTableRecord
100
AcDbLayerTableRecord
  2
3216-CS2-RF_1_B__1
 70
0
 62
7
  6
CONTINUOUS
370
-3
390
F
  0
LAYER
  5
425
100
AcDbSymbolTableRecord
100
AcDbLayerTableRecord
  2
3216-CS2-RF_1_B__1_1
 70
0
 62
7
  6
CONTINUOUS
370
-3
390
F
  0
LAYER
  5
426
100
AcDbSymbolTableRecord
100
AcDbLayerTableRecord
  2
43001002A0
 70
0
 62
7
  6
CONTINUOUS
370
-3
390
F
  0
LAYER
  5
427
100
AcDbSymbolTableRecord
100
AcDbLayerTableRecord
  2
43001003A0
 70
0
 62
7
  6
CONTINUOUS
370
-3
390
F
  0
LAYER
  5
428
100
AcDbSymbolTableRecord
100
AcDbLayerTableRecord
  2
43001004A0
 70
0
 62
7
  6
CONTINUOUS
370
-3
390
F
  0
LAYER
  5
429
100
AcDbSymbolTableRecord
100
AcDbLayerTableRecord
  2
43001005A0
 70
0
 62
7
  6
CONTINUOUS
370
-3
390
F
  0
LAYER
  5
42A
100
AcDbSymbolTableRecord
100
AcDbLayerTableRecord
  2
43001006A0
 70
0
 62
7
  6
CONTINUOUS
370
-3
390
F
  0
LAYER
  5
42B
100
AcDbSymbolTableRecord
100
AcDbLayerTableRecord
  2
43001006B0
 70
0
 62
7
  6
CONTINUOUS
370
-3
390
F
  0
LAYER
  5
42C
100
AcDbSymbolTableRecord
100
AcDbLayerTableRecord
  2
43001006B0_1
 70
0
 62
7
  6
CONTINUOUS
370
-3
390
F
  0
LAYER
  5
42D
100
AcDbSymbolTableRecord
100
AcDbLayerTableRecord
  2
4301002A0
 70
0
 62
7
  6
CONTINUOUS
370
-3
390
F
  0
LAYER
  5
42E
100
AcDbSymbolTableRecord
100
AcDbLayerTableRecord
  2
43901005B0
 70
0
 62
7
  6
CONTINUOUS
370
-3
390
F
  0
LAYER
  5
42F
100
AcDbSymbolTableRecord
100
AcDbLayerTableRecord
  2
43901006B0
 70
0
 62
7
  6
CONTINUOUS
370
-3
390
F
  0
LAYER
  5
430
100
AcDbSymbolTableRecord
100
AcDbLayerTableRecord
  2
ASM0001
 70
0
 62
7
  6
CONTINUOUS
370
-3
390
F
  0
LAYER
  5
431
100
AcDbSymbolTableRecord
100
AcDbLayerTableRecord
  2
ASM0002
 70
0
 62
7
  6
CONTINUOUS
370
-3
390
F
  0
LAYER
  5
432
100
AcDbSymbolTableRecord
100
AcDbLayerTableRecord
  2
ASSI
 70
0
 62
7
  6
CONTINUOUS
370
-3
390
F
  0
LAYER
  5
433
100
AcDbSymbolTableRecord
100
AcDbLayerTableRecord
  2
BOARD
 70
0
 62
7
  6
CONTINUOUS
370
-3
390
F
  0
LAYER
  5
434
100
AcDbSymbolTableRecord
100
AcDbLayerTableRecord
  2
BOARD_1
 70
0
 62
7
  6
CONTINUOUS
370
-3
390
F
  0
LAYER
  5
435
100
AcDbSymbolTableRecord
100
AcDbLayerTableRecord
  2
CAP-E-6_3-11-2_5_1120000
 70
0
 62
7
  6
CONTINUOUS
370
-3
390
F
  0
LAYER
  5
436
100
AcDbSymbolTableRecord
100
AcDbLayerTableRecord
  2
CC-20MILS-VIMAR_1000
 70
0
 62
7
  6
CONTINUOUS
370
-3
390
F
  0
LAYER
  5
437
100
AcDbSymbolTableRecord
100
AcDbLayerTableRecord
  2
CC-20MILS-VIMAR_1000_1
 70
0
 62
7
  6
CONTINUOUS
370
-3
390
F
  0
LAYER
  5
438
100
AcDbSymbolTableRecord
100
AcDbLayerTableRecord
  2
CC-20MILS-VIMAR_1000_2
 70
0
 62
7
  6
CONTINUOUS
370
-3
390
F
  0
LAYER
  5
439
100
AcDbSymbolTableRecord
100
AcDbLayerTableRecord
  2
CN06-HEADER-SMD-S-1_27_0
 70
0
 62
7
  6
CONTINUOUS
370
-3
390
F
  0
LAYER
  5
43A
100
AcDbSymbolTableRecord
100
AcDbLayerTableRecord
  2
CN_COAX_M_SMT_U_FL_TET
 70
0
 62
7
  6
CONTINUOUS
370
-3
390
F
  0
LAYER
  5
43B
100
AcDbSymbolTableRecord
100
AcDbLayerTableRecord
  2
CN_COAX_M_SMT_U_FL_TET_1
 70
0
 62
7
  6
CONTINUOUS
370
-3
390
F
  0
LAYER
  5
43C
100
AcDbSymbolTableRecord
100
AcDbLayerTableRecord
  2
CN_COAX_M_SMT_U_FL_TET_130000
 70
0
 62
7
  6
CONTINUOUS
370
-3
390
F
  0
LAYER
  5
43D
100
AcDbSymbolTableRecord
100
AcDbLayerTableRecord
  2
COLOR1
 70
0
 62
7
  6
CONTINUOUS
370
-3
390
F
  0
LAYER
  5
43E
100
AcDbSymbolTableRecord
100
AcDbLayerTableRecord
  2
COLOR100
 70
0
 62
7
  6
CONTINUOUS
370
-3
390
F
  0
LAYER
  5
43F
100
AcDbSymbolTableRecord
100
AcDbLayerTableRecord
  2
COLOR101
 70
0
 62
7
  6
CONTINUOUS
370
-3
390
F
  0
LAYER
  5
440
100
AcDbSymbolTableRecord
100
AcDbLayerTableRecord
  2
COLOR102
 70
0
 62
7
  6
CONTINUOUS
370
-3
390
F
  0
LAYER
  5
441
100
AcDbSymbolTableRecord
100
AcDbLayerTableRecord
  2
COLOR103
 70
0
 62
7
  6
CONTINUOUS
370
-3
390
F
  0
LAYER
  5
442
100
AcDbSymbolTableRecord
100
AcDbLayerTableRecord
  2
COLOR104
 70
0
 62
7
  6
CONTINUOUS
370
-3
390
F
  0
LAYER
  5
443
100
AcDbSymbolTableRecord
100
AcDbLayerTableRecord
  2
COLOR105
 70
0
 62
7
  6
CONTINUOUS
370
-3
390
F
  0
LAYER
  5
444
100
AcDbSymbolTableRecord
100
AcDbLayerTableRecord
  2
COLOR106
 70
0
 62
7
  6
CONTINUOUS
370
-3
390
F
  0
LAYER
  5
445
100
AcDbSymbolTableRecord
100
AcDbLayerTableRecord
  2
COLOR107
 70
0
 62
7
  6
CONTINUOUS
370
-3
390
F
  0
LAYER
  5
446
100
AcDbSymbolTableRecord
100
AcDbLayerTableRecord
  2
COLOR108
 70
0
 62
7
  6
CONTINUOUS
370
-3
390
F
  0
LAYER
  5
447
100
AcDbSymbolTableRecord
100
AcDbLayerTableRecord
  2
COLOR111
 70
0
 62
7
  6
CONTINUOUS
370
-3
390
F
  0
LAYER
  5
448
100
AcDbSymbolTableRecord
100
AcDbLayerTableRecord
  2
COLOR113
 70
0
 62
7
  6
CONTINUOUS
370
-3
390
F
  0
LAYER
  5
449
100
AcDbSymbolTableRecord
100
AcDbLayerTableRecord
  2
COLOR114
 70
0
 62
7
  6
CONTINUOUS
370
-3
390
F
  0
LAYER
  5
44A
100
AcDbSymbolTableRecord
100
AcDbLayerTableRecord
  2
COLOR115
 70
0
 62
7
  6
CONTINUOUS
370
-3
390
F
  0
LAYER
  5
44B
100
AcDbSymbolTableRecord
100
AcDbLayerTableRecord
  2
COLOR116
 70
0
 62
7
  6
CONTINUOUS
370
-3
390
F
  0
LAYER
  5
44C
100
AcDbSymbolTableRecord
100
AcDbLayerTableRecord
  2
COLOR117
 70
0
 62
7
  6
CONTINUOUS
370
-3
390
F
  0
LAYER
  5
44D
100
AcDbSymbolTableRecord
100
AcDbLayerTableRecord
  2
COLOR118
 70
0
 62
7
  6
CONTINUOUS
370
-3
390
F
  0
LAYER
  5
44E
100
AcDbSymbolTableRecord
100
AcDbLayerTableRecord
  2
COLOR119
 70
0
 62
7
  6
CONTINUOUS
370
-3
390
F
  0
LAYER
  5
44F
100
AcDbSymbolTableRecord
100
AcDbLayerTableRecord
  2
COLOR120
 70
0
 62
7
  6
CONTINUOUS
370
-3
390
F
  0
LAYER
  5
450
100
AcDbSymbolTableRecord
100
AcDbLayerTableRecord
  2
COLOR121
 70
0
 62
7
  6
CONTINUOUS
370
-3
390
F
  0
LAYER
  5
451
100
AcDbSymbolTableRecord
100
AcDbLayerTableRecord
  2
COLOR122
 70
0
 62
7
  6
CONTINUOUS
370
-3
390
F
  0
LAYER
  5
452
100
AcDbSymbolTableRecord
100
AcDbLayerTableRecord
  2
COLOR123
 70
0
 62
7
  6
CONTINUOUS
370
-3
390
F
  0
LAYER
  5
453
100
AcDbSymbolTableRecord
100
AcDbLayerTableRecord
  2
COLOR124
 70
0
 62
7
  6
CONTINUOUS
370
-3
390
F
  0
LAYER
  5
454
100
AcDbSymbolTableRecord
100
AcDbLayerTableRecord
  2
COLOR125
 70
0
 62
7
  6
CONTINUOUS
370
-3
390
F
  0
LAYER
  5
455
100
AcDbSymbolTableRecord
100
AcDbLayerTableRecord
  2
COLOR126
 70
0
 62
7
  6
CONTINUOUS
370
-3
390
F
  0
LAYER
  5
456
100
AcDbSymbolTableRecord
100
AcDbLayerTableRecord
  2
COLOR127
 70
0
 62
7
  6
CONTINUOUS
370
-3
390
F
  0
LAYER
  5
457
100
AcDbSymbolTableRecord
100
AcDbLayerTableRecord
  2
COLOR128
 70
0
 62
7
  6
CONTINUOUS
370
-3
390
F
  0
LAYER
  5
458
100
AcDbSymbolTableRecord
100
AcDbLayerTableRecord
  2
COLOR129
 70
0
 62
7
  6
CONTINUOUS
370
-3
390
F
  0
LAYER
  5
459
100
AcDbSymbolTableRecord
100
AcDbLayerTableRecord
  2
COLOR130
 70
0
 62
7
  6
CONTINUOUS
370
-3
390
F
  0
LAYER
  5
45A
100
AcDbSymbolTableRecord
100
AcDbLayerTableRecord
  2
COLOR131
 70
0
 62
7
  6
CONTINUOUS
370
-3
390
F
  0
LAYER
  5
45B
100
AcDbSymbolTableRecord
100
AcDbLayerTableRecord
  2
COLOR132
 70
0
 62
7
  6
CONTINUOUS
370
-3
390
F
  0
LAYER
  5
45C
100
AcDbSymbolTableRecord
100
AcDbLayerTableRecord
  2
COLOR133
 70
0
 62
7
  6
CONTINUOUS
370
-3
390
F
  0
LAYER
  5
45D
100
AcDbSymbolTableRecord
100
AcDbLayerTableRecord
  2
COLOR134
 70
0
 62
7
  6
CONTINUOUS
370
-3
390
F
  0
LAYER
  5
45E
100
AcDbSymbolTableRecord
100
AcDbLayerTableRecord
  2
COLOR135
 70
0
 62
7
  6
CONTINUOUS
370
-3
390
F
  0
LAYER
  5
45F
100
AcDbSymbolTableRecord
100
AcDbLayerTableRecord
  2
COLOR136
 70
0
 62
7
  6
CONTINUOUS
370
-3
390
F
  0
LAYER
  5
460
100
AcDbSymbolTableRecord
100
AcDbLayerTableRecord
  2
COLOR137
 70
0
 62
7
  6
CONTINUOUS
370
-3
390
F
  0
LAYER
  5
461
100
AcDbSymbolTableRecord
100
AcDbLayerTableRecord
  2
COLOR138
 70
0
 62
7
  6
CONTINUOUS
370
-3
390
F
  0
LAYER
  5
462
100
AcDbSymbolTableRecord
100
AcDbLayerTableRecord
  2
COLOR139
 70
0
 62
7
  6
CONTINUOUS
370
-3
390
F
  0
LAYER
  5
463
100
AcDbSymbolTableRecord
100
AcDbLayerTableRecord
  2
COLOR140
 70
0
 62
7
  6
CONTINUOUS
370
-3
390
F
  0
LAYER
  5
464
100
AcDbSymbolTableRecord
100
AcDbLayerTableRecord
  2
COLOR141
 70
0
 62
7
  6
CONTINUOUS
370
-3
390
F
  0
LAYER
  5
465
100
AcDbSymbolTableRecord
100
AcDbLayerTableRecord
  2
COLOR142
 70
0
 62
7
  6
CONTINUOUS
370
-3
390
F
  0
LAYER
  5
466
100
AcDbSymbolTableRecord
100
AcDbLayerTableRecord
  2
COLOR143
 70
0
 62
7
  6
CONTINUOUS
370
-3
390
F
  0
LAYER
  5
467
100
AcDbSymbolTableRecord
100
AcDbLayerTableRecord
  2
COLOR144
 70
0
 62
7
  6
CONTINUOUS
370
-3
390
F
  0
LAYER
  5
468
100
AcDbSymbolTableRecord
100
AcDbLayerTableRecord
  2
COLOR145
 70
0
 62
7
  6
CONTINUOUS
370
-3
390
F
  0
LAYER
  5
469
100
AcDbSymbolTableRecord
100
AcDbLayerTableRecord
  2
COLOR146
 70
0
 62
7
  6
CONTINUOUS
370
-3
390
F
  0
LAYER
  5
46A
100
AcDbSymbolTableRecord
100
AcDbLayerTableRecord
  2
COLOR147
 70
0
 62
7
  6
CONTINUOUS
370
-3
390
F
  0
LAYER
  5
46B
100
AcDbSymbolTableRecord
100
AcDbLayerTableRecord
  2
COLOR148
 70
0
 62
7
  6
CONTINUOUS
370
-3
390
F
  0
LAYER
  5
46C
100
AcDbSymbolTableRecord
100
AcDbLayerTableRecord
  2
COLOR149
 70
0
 62
7
  6
CONTINUOUS
370
-3
390
F
  0
LAYER
  5
46D
100
AcDbSymbolTableRecord
100
AcDbLayerTableRecord
  2
COLOR150
 70
0
 62
7
  6
CONTINUOUS
370
-3
390
F
  0
LAYER
  5
46E
100
AcDbSymbolTableRecord
100
AcDbLayerTableRecord
  2
COLOR151
 70
0
 62
7
  6
CONTINUOUS
370
-3
390
F
  0
LAYER
  5
46F
100
AcDbSymbolTableRecord
100
AcDbLayerTableRecord
  2
COLOR152
 70
0
 62
7
  6
CONTINUOUS
370
-3
390
F
  0
LAYER
  5
470
100
AcDbSymbolTableRecord
100
AcDbLayerTableRecord
  2
COLOR153
 70
0
 62
7
  6
CONTINUOUS
370
-3
390
F
  0
LAYER
  5
471
100
AcDbSymbolTableRecord
100
AcDbLayerTableRecord
  2
COLOR154
 70
0
 62
7
  6
CONTINUOUS
370
-3
390
F
  0
LAYER
  5
472
100
AcDbSymbolTableRecord
100
AcDbLayerTableRecord
  2
COLOR155
 70
0
 62
7
  6
CONTINUOUS
370
-3
390
F
  0
LAYER
  5
473
100
AcDbSymbolTableRecord
100
AcDbLayerTableRecord
  2
COLOR156
 70
0
 62
7
  6
CONTINUOUS
370
-3
390
F
  0
LAYER
  5
474
100
AcDbSymbolTableRecord
100
AcDbLayerTableRecord
  2
COLOR157
 70
0
 62
7
  6
CONTINUOUS
370
-3
390
F
  0
LAYER
  5
475
100
AcDbSymbolTableRecord
100
AcDbLayerTableRecord
  2
COLOR158
 70
0
 62
7
  6
CONTINUOUS
370
-3
390
F
  0
LAYER
  5
476
100
AcDbSymbolTableRecord
100
AcDbLayerTableRecord
  2
COLOR159
 70
0
 62
7
  6
CONTINUOUS
370
-3
390
F
  0
LAYER
  5
477
100
AcDbSymbolTableRecord
100
AcDbLayerTableRecord
  2
COLOR16
 70
0
 62
7
  6
CONTINUOUS
370
-3
390
F
  0
LAYER
  5
478
100
AcDbSymbolTableRecord
100
AcDbLayerTableRecord
  2
COLOR160
 70
0
 62
7
  6
CONTINUOUS
370
-3
390
F
  0
LAYER
  5
479
100
AcDbSymbolTableRecord
100
AcDbLayerTableRecord
  2
COLOR161
 70
0
 62
7
  6
CONTINUOUS
370
-3
390
F
  0
LAYER
  5
47A
100
AcDbSymbolTableRecord
100
AcDbLayerTableRecord
  2
COLOR162
 70
0
 62
7
  6
CONTINUOUS
370
-3
390
F
  0
LAYER
  5
47B
100
AcDbSymbolTableRecord
100
AcDbLayerTableRecord
  2
COLOR163
 70
0
 62
7
  6
CONTINUOUS
370
-3
390
F
  0
LAYER
  5
47C
100
AcDbSymbolTableRecord
100
AcDbLayerTableRecord
  2
COLOR164
 70
0
 62
7
  6
CONTINUOUS
370
-3
390
F
  0
LAYER
  5
47D
100
AcDbSymbolTableRecord
100
AcDbLayerTableRecord
  2
COLOR165
 70
0
 62
7
  6
CONTINUOUS
370
-3
390
F
  0
LAYER
  5
47E
100
AcDbSymbolTableRecord
100
AcDbLayerTableRecord
  2
COLOR166
 70
0
 62
7
  6
CONTINUOUS
370
-3
390
F
  0
LAYER
  5
47F
100
AcDbSymbolTableRecord
100
AcDbLayerTableRecord
  2
COLOR167
 70
0
 62
7
  6
CONTINUOUS
370
-3
390
F
  0
LAYER
  5
480
100
AcDbSymbolTableRecord
100
AcDbLayerTableRecord
  2
COLOR168
 70
0
 62
7
  6
CONTINUOUS
370
-3
390
F
  0
LAYER
  5
481
100
AcDbSymbolTableRecord
100
AcDbLayerTableRecord
  2
COLOR169
 70
0
 62
7
  6
CONTINUOUS
370
-3
390
F
  0
LAYER
  5
482
100
AcDbSymbolTableRecord
100
AcDbLayerTableRecord
  2
COLOR17
 70
0
 62
7
  6
CONTINUOUS
370
-3
390
F
  0
LAYER
  5
483
100
AcDbSymbolTableRecord
100
AcDbLayerTableRecord
  2
COLOR170
 70
0
 62
7
  6
CONTINUOUS
370
-3
390
F
  0
LAYER
  5
484
100
AcDbSymbolTableRecord
100
AcDbLayerTableRecord
  2
COLOR171
 70
0
 62
7
  6
CONTINUOUS
370
-3
390
F
  0
LAYER
  5
485
100
AcDbSymbolTableRecord
100
AcDbLayerTableRecord
  2
COLOR172
 70
0
 62
7
  6
CONTINUOUS
370
-3
390
F
  0
LAYER
  5
486
100
AcDbSymbolTableRecord
100
AcDbLayerTableRecord
  2
COLOR173
 70
0
 62
7
  6
CONTINUOUS
370
-3
390
F
  0
LAYER
  5
487
100
AcDbSymbolTableRecord
100
AcDbLayerTableRecord
  2
COLOR174
 70
0
 62
7
  6
CONTINUOUS
370
-3
390
F
  0
LAYER
  5
488
100
AcDbSymbolTableRecord
100
AcDbLayerTableRecord
  2
COLOR175
 70
0
 62
7
  6
CONTINUOUS
370
-3
390
F
  0
LAYER
  5
489
100
AcDbSymbolTableRecord
100
AcDbLayerTableRecord
  2
COLOR176
 70
0
 62
7
  6
CONTINUOUS
370
-3
390
F
  0
LAYER
  5
48A
100
AcDbSymbolTableRecord
100
AcDbLayerTableRecord
  2
COLOR177
 70
0
 62
7
  6
CONTINUOUS
370
-3
390
F
  0
LAYER
  5
48B
100
AcDbSymbolTableRecord
100
AcDbLayerTableRecord
  2
COLOR178
 70
0
 62
7
  6
CONTINUOUS
370
-3
390
F
  0
LAYER
  5
48C
100
AcDbSymbolTableRecord
100
AcDbLayerTableRecord
  2
COLOR179
 70
0
 62
7
  6
CONTINUOUS
370
-3
390
F
  0
LAYER
  5
48D
100
AcDbSymbolTableRecord
100
AcDbLayerTableRecord
  2
COLOR180
 70
0
 62
7
  6
CONTINUOUS
370
-3
390
F
  0
LAYER
  5
48E
100
AcDbSymbolTableRecord
100
AcDbLayerTableRecord
  2
COLOR181
 70
0
 62
7
  6
CONTINUOUS
370
-3
390
F
  0
LAYER
  5
48F
100
AcDbSymbolTableRecord
100
AcDbLayerTableRecord
  2
COLOR182
 70
0
 62
7
  6
CONTINUOUS
370
-3
390
F
  0
LAYER
  5
490
100
AcDbSymbolTableRecord
100
AcDbLayerTableRecord
  2
COLOR183
 70
0
 62
7
  6
CONTINUOUS
370
-3
390
F
  0
LAYER
  5
491
100
AcDbSymbolTableRecord
100
AcDbLayerTableRecord
  2
COLOR184
 70
0
 62
7
  6
CONTINUOUS
370
-3
390
F
  0
LAYER
  5
492
100
AcDbSymbolTableRecord
100
AcDbLayerTableRecord
  2
COLOR185
 70
0
 62
7
  6
CONTINUOUS
370
-3
390
F
  0
LAYER
  5
493
100
AcDbSymbolTableRecord
100
AcDbLayerTableRecord
  2
COLOR186
 70
0
 62
7
  6
CONTINUOUS
370
-3
390
F
  0
LAYER
  5
494
100
AcDbSymbolTableRecord
100
AcDbLayerTableRecord
  2
COLOR187
 70
0
 62
7
  6
CONTINUOUS
370
-3
390
F
  0
LAYER
  5
495
100
AcDbSymbolTableRecord
100
AcDbLayerTableRecord
  2
COLOR188
 70
0
 62
7
  6
CONTINUOUS
370
-3
390
F
  0
LAYER
  5
496
100
AcDbSymbolTableRecord
100
AcDbLayerTableRecord
  2
COLOR189
 70
0
 62
7
  6
CONTINUOUS
370
-3
390
F
  0
LAYER
  5
497
100
AcDbSymbolTableRecord
100
AcDbLayerTableRecord
  2
COLOR190
 70
0
 62
7
  6
CONTINUOUS
370
-3
390
F
  0
LAYER
  5
498
100
AcDbSymbolTableRecord
100
AcDbLayerTableRecord
  2
COLOR191
 70
0
 62
7
  6
CONTINUOUS
370
-3
390
F
  0
LAYER
  5
499
100
AcDbSymbolTableRecord
100
AcDbLayerTableRecord
  2
COLOR192
 70
0
 62
7
  6
CONTINUOUS
370
-3
390
F
  0
LAYER
  5
49A
100
AcDbSymbolTableRecord
100
AcDbLayerTableRecord
  2
COLOR193
 70
0
 62
7
  6
CONTINUOUS
370
-3
390
F
  0
LAYER
  5
49B
100
AcDbSymbolTableRecord
100
AcDbLayerTableRecord
  2
COLOR194
 70
0
 62
7
  6
CONTINUOUS
370
-3
390
F
  0
LAYER
  5
49C
100
AcDbSymbolTableRecord
100
AcDbLayerTableRecord
  2
COLOR195
 70
0
 62
7
  6
CONTINUOUS
370
-3
390
F
  0
LAYER
  5
49D
100
AcDbSymbolTableRecord
100
AcDbLayerTableRecord
  2
COLOR196
 70
0
 62
7
  6
CONTINUOUS
370
-3
390
F
  0
LAYER
  5
49E
100
AcDbSymbolTableRecord
100
AcDbLayerTableRecord
  2
COLOR197
 70
0
 62
7
  6
CONTINUOUS
370
-3
390
F
  0
LAYER
  5
49F
100
AcDbSymbolTableRecord
100
AcDbLayerTableRecord
  2
COLOR198
 70
0
 62
7
  6
CONTINUOUS
370
-3
390
F
  0
LAYER
  5
4A0
100
AcDbSymbolTableRecord
100
AcDbLayerTableRecord
  2
COLOR199
 70
0
 62
7
  6
CONTINUOUS
370
-3
390
F
  0
LAYER
  5
4A1
100
AcDbSymbolTableRecord
100
AcDbLayerTableRecord
  2
COLOR20
 70
0
 62
7
  6
CONTINUOUS
370
-3
390
F
  0
LAYER
  5
4A2
100
AcDbSymbolTableRecord
100
AcDbLayerTableRecord
  2
COLOR200
 70
0
 62
7
  6
CONTINUOUS
370
-3
390
F
  0
LAYER
  5
4A3
100
AcDbSymbolTableRecord
100
AcDbLayerTableRecord
  2
COLOR201
 70
0
 62
7
  6
CONTINUOUS
370
-3
390
F
  0
LAYER
  5
4A4
100
AcDbSymbolTableRecord
100
AcDbLayerTableRecord
  2
COLOR202
 70
0
 62
7
  6
CONTINUOUS
370
-3
390
F
  0
LAYER
  5
4A5
100
AcDbSymbolTableRecord
100
AcDbLayerTableRecord
  2
COLOR205
 70
0
 62
7
  6
CONTINUOUS
370
-3
390
F
  0
LAYER
  5
4A6
100
AcDbSymbolTableRecord
100
AcDbLayerTableRecord
  2
COLOR207
 70
0
 62
7
  6
CONTINUOUS
370
-3
390
F
  0
LAYER
  5
4A7
100
AcDbSymbolTableRecord
100
AcDbLayerTableRecord
  2
COLOR208
 70
0
 62
7
  6
CONTINUOUS
370
-3
390
F
  0
LAYER
  5
4A8
100
AcDbSymbolTableRecord
100
AcDbLayerTableRecord
  2
COLOR209
 70
0
 62
7
  6
CONTINUOUS
370
-3
390
F
  0
LAYER
  5
4A9
100
AcDbSymbolTableRecord
100
AcDbLayerTableRecord
  2
COLOR21
 70
0
 62
7
  6
CONTINUOUS
370
-3
390
F
  0
LAYER
  5
4AA
100
AcDbSymbolTableRecord
100
AcDbLayerTableRecord
  2
COLOR210
 70
0
 62
7
  6
CONTINUOUS
370
-3
390
F
  0
LAYER
  5
4AB
100
AcDbSymbolTableRecord
100
AcDbLayerTableRecord
  2
COLOR211
 70
0
 62
7
  6
CONTINUOUS
370
-3
390
F
  0
LAYER
  5
4AC
100
AcDbSymbolTableRecord
100
AcDbLayerTableRecord
  2
COLOR212
 70
0
 62
7
  6
CONTINUOUS
370
-3
390
F
  0
LAYER
  5
4AD
100
AcDbSymbolTableRecord
100
AcDbLayerTableRecord
  2
COLOR213
 70
0
 62
7
  6
CONTINUOUS
370
-3
390
F
  0
LAYER
  5
4AE
100
AcDbSymbolTableRecord
100
AcDbLayerTableRecord
  2
COLOR214
 70
0
 62
7
  6
CONTINUOUS
370
-3
390
F
  0
LAYER
  5
4AF
100
AcDbSymbolTableRecord
100
AcDbLayerTableRecord
  2
COLOR215
 70
0
 62
7
  6
CONTINUOUS
370
-3
390
F
  0
LAYER
  5
4B0
100
AcDbSymbolTableRecord
100
AcDbLayerTableRecord
  2
COLOR216
 70
0
 62
7
  6
CONTINUOUS
370
-3
390
F
  0
LAYER
  5
4B1
100
AcDbSymbolTableRecord
100
AcDbLayerTableRecord
  2
COLOR217
 70
0
 62
7
  6
CONTINUOUS
370
-3
390
F
  0
LAYER
  5
4B2
100
AcDbSymbolTableRecord
100
AcDbLayerTableRecord
  2
COLOR218
 70
0
 62
7
  6
CONTINUOUS
370
-3
390
F
  0
LAYER
  5
4B3
100
AcDbSymbolTableRecord
100
AcDbLayerTableRecord
  2
COLOR219
 70
0
 62
7
  6
CONTINUOUS
370
-3
390
F
  0
LAYER
  5
4B4
100
AcDbSymbolTableRecord
100
AcDbLayerTableRecord
  2
COLOR22
 70
0
 62
7
  6
CONTINUOUS
370
-3
390
F
  0
LAYER
  5
4B5
100
AcDbSymbolTableRecord
100
AcDbLayerTableRecord
  2
COLOR228
 70
0
 62
7
  6
CONTINUOUS
370
-3
390
F
  0
LAYER
  5
4B6
100
AcDbSymbolTableRecord
100
AcDbLayerTableRecord
  2
COLOR229
 70
0
 62
7
  6
CONTINUOUS
370
-3
390
F
  0
LAYER
  5
4B7
100
AcDbSymbolTableRecord
100
AcDbLayerTableRecord
  2
COLOR23
 70
0
 62
7
  6
CONTINUOUS
370
-3
390
F
  0
LAYER
  5
4B8
100
AcDbSymbolTableRecord
100
AcDbLayerTableRecord
  2
COLOR230
 70
0
 62
7
  6
CONTINUOUS
370
-3
390
F
  0
LAYER
  5
4B9
100
AcDbSymbolTableRecord
100
AcDbLayerTableRecord
  2
COLOR231
 70
0
 62
7
  6
CONTINUOUS
370
-3
390
F
  0
LAYER
  5
4BA
100
AcDbSymbolTableRecord
100
AcDbLayerTableRecord
  2
COLOR232
 70
0
 62
7
  6
CONTINUOUS
370
-3
390
F
  0
LAYER
  5
4BB
100
AcDbSymbolTableRecord
100
AcDbLayerTableRecord
  2
COLOR233
 70
0
 62
7
  6
CONTINUOUS
370
-3
390
F
  0
LAYER
  5
4BC
100
AcDbSymbolTableRecord
100
AcDbLayerTableRecord
  2
COLOR234
 70
0
 62
7
  6
CONTINUOUS
370
-3
390
F
  0
LAYER
  5
4BD
100
AcDbSymbolTableRecord
100
AcDbLayerTableRecord
  2
COLOR235
 70
0
 62
7
  6
CONTINUOUS
370
-3
390
F
  0
LAYER
  5
4BE
100
AcDbSymbolTableRecord
100
AcDbLayerTableRecord
  2
COLOR236
 70
0
 62
7
  6
CONTINUOUS
370
-3
390
F
  0
LAYER
  5
4BF
100
AcDbSymbolTableRecord
100
AcDbLayerTableRecord
  2
COLOR237
 70
0
 62
7
  6
CONTINUOUS
370
-3
390
F
  0
LAYER
  5
4C0
100
AcDbSymbolTableRecord
100
AcDbLayerTableRecord
  2
COLOR24
 70
0
 62
7
  6
CONTINUOUS
370
-3
390
F
  0
LAYER
  5
4C1
100
AcDbSymbolTableRecord
100
AcDbLayerTableRecord
  2
COLOR25
 70
0
 62
7
  6
CONTINUOUS
370
-3
390
F
  0
LAYER
  5
4C2
100
AcDbSymbolTableRecord
100
AcDbLayerTableRecord
  2
COLOR26
 70
0
 62
7
  6
CONTINUOUS
370
-3
390
F
  0
LAYER
  5
4C3
100
AcDbSymbolTableRecord
100
AcDbLayerTableRecord
  2
COLOR27
 70
0
 62
7
  6
CONTINUOUS
370
-3
390
F
  0
LAYER
  5
4C4
100
AcDbSymbolTableRecord
100
AcDbLayerTableRecord
  2
COLOR28
 70
0
 62
7
  6
CONTINUOUS
370
-3
390
F
  0
LAYER
  5
4C5
100
AcDbSymbolTableRecord
100
AcDbLayerTableRecord
  2
COLOR29
 70
0
 62
7
  6
CONTINUOUS
370
-3
390
F
  0
LAYER
  5
4C6
100
AcDbSymbolTableRecord
100
AcDbLayerTableRecord
  2
COLOR30
 70
0
 62
7
  6
CONTINUOUS
370
-3
390
F
  0
LAYER
  5
4C7
100
AcDbSymbolTableRecord
100
AcDbLayerTableRecord
  2
COLOR31
 70
0
 62
7
  6
CONTINUOUS
370
-3
390
F
  0
LAYER
  5
4C8
100
AcDbSymbolTableRecord
100
AcDbLayerTableRecord
  2
COLOR32
 70
0
 62
7
  6
CONTINUOUS
370
-3
390
F
  0
LAYER
  5
4C9
100
AcDbSymbolTableRecord
100
AcDbLayerTableRecord
  2
COLOR33
 70
0
 62
7
  6
CONTINUOUS
370
-3
390
F
  0
LAYER
  5
4CA
100
AcDbSymbolTableRecord
100
AcDbLayerTableRecord
  2
COLOR34
 70
0
 62
7
  6
CONTINUOUS
370
-3
390
F
  0
LAYER
  5
4CB
100
AcDbSymbolTableRecord
100
AcDbLayerTableRecord
  2
COLOR35
 70
0
 62
7
  6
CONTINUOUS
370
-3
390
F
  0
LAYER
  5
4CC
100
AcDbSymbolTableRecord
100
AcDbLayerTableRecord
  2
COLOR36
 70
0
 62
7
  6
CONTINUOUS
370
-3
390
F
  0
LAYER
  5
4CD
100
AcDbSymbolTableRecord
100
AcDbLayerTableRecord
  2
COLOR37
 70
0
 62
7
  6
CONTINUOUS
370
-3
390
F
  0
LAYER
  5
4CE
100
AcDbSymbolTableRecord
100
AcDbLayerTableRecord
  2
COLOR38
 70
0
 62
7
  6
CONTINUOUS
370
-3
390
F
  0
LAYER
  5
4CF
100
AcDbSymbolTableRecord
100
AcDbLayerTableRecord
  2
COLOR39
 70
0
 62
7
  6
CONTINUOUS
370
-3
390
F
  0
LAYER
  5
4D0
100
AcDbSymbolTableRecord
100
AcDbLayerTableRecord
  2
COLOR40
 70
0
 62
7
  6
CONTINUOUS
370
-3
390
F
  0
LAYER
  5
4D1
100
AcDbSymbolTableRecord
100
AcDbLayerTableRecord
  2
COLOR41
 70
0
 62
7
  6
CONTINUOUS
370
-3
390
F
  0
LAYER
  5
4D2
100
AcDbSymbolTableRecord
100
AcDbLayerTableRecord
  2
COLOR42
 70
0
 62
7
  6
CONTINUOUS
370
-3
390
F
  0
LAYER
  5
4D3
100
AcDbSymbolTableRecord
100
AcDbLayerTableRecord
  2
COLOR43
 70
0
 62
7
  6
CONTINUOUS
370
-3
390
F
  0
LAYER
  5
4D4
100
AcDbSymbolTableRecord
100
AcDbLayerTableRecord
  2
COLOR44
 70
0
 62
7
  6
CONTINUOUS
370
-3
390
F
  0
LAYER
  5
4D5
100
AcDbSymbolTableRecord
100
AcDbLayerTableRecord
  2
COLOR45
 70
0
 62
7
  6
CONTINUOUS
370
-3
390
F
  0
LAYER
  5
4D6
100
AcDbSymbolTableRecord
100
AcDbLayerTableRecord
  2
COLOR46
 70
0
 62
7
  6
CONTINUOUS
370
-3
390
F
  0
LAYER
  5
4D7
100
AcDbSymbolTableRecord
100
AcDbLayerTableRecord
  2
COLOR47
 70
0
 62
7
  6
CONTINUOUS
370
-3
390
F
  0
LAYER
  5
4D8
100
AcDbSymbolTableRecord
100
AcDbLayerTableRecord
  2
COLOR48
 70
0
 62
7
  6
CONTINUOUS
370
-3
390
F
  0
LAYER
  5
4D9
100
AcDbSymbolTableRecord
100
AcDbLayerTableRecord
  2
COLOR49
 70
0
 62
7
  6
CONTINUOUS
370
-3
390
F
  0
LAYER
  5
4DA
100
AcDbSymbolTableRecord
100
AcDbLayerTableRecord
  2
COLOR5
 70
0
 62
7
  6
CONTINUOUS
370
-3
390
F
  0
LAYER
  5
4DB
100
AcDbSymbolTableRecord
100
AcDbLayerTableRecord
  2
COLOR50
 70
0
 62
7
  6
CONTINUOUS
370
-3
390
F
  0
LAYER
  5
4DC
100
AcDbSymbolTableRecord
100
AcDbLayerTableRecord
  2
COLOR51
 70
0
 62
7
  6
CONTINUOUS
370
-3
390
F
  0
LAYER
  5
4DD
100
AcDbSymbolTableRecord
100
AcDbLayerTableRecord
  2
COLOR52
 70
0
 62
7
  6
CONTINUOUS
370
-3
390
F
  0
LAYER
  5
4DE
100
AcDbSymbolTableRecord
100
AcDbLayerTableRecord
  2
COLOR53
 70
0
 62
7
  6
CONTINUOUS
370
-3
390
F
  0
LAYER
  5
4DF
100
AcDbSymbolTableRecord
100
AcDbLayerTableRecord
  2
COLOR54
 70
0
 62
7
  6
CONTINUOUS
370
-3
390
F
  0
LAYER
  5
4E0
100
AcDbSymbolTableRecord
100
AcDbLayerTableRecord
  2
COLOR55
 70
0
 62
7
  6
CONTINUOUS
370
-3
390
F
  0
LAYER
  5
4E1
100
AcDbSymbolTableRecord
100
AcDbLayerTableRecord
  2
COLOR56
 70
0
 62
7
  6
CONTINUOUS
370
-3
390
F
  0
LAYER
  5
4E2
100
AcDbSymbolTableRecord
100
AcDbLayerTableRecord
  2
COLOR57
 70
0
 62
7
  6
CONTINUOUS
370
-3
390
F
  0
LAYER
  5
4E3
100
AcDbSymbolTableRecord
100
AcDbLayerTableRecord
  2
COLOR58
 70
0
 62
7
  6
CONTINUOUS
370
-3
390
F
  0
LAYER
  5
4E4
100
AcDbSymbolTableRecord
100
AcDbLayerTableRecord
  2
COLOR59
 70
0
 62
7
  6
CONTINUOUS
370
-3
390
F
  0
LAYER
  5
4E5
100
AcDbSymbolTableRecord
100
AcDbLayerTableRecord
  2
COLOR60
 70
0
 62
7
  6
CONTINUOUS
370
-3
390
F
  0
LAYER
  5
4E6
100
AcDbSymbolTableRecord
100
AcDbLayerTableRecord
  2
COLOR61
 70
0
 62
7
  6
CONTINUOUS
370
-3
390
F
  0
LAYER
  5
4E7
100
AcDbSymbolTableRecord
100
AcDbLayerTableRecord
  2
COLOR62
 70
0
 62
7
  6
CONTINUOUS
370
-3
390
F
  0
LAYER
  5
4E8
100
AcDbSymbolTableRecord
100
AcDbLayerTableRecord
  2
COLOR63
 70
0
 62
7
  6
CONTINUOUS
370
-3
390
F
  0
LAYER
  5
4E9
100
AcDbSymbolTableRecord
100
AcDbLayerTableRecord
  2
COLOR64
 70
0
 62
7
  6
CONTINUOUS
370
-3
390
F
  0
LAYER
  5
4EA
100
AcDbSymbolTableRecord
100
AcDbLayerTableRecord
  2
COLOR65
 70
0
 62
7
  6
CONTINUOUS
370
-3
390
F
  0
LAYER
  5
4EB
100
AcDbSymbolTableRecord
100
AcDbLayerTableRecord
  2
COLOR66
 70
0
 62
7
  6
CONTINUOUS
370
-3
390
F
  0
LAYER
  5
4EC
100
AcDbSymbolTableRecord
100
AcDbLayerTableRecord
  2
COLOR67
 70
0
 62
7
  6
CONTINUOUS
370
-3
390
F
  0
LAYER
  5
4ED
100
AcDbSymbolTableRecord
100
AcDbLayerTableRecord
  2
COLOR68
 70
0
 62
7
  6
CONTINUOUS
370
-3
390
F
  0
LAYER
  5
4EE
100
AcDbSymbolTableRecord
100
AcDbLayerTableRecord
  2
COLOR69
 70
0
 62
7
  6
CONTINUOUS
370
-3
390
F
  0
LAYER
  5
4EF
100
AcDbSymbolTableRecord
100
AcDbLayerTableRecord
  2
COLOR70
 70
0
 62
7
  6
CONTINUOUS
370
-3
390
F
  0
LAYER
  5
4F0
100
AcDbSymbolTableRecord
100
AcDbLayerTableRecord
  2
COLOR71
 70
0
 62
7
  6
CONTINUOUS
370
-3
390
F
  0
LAYER
  5
4F1
100
AcDbSymbolTableRecord
100
AcDbLayerTableRecord
  2
COLOR72
 70
0
 62
7
  6
CONTINUOUS
370
-3
390
F
  0
LAYER
  5
4F2
100
AcDbSymbolTableRecord
100
AcDbLayerTableRecord
  2
COLOR73
 70
0
 62
7
  6
CONTINUOUS
370
-3
390
F
  0
LAYER
  5
4F3
100
AcDbSymbolTableRecord
100
AcDbLayerTableRecord
  2
COLOR74
 70
0
 62
7
  6
CONTINUOUS
370
-3
390
F
  0
LAYER
  5
4F4
100
AcDbSymbolTableRecord
100
AcDbLayerTableRecord
  2
COLOR75
 70
0
 62
7
  6
CONTINUOUS
370
-3
390
F
  0
LAYER
  5
4F5
100
AcDbSymbolTableRecord
100
AcDbLayerTableRecord
  2
COLOR76
 70
0
 62
7
  6
CONTINUOUS
370
-3
390
F
  0
LAYER
  5
4F6
100
AcDbSymbolTableRecord
100
AcDbLayerTableRecord
  2
COLOR77
 70
0
 62
7
  6
CONTINUOUS
370
-3
390
F
  0
LAYER
  5
4F7
100
AcDbSymbolTableRecord
100
AcDbLayerTableRecord
  2
COLOR78
 70
0
 62
7
  6
CONTINUOUS
370
-3
390
F
  0
LAYER
  5
4F8
100
AcDbSymbolTableRecord
100
AcDbLayerTableRecord
  2
COLOR79
 70
0
 62
7
  6
CONTINUOUS
370
-3
390
F
  0
LAYER
  5
4F9
100
AcDbSymbolTableRecord
100
AcDbLayerTableRecord
  2
COLOR80
 70
0
 62
7
  6
CONTINUOUS
370
-3
390
F
  0
LAYER
  5
4FA
100
AcDbSymbolTableRecord
100
AcDbLayerTableRecord
  2
COLOR81
 70
0
 62
7
  6
CONTINUOUS
370
-3
390
F
  0
LAYER
  5
4FB
100
AcDbSymbolTableRecord
100
AcDbLayerTableRecord
  2
COLOR82
 70
0
 62
7
  6
CONTINUOUS
370
-3
390
F
  0
LAYER
  5
4FC
100
AcDbSymbolTableRecord
100
AcDbLayerTableRecord
  2
COLOR83
 70
0
 62
7
  6
CONTINUOUS
370
-3
390
F
  0
LAYER
  5
4FD
100
AcDbSymbolTableRecord
100
AcDbLayerTableRecord
  2
COLOR84
 70
0
 62
7
  6
CONTINUOUS
370
-3
390
F
  0
LAYER
  5
4FE
100
AcDbSymbolTableRecord
100
AcDbLayerTableRecord
  2
COLOR85
 70
0
 62
7
  6
CONTINUOUS
370
-3
390
F
  0
LAYER
  5
4FF
100
AcDbSymbolTableRecord
100
AcDbLayerTableRecord
  2
COLOR86
 70
0
 62
7
  6
CONTINUOUS
370
-3
390
F
  0
LAYER
  5
500
100
AcDbSymbolTableRecord
100
AcDbLayerTableRecord
  2
COLOR87
 70
0
 62
7
  6
CONTINUOUS
370
-3
390
F
  0
LAYER
  5
501
100
AcDbSymbolTableRecord
100
AcDbLayerTableRecord
  2
COLOR88
 70
0
 62
7
  6
CONTINUOUS
370
-3
390
F
  0
LAYER
  5
502
100
AcDbSymbolTableRecord
100
AcDbLayerTableRecord
  2
COLOR89
 70
0
 62
7
  6
CONTINUOUS
370
-3
390
F
  0
LAYER
  5
503
100
AcDbSymbolTableRecord
100
AcDbLayerTableRecord
  2
COLOR90
 70
0
 62
7
  6
CONTINUOUS
370
-3
390
F
  0
LAYER
  5
504
100
AcDbSymbolTableRecord
100
AcDbLayerTableRecord
  2
COLOR91
 70
0
 62
7
  6
CONTINUOUS
370
-3
390
F
  0
LAYER
  5
505
100
AcDbSymbolTableRecord
100
AcDbLayerTableRecord
  2
COLOR92
 70
0
 62
7
  6
CONTINUOUS
370
-3
390
F
  0
LAYER
  5
506
100
AcDbSymbolTableRecord
100
AcDbLayerTableRecord
  2
COLOR93
 70
0
 62
7
  6
CONTINUOUS
370
-3
390
F
  0
LAYER
  5
507
100
AcDbSymbolTableRecord
100
AcDbLayerTableRecord
  2
COLOR94
 70
0
 62
7
  6
CONTINUOUS
370
-3
390
F
  0
LAYER
  5
508
100
AcDbSymbolTableRecord
100
AcDbLayerTableRecord
  2
COLOR95
 70
0
 62
7
  6
CONTINUOUS
370
-3
390
F
  0
LAYER
  5
509
100
AcDbSymbolTableRecord
100
AcDbLayerTableRecord
  2
COLOR96
 70
0
 62
7
  6
CONTINUOUS
370
-3
390
F
  0
LAYER
  5
50A
100
AcDbSymbolTableRecord
100
AcDbLayerTableRecord
  2
COLOR97
 70
0
 62
7
  6
CONTINUOUS
370
-3
390
F
  0
LAYER
  5
50B
100
AcDbSymbolTableRecord
100
AcDbLayerTableRecord
  2
COLOR98
 70
0
 62
7
  6
CONTINUOUS
370
-3
390
F
  0
LAYER
  5
50C
100
AcDbSymbolTableRecord
100
AcDbLayerTableRecord
  2
COLOR99
 70
0
 62
7
  6
CONTINUOUS
370
-3
390
F
  0
LAYER
  5
50D
100
AcDbSymbolTableRecord
100
AcDbLayerTableRecord
  2
COORDINATE
 70
0
 62
7
  6
CONTINUOUS
370
-3
390
F
  0
LAYER
  5
50E
100
AcDbSymbolTableRecord
100
AcDbLayerTableRecord
  2
COORD_ORIGINE
 70
0
 62
7
  6
CONTINUOUS
370
-3
390
F
  0
LAYER
  5
50F
100
AcDbSymbolTableRecord
100
AcDbLayerTableRecord
  2
COPY_PUBLISH
 70
0
 62
7
  6
CONTINUOUS
370
-3
390
F
  0
LAYER
  5
510
100
AcDbSymbolTableRecord
100
AcDbLayerTableRecord
  2
COSMETICI
 70
0
 62
7
  6
CONTINUOUS
370
-3
390
F
  0
LAYER
  5
511
100
AcDbSymbolTableRecord
100
AcDbLayerTableRecord
  2
CR_MR8P5_CSMH080A1_TET_SW_STH__
 70
0
 62
7
  6
CONTINUOUS
370
-3
390
F
  0
LAYER
  5
512
100
AcDbSymbolTableRecord
100
AcDbLayerTableRecord
  2
CR_SWITCH_KMS231GPLFS__142000
 70
0
 62
7
  6
CONTINUOUS
370
-3
390
F
  0
LAYER
  5
513
100
AcDbSymbolTableRecord
100
AcDbLayerTableRecord
  2
CR_SWITCH_KMS231GPLFS__142000_1
 70
0
 62
7
  6
CONTINUOUS
370
-3
390
F
  0
LAYER
  5
514
100
AcDbSymbolTableRecord
100
AcDbLayerTableRecord
  2
CURVE
 70
0
 62
7
  6
CONTINUOUS
370
-3
390
F
  0
LAYER
  5
515
100
AcDbSymbolTableRecord
100
AcDbLayerTableRecord
  2
DATAMATRIX_RESIST
 70
0
 62
7
  6
CONTINUOUS
370
-3
390
F
  0
LAYER
  5
516
100
AcDbSymbolTableRecord
100
AcDbLayerTableRecord
  2
DATAMATRIX_RESIST_1
 70
0
 62
7
  6
CONTINUOUS
370
-3
390
F
  0
LAYER
  5
517
100
AcDbSymbolTableRecord
100
AcDbLayerTableRecord
  2
DATAMATRIX_RESIST_1000
 70
0
 62
7
  6
CONTINUOUS
370
-3
390
F
  0
LAYER
  5
518
100
AcDbSymbolTableRecord
100
AcDbLayerTableRecord
  2
DATAMATRIX_RESIST_10000
 70
0
 62
7
  6
CONTINUOUS
370
-3
390
F
  0
LAYER
  5
519
100
AcDbSymbolTableRecord
100
AcDbLayerTableRecord
  2
DATAMATRIX_RESIST_10000_1
 70
0
 62
7
  6
CONTINUOUS
370
-3
390
F
  0
LAYER
  5
51A
100
AcDbSymbolTableRecord
100
AcDbLayerTableRecord
  2
DATAMATRIX_RESIST_1000_1
 70
0
 62
7
  6
CONTINUOUS
370
-3
390
F
  0
LAYER
  5
51B
100
AcDbSymbolTableRecord
100
AcDbLayerTableRecord
  2
DATAMATRIX_RESIST_B_
 70
0
 62
7
  6
CONTINUOUS
370
-3
390
F
  0
LAYER
  5
51C
100
AcDbSymbolTableRecord
100
AcDbLayerTableRecord
  2
DATAMATRIX_RESIST_B__1
 70
0
 62
7
  6
CONTINUOUS
370
-3
390
F
  0
LAYER
  5
51D
100
AcDbSymbolTableRecord
100
AcDbLayerTableRecord
  2
DB-SMD-ABS_145000
 70
0
 62
7
  6
CONTINUOUS
370
-3
390
F
  0
LAYER
  5
51E
100
AcDbSymbolTableRecord
100
AcDbLayerTableRecord
  2
DEFAULT-26577
 70
0
 62
7
  6
CONTINUOUS
370
-3
390
F
  0
LAYER
  5
51F
100
AcDbSymbolTableRecord
100
AcDbLayerTableRecord
  2
DEMO_00170-LED
 70
0
 62
7
  6
CONTINUOUS
370
-3
390
F
  0
LAYER
  5
520
100
AcDbSymbolTableRecord
100
AcDbLayerTableRecord
  2
DO-214AC_230000
 70
0
 62
7
  6
CONTINUOUS
370
-3
390
F
  0
LAYER
  5
521
100
AcDbSymbolTableRecord
100
AcDbLayerTableRecord
  2
DO-214AC_B_
 70
0
 62
7
  6
CONTINUOUS
370
-3
390
F
  0
LAYER
  5
522
100
AcDbSymbolTableRecord
100
AcDbLayerTableRecord
  2
DO-214AC_B__1
 70
0
 62
7
  6
CONTINUOUS
370
-3
390
F
  0
LAYER
  5
523
100
AcDbSymbolTableRecord
100
AcDbLayerTableRecord
  2
DRAFT
 70
0
 62
7
  6
CONTINUOUS
370
-3
390
F
  0
LAYER
  5
524
100
AcDbSymbolTableRecord
100
AcDbLayerTableRecord
  2
E4_MARK_10000
 70
0
 62
7
  6
CONTINUOUS
370
-3
390
F
  0
LAYER
  5
525
100
AcDbSymbolTableRecord
100
AcDbLayerTableRecord
  2
FIDUCIAL_1MM_0
 70
0
 62
7
  6
CONTINUOUS
370
-3
390
F
  0
LAYER
  5
526
100
AcDbSymbolTableRecord
100
AcDbLayerTableRecord
  2
FIDUCIAL_1MM_0_1
 70
0
 62
7
  6
CONTINUOUS
370
-3
390
F
  0
LAYER
  5
527
100
AcDbSymbolTableRecord
100
AcDbLayerTableRecord
  2
FIDUCIAL_1MM_0_2
 70
0
 62
7
  6
CONTINUOUS
370
-3
390
F
  0
LAYER
  5
528
100
AcDbSymbolTableRecord
100
AcDbLayerTableRecord
  2
FIDUCIAL_1MM_0_3
 70
0
 62
7
  6
CONTINUOUS
370
-3
390
F
  0
LAYER
  5
529
100
AcDbSymbolTableRecord
100
AcDbLayerTableRecord
  2
FIDUCIAL_1_2_MM_RUOTATO_45_1000
 70
0
 62
7
  6
CONTINUOUS
370
-3
390
F
  0
LAYER
  5
52A
100
AcDbSymbolTableRecord
100
AcDbLayerTableRecord
  2
FIDUCIAL_1_2_MM_RUOTATO_45_10_1
 70
0
 62
7
  6
CONTINUOUS
370
-3
390
F
  0
LAYER
  5
52B
100
AcDbSymbolTableRecord
100
AcDbLayerTableRecord
  2
FIDUCIAL_1_2_MM_RUOTATO_45_10_2
 70
0
 62
7
  6
CONTINUOUS
370
-3
390
F
  0
LAYER
  5
52C
100
AcDbSymbolTableRecord
100
AcDbLayerTableRecord
  2
FIDUCIAL_1_2_MM_RUOTATO_45_10_3
 70
0
 62
7
  6
CONTINUOUS
370
-3
390
F
  0
LAYER
  5
52D
100
AcDbSymbolTableRecord
100
AcDbLayerTableRecord
  2
FSN-02_2540000
 70
0
 62
7
  6
CONTINUOUS
370
-3
390
F
  0
LAYER
  5
52E
100
AcDbSymbolTableRecord
100
AcDbLayerTableRecord
  2
GEOMETRIA_SOLIDA
 70
0
 62
7
  6
CONTINUOUS
370
-3
390
F
  0
LAYER
  5
52F
100
AcDbSymbolTableRecord
100
AcDbLayerTableRecord
  2
GEOMETRIA_SOLIDA_1
 70
0
 62
7
  6
CONTINUOUS
370
-3
390
F
  0
LAYER
  5
530
100
AcDbSymbolTableRecord
100
AcDbLayerTableRecord
  2
GEOMETRIA_SOLIDA_2
 70
0
 62
7
  6
CONTINUOUS
370
-3
390
F
  0
LAYER
  5
531
100
AcDbSymbolTableRecord
100
AcDbLayerTableRecord
  2
GEOMETRIA_SOLIDA_3
 70
0
 62
7
  6
CONTINUOUS
370
-3
390
F
  0
LAYER
  5
532
100
AcDbSymbolTableRecord
100
AcDbLayerTableRecord
  2
GEOMETRIA_SOLIDA_4
 70
0
 62
7
  6
CONTINUOUS
370
-3
390
F
  0
LAYER
  5
533
100
AcDbSymbolTableRecord
100
AcDbLayerTableRecord
  2
GEOMETRIA_SOLIDA_5
 70
0
 62
7
  6
CONTINUOUS
370
-3
390
F
  0
LAYER
  5
534
100
AcDbSymbolTableRecord
100
AcDbLayerTableRecord
  2
GEOMETRIA_SOLIDA_6
 70
0
 62
7
  6
CONTINUOUS
370
-3
390
F
  0
LAYER
  5
535
100
AcDbSymbolTableRecord
100
AcDbLayerTableRecord
  2
GEOMETRIA_SOLIDA_7
 70
0
 62
7
  6
CONTINUOUS
370
-3
390
F
  0
LAYER
  5
536
100
AcDbSymbolTableRecord
100
AcDbLayerTableRecord
  2
IGES
 70
0
 62
7
  6
CONTINUOUS
370
-3
390
F
  0
LAYER
  5
537
100
AcDbSymbolTableRecord
100
AcDbLayerTableRecord
  2
IMPORT_IGES
 70
0
 62
7
  6
CONTINUOUS
370
-3
390
F
  0
LAYER
  5
538
100
AcDbSymbolTableRecord
100
AcDbLayerTableRecord
  2
IMPORT_IGES_6
 70
0
 62
7
  6
CONTINUOUS
370
-3
390
F
  0
LAYER
  5
539
100
AcDbSymbolTableRecord
100
AcDbLayerTableRecord
  2
IND-CHIP-0603-H1_0_REF_100000
 70
0
 62
7
  6
CONTINUOUS
370
-3
390
F
  0
LAYER
  5
53A
100
AcDbSymbolTableRecord
100
AcDbLayerTableRecord
  2
IND-CHIP-0603-H1_0_REF_B_
 70
0
 62
7
  6
CONTINUOUS
370
-3
390
F
  0
LAYER
  5
53B
100
AcDbSymbolTableRecord
100
AcDbLayerTableRecord
  2
IND-CHIP-0603-H1_0_REF_B_-5217
 70
0
 62
7
  6
CONTINUOUS
370
-3
390
F
  0
LAYER
  5
53C
100
AcDbSymbolTableRecord
100
AcDbLayerTableRecord
  2
IND-CHIP-0603-H1_0_REF_B_-5218
 70
0
 62
7
  6
CONTINUOUS
370
-3
390
F
  0
LAYER
  5
53D
100
AcDbSymbolTableRecord
100
AcDbLayerTableRecord
  2
IND-CHIP-0603-H1_0_REF_B__1
 70
0
 62
7
  6
CONTINUOUS
370
-3
390
F
  0
LAYER
  5
53E
100
AcDbSymbolTableRecord
100
AcDbLayerTableRecord
  2
IND-CHIP-0805_H1_1_REF
 70
0
 62
7
  6
CONTINUOUS
370
-3
390
F
  0
LAYER
  5
53F
100
AcDbSymbolTableRecord
100
AcDbLayerTableRecord
  2
IND-CHIP-0805_H1_1_REF_1
 70
0
 62
7
  6
CONTINUOUS
370
-3
390
F
  0
LAYER
  5
540
100
AcDbSymbolTableRecord
100
AcDbLayerTableRecord
  2
IND-CHIP-0805_H1_1_REF_110000
 70
0
 62
7
  6
CONTINUOUS
370
-3
390
F
  0
LAYER
  5
541
100
AcDbSymbolTableRecord
100
AcDbLayerTableRecord
  2
IND-CHIP-0805_H1_1_REF_110000_1
 70
0
 62
7
  6
CONTINUOUS
370
-3
390
F
  0
LAYER
  5
542
100
AcDbSymbolTableRecord
100
AcDbLayerTableRecord
  2
IND-CHIP-0805_H1_1_REF_110000_2
 70
0
 62
7
  6
CONTINUOUS
370
-3
390
F
  0
LAYER
  5
543
100
AcDbSymbolTableRecord
100
AcDbLayerTableRecord
  2
IND-CHIP-0805_H1_1_REF_110000_3
 70
0
 62
7
  6
CONTINUOUS
370
-3
390
F
  0
LAYER
  5
544
100
AcDbSymbolTableRecord
100
AcDbLayerTableRecord
  2
IND-CHIP-0805_H1_1_REF_B_
 70
0
 62
7
  6
CONTINUOUS
370
-3
390
F
  0
LAYER
  5
545
100
AcDbSymbolTableRecord
100
AcDbLayerTableRecord
  2
IND-CHIP-0805_H1_1_REF_B__1
 70
0
 62
7
  6
CONTINUOUS
370
-3
390
F
  0
LAYER
  5
546
100
AcDbSymbolTableRecord
100
AcDbLayerTableRecord
  2
IND-RAD-7_8-9_5-5_0-0_7_950000
 70
0
 62
7
  6
CONTINUOUS
370
-3
390
F
  0
LAYER
  5
547
100
AcDbSymbolTableRecord
100
AcDbLayerTableRecord
  2
INTFCLR_111365
 70
0
 62
7
  6
CONTINUOUS
370
-3
390
F
  0
LAYER
  5
548
100
AcDbSymbolTableRecord
100
AcDbLayerTableRecord
  2
INTFCLR_111549
 70
0
 62
7
  6
CONTINUOUS
370
-3
390
F
  0
LAYER
  5
549
100
AcDbSymbolTableRecord
100
AcDbLayerTableRecord
  2
INTFCLR_111850
 70
0
 62
7
  6
CONTINUOUS
370
-3
390
F
  0
LAYER
  5
54A
100
AcDbSymbolTableRecord
100
AcDbLayerTableRecord
  2
INTFCLR_112034
 70
0
 62
7
  6
CONTINUOUS
370
-3
390
F
  0
LAYER
  5
54B
100
AcDbSymbolTableRecord
100
AcDbLayerTableRecord
  2
INTFCLR_112218
 70
0
 62
7
  6
CONTINUOUS
370
-3
390
F
  0
LAYER
  5
54C
100
AcDbSymbolTableRecord
100
AcDbLayerTableRecord
  2
INTFCLR_112469
 70
0
 62
7
  6
CONTINUOUS
370
-3
390
F
  0
LAYER
  5
54D
100
AcDbSymbolTableRecord
100
AcDbLayerTableRecord
  2
INTFCLR_112974
 70
0
 62
7
  6
CONTINUOUS
370
-3
390
F
  0
LAYER
  5
54E
100
AcDbSymbolTableRecord
100
AcDbLayerTableRecord
  2
INTFCLR_113421
 70
0
 62
7
  6
CONTINUOUS
370
-3
390
F
  0
LAYER
  5
54F
100
AcDbSymbolTableRecord
100
AcDbLayerTableRecord
  2
INTFCLR_137301
 70
0
 62
7
  6
CONTINUOUS
370
-3
390
F
  0
LAYER
  5
550
100
AcDbSymbolTableRecord
100
AcDbLayerTableRecord
  2
INTFCLR_137485
 70
0
 62
7
  6
CONTINUOUS
370
-3
390
F
  0
LAYER
  5
551
100
AcDbSymbolTableRecord
100
AcDbLayerTableRecord
  2
INTFCLR_139688
 70
0
 62
7
  6
CONTINUOUS
370
-3
390
F
  0
LAYER
  5
552
100
AcDbSymbolTableRecord
100
AcDbLayerTableRecord
  2
INTFCLR_139872
 70
0
 62
7
  6
CONTINUOUS
370
-3
390
F
  0
LAYER
  5
553
100
AcDbSymbolTableRecord
100
AcDbLayerTableRecord
  2
INTFCLR_143054
 70
0
 62
7
  6
CONTINUOUS
370
-3
390
F
  0
LAYER
  5
554
100
AcDbSymbolTableRecord
100
AcDbLayerTableRecord
  2
INTFCLR_171668
 70
0
 62
7
  6
CONTINUOUS
370
-3
390
F
  0
LAYER
  5
555
100
AcDbSymbolTableRecord
100
AcDbLayerTableRecord
  2
INTFCLR_171852
 70
0
 62
7
  6
CONTINUOUS
370
-3
390
F
  0
LAYER
  5
556
100
AcDbSymbolTableRecord
100
AcDbLayerTableRecord
  2
INTFCLR_172153
 70
0
 62
7
  6
CONTINUOUS
370
-3
390
F
  0
LAYER
  5
557
100
AcDbSymbolTableRecord
100
AcDbLayerTableRecord
  2
INTFCLR_172337
 70
0
 62
7
  6
CONTINUOUS
370
-3
390
F
  0
LAYER
  5
558
100
AcDbSymbolTableRecord
100
AcDbLayerTableRecord
  2
INTFCLR_172521
 70
0
 62
7
  6
CONTINUOUS
370
-3
390
F
  0
LAYER
  5
559
100
AcDbSymbolTableRecord
100
AcDbLayerTableRecord
  2
INTFCLR_172772
 70
0
 62
7
  6
CONTINUOUS
370
-3
390
F
  0
LAYER
  5
55A
100
AcDbSymbolTableRecord
100
AcDbLayerTableRecord
  2
INTFCLR_181335
 70
0
 62
7
  6
CONTINUOUS
370
-3
390
F
  0
LAYER
  5
55B
100
AcDbSymbolTableRecord
100
AcDbLayerTableRecord
  2
INTFCLR_181643
 70
0
 62
7
  6
CONTINUOUS
370
-3
390
F
  0
LAYER
  5
55C
100
AcDbSymbolTableRecord
100
AcDbLayerTableRecord
  2
INTFCLR_182012
 70
0
 62
7
  6
CONTINUOUS
370
-3
390
F
  0
LAYER
  5
55D
100
AcDbSymbolTableRecord
100
AcDbLayerTableRecord
  2
INTFCLR_211288
 70
0
 62
7
  6
CONTINUOUS
370
-3
390
F
  0
LAYER
  5
55E
100
AcDbSymbolTableRecord
100
AcDbLayerTableRecord
  2
INTFCLR_211472
 70
0
 62
7
  6
CONTINUOUS
370
-3
390
F
  0
LAYER
  5
55F
100
AcDbSymbolTableRecord
100
AcDbLayerTableRecord
  2
INTFCLR_213675
 70
0
 62
7
  6
CONTINUOUS
370
-3
390
F
  0
LAYER
  5
560
100
AcDbSymbolTableRecord
100
AcDbLayerTableRecord
  2
INTFCLR_213859
 70
0
 62
7
  6
CONTINUOUS
370
-3
390
F
  0
LAYER
  5
561
100
AcDbSymbolTableRecord
100
AcDbLayerTableRecord
  2
INTFCLR_3
 70
0
 62
7
  6
CONTINUOUS
370
-3
390
F
  0
LAYER
  5
562
100
AcDbSymbolTableRecord
100
AcDbLayerTableRecord
  2
INTF_1
 70
0
 62
7
  6
CONTINUOUS
370
-3
390
F
  0
LAYER
  5
563
100
AcDbSymbolTableRecord
100
AcDbLayerTableRecord
  2
INTF_10
 70
0
 62
7
  6
CONTINUOUS
370
-3
390
F
  0
LAYER
  5
564
100
AcDbSymbolTableRecord
100
AcDbLayerTableRecord
  2
INTF_11
 70
0
 62
7
  6
CONTINUOUS
370
-3
390
F
  0
LAYER
  5
565
100
AcDbSymbolTableRecord
100
AcDbLayerTableRecord
  2
INTF_12
 70
0
 62
7
  6
CONTINUOUS
370
-3
390
F
  0
LAYER
  5
566
100
AcDbSymbolTableRecord
100
AcDbLayerTableRecord
  2
INTF_3
 70
0
 62
7
  6
CONTINUOUS
370
-3
390
F
  0
LAYER
  5
567
100
AcDbSymbolTableRecord
100
AcDbLayerTableRecord
  2
INTF_BLANK
 70
0
 62
7
  6
CONTINUOUS
370
-3
390
F
  0
LAYER
  5
568
100
AcDbSymbolTableRecord
100
AcDbLayerTableRecord
  2
INTF_GREEN
 70
0
 62
7
  6
CONTINUOUS
370
-3
390
F
  0
LAYER
  5
569
100
AcDbSymbolTableRecord
100
AcDbLayerTableRecord
  2
INTF_YELLOW
 70
0
 62
7
  6
CONTINUOUS
370
-3
390
F
  0
LAYER
  5
56A
100
AcDbSymbolTableRecord
100
AcDbLayerTableRecord
  2
LED-SMD-1_0-0_5-0_6_60000
 70
0
 62
7
  6
CONTINUOUS
370
-3
390
F
  0
LAYER
  5
56B
100
AcDbSymbolTableRecord
100
AcDbLayerTableRecord
  2
LED-SMD-1_0-0_5-0_6_B_
 70
0
 62
7
  6
CONTINUOUS
370
-3
390
F
  0
LAYER
  5
56C
100
AcDbSymbolTableRecord
100
AcDbLayerTableRecord
  2
LED-SMD-1_0-0_5-0_6_B__1
 70
0
 62
7
  6
CONTINUOUS
370
-3
390
F
  0
LAYER
  5
56D
100
AcDbSymbolTableRecord
100
AcDbLayerTableRecord
  2
LINEE_VISIBILI_2D
 70
0
 62
7
  6
CONTINUOUS
370
-3
390
F
  0
LAYER
  5
56E
100
AcDbSymbolTableRecord
100
AcDbLayerTableRecord
  2
LOGO_RESIST-RESTYLING_10000
 70
0
 62
7
  6
CONTINUOUS
370
-3
390
F
  0
LAYER
  5
56F
100
AcDbSymbolTableRecord
100
AcDbLayerTableRecord
  2
MINIMELF_R_REF_140000
 70
0
 62
7
  6
CONTINUOUS
370
-3
390
F
  0
LAYER
  5
570
100
AcDbSymbolTableRecord
100
AcDbLayerTableRecord
  2
MINIMELF_R_REF_140000_1
 70
0
 62
7
  6
CONTINUOUS
370
-3
390
F
  0
LAYER
  5
571
100
AcDbSymbolTableRecord
100
AcDbLayerTableRecord
  2
NO-PB_MARK_10000
 70
0
 62
7
  6
CONTINUOUS
370
-3
390
F
  0
LAYER
  5
572
100
AcDbSymbolTableRecord
100
AcDbLayerTableRecord
  2
NOTE
 70
0
 62
7
  6
CONTINUOUS
370
-3
390
F
  0
LAYER
  5
573
100
AcDbSymbolTableRecord
100
AcDbLayerTableRecord
  2
PEZZO_DA_STAMPO
 70
0
 62
7
  6
CONTINUOUS
370
-3
390
F
  0
LAYER
  5
574
100
AcDbSymbolTableRecord
100
AcDbLayerTableRecord
  2
PIANI
 70
0
 62
7
  6
CONTINUOUS
370
-3
390
F
  0
LAYER
  5
575
100
AcDbSymbolTableRecord
100
AcDbLayerTableRecord
  2
PIANI_DI_RIFERIMENTO
 70
0
 62
7
  6
CONTINUOUS
370
-3
390
F
  0
LAYER
  5
576
100
AcDbSymbolTableRecord
100
AcDbLayerTableRecord
  2
PIANI_ORIGINE
 70
0
 62
7
  6
CONTINUOUS
370
-3
390
F
  0
LAYER
  5
577
100
AcDbSymbolTableRecord
100
AcDbLayerTableRecord
  2
PIANI_RIFERIMENTO
 70
0
 62
7
  6
CONTINUOUS
370
-3
390
F
  0
LAYER
  5
578
100
AcDbSymbolTableRecord
100
AcDbLayerTableRecord
  2
PIPPO
 70
0
 62
7
  6
CONTINUOUS
370
-3
390
F
  0
LAYER
  5
579
100
AcDbSymbolTableRecord
100
AcDbLayerTableRecord
  2
PRJ_00598-LTE-RADIO
 70
0
 62
7
  6
CONTINUOUS
370
-3
390
F
  0
LAYER
  5
57A
100
AcDbSymbolTableRecord
100
AcDbLayerTableRecord
  2
PRJ_00598-WIFI-POWER
 70
0
 62
7
  6
CONTINUOUS
370
-3
390
F
  0
LAYER
  5
57B
100
AcDbSymbolTableRecord
100
AcDbLayerTableRecord
  2
PTC_EPCOS_B57153S0100M051_13000
 70
0
 62
7
  6
CONTINUOUS
370
-3
390
F
  0
LAYER
  5
57C
100
AcDbSymbolTableRecord
100
AcDbLayerTableRecord
  2
PUNTI
 70
0
 62
7
  6
CONTINUOUS
370
-3
390
F
  0
LAYER
  5
57D
100
AcDbSymbolTableRecord
100
AcDbLayerTableRecord
  2
RACCORDO
 70
0
 62
7
  6
CONTINUOUS
370
-3
390
F
  0
LAYER
  5
57E
100
AcDbSymbolTableRecord
100
AcDbLayerTableRecord
  2
RD-SCAP-C1_5F_2-VIMAR
 70
0
 62
7
  6
CONTINUOUS
370
-3
390
F
  0
LAYER
  5
57F
100
AcDbSymbolTableRecord
100
AcDbLayerTableRecord
  2
RD-SCAP-C1_5F_2-VIMAR_1
 70
0
 62
7
  6
CONTINUOUS
370
-3
390
F
  0
LAYER
  5
580
100
AcDbSymbolTableRecord
100
AcDbLayerTableRecord
  2
RD-SCAP-C1_5F_2-VIMAR_900000
 70
0
 62
7
  6
CONTINUOUS
370
-3
390
F
  0
LAYER
  5
581
100
AcDbSymbolTableRecord
100
AcDbLayerTableRecord
  2
RGB____0____0____0__
 70
0
 62
7
  6
CONTINUOUS
370
-3
390
F
  0
LAYER
  5
582
100
AcDbSymbolTableRecord
100
AcDbLayerTableRecord
  2
SC70-5_H1_1_REF
 70
0
 62
7
  6
CONTINUOUS
370
-3
390
F
  0
LAYER
  5
583
100
AcDbSymbolTableRecord
100
AcDbLayerTableRecord
  2
SC70-5_H1_1_REF-6046
 70
0
 62
7
  6
CONTINUOUS
370
-3
390
F
  0
LAYER
  5
584
100
AcDbSymbolTableRecord
100
AcDbLayerTableRecord
  2
SC70-5_H1_1_REF-6046_1
 70
0
 62
7
  6
CONTINUOUS
370
-3
390
F
  0
LAYER
  5
585
100
AcDbSymbolTableRecord
100
AcDbLayerTableRecord
  2
SC70-5_H1_1_REF-6047
 70
0
 62
7
  6
CONTINUOUS
370
-3
390
F
  0
LAYER
  5
586
100
AcDbSymbolTableRecord
100
AcDbLayerTableRecord
  2
SC70-5_H1_1_REF-6047_1
 70
0
 62
7
  6
CONTINUOUS
370
-3
390
F
  0
LAYER
  5
587
100
AcDbSymbolTableRecord
100
AcDbLayerTableRecord
  2
SC70-5_H1_1_REF_1
 70
0
 62
7
  6
CONTINUOUS
370
-3
390
F
  0
LAYER
  5
588
100
AcDbSymbolTableRecord
100
AcDbLayerTableRecord
  2
SC70-5_H1_1_REF_110000
 70
0
 62
7
  6
CONTINUOUS
370
-3
390
F
  0
LAYER
  5
589
100
AcDbSymbolTableRecord
100
AcDbLayerTableRecord
  2
SC70-5_H1_1_REF_110000_1
 70
0
 62
7
  6
CONTINUOUS
370
-3
390
F
  0
LAYER
  5
58A
100
AcDbSymbolTableRecord
100
AcDbLayerTableRecord
  2
SC70-5_H1_1_REF_110000_2
 70
0
 62
7
  6
CONTINUOUS
370
-3
390
F
  0
LAYER
  5
58B
100
AcDbSymbolTableRecord
100
AcDbLayerTableRecord
  2
SC70-5_H1_1_REF_1_1
 70
0
 62
7
  6
CONTINUOUS
370
-3
390
F
  0
LAYER
  5
58C
100
AcDbSymbolTableRecord
100
AcDbLayerTableRecord
  2
SC70-5_H1_1_REF_1_2
 70
0
 62
7
  6
CONTINUOUS
370
-3
390
F
  0
LAYER
  5
58D
100
AcDbSymbolTableRecord
100
AcDbLayerTableRecord
  2
SC70-5_H1_1_REF_2
 70
0
 62
7
  6
CONTINUOUS
370
-3
390
F
  0
LAYER
  5
58E
100
AcDbSymbolTableRecord
100
AcDbLayerTableRecord
  2
SC70-6_REF_H1_1_110000
 70
0
 62
7
  6
CONTINUOUS
370
-3
390
F
  0
LAYER
  5
58F
100
AcDbSymbolTableRecord
100
AcDbLayerTableRecord
  2
SC70-6_REF_H1_1_110000_1
 70
0
 62
7
  6
CONTINUOUS
370
-3
390
F
  0
LAYER
  5
590
100
AcDbSymbolTableRecord
100
AcDbLayerTableRecord
  2
SC70-6_REF_H1_1_110000_2
 70
0
 62
7
  6
CONTINUOUS
370
-3
390
F
  0
LAYER
  5
591
100
AcDbSymbolTableRecord
100
AcDbLayerTableRecord
  2
SC70-6_REF_H1_1_110000_3
 70
0
 62
7
  6
CONTINUOUS
370
-3
390
F
  0
LAYER
  5
592
100
AcDbSymbolTableRecord
100
AcDbLayerTableRecord
  2
SC70-6_REF_H1_1_B_
 70
0
 62
7
  6
CONTINUOUS
370
-3
390
F
  0
LAYER
  5
593
100
AcDbSymbolTableRecord
100
AcDbLayerTableRecord
  2
SC70-6_REF_H1_1_B__1
 70
0
 62
7
  6
CONTINUOUS
370
-3
390
F
  0
LAYER
  5
594
100
AcDbSymbolTableRecord
100
AcDbLayerTableRecord
  2
SC70-6_REF_H1_1_B__1_1
 70
0
 62
7
  6
CONTINUOUS
370
-3
390
F
  0
LAYER
  5
595
100
AcDbSymbolTableRecord
100
AcDbLayerTableRecord
  2
SC70-6_REF_H1_1_B__1_2
 70
0
 62
7
  6
CONTINUOUS
370
-3
390
F
  0
LAYER
  5
596
100
AcDbSymbolTableRecord
100
AcDbLayerTableRecord
  2
SC70-6_REF_H1_1_B__2
 70
0
 62
7
  6
CONTINUOUS
370
-3
390
F
  0
LAYER
  5
597
100
AcDbSymbolTableRecord
100
AcDbLayerTableRecord
  2
SIMBOLI
 70
0
 62
7
  6
CONTINUOUS
370
-3
390
F
  0
LAYER
  5
598
100
AcDbSymbolTableRecord
100
AcDbLayerTableRecord
  2
SMUSSO
 70
0
 62
7
  6
CONTINUOUS
370
-3
390
F
  0
LAYER
  5
599
100
AcDbSymbolTableRecord
100
AcDbLayerTableRecord
  2
SO8-5_0-6_2-1_75-REF_175000
 70
0
 62
7
  6
CONTINUOUS
370
-3
390
F
  0
LAYER
  5
59A
100
AcDbSymbolTableRecord
100
AcDbLayerTableRecord
  2
SOD123_REF_140000
 70
0
 62
7
  6
CONTINUOUS
370
-3
390
F
  0
LAYER
  5
59B
100
AcDbSymbolTableRecord
100
AcDbLayerTableRecord
  2
SOT23-5_REF_H1_5_150000
 70
0
 62
7
  6
CONTINUOUS
370
-3
390
F
  0
LAYER
  5
59C
100
AcDbSymbolTableRecord
100
AcDbLayerTableRecord
  2
SOT23-5_REF_H1_5_B_
 70
0
 62
7
  6
CONTINUOUS
370
-3
390
F
  0
LAYER
  5
59D
100
AcDbSymbolTableRecord
100
AcDbLayerTableRecord
  2
SOT23-5_REF_H1_5_B__1
 70
0
 62
7
  6
CONTINUOUS
370
-3
390
F
  0
LAYER
  5
59E
100
AcDbSymbolTableRecord
100
AcDbLayerTableRecord
  2
SOT23-6_REF_H1_5_150000
 70
0
 62
7
  6
CONTINUOUS
370
-3
390
F
  0
LAYER
  5
59F
100
AcDbSymbolTableRecord
100
AcDbLayerTableRecord
  2
SOT23-6_REF_H1_5_150000_1
 70
0
 62
7
  6
CONTINUOUS
370
-3
390
F
  0
LAYER
  5
5A0
100
AcDbSymbolTableRecord
100
AcDbLayerTableRecord
  2
SOT23-6_REF_H1_5_B_
 70
0
 62
7
  6
CONTINUOUS
370
-3
390
F
  0
LAYER
  5
5A1
100
AcDbSymbolTableRecord
100
AcDbLayerTableRecord
  2
SOT23-6_REF_H1_5_B__1
 70
0
 62
7
  6
CONTINUOUS
370
-3
390
F
  0
LAYER
  5
5A2
100
AcDbSymbolTableRecord
100
AcDbLayerTableRecord
  2
SOT323_H1_1_REF
 70
0
 62
7
  6
CONTINUOUS
370
-3
390
F
  0
LAYER
  5
5A3
100
AcDbSymbolTableRecord
100
AcDbLayerTableRecord
  2
SOT323_H1_1_REF_1
 70
0
 62
7
  6
CONTINUOUS
370
-3
390
F
  0
LAYER
  5
5A4
100
AcDbSymbolTableRecord
100
AcDbLayerTableRecord
  2
SOT323_H1_1_REF_110000
 70
0
 62
7
  6
CONTINUOUS
370
-3
390
F
  0
LAYER
  5
5A5
100
AcDbSymbolTableRecord
100
AcDbLayerTableRecord
  2
SOT323_H1_1_REF_110000_1
 70
0
 62
7
  6
CONTINUOUS
370
-3
390
F
  0
LAYER
  5
5A6
100
AcDbSymbolTableRecord
100
AcDbLayerTableRecord
  2
SOT323_H1_1_REF_110000_2
 70
0
 62
7
  6
CONTINUOUS
370
-3
390
F
  0
LAYER
  5
5A7
100
AcDbSymbolTableRecord
100
AcDbLayerTableRecord
  2
SOT323_H1_1_REF_110000_3
 70
0
 62
7
  6
CONTINUOUS
370
-3
390
F
  0
LAYER
  5
5A8
100
AcDbSymbolTableRecord
100
AcDbLayerTableRecord
  2
SOT323_H1_1_REF_1_1
 70
0
 62
7
  6
CONTINUOUS
370
-3
390
F
  0
LAYER
  5
5A9
100
AcDbSymbolTableRecord
100
AcDbLayerTableRecord
  2
SOT323_H1_1_REF_B_
 70
0
 62
7
  6
CONTINUOUS
370
-3
390
F
  0
LAYER
  5
5AA
100
AcDbSymbolTableRecord
100
AcDbLayerTableRecord
  2
SOT323_H1_1_REF_B__1
 70
0
 62
7
  6
CONTINUOUS
370
-3
390
F
  0
LAYER
  5
5AB
100
AcDbSymbolTableRecord
100
AcDbLayerTableRecord
  2
SOT323_H1_1_REF_B__1_1
 70
0
 62
7
  6
CONTINUOUS
370
-3
390
F
  0
LAYER
  5
5AC
100
AcDbSymbolTableRecord
100
AcDbLayerTableRecord
  2
SOT95P280X110-6N_110000
 70
0
 62
7
  6
CONTINUOUS
370
-3
390
F
  0
LAYER
  5
5AD
100
AcDbSymbolTableRecord
100
AcDbLayerTableRecord
  2
SUB_SMA_143000
 70
0
 62
7
  6
CONTINUOUS
370
-3
390
F
  0
LAYER
  5
5AE
100
AcDbSymbolTableRecord
100
AcDbLayerTableRecord
  2
SUB_SMA_143000_1
 70
0
 62
7
  6
CONTINUOUS
370
-3
390
F
  0
LAYER
  5
5AF
100
AcDbSymbolTableRecord
100
AcDbLayerTableRecord
  2
SUPERFICI
 70
0
 62
7
  6
CONTINUOUS
370
-3
390
F
  0
LAYER
  5
5B0
100
AcDbSymbolTableRecord
100
AcDbLayerTableRecord
  2
SUPERFICI_11
 70
0
 62
7
  6
CONTINUOUS
370
-3
390
F
  0
LAYER
  5
5B1
100
AcDbSymbolTableRecord
100
AcDbLayerTableRecord
  2
SUPERFICI_5
 70
0
 62
7
  6
CONTINUOUS
370
-3
390
F
  0
LAYER
  5
5B2
100
AcDbSymbolTableRecord
100
AcDbLayerTableRecord
  2
SUPERFICI_7
 70
0
 62
7
  6
CONTINUOUS
370
-3
390
F
  0
LAYER
  5
5B3
100
AcDbSymbolTableRecord
100
AcDbLayerTableRecord
  2
SUPERFICI_8
 70
0
 62
7
  6
CONTINUOUS
370
-3
390
F
  0
LAYER
  5
5B4
100
AcDbSymbolTableRecord
100
AcDbLayerTableRecord
  2
SWITCH_SKRP_250000
 70
0
 62
7
  6
CONTINUOUS
370
-3
390
F
  0
LAYER
  5
5B5
100
AcDbSymbolTableRecord
100
AcDbLayerTableRecord
  2
SYMBOL_DATA_10000
 70
0
 62
7
  6
CONTINUOUS
370
-3
390
F
  0
LAYER
  5
5B6
100
AcDbSymbolTableRecord
100
AcDbLayerTableRecord
  2
SYMBOL_E4_10000
 70
0
 62
7
  6
CONTINUOUS
370
-3
390
F
  0
LAYER
  5
5B7
100
AcDbSymbolTableRecord
100
AcDbLayerTableRecord
  2
SYMBOL_NO-PB_10000
 70
0
 62
7
  6
CONTINUOUS
370
-3
390
F
  0
LAYER
  5
5B8
100
AcDbSymbolTableRecord
100
AcDbLayerTableRecord
  2
TEST
 70
0
 62
7
  6
CONTINUOUS
370
-3
390
F
  0
LAYER
  5
5B9
100
AcDbSymbolTableRecord
100
AcDbLayerTableRecord
  2
TP-RND-0_8
 70
0
 62
7
  6
CONTINUOUS
370
-3
390
F
  0
LAYER
  5
5BA
100
AcDbSymbolTableRecord
100
AcDbLayerTableRecord
  2
TP-RND-0_8_1
 70
0
 62
7
  6
CONTINUOUS
370
-3
390
F
  0
LAYER
  5
5BB
100
AcDbSymbolTableRecord
100
AcDbLayerTableRecord
  2
TP-RND-0_8_3500
 70
0
 62
7
  6
CONTINUOUS
370
-3
390
F
  0
LAYER
  5
5BC
100
AcDbSymbolTableRecord
100
AcDbLayerTableRecord
  2
TP-RND-0_8_3500_1
 70
0
 62
7
  6
CONTINUOUS
370
-3
390
F
  0
LAYER
  5
5BD
100
AcDbSymbolTableRecord
100
AcDbLayerTableRecord
  2
TP-RND-0_8_3500_10
 70
0
 62
7
  6
CONTINUOUS
370
-3
390
F
  0
LAYER
  5
5BE
100
AcDbSymbolTableRecord
100
AcDbLayerTableRecord
  2
TP-RND-0_8_3500_11
 70
0
 62
7
  6
CONTINUOUS
370
-3
390
F
  0
LAYER
  5
5BF
100
AcDbSymbolTableRecord
100
AcDbLayerTableRecord
  2
TP-RND-0_8_3500_12
 70
0
 62
7
  6
CONTINUOUS
370
-3
390
F
  0
LAYER
  5
5C0
100
AcDbSymbolTableRecord
100
AcDbLayerTableRecord
  2
TP-RND-0_8_3500_13
 70
0
 62
7
  6
CONTINUOUS
370
-3
390
F
  0
LAYER
  5
5C1
100
AcDbSymbolTableRecord
100
AcDbLayerTableRecord
  2
TP-RND-0_8_3500_14
 70
0
 62
7
  6
CONTINUOUS
370
-3
390
F
  0
LAYER
  5
5C2
100
AcDbSymbolTableRecord
100
AcDbLayerTableRecord
  2
TP-RND-0_8_3500_15
 70
0
 62
7
  6
CONTINUOUS
370
-3
390
F
  0
LAYER
  5
5C3
100
AcDbSymbolTableRecord
100
AcDbLayerTableRecord
  2
TP-RND-0_8_3500_16
 70
0
 62
7
  6
CONTINUOUS
370
-3
390
F
  0
LAYER
  5
5C4
100
AcDbSymbolTableRecord
100
AcDbLayerTableRecord
  2
TP-RND-0_8_3500_17
 70
0
 62
7
  6
CONTINUOUS
370
-3
390
F
  0
LAYER
  5
5C5
100
AcDbSymbolTableRecord
100
AcDbLayerTableRecord
  2
TP-RND-0_8_3500_18
 70
0
 62
7
  6
CONTINUOUS
370
-3
390
F
  0
LAYER
  5
5C6
100
AcDbSymbolTableRecord
100
AcDbLayerTableRecord
  2
TP-RND-0_8_3500_19
 70
0
 62
7
  6
CONTINUOUS
370
-3
390
F
  0
LAYER
  5
5C7
100
AcDbSymbolTableRecord
100
AcDbLayerTableRecord
  2
TP-RND-0_8_3500_2
 70
0
 62
7
  6
CONTINUOUS
370
-3
390
F
  0
LAYER
  5
5C8
100
AcDbSymbolTableRecord
100
AcDbLayerTableRecord
  2
TP-RND-0_8_3500_20
 70
0
 62
7
  6
CONTINUOUS
370
-3
390
F
  0
LAYER
  5
5C9
100
AcDbSymbolTableRecord
100
AcDbLayerTableRecord
  2
TP-RND-0_8_3500_21
 70
0
 62
7
  6
CONTINUOUS
370
-3
390
F
  0
LAYER
  5
5CA
100
AcDbSymbolTableRecord
100
AcDbLayerTableRecord
  2
TP-RND-0_8_3500_22
 70
0
 62
7
  6
CONTINUOUS
370
-3
390
F
  0
LAYER
  5
5CB
100
AcDbSymbolTableRecord
100
AcDbLayerTableRecord
  2
TP-RND-0_8_3500_23
 70
0
 62
7
  6
CONTINUOUS
370
-3
390
F
  0
LAYER
  5
5CC
100
AcDbSymbolTableRecord
100
AcDbLayerTableRecord
  2
TP-RND-0_8_3500_24
 70
0
 62
7
  6
CONTINUOUS
370
-3
390
F
  0
LAYER
  5
5CD
100
AcDbSymbolTableRecord
100
AcDbLayerTableRecord
  2
TP-RND-0_8_3500_25
 70
0
 62
7
  6
CONTINUOUS
370
-3
390
F
  0
LAYER
  5
5CE
100
AcDbSymbolTableRecord
100
AcDbLayerTableRecord
  2
TP-RND-0_8_3500_26
 70
0
 62
7
  6
CONTINUOUS
370
-3
390
F
  0
LAYER
  5
5CF
100
AcDbSymbolTableRecord
100
AcDbLayerTableRecord
  2
TP-RND-0_8_3500_27
 70
0
 62
7
  6
CONTINUOUS
370
-3
390
F
  0
LAYER
  5
5D0
100
AcDbSymbolTableRecord
100
AcDbLayerTableRecord
  2
TP-RND-0_8_3500_28
 70
0
 62
7
  6
CONTINUOUS
370
-3
390
F
  0
LAYER
  5
5D1
100
AcDbSymbolTableRecord
100
AcDbLayerTableRecord
  2
TP-RND-0_8_3500_29
 70
0
 62
7
  6
CONTINUOUS
370
-3
390
F
  0
LAYER
  5
5D2
100
AcDbSymbolTableRecord
100
AcDbLayerTableRecord
  2
TP-RND-0_8_3500_3
 70
0
 62
7
  6
CONTINUOUS
370
-3
390
F
  0
LAYER
  5
5D3
100
AcDbSymbolTableRecord
100
AcDbLayerTableRecord
  2
TP-RND-0_8_3500_4
 70
0
 62
7
  6
CONTINUOUS
370
-3
390
F
  0
LAYER
  5
5D4
100
AcDbSymbolTableRecord
100
AcDbLayerTableRecord
  2
TP-RND-0_8_3500_5
 70
0
 62
7
  6
CONTINUOUS
370
-3
390
F
  0
LAYER
  5
5D5
100
AcDbSymbolTableRecord
100
AcDbLayerTableRecord
  2
TP-RND-0_8_3500_6
 70
0
 62
7
  6
CONTINUOUS
370
-3
390
F
  0
LAYER
  5
5D6
100
AcDbSymbolTableRecord
100
AcDbLayerTableRecord
  2
TP-RND-0_8_3500_7
 70
0
 62
7
  6
CONTINUOUS
370
-3
390
F
  0
LAYER
  5
5D7
100
AcDbSymbolTableRecord
100
AcDbLayerTableRecord
  2
TP-RND-0_8_3500_8
 70
0
 62
7
  6
CONTINUOUS
370
-3
390
F
  0
LAYER
  5
5D8
100
AcDbSymbolTableRecord
100
AcDbLayerTableRecord
  2
TP-RND-0_8_3500_9
 70
0
 62
7
  6
CONTINUOUS
370
-3
390
F
  0
LAYER
  5
5D9
100
AcDbSymbolTableRecord
100
AcDbLayerTableRecord
  2
TP-RND-0_8_B_
 70
0
 62
7
  6
CONTINUOUS
370
-3
390
F
  0
LAYER
  5
5DA
100
AcDbSymbolTableRecord
100
AcDbLayerTableRecord
  2
TP-RND-0_8_B__1
 70
0
 62
7
  6
CONTINUOUS
370
-3
390
F
  0
LAYER
  5
5DB
100
AcDbSymbolTableRecord
100
AcDbLayerTableRecord
  2
TP-RND-0_8_B__10
 70
0
 62
7
  6
CONTINUOUS
370
-3
390
F
  0
LAYER
  5
5DC
100
AcDbSymbolTableRecord
100
AcDbLayerTableRecord
  2
TP-RND-0_8_B__11
 70
0
 62
7
  6
CONTINUOUS
370
-3
390
F
  0
LAYER
  5
5DD
100
AcDbSymbolTableRecord
100
AcDbLayerTableRecord
  2
TP-RND-0_8_B__12
 70
0
 62
7
  6
CONTINUOUS
370
-3
390
F
  0
LAYER
  5
5DE
100
AcDbSymbolTableRecord
100
AcDbLayerTableRecord
  2
TP-RND-0_8_B__13
 70
0
 62
7
  6
CONTINUOUS
370
-3
390
F
  0
LAYER
  5
5DF
100
AcDbSymbolTableRecord
100
AcDbLayerTableRecord
  2
TP-RND-0_8_B__14
 70
0
 62
7
  6
CONTINUOUS
370
-3
390
F
  0
LAYER
  5
5E0
100
AcDbSymbolTableRecord
100
AcDbLayerTableRecord
  2
TP-RND-0_8_B__15
 70
0
 62
7
  6
CONTINUOUS
370
-3
390
F
  0
LAYER
  5
5E1
100
AcDbSymbolTableRecord
100
AcDbLayerTableRecord
  2
TP-RND-0_8_B__16
 70
0
 62
7
  6
CONTINUOUS
370
-3
390
F
  0
LAYER
  5
5E2
100
AcDbSymbolTableRecord
100
AcDbLayerTableRecord
  2
TP-RND-0_8_B__17
 70
0
 62
7
  6
CONTINUOUS
370
-3
390
F
  0
LAYER
  5
5E3
100
AcDbSymbolTableRecord
100
AcDbLayerTableRecord
  2
TP-RND-0_8_B__18
 70
0
 62
7
  6
CONTINUOUS
370
-3
390
F
  0
LAYER
  5
5E4
100
AcDbSymbolTableRecord
100
AcDbLayerTableRecord
  2
TP-RND-0_8_B__19
 70
0
 62
7
  6
CONTINUOUS
370
-3
390
F
  0
LAYER
  5
5E5
100
AcDbSymbolTableRecord
100
AcDbLayerTableRecord
  2
TP-RND-0_8_B__1_1
 70
0
 62
7
  6
CONTINUOUS
370
-3
390
F
  0
LAYER
  5
5E6
100
AcDbSymbolTableRecord
100
AcDbLayerTableRecord
  2
TP-RND-0_8_B__1_10
 70
0
 62
7
  6
CONTINUOUS
370
-3
390
F
  0
LAYER
  5
5E7
100
AcDbSymbolTableRecord
100
AcDbLayerTableRecord
  2
TP-RND-0_8_B__1_11
 70
0
 62
7
  6
CONTINUOUS
370
-3
390
F
  0
LAYER
  5
5E8
100
AcDbSymbolTableRecord
100
AcDbLayerTableRecord
  2
TP-RND-0_8_B__1_12
 70
0
 62
7
  6
CONTINUOUS
370
-3
390
F
  0
LAYER
  5
5E9
100
AcDbSymbolTableRecord
100
AcDbLayerTableRecord
  2
TP-RND-0_8_B__1_13
 70
0
 62
7
  6
CONTINUOUS
370
-3
390
F
  0
LAYER
  5
5EA
100
AcDbSymbolTableRecord
100
AcDbLayerTableRecord
  2
TP-RND-0_8_B__1_14
 70
0
 62
7
  6
CONTINUOUS
370
-3
390
F
  0
LAYER
  5
5EB
100
AcDbSymbolTableRecord
100
AcDbLayerTableRecord
  2
TP-RND-0_8_B__1_15
 70
0
 62
7
  6
CONTINUOUS
370
-3
390
F
  0
LAYER
  5
5EC
100
AcDbSymbolTableRecord
100
AcDbLayerTableRecord
  2
TP-RND-0_8_B__1_16
 70
0
 62
7
  6
CONTINUOUS
370
-3
390
F
  0
LAYER
  5
5ED
100
AcDbSymbolTableRecord
100
AcDbLayerTableRecord
  2
TP-RND-0_8_B__1_17
 70
0
 62
7
  6
CONTINUOUS
370
-3
390
F
  0
LAYER
  5
5EE
100
AcDbSymbolTableRecord
100
AcDbLayerTableRecord
  2
TP-RND-0_8_B__1_18
 70
0
 62
7
  6
CONTINUOUS
370
-3
390
F
  0
LAYER
  5
5EF
100
AcDbSymbolTableRecord
100
AcDbLayerTableRecord
  2
TP-RND-0_8_B__1_19
 70
0
 62
7
  6
CONTINUOUS
370
-3
390
F
  0
LAYER
  5
5F0
100
AcDbSymbolTableRecord
100
AcDbLayerTableRecord
  2
TP-RND-0_8_B__1_2
 70
0
 62
7
  6
CONTINUOUS
370
-3
390
F
  0
LAYER
  5
5F1
100
AcDbSymbolTableRecord
100
AcDbLayerTableRecord
  2
TP-RND-0_8_B__1_20
 70
0
 62
7
  6
CONTINUOUS
370
-3
390
F
  0
LAYER
  5
5F2
100
AcDbSymbolTableRecord
100
AcDbLayerTableRecord
  2
TP-RND-0_8_B__1_21
 70
0
 62
7
  6
CONTINUOUS
370
-3
390
F
  0
LAYER
  5
5F3
100
AcDbSymbolTableRecord
100
AcDbLayerTableRecord
  2
TP-RND-0_8_B__1_22
 70
0
 62
7
  6
CONTINUOUS
370
-3
390
F
  0
LAYER
  5
5F4
100
AcDbSymbolTableRecord
100
AcDbLayerTableRecord
  2
TP-RND-0_8_B__1_23
 70
0
 62
7
  6
CONTINUOUS
370
-3
390
F
  0
LAYER
  5
5F5
100
AcDbSymbolTableRecord
100
AcDbLayerTableRecord
  2
TP-RND-0_8_B__1_24
 70
0
 62
7
  6
CONTINUOUS
370
-3
390
F
  0
LAYER
  5
5F6
100
AcDbSymbolTableRecord
100
AcDbLayerTableRecord
  2
TP-RND-0_8_B__1_25
 70
0
 62
7
  6
CONTINUOUS
370
-3
390
F
  0
LAYER
  5
5F7
100
AcDbSymbolTableRecord
100
AcDbLayerTableRecord
  2
TP-RND-0_8_B__1_26
 70
0
 62
7
  6
CONTINUOUS
370
-3
390
F
  0
LAYER
  5
5F8
100
AcDbSymbolTableRecord
100
AcDbLayerTableRecord
  2
TP-RND-0_8_B__1_27
 70
0
 62
7
  6
CONTINUOUS
370
-3
390
F
  0
LAYER
  5
5F9
100
AcDbSymbolTableRecord
100
AcDbLayerTableRecord
  2
TP-RND-0_8_B__1_28
 70
0
 62
7
  6
CONTINUOUS
370
-3
390
F
  0
LAYER
  5
5FA
100
AcDbSymbolTableRecord
100
AcDbLayerTableRecord
  2
TP-RND-0_8_B__1_3
 70
0
 62
7
  6
CONTINUOUS
370
-3
390
F
  0
LAYER
  5
5FB
100
AcDbSymbolTableRecord
100
AcDbLayerTableRecord
  2
TP-RND-0_8_B__1_4
 70
0
 62
7
  6
CONTINUOUS
370
-3
390
F
  0
LAYER
  5
5FC
100
AcDbSymbolTableRecord
100
AcDbLayerTableRecord
  2
TP-RND-0_8_B__1_5
 70
0
 62
7
  6
CONTINUOUS
370
-3
390
F
  0
LAYER
  5
5FD
100
AcDbSymbolTableRecord
100
AcDbLayerTableRecord
  2
TP-RND-0_8_B__1_6
 70
0
 62
7
  6
CONTINUOUS
370
-3
390
F
  0
LAYER
  5
5FE
100
AcDbSymbolTableRecord
100
AcDbLayerTableRecord
  2
TP-RND-0_8_B__1_7
 70
0
 62
7
  6
CONTINUOUS
370
-3
390
F
  0
LAYER
  5
5FF
100
AcDbSymbolTableRecord
100
AcDbLayerTableRecord
  2
TP-RND-0_8_B__1_8
 70
0
 62
7
  6
CONTINUOUS
370
-3
390
F
  0
LAYER
  5
600
100
AcDbSymbolTableRecord
100
AcDbLayerTableRecord
  2
TP-RND-0_8_B__1_9
 70
0
 62
7
  6
CONTINUOUS
370
-3
390
F
  0
LAYER
  5
601
100
AcDbSymbolTableRecord
100
AcDbLayerTableRecord
  2
TP-RND-0_8_B__2
 70
0
 62
7
  6
CONTINUOUS
370
-3
390
F
  0
LAYER
  5
602
100
AcDbSymbolTableRecord
100
AcDbLayerTableRecord
  2
TP-RND-0_8_B__20
 70
0
 62
7
  6
CONTINUOUS
370
-3
390
F
  0
LAYER
  5
603
100
AcDbSymbolTableRecord
100
AcDbLayerTableRecord
  2
TP-RND-0_8_B__21
 70
0
 62
7
  6
CONTINUOUS
370
-3
390
F
  0
LAYER
  5
604
100
AcDbSymbolTableRecord
100
AcDbLayerTableRecord
  2
TP-RND-0_8_B__22
 70
0
 62
7
  6
CONTINUOUS
370
-3
390
F
  0
LAYER
  5
605
100
AcDbSymbolTableRecord
100
AcDbLayerTableRecord
  2
TP-RND-0_8_B__23
 70
0
 62
7
  6
CONTINUOUS
370
-3
390
F
  0
LAYER
  5
606
100
AcDbSymbolTableRecord
100
AcDbLayerTableRecord
  2
TP-RND-0_8_B__24
 70
0
 62
7
  6
CONTINUOUS
370
-3
390
F
  0
LAYER
  5
607
100
AcDbSymbolTableRecord
100
AcDbLayerTableRecord
  2
TP-RND-0_8_B__25
 70
0
 62
7
  6
CONTINUOUS
370
-3
390
F
  0
LAYER
  5
608
100
AcDbSymbolTableRecord
100
AcDbLayerTableRecord
  2
TP-RND-0_8_B__26
 70
0
 62
7
  6
CONTINUOUS
370
-3
390
F
  0
LAYER
  5
609
100
AcDbSymbolTableRecord
100
AcDbLayerTableRecord
  2
TP-RND-0_8_B__27
 70
0
 62
7
  6
CONTINUOUS
370
-3
390
F
  0
LAYER
  5
60A
100
AcDbSymbolTableRecord
100
AcDbLayerTableRecord
  2
TP-RND-0_8_B__28
 70
0
 62
7
  6
CONTINUOUS
370
-3
390
F
  0
LAYER
  5
60B
100
AcDbSymbolTableRecord
100
AcDbLayerTableRecord
  2
TP-RND-0_8_B__3
 70
0
 62
7
  6
CONTINUOUS
370
-3
390
F
  0
LAYER
  5
60C
100
AcDbSymbolTableRecord
100
AcDbLayerTableRecord
  2
TP-RND-0_8_B__4
 70
0
 62
7
  6
CONTINUOUS
370
-3
390
F
  0
LAYER
  5
60D
100
AcDbSymbolTableRecord
100
AcDbLayerTableRecord
  2
TP-RND-0_8_B__5
 70
0
 62
7
  6
CONTINUOUS
370
-3
390
F
  0
LAYER
  5
60E
100
AcDbSymbolTableRecord
100
AcDbLayerTableRecord
  2
TP-RND-0_8_B__6
 70
0
 62
7
  6
CONTINUOUS
370
-3
390
F
  0
LAYER
  5
60F
100
AcDbSymbolTableRecord
100
AcDbLayerTableRecord
  2
TP-RND-0_8_B__7
 70
0
 62
7
  6
CONTINUOUS
370
-3
390
F
  0
LAYER
  5
610
100
AcDbSymbolTableRecord
100
AcDbLayerTableRecord
  2
TP-RND-0_8_B__8
 70
0
 62
7
  6
CONTINUOUS
370
-3
390
F
  0
LAYER
  5
611
100
AcDbSymbolTableRecord
100
AcDbLayerTableRecord
  2
TP-RND-0_8_B__9
 70
0
 62
7
  6
CONTINUOUS
370
-3
390
F
  0
LAYER
  5
612
100
AcDbSymbolTableRecord
100
AcDbLayerTableRecord
  2
TP-RND-1_0_3500
 70
0
 62
7
  6
CONTINUOUS
370
-3
390
F
  0
LAYER
  5
613
100
AcDbSymbolTableRecord
100
AcDbLayerTableRecord
  2
TP-RND-1_0_3500_1
 70
0
 62
7
  6
CONTINUOUS
370
-3
390
F
  0
LAYER
  5
614
100
AcDbSymbolTableRecord
100
AcDbLayerTableRecord
  2
TP-RND-1_0_3500_2
 70
0
 62
7
  6
CONTINUOUS
370
-3
390
F
  0
LAYER
  5
615
100
AcDbSymbolTableRecord
100
AcDbLayerTableRecord
  2
TP-RND-1_0_3500_3
 70
0
 62
7
  6
CONTINUOUS
370
-3
390
F
  0
LAYER
  5
616
100
AcDbSymbolTableRecord
100
AcDbLayerTableRecord
  2
TP-RND-1_0_3500_4
 70
0
 62
7
  6
CONTINUOUS
370
-3
390
F
  0
LAYER
  5
617
100
AcDbSymbolTableRecord
100
AcDbLayerTableRecord
  2
TP-RND-1_0_3500_5
 70
0
 62
7
  6
CONTINUOUS
370
-3
390
F
  0
LAYER
  5
618
100
AcDbSymbolTableRecord
100
AcDbLayerTableRecord
  2
TP-RND-1_0_3500_6
 70
0
 62
7
  6
CONTINUOUS
370
-3
390
F
  0
LAYER
  5
619
100
AcDbSymbolTableRecord
100
AcDbLayerTableRecord
  2
TP-RND-1_0_3500_7
 70
0
 62
7
  6
CONTINUOUS
370
-3
390
F
  0
LAYER
  5
61A
100
AcDbSymbolTableRecord
100
AcDbLayerTableRecord
  2
TP-RND-1_2_1000
 70
0
 62
7
  6
CONTINUOUS
370
-3
390
F
  0
LAYER
  5
61B
100
AcDbSymbolTableRecord
100
AcDbLayerTableRecord
  2
TP-RND-1_2_1000_1
 70
0
 62
7
  6
CONTINUOUS
370
-3
390
F
  0
LAYER
  5
61C
100
AcDbSymbolTableRecord
100
AcDbLayerTableRecord
  2
TP-RND-1_2_1000_2
 70
0
 62
7
  6
CONTINUOUS
370
-3
390
F
  0
LAYER
  5
61D
100
AcDbSymbolTableRecord
100
AcDbLayerTableRecord
  2
TP-RND-1_2_1000_3
 70
0
 62
7
  6
CONTINUOUS
370
-3
390
F
  0
LAYER
  5
61E
100
AcDbSymbolTableRecord
100
AcDbLayerTableRecord
  2
TP-RND-1_5_1000
 70
0
 62
7
  6
CONTINUOUS
370
-3
390
F
  0
LAYER
  5
61F
100
AcDbSymbolTableRecord
100
AcDbLayerTableRecord
  2
TP-RND-1_5_1000_1
 70
0
 62
7
  6
CONTINUOUS
370
-3
390
F
  0
LAYER
  5
620
100
AcDbSymbolTableRecord
100
AcDbLayerTableRecord
  2
TP-RND-1_5_1000_10
 70
0
 62
7
  6
CONTINUOUS
370
-3
390
F
  0
LAYER
  5
621
100
AcDbSymbolTableRecord
100
AcDbLayerTableRecord
  2
TP-RND-1_5_1000_11
 70
0
 62
7
  6
CONTINUOUS
370
-3
390
F
  0
LAYER
  5
622
100
AcDbSymbolTableRecord
100
AcDbLayerTableRecord
  2
TP-RND-1_5_1000_12
 70
0
 62
7
  6
CONTINUOUS
370
-3
390
F
  0
LAYER
  5
623
100
AcDbSymbolTableRecord
100
AcDbLayerTableRecord
  2
TP-RND-1_5_1000_13
 70
0
 62
7
  6
CONTINUOUS
370
-3
390
F
  0
LAYER
  5
624
100
AcDbSymbolTableRecord
100
AcDbLayerTableRecord
  2
TP-RND-1_5_1000_14
 70
0
 62
7
  6
CONTINUOUS
370
-3
390
F
  0
LAYER
  5
625
100
AcDbSymbolTableRecord
100
AcDbLayerTableRecord
  2
TP-RND-1_5_1000_15
 70
0
 62
7
  6
CONTINUOUS
370
-3
390
F
  0
LAYER
  5
626
100
AcDbSymbolTableRecord
100
AcDbLayerTableRecord
  2
TP-RND-1_5_1000_16
 70
0
 62
7
  6
CONTINUOUS
370
-3
390
F
  0
LAYER
  5
627
100
AcDbSymbolTableRecord
100
AcDbLayerTableRecord
  2
TP-RND-1_5_1000_17
 70
0
 62
7
  6
CONTINUOUS
370
-3
390
F
  0
LAYER
  5
628
100
AcDbSymbolTableRecord
100
AcDbLayerTableRecord
  2
TP-RND-1_5_1000_18
 70
0
 62
7
  6
CONTINUOUS
370
-3
390
F
  0
LAYER
  5
629
100
AcDbSymbolTableRecord
100
AcDbLayerTableRecord
  2
TP-RND-1_5_1000_19
 70
0
 62
7
  6
CONTINUOUS
370
-3
390
F
  0
LAYER
  5
62A
100
AcDbSymbolTableRecord
100
AcDbLayerTableRecord
  2
TP-RND-1_5_1000_2
 70
0
 62
7
  6
CONTINUOUS
370
-3
390
F
  0
LAYER
  5
62B
100
AcDbSymbolTableRecord
100
AcDbLayerTableRecord
  2
TP-RND-1_5_1000_20
 70
0
 62
7
  6
CONTINUOUS
370
-3
390
F
  0
LAYER
  5
62C
100
AcDbSymbolTableRecord
100
AcDbLayerTableRecord
  2
TP-RND-1_5_1000_21
 70
0
 62
7
  6
CONTINUOUS
370
-3
390
F
  0
LAYER
  5
62D
100
AcDbSymbolTableRecord
100
AcDbLayerTableRecord
  2
TP-RND-1_5_1000_22
 70
0
 62
7
  6
CONTINUOUS
370
-3
390
F
  0
LAYER
  5
62E
100
AcDbSymbolTableRecord
100
AcDbLayerTableRecord
  2
TP-RND-1_5_1000_23
 70
0
 62
7
  6
CONTINUOUS
370
-3
390
F
  0
LAYER
  5
62F
100
AcDbSymbolTableRecord
100
AcDbLayerTableRecord
  2
TP-RND-1_5_1000_24
 70
0
 62
7
  6
CONTINUOUS
370
-3
390
F
  0
LAYER
  5
630
100
AcDbSymbolTableRecord
100
AcDbLayerTableRecord
  2
TP-RND-1_5_1000_25
 70
0
 62
7
  6
CONTINUOUS
370
-3
390
F
  0
LAYER
  5
631
100
AcDbSymbolTableRecord
100
AcDbLayerTableRecord
  2
TP-RND-1_5_1000_26
 70
0
 62
7
  6
CONTINUOUS
370
-3
390
F
  0
LAYER
  5
632
100
AcDbSymbolTableRecord
100
AcDbLayerTableRecord
  2
TP-RND-1_5_1000_27
 70
0
 62
7
  6
CONTINUOUS
370
-3
390
F
  0
LAYER
  5
633
100
AcDbSymbolTableRecord
100
AcDbLayerTableRecord
  2
TP-RND-1_5_1000_28
 70
0
 62
7
  6
CONTINUOUS
370
-3
390
F
  0
LAYER
  5
634
100
AcDbSymbolTableRecord
100
AcDbLayerTableRecord
  2
TP-RND-1_5_1000_29
 70
0
 62
7
  6
CONTINUOUS
370
-3
390
F
  0
LAYER
  5
635
100
AcDbSymbolTableRecord
100
AcDbLayerTableRecord
  2
TP-RND-1_5_1000_3
 70
0
 62
7
  6
CONTINUOUS
370
-3
390
F
  0
LAYER
  5
636
100
AcDbSymbolTableRecord
100
AcDbLayerTableRecord
  2
TP-RND-1_5_1000_4
 70
0
 62
7
  6
CONTINUOUS
370
-3
390
F
  0
LAYER
  5
637
100
AcDbSymbolTableRecord
100
AcDbLayerTableRecord
  2
TP-RND-1_5_1000_5
 70
0
 62
7
  6
CONTINUOUS
370
-3
390
F
  0
LAYER
  5
638
100
AcDbSymbolTableRecord
100
AcDbLayerTableRecord
  2
TP-RND-1_5_1000_6
 70
0
 62
7
  6
CONTINUOUS
370
-3
390
F
  0
LAYER
  5
639
100
AcDbSymbolTableRecord
100
AcDbLayerTableRecord
  2
TP-RND-1_5_1000_7
 70
0
 62
7
  6
CONTINUOUS
370
-3
390
F
  0
LAYER
  5
63A
100
AcDbSymbolTableRecord
100
AcDbLayerTableRecord
  2
TP-RND-1_5_1000_8
 70
0
 62
7
  6
CONTINUOUS
370
-3
390
F
  0
LAYER
  5
63B
100
AcDbSymbolTableRecord
100
AcDbLayerTableRecord
  2
TP-RND-1_5_1000_9
 70
0
 62
7
  6
CONTINUOUS
370
-3
390
F
  0
LAYER
  5
63C
100
AcDbSymbolTableRecord
100
AcDbLayerTableRecord
  2
TP-RND-1_5_B_
 70
0
 62
7
  6
CONTINUOUS
370
-3
390
F
  0
LAYER
  5
63D
100
AcDbSymbolTableRecord
100
AcDbLayerTableRecord
  2
TP-RND-1_5_B__1
 70
0
 62
7
  6
CONTINUOUS
370
-3
390
F
  0
LAYER
  5
63E
100
AcDbSymbolTableRecord
100
AcDbLayerTableRecord
  2
TP-RND-1_5_B__10
 70
0
 62
7
  6
CONTINUOUS
370
-3
390
F
  0
LAYER
  5
63F
100
AcDbSymbolTableRecord
100
AcDbLayerTableRecord
  2
TP-RND-1_5_B__11
 70
0
 62
7
  6
CONTINUOUS
370
-3
390
F
  0
LAYER
  5
640
100
AcDbSymbolTableRecord
100
AcDbLayerTableRecord
  2
TP-RND-1_5_B__12
 70
0
 62
7
  6
CONTINUOUS
370
-3
390
F
  0
LAYER
  5
641
100
AcDbSymbolTableRecord
100
AcDbLayerTableRecord
  2
TP-RND-1_5_B__13
 70
0
 62
7
  6
CONTINUOUS
370
-3
390
F
  0
LAYER
  5
642
100
AcDbSymbolTableRecord
100
AcDbLayerTableRecord
  2
TP-RND-1_5_B__14
 70
0
 62
7
  6
CONTINUOUS
370
-3
390
F
  0
LAYER
  5
643
100
AcDbSymbolTableRecord
100
AcDbLayerTableRecord
  2
TP-RND-1_5_B__15
 70
0
 62
7
  6
CONTINUOUS
370
-3
390
F
  0
LAYER
  5
644
100
AcDbSymbolTableRecord
100
AcDbLayerTableRecord
  2
TP-RND-1_5_B__16
 70
0
 62
7
  6
CONTINUOUS
370
-3
390
F
  0
LAYER
  5
645
100
AcDbSymbolTableRecord
100
AcDbLayerTableRecord
  2
TP-RND-1_5_B__17
 70
0
 62
7
  6
CONTINUOUS
370
-3
390
F
  0
LAYER
  5
646
100
AcDbSymbolTableRecord
100
AcDbLayerTableRecord
  2
TP-RND-1_5_B__18
 70
0
 62
7
  6
CONTINUOUS
370
-3
390
F
  0
LAYER
  5
647
100
AcDbSymbolTableRecord
100
AcDbLayerTableRecord
  2
TP-RND-1_5_B__19
 70
0
 62
7
  6
CONTINUOUS
370
-3
390
F
  0
LAYER
  5
648
100
AcDbSymbolTableRecord
100
AcDbLayerTableRecord
  2
TP-RND-1_5_B__1_1
 70
0
 62
7
  6
CONTINUOUS
370
-3
390
F
  0
LAYER
  5
649
100
AcDbSymbolTableRecord
100
AcDbLayerTableRecord
  2
TP-RND-1_5_B__1_10
 70
0
 62
7
  6
CONTINUOUS
370
-3
390
F
  0
LAYER
  5
64A
100
AcDbSymbolTableRecord
100
AcDbLayerTableRecord
  2
TP-RND-1_5_B__1_11
 70
0
 62
7
  6
CONTINUOUS
370
-3
390
F
  0
LAYER
  5
64B
100
AcDbSymbolTableRecord
100
AcDbLayerTableRecord
  2
TP-RND-1_5_B__1_12
 70
0
 62
7
  6
CONTINUOUS
370
-3
390
F
  0
LAYER
  5
64C
100
AcDbSymbolTableRecord
100
AcDbLayerTableRecord
  2
TP-RND-1_5_B__1_13
 70
0
 62
7
  6
CONTINUOUS
370
-3
390
F
  0
LAYER
  5
64D
100
AcDbSymbolTableRecord
100
AcDbLayerTableRecord
  2
TP-RND-1_5_B__1_14
 70
0
 62
7
  6
CONTINUOUS
370
-3
390
F
  0
LAYER
  5
64E
100
AcDbSymbolTableRecord
100
AcDbLayerTableRecord
  2
TP-RND-1_5_B__1_15
 70
0
 62
7
  6
CONTINUOUS
370
-3
390
F
  0
LAYER
  5
64F
100
AcDbSymbolTableRecord
100
AcDbLayerTableRecord
  2
TP-RND-1_5_B__1_16
 70
0
 62
7
  6
CONTINUOUS
370
-3
390
F
  0
LAYER
  5
650
100
AcDbSymbolTableRecord
100
AcDbLayerTableRecord
  2
TP-RND-1_5_B__1_17
 70
0
 62
7
  6
CONTINUOUS
370
-3
390
F
  0
LAYER
  5
651
100
AcDbSymbolTableRecord
100
AcDbLayerTableRecord
  2
TP-RND-1_5_B__1_18
 70
0
 62
7
  6
CONTINUOUS
370
-3
390
F
  0
LAYER
  5
652
100
AcDbSymbolTableRecord
100
AcDbLayerTableRecord
  2
TP-RND-1_5_B__1_19
 70
0
 62
7
  6
CONTINUOUS
370
-3
390
F
  0
LAYER
  5
653
100
AcDbSymbolTableRecord
100
AcDbLayerTableRecord
  2
TP-RND-1_5_B__1_2
 70
0
 62
7
  6
CONTINUOUS
370
-3
390
F
  0
LAYER
  5
654
100
AcDbSymbolTableRecord
100
AcDbLayerTableRecord
  2
TP-RND-1_5_B__1_20
 70
0
 62
7
  6
CONTINUOUS
370
-3
390
F
  0
LAYER
  5
655
100
AcDbSymbolTableRecord
100
AcDbLayerTableRecord
  2
TP-RND-1_5_B__1_21
 70
0
 62
7
  6
CONTINUOUS
370
-3
390
F
  0
LAYER
  5
656
100
AcDbSymbolTableRecord
100
AcDbLayerTableRecord
  2
TP-RND-1_5_B__1_22
 70
0
 62
7
  6
CONTINUOUS
370
-3
390
F
  0
LAYER
  5
657
100
AcDbSymbolTableRecord
100
AcDbLayerTableRecord
  2
TP-RND-1_5_B__1_23
 70
0
 62
7
  6
CONTINUOUS
370
-3
390
F
  0
LAYER
  5
658
100
AcDbSymbolTableRecord
100
AcDbLayerTableRecord
  2
TP-RND-1_5_B__1_24
 70
0
 62
7
  6
CONTINUOUS
370
-3
390
F
  0
LAYER
  5
659
100
AcDbSymbolTableRecord
100
AcDbLayerTableRecord
  2
TP-RND-1_5_B__1_25
 70
0
 62
7
  6
CONTINUOUS
370
-3
390
F
  0
LAYER
  5
65A
100
AcDbSymbolTableRecord
100
AcDbLayerTableRecord
  2
TP-RND-1_5_B__1_26
 70
0
 62
7
  6
CONTINUOUS
370
-3
390
F
  0
LAYER
  5
65B
100
AcDbSymbolTableRecord
100
AcDbLayerTableRecord
  2
TP-RND-1_5_B__1_27
 70
0
 62
7
  6
CONTINUOUS
370
-3
390
F
  0
LAYER
  5
65C
100
AcDbSymbolTableRecord
100
AcDbLayerTableRecord
  2
TP-RND-1_5_B__1_28
 70
0
 62
7
  6
CONTINUOUS
370
-3
390
F
  0
LAYER
  5
65D
100
AcDbSymbolTableRecord
100
AcDbLayerTableRecord
  2
TP-RND-1_5_B__1_29
 70
0
 62
7
  6
CONTINUOUS
370
-3
390
F
  0
LAYER
  5
65E
100
AcDbSymbolTableRecord
100
AcDbLayerTableRecord
  2
TP-RND-1_5_B__1_3
 70
0
 62
7
  6
CONTINUOUS
370
-3
390
F
  0
LAYER
  5
65F
100
AcDbSymbolTableRecord
100
AcDbLayerTableRecord
  2
TP-RND-1_5_B__1_4
 70
0
 62
7
  6
CONTINUOUS
370
-3
390
F
  0
LAYER
  5
660
100
AcDbSymbolTableRecord
100
AcDbLayerTableRecord
  2
TP-RND-1_5_B__1_5
 70
0
 62
7
  6
CONTINUOUS
370
-3
390
F
  0
LAYER
  5
661
100
AcDbSymbolTableRecord
100
AcDbLayerTableRecord
  2
TP-RND-1_5_B__1_6
 70
0
 62
7
  6
CONTINUOUS
370
-3
390
F
  0
LAYER
  5
662
100
AcDbSymbolTableRecord
100
AcDbLayerTableRecord
  2
TP-RND-1_5_B__1_7
 70
0
 62
7
  6
CONTINUOUS
370
-3
390
F
  0
LAYER
  5
663
100
AcDbSymbolTableRecord
100
AcDbLayerTableRecord
  2
TP-RND-1_5_B__1_8
 70
0
 62
7
  6
CONTINUOUS
370
-3
390
F
  0
LAYER
  5
664
100
AcDbSymbolTableRecord
100
AcDbLayerTableRecord
  2
TP-RND-1_5_B__1_9
 70
0
 62
7
  6
CONTINUOUS
370
-3
390
F
  0
LAYER
  5
665
100
AcDbSymbolTableRecord
100
AcDbLayerTableRecord
  2
TP-RND-1_5_B__2
 70
0
 62
7
  6
CONTINUOUS
370
-3
390
F
  0
LAYER
  5
666
100
AcDbSymbolTableRecord
100
AcDbLayerTableRecord
  2
TP-RND-1_5_B__20
 70
0
 62
7
  6
CONTINUOUS
370
-3
390
F
  0
LAYER
  5
667
100
AcDbSymbolTableRecord
100
AcDbLayerTableRecord
  2
TP-RND-1_5_B__21
 70
0
 62
7
  6
CONTINUOUS
370
-3
390
F
  0
LAYER
  5
668
100
AcDbSymbolTableRecord
100
AcDbLayerTableRecord
  2
TP-RND-1_5_B__22
 70
0
 62
7
  6
CONTINUOUS
370
-3
390
F
  0
LAYER
  5
669
100
AcDbSymbolTableRecord
100
AcDbLayerTableRecord
  2
TP-RND-1_5_B__23
 70
0
 62
7
  6
CONTINUOUS
370
-3
390
F
  0
LAYER
  5
66A
100
AcDbSymbolTableRecord
100
AcDbLayerTableRecord
  2
TP-RND-1_5_B__24
 70
0
 62
7
  6
CONTINUOUS
370
-3
390
F
  0
LAYER
  5
66B
100
AcDbSymbolTableRecord
100
AcDbLayerTableRecord
  2
TP-RND-1_5_B__25
 70
0
 62
7
  6
CONTINUOUS
370
-3
390
F
  0
LAYER
  5
66C
100
AcDbSymbolTableRecord
100
AcDbLayerTableRecord
  2
TP-RND-1_5_B__26
 70
0
 62
7
  6
CONTINUOUS
370
-3
390
F
  0
LAYER
  5
66D
100
AcDbSymbolTableRecord
100
AcDbLayerTableRecord
  2
TP-RND-1_5_B__27
 70
0
 62
7
  6
CONTINUOUS
370
-3
390
F
  0
LAYER
  5
66E
100
AcDbSymbolTableRecord
100
AcDbLayerTableRecord
  2
TP-RND-1_5_B__28
 70
0
 62
7
  6
CONTINUOUS
370
-3
390
F
  0
LAYER
  5
66F
100
AcDbSymbolTableRecord
100
AcDbLayerTableRecord
  2
TP-RND-1_5_B__29
 70
0
 62
7
  6
CONTINUOUS
370
-3
390
F
  0
LAYER
  5
670
100
AcDbSymbolTableRecord
100
AcDbLayerTableRecord
  2
TP-RND-1_5_B__3
 70
0
 62
7
  6
CONTINUOUS
370
-3
390
F
  0
LAYER
  5
671
100
AcDbSymbolTableRecord
100
AcDbLayerTableRecord
  2
TP-RND-1_5_B__4
 70
0
 62
7
  6
CONTINUOUS
370
-3
390
F
  0
LAYER
  5
672
100
AcDbSymbolTableRecord
100
AcDbLayerTableRecord
  2
TP-RND-1_5_B__5
 70
0
 62
7
  6
CONTINUOUS
370
-3
390
F
  0
LAYER
  5
673
100
AcDbSymbolTableRecord
100
AcDbLayerTableRecord
  2
TP-RND-1_5_B__6
 70
0
 62
7
  6
CONTINUOUS
370
-3
390
F
  0
LAYER
  5
674
100
AcDbSymbolTableRecord
100
AcDbLayerTableRecord
  2
TP-RND-1_5_B__7
 70
0
 62
7
  6
CONTINUOUS
370
-3
390
F
  0
LAYER
  5
675
100
AcDbSymbolTableRecord
100
AcDbLayerTableRecord
  2
TP-RND-1_5_B__8
 70
0
 62
7
  6
CONTINUOUS
370
-3
390
F
  0
LAYER
  5
676
100
AcDbSymbolTableRecord
100
AcDbLayerTableRecord
  2
TP-RND-1_5_B__9
 70
0
 62
7
  6
CONTINUOUS
370
-3
390
F
  0
LAYER
  5
677
100
AcDbSymbolTableRecord
100
AcDbLayerTableRecord
  2
TRASH
 70
0
 62
7
  6
CONTINUOUS
370
-3
390
F
  0
LAYER
  5
678
100
AcDbSymbolTableRecord
100
AcDbLayerTableRecord
  2
TSSOP14-5_0-6_4-1_2-REF
 70
0
 62
7
  6
CONTINUOUS
370
-3
390
F
  0
LAYER
  5
679
100
AcDbSymbolTableRecord
100
AcDbLayerTableRecord
  2
TSSOP14-5_0-6_4-1_2-REF-5305
 70
0
 62
7
  6
CONTINUOUS
370
-3
390
F
  0
LAYER
  5
67A
100
AcDbSymbolTableRecord
100
AcDbLayerTableRecord
  2
TSSOP14-5_0-6_4-1_2-REF-5306
 70
0
 62
7
  6
CONTINUOUS
370
-3
390
F
  0
LAYER
  5
67B
100
AcDbSymbolTableRecord
100
AcDbLayerTableRecord
  2
TSSOP14-5_0-6_4-1_2-REF_1
 70
0
 62
7
  6
CONTINUOUS
370
-3
390
F
  0
LAYER
  5
67C
100
AcDbSymbolTableRecord
100
AcDbLayerTableRecord
  2
TSSOP14-5_0-6_4-1_2-REF_120000
 70
0
 62
7
  6
CONTINUOUS
370
-3
390
F
  0
LAYER
  5
67D
100
AcDbSymbolTableRecord
100
AcDbLayerTableRecord
  2
TSSOP16-5_0-6_4-1_1-REF
 70
0
 62
7
  6
CONTINUOUS
370
-3
390
F
  0
LAYER
  5
67E
100
AcDbSymbolTableRecord
100
AcDbLayerTableRecord
  2
TSSOP16-5_0-6_4-1_1-REF_1
 70
0
 62
7
  6
CONTINUOUS
370
-3
390
F
  0
LAYER
  5
67F
100
AcDbSymbolTableRecord
100
AcDbLayerTableRecord
  2
TSSOP16-5_0-6_4-1_1-REF_110000
 70
0
 62
7
  6
CONTINUOUS
370
-3
390
F
  0
LAYER
  5
680
100
AcDbSymbolTableRecord
100
AcDbLayerTableRecord
  2
UMT-250_REF_300000
 70
0
 62
7
  6
CONTINUOUS
370
-3
390
F
  0
LAYER
  5
681
100
AcDbSymbolTableRecord
100
AcDbLayerTableRecord
  2
VAR_S07_D9_S3_6_H11_1100000
 70
0
 62
7
  6
CONTINUOUS
370
-3
390
F
  0
LAYER
  5
682
100
AcDbSymbolTableRecord
100
AcDbLayerTableRecord
  2
VG_CAP-E-10_0-9_0-5_0-0_6_90000
 70
0
 62
7
  6
CONTINUOUS
370
-3
390
F
  0
LAYER
  5
683
100
AcDbSymbolTableRecord
100
AcDbLayerTableRecord
  2
VG_CAP-E-10_0-9_0-5_0-0_6_900_1
 70
0
 62
7
  6
CONTINUOUS
370
-3
390
F
  0
LAYER
  5
684
100
AcDbSymbolTableRecord
100
AcDbLayerTableRecord
  2
VG_CAP-E-10_0-9_0-5_0-0_6_900_2
 70
0
 62
7
  6
CONTINUOUS
370
-3
390
F
  0
LAYER
  5
685
100
AcDbSymbolTableRecord
100
AcDbLayerTableRecord
  2
VG_CAP-E-6_3-11-2_5_A90_1_68000
 70
0
 62
7
  6
CONTINUOUS
370
-3
390
F
  0
LAYER
  5
686
100
AcDbSymbolTableRecord
100
AcDbLayerTableRecord
  2
VG_CAP-E-6_3-11-2_5_A90_680000
 70
0
 62
7
  6
CONTINUOUS
370
-3
390
F
  0
LAYER
  5
687
100
AcDbSymbolTableRecord
100
AcDbLayerTableRecord
  2
VG_CAP-RND-10_0-10_5-8_0-10_0-0
 70
0
 62
7
  6
CONTINUOUS
370
-3
390
F
  0
LAYER
  5
688
100
AcDbSymbolTableRecord
100
AcDbLayerTableRecord
  2
VG_CN-STRIP-F-SMT-P1_27-R2-P8-T
 70
0
 62
7
  6
CONTINUOUS
370
-3
390
F
  0
LAYER
  5
689
100
AcDbSymbolTableRecord
100
AcDbLayerTableRecord
  2
VG_CN-STRIP-M-SMT-P1_27-R2-1248
 70
0
 62
7
  6
CONTINUOUS
370
-3
390
F
  0
LAYER
  5
68A
100
AcDbSymbolTableRecord
100
AcDbLayerTableRecord
  2
VG_CN-STRIP-M-SMT-P1_27-R2-1272
 70
0
 62
7
  6
CONTINUOUS
370
-3
390
F
  0
LAYER
  5
68B
100
AcDbSymbolTableRecord
100
AcDbLayerTableRecord
  2
VG_CN-STRIP-M-SMT-P1_27-R2-1280
 70
0
 62
7
  6
CONTINUOUS
370
-3
390
F
  0
LAYER
  5
68C
100
AcDbSymbolTableRecord
100
AcDbLayerTableRecord
  2
VG_CN-STRIP-M-SMT-P1_27-R2-12_1
 70
0
 62
7
  6
CONTINUOUS
370
-3
390
F
  0
LAYER
  5
68D
100
AcDbSymbolTableRecord
100
AcDbLayerTableRecord
  2
VG_CN-STRIP-M-SMT-P1_27-R2-12_2
 70
0
 62
7
  6
CONTINUOUS
370
-3
390
F
  0
LAYER
  5
68E
100
AcDbSymbolTableRecord
100
AcDbLayerTableRecord
  2
VG_CN-STRIP-M-SMT-P1_27-R2-12_3
 70
0
 62
7
  6
CONTINUOUS
370
-3
390
F
  0
LAYER
  5
68F
100
AcDbSymbolTableRecord
100
AcDbLayerTableRecord
  2
VG_CN-STRIP-M-SMT-P1_27-R2-5909
 70
0
 62
7
  6
CONTINUOUS
370
-3
390
F
  0
LAYER
  5
690
100
AcDbSymbolTableRecord
100
AcDbLayerTableRecord
  2
VG_CN-STRIP-M-SMT-P1_27-R2-5910
 70
0
 62
7
  6
CONTINUOUS
370
-3
390
F
  0
LAYER
  5
691
100
AcDbSymbolTableRecord
100
AcDbLayerTableRecord
  2
VG_CN-STRIP-M-SMT-P1_27-R2-5934
 70
0
 62
7
  6
CONTINUOUS
370
-3
390
F
  0
LAYER
  5
692
100
AcDbSymbolTableRecord
100
AcDbLayerTableRecord
  2
VG_CN-STRIP-M-SMT-P1_27-R2-5935
 70
0
 62
7
  6
CONTINUOUS
370
-3
390
F
  0
LAYER
  5
693
100
AcDbSymbolTableRecord
100
AcDbLayerTableRecord
  2
VG_CN-STRIP-M-SMT-P1_27-R2-5943
 70
0
 62
7
  6
CONTINUOUS
370
-3
390
F
  0
LAYER
  5
694
100
AcDbSymbolTableRecord
100
AcDbLayerTableRecord
  2
VG_CN-STRIP-M-SMT-P1_27-R2-5944
 70
0
 62
7
  6
CONTINUOUS
370
-3
390
F
  0
LAYER
  5
695
100
AcDbSymbolTableRecord
100
AcDbLayerTableRecord
  2
VG_CN-STRIP-M-SMT-P1_27-R2-8156
 70
0
 62
7
  6
CONTINUOUS
370
-3
390
F
  0
LAYER
  5
696
100
AcDbSymbolTableRecord
100
AcDbLayerTableRecord
  2
VG_CN-STRIP-M-SMT-P1_27-R2-8157
 70
0
 62
7
  6
CONTINUOUS
370
-3
390
F
  0
LAYER
  5
697
100
AcDbSymbolTableRecord
100
AcDbLayerTableRecord
  2
VG_CN-STRIP-M-SMT-P1_27-R2-8182
 70
0
 62
7
  6
CONTINUOUS
370
-3
390
F
  0
LAYER
  5
698
100
AcDbSymbolTableRecord
100
AcDbLayerTableRecord
  2
VG_CN-STRIP-M-SMT-P1_27-R2-8183
 70
0
 62
7
  6
CONTINUOUS
370
-3
390
F
  0
LAYER
  5
699
100
AcDbSymbolTableRecord
100
AcDbLayerTableRecord
  2
VG_CN-STRIP-M-SMT-P1_27-R2-8191
 70
0
 62
7
  6
CONTINUOUS
370
-3
390
F
  0
LAYER
  5
69A
100
AcDbSymbolTableRecord
100
AcDbLayerTableRecord
  2
VG_CN-STRIP-M-SMT-P1_27-R2-8192
 70
0
 62
7
  6
CONTINUOUS
370
-3
390
F
  0
LAYER
  5
69B
100
AcDbSymbolTableRecord
100
AcDbLayerTableRecord
  2
VG_CN-STRIP-M-SMT-P1_27-R2-81_1
 70
0
 62
7
  6
CONTINUOUS
370
-3
390
F
  0
LAYER
  5
69C
100
AcDbSymbolTableRecord
100
AcDbLayerTableRecord
  2
VG_CN-STRIP-M-SMT-P1_27-R2-81_2
 70
0
 62
7
  6
CONTINUOUS
370
-3
390
F
  0
LAYER
  5
69D
100
AcDbSymbolTableRecord
100
AcDbLayerTableRecord
  2
VG_CN-STRIP-M-SMT-P1_27-R2-81_3
 70
0
 62
7
  6
CONTINUOUS
370
-3
390
F
  0
LAYER
  5
69E
100
AcDbSymbolTableRecord
100
AcDbLayerTableRecord
  2
VG_CN-STRIP-M-SMT-P1_27-R2-81_4
 70
0
 62
7
  6
CONTINUOUS
370
-3
390
F
  0
LAYER
  5
69F
100
AcDbSymbolTableRecord
100
AcDbLayerTableRecord
  2
VG_CN-STRIP-M-SMT-P1_27-R2-81_5
 70
0
 62
7
  6
CONTINUOUS
370
-3
390
F
  0
LAYER
  5
6A0
100
AcDbSymbolTableRecord
100
AcDbLayerTableRecord
  2
VG_CN-STRIP-M-SMT-P1_27-R2-81_6
 70
0
 62
7
  6
CONTINUOUS
370
-3
390
F
  0
LAYER
  5
6A1
100
AcDbSymbolTableRecord
100
AcDbLayerTableRecord
  2
VG_CN-STRIP-M-SMT-P1_27-R2-P5-T
 70
0
 62
7
  6
CONTINUOUS
370
-3
390
F
  0
LAYER
  5
6A2
100
AcDbSymbolTableRecord
100
AcDbLayerTableRecord
  2
VG_CN-STRIP-M-SMT-P1_27-R2-P8-T
 70
0
 62
7
  6
CONTINUOUS
370
-3
390
F
  0
LAYER
  5
6A3
100
AcDbSymbolTableRecord
100
AcDbLayerTableRecord
  2
VG_CN_SMD_ZIF_14P_P0_5_BOT-CONT
 70
0
 62
7
  6
CONTINUOUS
370
-3
390
F
  0
LAYER
  5
6A4
100
AcDbSymbolTableRecord
100
AcDbLayerTableRecord
  2
VG_CN_SMD_ZIF_16P_P0_5_BOT-CONT
 70
0
 62
7
  6
CONTINUOUS
370
-3
390
F
  0
LAYER
  5
6A5
100
AcDbSymbolTableRecord
100
AcDbLayerTableRecord
  2
VG_CN_SMD_ZIF_18P_P0_5_BOT-1240
 70
0
 62
7
  6
CONTINUOUS
370
-3
390
F
  0
LAYER
  5
6A6
100
AcDbSymbolTableRecord
100
AcDbLayerTableRecord
  2
VG_CN_SMD_ZIF_18P_P0_5_BOT-12_1
 70
0
 62
7
  6
CONTINUOUS
370
-3
390
F
  0
LAYER
  5
6A7
100
AcDbSymbolTableRecord
100
AcDbLayerTableRecord
  2
VG_CN_SMD_ZIF_18P_P0_5_BOT-5900
 70
0
 62
7
  6
CONTINUOUS
370
-3
390
F
  0
LAYER
  5
6A8
100
AcDbSymbolTableRecord
100
AcDbLayerTableRecord
  2
VG_CN_SMD_ZIF_18P_P0_5_BOT-5901
 70
0
 62
7
  6
CONTINUOUS
370
-3
390
F
  0
LAYER
  5
6A9
100
AcDbSymbolTableRecord
100
AcDbLayerTableRecord
  2
VG_CN_SMD_ZIF_18P_P0_5_BOT-8147
 70
0
 62
7
  6
CONTINUOUS
370
-3
390
F
  0
LAYER
  5
6AA
100
AcDbSymbolTableRecord
100
AcDbLayerTableRecord
  2
VG_CN_SMD_ZIF_18P_P0_5_BOT-8148
 70
0
 62
7
  6
CONTINUOUS
370
-3
390
F
  0
LAYER
  5
6AB
100
AcDbSymbolTableRecord
100
AcDbLayerTableRecord
  2
VG_CN_SMD_ZIF_18P_P0_5_BOT-81_1
 70
0
 62
7
  6
CONTINUOUS
370
-3
390
F
  0
LAYER
  5
6AC
100
AcDbSymbolTableRecord
100
AcDbLayerTableRecord
  2
VG_CN_SMD_ZIF_18P_P0_5_BOT-81_2
 70
0
 62
7
  6
CONTINUOUS
370
-3
390
F
  0
LAYER
  5
6AD
100
AcDbSymbolTableRecord
100
AcDbLayerTableRecord
  2
VG_CN_SMD_ZIF_18P_P0_5_BOT-CONT
 70
0
 62
7
  6
CONTINUOUS
370
-3
390
F
  0
LAYER
  5
6AE
100
AcDbSymbolTableRecord
100
AcDbLayerTableRecord
  2
VG_CN_SMT_WE_693022010811_-1256
 70
0
 62
7
  6
CONTINUOUS
370
-3
390
F
  0
LAYER
  5
6AF
100
AcDbSymbolTableRecord
100
AcDbLayerTableRecord
  2
VG_CN_SMT_WE_693022010811_-12_1
 70
0
 62
7
  6
CONTINUOUS
370
-3
390
F
  0
LAYER
  5
6B0
100
AcDbSymbolTableRecord
100
AcDbLayerTableRecord
  2
VG_CN_SMT_WE_693022010811_-8165
 70
0
 62
7
  6
CONTINUOUS
370
-3
390
F
  0
LAYER
  5
6B1
100
AcDbSymbolTableRecord
100
AcDbLayerTableRecord
  2
VG_CN_SMT_WE_693022010811_-8166
 70
0
 62
7
  6
CONTINUOUS
370
-3
390
F
  0
LAYER
  5
6B2
100
AcDbSymbolTableRecord
100
AcDbLayerTableRecord
  2
VG_CN_SMT_WE_693022010811_-81_1
 70
0
 62
7
  6
CONTINUOUS
370
-3
390
F
  0
LAYER
  5
6B3
100
AcDbSymbolTableRecord
100
AcDbLayerTableRecord
  2
VG_CN_SMT_WE_693022010811_-81_2
 70
0
 62
7
  6
CONTINUOUS
370
-3
390
F
  0
LAYER
  5
6B4
100
AcDbSymbolTableRecord
100
AcDbLayerTableRecord
  2
VG_CN_SMT_WE_693022010811_TET_2
 70
0
 62
7
  6
CONTINUOUS
370
-3
390
F
  0
LAYER
  5
6B5
100
AcDbSymbolTableRecord
100
AcDbLayerTableRecord
  2
VG_DFN8-2_0-3_0-0_5-0_5-REF_500
 70
0
 62
7
  6
CONTINUOUS
370
-3
390
F
  0
LAYER
  5
6B6
100
AcDbSymbolTableRecord
100
AcDbLayerTableRecord
  2
VG_DFN8-2_0-3_0-0_5-0_5-REF_B_
 70
0
 62
7
  6
CONTINUOUS
370
-3
390
F
  0
LAYER
  5
6B7
100
AcDbSymbolTableRecord
100
AcDbLayerTableRecord
  2
VG_DFN8-2_0-3_0-0_5-0_5-REF_B_1
 70
0
 62
7
  6
CONTINUOUS
370
-3
390
F
  0
LAYER
  5
6B8
100
AcDbSymbolTableRecord
100
AcDbLayerTableRecord
  2
VG_DFN8-2_0-3_0-1_0-0_5-REF-EXP
 70
0
 62
7
  6
CONTINUOUS
370
-3
390
F
  0
LAYER
  5
6B9
100
AcDbSymbolTableRecord
100
AcDbLayerTableRecord
  2
VG_DFN8-2_0-3_0-1_0-0_5-REF-E_1
 70
0
 62
7
  6
CONTINUOUS
370
-3
390
F
  0
LAYER
  5
6BA
100
AcDbSymbolTableRecord
100
AcDbLayerTableRecord
  2
VG_DIP4_SMD_510000
 70
0
 62
7
  6
CONTINUOUS
370
-3
390
F
  0
LAYER
  5
6BB
100
AcDbSymbolTableRecord
100
AcDbLayerTableRecord
  2
VG_DIP6_SMD_510000
 70
0
 62
7
  6
CONTINUOUS
370
-3
390
F
  0
LAYER
  5
6BC
100
AcDbSymbolTableRecord
100
AcDbLayerTableRecord
  2
VG_EC21
 70
0
 62
7
  6
CONTINUOUS
370
-3
390
F
  0
LAYER
  5
6BD
100
AcDbSymbolTableRecord
100
AcDbLayerTableRecord
  2
VG_EC21_1
 70
0
 62
7
  6
CONTINUOUS
370
-3
390
F
  0
LAYER
  5
6BE
100
AcDbSymbolTableRecord
100
AcDbLayerTableRecord
  2
VG_EC21_260000
 70
0
 62
7
  6
CONTINUOUS
370
-3
390
F
  0
LAYER
  5
6BF
100
AcDbSymbolTableRecord
100
AcDbLayerTableRecord
  2
VG_FUSE-RAD-8_5-4_3-7_85-5_08-0
 70
0
 62
7
  6
CONTINUOUS
370
-3
390
F
  0
LAYER
  5
6C0
100
AcDbSymbolTableRecord
100
AcDbLayerTableRecord
  2
VG_IND-PS-4_3-4_3-3_1_310000
 70
0
 62
7
  6
CONTINUOUS
370
-3
390
F
  0
LAYER
  5
6C1
100
AcDbSymbolTableRecord
100
AcDbLayerTableRecord
  2
VG_IND-PS-4_3-4_3-3_1_310000_1
 70
0
 62
7
  6
CONTINUOUS
370
-3
390
F
  0
LAYER
  5
6C2
100
AcDbSymbolTableRecord
100
AcDbLayerTableRecord
  2
VG_IND-PS-4_3-4_3-3_1_B_
 70
0
 62
7
  6
CONTINUOUS
370
-3
390
F
  0
LAYER
  5
6C3
100
AcDbSymbolTableRecord
100
AcDbLayerTableRecord
  2
VG_IND-PS-4_3-4_3-3_1_B__1
 70
0
 62
7
  6
CONTINUOUS
370
-3
390
F
  0
LAYER
  5
6C4
100
AcDbSymbolTableRecord
100
AcDbLayerTableRecord
  2
VG_IND-PS-4_3-4_3-3_1_B__1_1
 70
0
 62
7
  6
CONTINUOUS
370
-3
390
F
  0
LAYER
  5
6C5
100
AcDbSymbolTableRecord
100
AcDbLayerTableRecord
  2
VG_INSOP24D-9_4-13_43-1_6-0_75-
 70
0
 62
7
  6
CONTINUOUS
370
-3
390
F
  0
LAYER
  5
6C6
100
AcDbSymbolTableRecord
100
AcDbLayerTableRecord
  2
VG_K-THT-TE-RY2-SPDT_1230000
 70
0
 62
7
  6
CONTINUOUS
370
-3
390
F
  0
LAYER
  5
6C7
100
AcDbSymbolTableRecord
100
AcDbLayerTableRecord
  2
VG_K_THT_FUJITSU_JV_5A_3V_LATCH
 70
0
 62
7
  6
CONTINUOUS
370
-3
390
F
  0
LAYER
  5
6C8
100
AcDbSymbolTableRecord
100
AcDbLayerTableRecord
  2
VG_LED-SMT-1_6-0_75-1_0_100000
 70
0
 62
7
  6
CONTINUOUS
370
-3
390
F
  0
LAYER
  5
6C9
100
AcDbSymbolTableRecord
100
AcDbLayerTableRecord
  2
VG_LED-SMT-1_6-0_75-1_0_10000_1
 70
0
 62
7
  6
CONTINUOUS
370
-3
390
F
  0
LAYER
  5
6CA
100
AcDbSymbolTableRecord
100
AcDbLayerTableRecord
  2
VG_LED-SMT-1_6-0_75-1_0_10000_2
 70
0
 62
7
  6
CONTINUOUS
370
-3
390
F
  0
LAYER
  5
6CB
100
AcDbSymbolTableRecord
100
AcDbLayerTableRecord
  2
VG_LED-SMT-1_6-0_75-1_0_10000_3
 70
0
 62
7
  6
CONTINUOUS
370
-3
390
F
  0
LAYER
  5
6CC
100
AcDbSymbolTableRecord
100
AcDbLayerTableRecord
  2
VG_LED-SMT-1_6-0_75-1_0_10000_4
 70
0
 62
7
  6
CONTINUOUS
370
-3
390
F
  0
LAYER
  5
6CD
100
AcDbSymbolTableRecord
100
AcDbLayerTableRecord
  2
VG_LED-SMT-1_6-0_75-1_0_10000_5
 70
0
 62
7
  6
CONTINUOUS
370
-3
390
F
  0
LAYER
  5
6CE
100
AcDbSymbolTableRecord
100
AcDbLayerTableRecord
  2
VG_LED-SMT-1_6-0_75-1_0_10000_6
 70
0
 62
7
  6
CONTINUOUS
370
-3
390
F
  0
LAYER
  5
6CF
100
AcDbSymbolTableRecord
100
AcDbLayerTableRecord
  2
VG_LED-SMT-1_6-0_75-1_0_10000_7
 70
0
 62
7
  6
CONTINUOUS
370
-3
390
F
  0
LAYER
  5
6D0
100
AcDbSymbolTableRecord
100
AcDbLayerTableRecord
  2
VG_LED-SMT-1_6-0_75-1_0_10000_8
 70
0
 62
7
  6
CONTINUOUS
370
-3
390
F
  0
LAYER
  5
6D1
100
AcDbSymbolTableRecord
100
AcDbLayerTableRecord
  2
VG_LED-SMT-1_6-0_75-1_0_10000_9
 70
0
 62
7
  6
CONTINUOUS
370
-3
390
F
  0
LAYER
  5
6D2
100
AcDbSymbolTableRecord
100
AcDbLayerTableRecord
  2
VG_LED-SMT-1_6-0_75-1_0_1000_10
 70
0
 62
7
  6
CONTINUOUS
370
-3
390
F
  0
LAYER
  5
6D3
100
AcDbSymbolTableRecord
100
AcDbLayerTableRecord
  2
VG_LED-SMT-1_6-0_75-1_0_1000_11
 70
0
 62
7
  6
CONTINUOUS
370
-3
390
F
  0
LAYER
  5
6D4
100
AcDbSymbolTableRecord
100
AcDbLayerTableRecord
  2
VG_LED-SMT-1_6-0_75-1_0_1000_12
 70
0
 62
7
  6
CONTINUOUS
370
-3
390
F
  0
LAYER
  5
6D5
100
AcDbSymbolTableRecord
100
AcDbLayerTableRecord
  2
VG_LED-SMT-1_6-0_75-1_0_1000_13
 70
0
 62
7
  6
CONTINUOUS
370
-3
390
F
  0
LAYER
  5
6D6
100
AcDbSymbolTableRecord
100
AcDbLayerTableRecord
  2
VG_LED-SMT-1_6-0_75-1_0_1000_14
 70
0
 62
7
  6
CONTINUOUS
370
-3
390
F
  0
LAYER
  5
6D7
100
AcDbSymbolTableRecord
100
AcDbLayerTableRecord
  2
VG_LED-SMT-1_6-0_75-1_0_1000_15
 70
0
 62
7
  6
CONTINUOUS
370
-3
390
F
  0
LAYER
  5
6D8
100
AcDbSymbolTableRecord
100
AcDbLayerTableRecord
  2
VG_LED-SMT-1_6-0_75-1_0_1000_16
 70
0
 62
7
  6
CONTINUOUS
370
-3
390
F
  0
LAYER
  5
6D9
100
AcDbSymbolTableRecord
100
AcDbLayerTableRecord
  2
VG_LED-SMT-1_6-0_75-1_0_1000_17
 70
0
 62
7
  6
CONTINUOUS
370
-3
390
F
  0
LAYER
  5
6DA
100
AcDbSymbolTableRecord
100
AcDbLayerTableRecord
  2
VG_LED-SMT-1_6-0_75-1_0_1000_18
 70
0
 62
7
  6
CONTINUOUS
370
-3
390
F
  0
LAYER
  5
6DB
100
AcDbSymbolTableRecord
100
AcDbLayerTableRecord
  2
VG_LED-SMT-1_6-0_75-1_0_1000_19
 70
0
 62
7
  6
CONTINUOUS
370
-3
390
F
  0
LAYER
  5
6DC
100
AcDbSymbolTableRecord
100
AcDbLayerTableRecord
  2
VG_LED-SMT-1_6-0_75-1_0_1000_20
 70
0
 62
7
  6
CONTINUOUS
370
-3
390
F
  0
LAYER
  5
6DD
100
AcDbSymbolTableRecord
100
AcDbLayerTableRecord
  2
VG_LED-SMT-1_6-0_75-1_0_1000_21
 70
0
 62
7
  6
CONTINUOUS
370
-3
390
F
  0
LAYER
  5
6DE
100
AcDbSymbolTableRecord
100
AcDbLayerTableRecord
  2
VG_LED-SMT-1_6-0_75-1_0_1000_22
 70
0
 62
7
  6
CONTINUOUS
370
-3
390
F
  0
LAYER
  5
6DF
100
AcDbSymbolTableRecord
100
AcDbLayerTableRecord
  2
VG_LED-SMT-1_6-0_75-1_0_1000_23
 70
0
 62
7
  6
CONTINUOUS
370
-3
390
F
  0
LAYER
  5
6E0
100
AcDbSymbolTableRecord
100
AcDbLayerTableRecord
  2
VG_LED-SMT-1_6-0_75-1_0_1000_24
 70
0
 62
7
  6
CONTINUOUS
370
-3
390
F
  0
LAYER
  5
6E1
100
AcDbSymbolTableRecord
100
AcDbLayerTableRecord
  2
VG_LED-SMT-1_6-0_75-1_0_1000_25
 70
0
 62
7
  6
CONTINUOUS
370
-3
390
F
  0
LAYER
  5
6E2
100
AcDbSymbolTableRecord
100
AcDbLayerTableRecord
  2
VG_LED-SMT-1_6-0_75-1_0_1000_26
 70
0
 62
7
  6
CONTINUOUS
370
-3
390
F
  0
LAYER
  5
6E3
100
AcDbSymbolTableRecord
100
AcDbLayerTableRecord
  2
VG_LED-SMT-1_6-0_75-1_0_1000_27
 70
0
 62
7
  6
CONTINUOUS
370
-3
390
F
  0
LAYER
  5
6E4
100
AcDbSymbolTableRecord
100
AcDbLayerTableRecord
  2
VG_LED-SMT-1_6-0_75-1_0_1000_28
 70
0
 62
7
  6
CONTINUOUS
370
-3
390
F
  0
LAYER
  5
6E5
100
AcDbSymbolTableRecord
100
AcDbLayerTableRecord
  2
VG_LED-SMT-1_6-0_75-1_0_1000_29
 70
0
 62
7
  6
CONTINUOUS
370
-3
390
F
  0
LAYER
  5
6E6
100
AcDbSymbolTableRecord
100
AcDbLayerTableRecord
  2
VG_LED-SMT-1_6-0_75-1_0_1000_30
 70
0
 62
7
  6
CONTINUOUS
370
-3
390
F
  0
LAYER
  5
6E7
100
AcDbSymbolTableRecord
100
AcDbLayerTableRecord
  2
VG_LED-SMT-1_6-0_75-1_0_1000_31
 70
0
 62
7
  6
CONTINUOUS
370
-3
390
F
  0
LAYER
  5
6E8
100
AcDbSymbolTableRecord
100
AcDbLayerTableRecord
  2
VG_LED-SMT-1_6-0_75-1_0_1000_32
 70
0
 62
7
  6
CONTINUOUS
370
-3
390
F
  0
LAYER
  5
6E9
100
AcDbSymbolTableRecord
100
AcDbLayerTableRecord
  2
VG_LED-SMT-1_6-0_75-1_0_1000_33
 70
0
 62
7
  6
CONTINUOUS
370
-3
390
F
  0
LAYER
  5
6EA
100
AcDbSymbolTableRecord
100
AcDbLayerTableRecord
  2
VG_LED-SMT-1_6-0_75-1_0_1000_34
 70
0
 62
7
  6
CONTINUOUS
370
-3
390
F
  0
LAYER
  5
6EB
100
AcDbSymbolTableRecord
100
AcDbLayerTableRecord
  2
VG_LED-SMT-1_6-0_75-1_0_1000_35
 70
0
 62
7
  6
CONTINUOUS
370
-3
390
F
  0
LAYER
  5
6EC
100
AcDbSymbolTableRecord
100
AcDbLayerTableRecord
  2
VG_LED-SMT-1_6-0_75-1_0_1000_36
 70
0
 62
7
  6
CONTINUOUS
370
-3
390
F
  0
LAYER
  5
6ED
100
AcDbSymbolTableRecord
100
AcDbLayerTableRecord
  2
VG_LED-SMT-1_6-0_75-1_0_1000_37
 70
0
 62
7
  6
CONTINUOUS
370
-3
390
F
  0
LAYER
  5
6EE
100
AcDbSymbolTableRecord
100
AcDbLayerTableRecord
  2
VG_LED-SMT-1_6-0_75-1_0_1000_38
 70
0
 62
7
  6
CONTINUOUS
370
-3
390
F
  0
LAYER
  5
6EF
100
AcDbSymbolTableRecord
100
AcDbLayerTableRecord
  2
VG_LED-SMT-1_6-0_75-1_0_1000_39
 70
0
 62
7
  6
CONTINUOUS
370
-3
390
F
  0
LAYER
  5
6F0
100
AcDbSymbolTableRecord
100
AcDbLayerTableRecord
  2
VG_LED-SMT-1_6-0_75-1_0_1000_40
 70
0
 62
7
  6
CONTINUOUS
370
-3
390
F
  0
LAYER
  5
6F1
100
AcDbSymbolTableRecord
100
AcDbLayerTableRecord
  2
VG_LED-SMT-1_6-0_75-1_0_1000_41
 70
0
 62
7
  6
CONTINUOUS
370
-3
390
F
  0
LAYER
  5
6F2
100
AcDbSymbolTableRecord
100
AcDbLayerTableRecord
  2
VG_LED-SMT-1_6-0_75-1_0_1000_42
 70
0
 62
7
  6
CONTINUOUS
370
-3
390
F
  0
LAYER
  5
6F3
100
AcDbSymbolTableRecord
100
AcDbLayerTableRecord
  2
VG_LED-SMT-1_6-0_75-1_0_1000_43
 70
0
 62
7
  6
CONTINUOUS
370
-3
390
F
  0
LAYER
  5
6F4
100
AcDbSymbolTableRecord
100
AcDbLayerTableRecord
  2
VG_LED-SMT-1_6-0_75-1_0_1000_44
 70
0
 62
7
  6
CONTINUOUS
370
-3
390
F
  0
LAYER
  5
6F5
100
AcDbSymbolTableRecord
100
AcDbLayerTableRecord
  2
VG_LED-SMT-1_6-0_75-1_0_1000_45
 70
0
 62
7
  6
CONTINUOUS
370
-3
390
F
  0
LAYER
  5
6F6
100
AcDbSymbolTableRecord
100
AcDbLayerTableRecord
  2
VG_LED-SMT-1_6-0_75-1_0_1000_46
 70
0
 62
7
  6
CONTINUOUS
370
-3
390
F
  0
LAYER
  5
6F7
100
AcDbSymbolTableRecord
100
AcDbLayerTableRecord
  2
VG_LED-SMT-1_6-0_75-1_0_1000_47
 70
0
 62
7
  6
CONTINUOUS
370
-3
390
F
  0
LAYER
  5
6F8
100
AcDbSymbolTableRecord
100
AcDbLayerTableRecord
  2
VG_LED-SMT-1_6-0_75-1_0_1000_48
 70
0
 62
7
  6
CONTINUOUS
370
-3
390
F
  0
LAYER
  5
6F9
100
AcDbSymbolTableRecord
100
AcDbLayerTableRecord
  2
VG_LED-SMT-1_6-0_75-1_0_1000_49
 70
0
 62
7
  6
CONTINUOUS
370
-3
390
F
  0
LAYER
  5
6FA
100
AcDbSymbolTableRecord
100
AcDbLayerTableRecord
  2
VG_LED-SMT-1_6-0_75-1_0_1000_50
 70
0
 62
7
  6
CONTINUOUS
370
-3
390
F
  0
LAYER
  5
6FB
100
AcDbSymbolTableRecord
100
AcDbLayerTableRecord
  2
VG_LED-SMT-1_6-0_75-1_0_1000_51
 70
0
 62
7
  6
CONTINUOUS
370
-3
390
F
  0
LAYER
  5
6FC
100
AcDbSymbolTableRecord
100
AcDbLayerTableRecord
  2
VG_LED-SMT-1_6-0_75-1_0_1000_52
 70
0
 62
7
  6
CONTINUOUS
370
-3
390
F
  0
LAYER
  5
6FD
100
AcDbSymbolTableRecord
100
AcDbLayerTableRecord
  2
VG_LED-SMT-1_6-0_75-1_0_1000_53
 70
0
 62
7
  6
CONTINUOUS
370
-3
390
F
  0
LAYER
  5
6FE
100
AcDbSymbolTableRecord
100
AcDbLayerTableRecord
  2
VG_LED-SMT-1_6-0_75-1_0_1000_54
 70
0
 62
7
  6
CONTINUOUS
370
-3
390
F
  0
LAYER
  5
6FF
100
AcDbSymbolTableRecord
100
AcDbLayerTableRecord
  2
VG_LED-SMT-1_6-0_75-1_0_1000_55
 70
0
 62
7
  6
CONTINUOUS
370
-3
390
F
  0
LAYER
  5
700
100
AcDbSymbolTableRecord
100
AcDbLayerTableRecord
  2
VG_LED-SMT-1_6-0_75-1_0_1000_56
 70
0
 62
7
  6
CONTINUOUS
370
-3
390
F
  0
LAYER
  5
701
100
AcDbSymbolTableRecord
100
AcDbLayerTableRecord
  2
VG_LED-SMT-1_6-0_75-1_0_1000_57
 70
0
 62
7
  6
CONTINUOUS
370
-3
390
F
  0
LAYER
  5
702
100
AcDbSymbolTableRecord
100
AcDbLayerTableRecord
  2
VG_LED-SMT-1_6-0_75-1_0_1000_58
 70
0
 62
7
  6
CONTINUOUS
370
-3
390
F
  0
LAYER
  5
703
100
AcDbSymbolTableRecord
100
AcDbLayerTableRecord
  2
VG_LED-SMT-1_6-0_75-1_0_1000_59
 70
0
 62
7
  6
CONTINUOUS
370
-3
390
F
  0
LAYER
  5
704
100
AcDbSymbolTableRecord
100
AcDbLayerTableRecord
  2
VG_LED-SMT-1_6-0_75-1_0_1000_60
 70
0
 62
7
  6
CONTINUOUS
370
-3
390
F
  0
LAYER
  5
705
100
AcDbSymbolTableRecord
100
AcDbLayerTableRecord
  2
VG_LED-SMT-1_6-0_75-1_0_1000_61
 70
0
 62
7
  6
CONTINUOUS
370
-3
390
F
  0
LAYER
  5
706
100
AcDbSymbolTableRecord
100
AcDbLayerTableRecord
  2
VG_LED-SMT-1_6-0_75-1_0_1000_62
 70
0
 62
7
  6
CONTINUOUS
370
-3
390
F
  0
LAYER
  5
707
100
AcDbSymbolTableRecord
100
AcDbLayerTableRecord
  2
VG_LED-SMT-1_6-0_75-1_0_1000_63
 70
0
 62
7
  6
CONTINUOUS
370
-3
390
F
  0
LAYER
  5
708
100
AcDbSymbolTableRecord
100
AcDbLayerTableRecord
  2
VG_LED-SMT-1_6-0_75-1_0_1000_64
 70
0
 62
7
  6
CONTINUOUS
370
-3
390
F
  0
LAYER
  5
709
100
AcDbSymbolTableRecord
100
AcDbLayerTableRecord
  2
VG_LED-SMT-1_6-0_75-1_0_1000_65
 70
0
 62
7
  6
CONTINUOUS
370
-3
390
F
  0
LAYER
  5
70A
100
AcDbSymbolTableRecord
100
AcDbLayerTableRecord
  2
VG_LED-SMT-1_6-0_75-1_0_1000_66
 70
0
 62
7
  6
CONTINUOUS
370
-3
390
F
  0
LAYER
  5
70B
100
AcDbSymbolTableRecord
100
AcDbLayerTableRecord
  2
VG_LED-SMT-1_6-0_75-1_0_1000_67
 70
0
 62
7
  6
CONTINUOUS
370
-3
390
F
  0
LAYER
  5
70C
100
AcDbSymbolTableRecord
100
AcDbLayerTableRecord
  2
VG_LED-SMT-1_6-0_75-1_0_1000_68
 70
0
 62
7
  6
CONTINUOUS
370
-3
390
F
  0
LAYER
  5
70D
100
AcDbSymbolTableRecord
100
AcDbLayerTableRecord
  2
VG_LED-SMT-1_6-0_75-1_0_1000_69
 70
0
 62
7
  6
CONTINUOUS
370
-3
390
F
  0
LAYER
  5
70E
100
AcDbSymbolTableRecord
100
AcDbLayerTableRecord
  2
VG_LED-SMT-1_6-0_75-1_0_1000_70
 70
0
 62
7
  6
CONTINUOUS
370
-3
390
F
  0
LAYER
  5
70F
100
AcDbSymbolTableRecord
100
AcDbLayerTableRecord
  2
VG_LED-SMT-1_6-0_75-1_0_1000_71
 70
0
 62
7
  6
CONTINUOUS
370
-3
390
F
  0
LAYER
  5
710
100
AcDbSymbolTableRecord
100
AcDbLayerTableRecord
  2
VG_LED-SMT-1_6-0_75-1_0_1000_72
 70
0
 62
7
  6
CONTINUOUS
370
-3
390
F
  0
LAYER
  5
711
100
AcDbSymbolTableRecord
100
AcDbLayerTableRecord
  2
VG_LED-SMT-1_6-0_75-1_0_1000_73
 70
0
 62
7
  6
CONTINUOUS
370
-3
390
F
  0
LAYER
  5
712
100
AcDbSymbolTableRecord
100
AcDbLayerTableRecord
  2
VG_LED-SMT-1_6-0_75-1_0_1000_74
 70
0
 62
7
  6
CONTINUOUS
370
-3
390
F
  0
LAYER
  5
713
100
AcDbSymbolTableRecord
100
AcDbLayerTableRecord
  2
VG_LED-SMT-1_6-0_75-1_0_1000_75
 70
0
 62
7
  6
CONTINUOUS
370
-3
390
F
  0
LAYER
  5
714
100
AcDbSymbolTableRecord
100
AcDbLayerTableRecord
  2
VG_LED-SMT-1_6-0_75-1_0_1000_76
 70
0
 62
7
  6
CONTINUOUS
370
-3
390
F
  0
LAYER
  5
715
100
AcDbSymbolTableRecord
100
AcDbLayerTableRecord
  2
VG_LED-SMT-1_6-0_75-1_0_1000_77
 70
0
 62
7
  6
CONTINUOUS
370
-3
390
F
  0
LAYER
  5
716
100
AcDbSymbolTableRecord
100
AcDbLayerTableRecord
  2
VG_LED-SMT-1_6-0_75-1_0_1000_78
 70
0
 62
7
  6
CONTINUOUS
370
-3
390
F
  0
LAYER
  5
717
100
AcDbSymbolTableRecord
100
AcDbLayerTableRecord
  2
VG_LED-SMT-1_6-0_75-1_0_1000_79
 70
0
 62
7
  6
CONTINUOUS
370
-3
390
F
  0
LAYER
  5
718
100
AcDbSymbolTableRecord
100
AcDbLayerTableRecord
  2
VG_LED-SMT-1_6-0_75-1_0_1000_80
 70
0
 62
7
  6
CONTINUOUS
370
-3
390
F
  0
LAYER
  5
719
100
AcDbSymbolTableRecord
100
AcDbLayerTableRecord
  2
VG_LED-SMT-1_6-0_75-1_0_1000_81
 70
0
 62
7
  6
CONTINUOUS
370
-3
390
F
  0
LAYER
  5
71A
100
AcDbSymbolTableRecord
100
AcDbLayerTableRecord
  2
VG_LED-SMT-1_6-0_75-1_0_1000_82
 70
0
 62
7
  6
CONTINUOUS
370
-3
390
F
  0
LAYER
  5
71B
100
AcDbSymbolTableRecord
100
AcDbLayerTableRecord
  2
VG_LED-SMT-1_6-0_75-1_0_1000_83
 70
0
 62
7
  6
CONTINUOUS
370
-3
390
F
  0
LAYER
  5
71C
100
AcDbSymbolTableRecord
100
AcDbLayerTableRecord
  2
VG_LED-SMT-1_6-0_75-1_0_1000_84
 70
0
 62
7
  6
CONTINUOUS
370
-3
390
F
  0
LAYER
  5
71D
100
AcDbSymbolTableRecord
100
AcDbLayerTableRecord
  2
VG_LED-SMT-1_6-0_75-1_0_1000_85
 70
0
 62
7
  6
CONTINUOUS
370
-3
390
F
  0
LAYER
  5
71E
100
AcDbSymbolTableRecord
100
AcDbLayerTableRecord
  2
VG_LED-SMT-1_6-0_75-1_0_1000_86
 70
0
 62
7
  6
CONTINUOUS
370
-3
390
F
  0
LAYER
  5
71F
100
AcDbSymbolTableRecord
100
AcDbLayerTableRecord
  2
VG_LED-SMT-1_6-0_75-1_0_1000_87
 70
0
 62
7
  6
CONTINUOUS
370
-3
390
F
  0
LAYER
  5
720
100
AcDbSymbolTableRecord
100
AcDbLayerTableRecord
  2
VG_LED-SMT-1_6-0_75-1_0_1000_88
 70
0
 62
7
  6
CONTINUOUS
370
-3
390
F
  0
LAYER
  5
721
100
AcDbSymbolTableRecord
100
AcDbLayerTableRecord
  2
VG_LED-SMT-1_6-0_75-1_0_1000_89
 70
0
 62
7
  6
CONTINUOUS
370
-3
390
F
  0
LAYER
  5
722
100
AcDbSymbolTableRecord
100
AcDbLayerTableRecord
  2
VG_LED-SMT-1_6-0_75-1_0_1000_90
 70
0
 62
7
  6
CONTINUOUS
370
-3
390
F
  0
LAYER
  5
723
100
AcDbSymbolTableRecord
100
AcDbLayerTableRecord
  2
VG_LED-SMT-1_6-0_75-1_0_1000_91
 70
0
 62
7
  6
CONTINUOUS
370
-3
390
F
  0
LAYER
  5
724
100
AcDbSymbolTableRecord
100
AcDbLayerTableRecord
  2
VG_LED-SMT-1_6-0_75-1_0_1000_92
 70
0
 62
7
  6
CONTINUOUS
370
-3
390
F
  0
LAYER
  5
725
100
AcDbSymbolTableRecord
100
AcDbLayerTableRecord
  2
VG_LED-SMT-1_6-0_75-1_0_1000_93
 70
0
 62
7
  6
CONTINUOUS
370
-3
390
F
  0
LAYER
  5
726
100
AcDbSymbolTableRecord
100
AcDbLayerTableRecord
  2
VG_LED-SMT-1_6-0_75-1_0_1000_94
 70
0
 62
7
  6
CONTINUOUS
370
-3
390
F
  0
LAYER
  5
727
100
AcDbSymbolTableRecord
100
AcDbLayerTableRecord
  2
VG_LED-SMT-1_6-0_75-1_0_1000_95
 70
0
 62
7
  6
CONTINUOUS
370
-3
390
F
  0
LAYER
  5
728
100
AcDbSymbolTableRecord
100
AcDbLayerTableRecord
  2
VG_LED-SMT-1_6-0_75-1_0_1000_96
 70
0
 62
7
  6
CONTINUOUS
370
-3
390
F
  0
LAYER
  5
729
100
AcDbSymbolTableRecord
100
AcDbLayerTableRecord
  2
VG_LED-SMT-1_6-0_75-1_0_1000_97
 70
0
 62
7
  6
CONTINUOUS
370
-3
390
F
  0
LAYER
  5
72A
100
AcDbSymbolTableRecord
100
AcDbLayerTableRecord
  2
VG_LED-SMT-1_6-0_75-1_0_1000_98
 70
0
 62
7
  6
CONTINUOUS
370
-3
390
F
  0
LAYER
  5
72B
100
AcDbSymbolTableRecord
100
AcDbLayerTableRecord
  2
VG_LED-SMT-1_6-0_75-1_0_1000_99
 70
0
 62
7
  6
CONTINUOUS
370
-3
390
F
  0
LAYER
  5
72C
100
AcDbSymbolTableRecord
100
AcDbLayerTableRecord
  2
VG_LED-SMT-1_6-0_75-1_0_100_100
 70
0
 62
7
  6
CONTINUOUS
370
-3
390
F
  0
LAYER
  5
72D
100
AcDbSymbolTableRecord
100
AcDbLayerTableRecord
  2
VG_LED-SMT-1_6-0_75-1_0_100_101
 70
0
 62
7
  6
CONTINUOUS
370
-3
390
F
  0
LAYER
  5
72E
100
AcDbSymbolTableRecord
100
AcDbLayerTableRecord
  2
VG_LED-SMT-1_6-0_75-1_0_100_102
 70
0
 62
7
  6
CONTINUOUS
370
-3
390
F
  0
LAYER
  5
72F
100
AcDbSymbolTableRecord
100
AcDbLayerTableRecord
  2
VG_LED-SMT-1_6-1_5-0_55-4PIN_55
 70
0
 62
7
  6
CONTINUOUS
370
-3
390
F
  0
LAYER
  5
730
100
AcDbSymbolTableRecord
100
AcDbLayerTableRecord
  2
VG_LED-SMT-1_6-1_5-0_55-4PIN__1
 70
0
 62
7
  6
CONTINUOUS
370
-3
390
F
  0
LAYER
  5
731
100
AcDbSymbolTableRecord
100
AcDbLayerTableRecord
  2
VG_LED-SMT-1_6-1_5-0_55-4PIN__2
 70
0
 62
7
  6
CONTINUOUS
370
-3
390
F
  0
LAYER
  5
732
100
AcDbSymbolTableRecord
100
AcDbLayerTableRecord
  2
VG_LED-SMT-1_6-1_5-0_55-4PIN__3
 70
0
 62
7
  6
CONTINUOUS
370
-3
390
F
  0
LAYER
  5
733
100
AcDbSymbolTableRecord
100
AcDbLayerTableRecord
  2
VG_MCM_ESP32-WROVER
 70
0
 62
7
  6
CONTINUOUS
370
-3
390
F
  0
LAYER
  5
734
100
AcDbSymbolTableRecord
100
AcDbLayerTableRecord
  2
VG_MCM_ESP32-WROVER-IPEX_340000
 70
0
 62
7
  6
CONTINUOUS
370
-3
390
F
  0
LAYER
  5
735
100
AcDbSymbolTableRecord
100
AcDbLayerTableRecord
  2
VG_MCM_ESP32-WROVER_1
 70
0
 62
7
  6
CONTINUOUS
370
-3
390
F
  0
LAYER
  5
736
100
AcDbSymbolTableRecord
100
AcDbLayerTableRecord
  2
VG_MCM_ESP32-WROVER_340000
 70
0
 62
7
  6
CONTINUOUS
370
-3
390
F
  0
LAYER
  5
737
100
AcDbSymbolTableRecord
100
AcDbLayerTableRecord
  2
VG_NTC-4_0-7_5-2_0-2_5-0_0-0_4_
 70
0
 62
7
  6
CONTINUOUS
370
-3
390
F
  0
LAYER
  5
738
100
AcDbSymbolTableRecord
100
AcDbLayerTableRecord
  2
VG_POWER56_110000
 70
0
 62
7
  6
CONTINUOUS
370
-3
390
F
  0
LAYER
  5
739
100
AcDbSymbolTableRecord
100
AcDbLayerTableRecord
  2
VG_QFN44-5_0-5_0-6_0-6_0-0_75-0
 70
0
 62
7
  6
CONTINUOUS
370
-3
390
F
  0
LAYER
  5
73A
100
AcDbSymbolTableRecord
100
AcDbLayerTableRecord
  2
VG_QFN44-5_0-5_0-6_0-6_0-0_75_1
 70
0
 62
7
  6
CONTINUOUS
370
-3
390
F
  0
LAYER
  5
73B
100
AcDbSymbolTableRecord
100
AcDbLayerTableRecord
  2
VG_QFN44-5_0-5_0-6_0-6_0-0_75_2
 70
0
 62
7
  6
CONTINUOUS
370
-3
390
F
  0
LAYER
  5
73C
100
AcDbSymbolTableRecord
100
AcDbLayerTableRecord
  2
VG_SMD_CN_MICRO_SIM_H1_5_150000
 70
0
 62
7
  6
CONTINUOUS
370
-3
390
F
  0
LAYER
  5
73D
100
AcDbSymbolTableRecord
100
AcDbLayerTableRecord
  2
VG_SMD_CN_MICRO_SIM_H1_5_B_
 70
0
 62
7
  6
CONTINUOUS
370
-3
390
F
  0
LAYER
  5
73E
100
AcDbSymbolTableRecord
100
AcDbLayerTableRecord
  2
VG_SOD523_70000
 70
0
 62
7
  6
CONTINUOUS
370
-3
390
F
  0
LAYER
  5
73F
100
AcDbSymbolTableRecord
100
AcDbLayerTableRecord
  2
VG_SOT23_H1_1_REF_110000
 70
0
 62
7
  6
CONTINUOUS
370
-3
390
F
  0
LAYER
  5
740
100
AcDbSymbolTableRecord
100
AcDbLayerTableRecord
  2
VG_SOT23_H1_1_REF_110000_1
 70
0
 62
7
  6
CONTINUOUS
370
-3
390
F
  0
LAYER
  5
741
100
AcDbSymbolTableRecord
100
AcDbLayerTableRecord
  2
VG_SOT23_H1_2_REF_120000
 70
0
 62
7
  6
CONTINUOUS
370
-3
390
F
  0
LAYER
  5
742
100
AcDbSymbolTableRecord
100
AcDbLayerTableRecord
  2
VG_SOT23_H1_2_REF_120000_1
 70
0
 62
7
  6
CONTINUOUS
370
-3
390
F
  0
LAYER
  5
743
100
AcDbSymbolTableRecord
100
AcDbLayerTableRecord
  2
VG_SOT23_H1_2_REF_120000_2
 70
0
 62
7
  6
CONTINUOUS
370
-3
390
F
  0
LAYER
  5
744
100
AcDbSymbolTableRecord
100
AcDbLayerTableRecord
  2
VG_SOT23_H1_2_REF_B_
 70
0
 62
7
  6
CONTINUOUS
370
-3
390
F
  0
LAYER
  5
745
100
AcDbSymbolTableRecord
100
AcDbLayerTableRecord
  2
VG_SOT23_H1_2_REF_B__1
 70
0
 62
7
  6
CONTINUOUS
370
-3
390
F
  0
LAYER
  5
746
100
AcDbSymbolTableRecord
100
AcDbLayerTableRecord
  2
VG_SOT563_60000
 70
0
 62
7
  6
CONTINUOUS
370
-3
390
F
  0
LAYER
  5
747
100
AcDbSymbolTableRecord
100
AcDbLayerTableRecord
  2
VG_SOT563_B_-1316
 70
0
 62
7
  6
CONTINUOUS
370
-3
390
F
  0
LAYER
  5
748
100
AcDbSymbolTableRecord
100
AcDbLayerTableRecord
  2
VG_SOT563_B_-1316_1
 70
0
 62
7
  6
CONTINUOUS
370
-3
390
F
  0
LAYER
  5
749
100
AcDbSymbolTableRecord
100
AcDbLayerTableRecord
  2
VG_SOT563_B_-6000
 70
0
 62
7
  6
CONTINUOUS
370
-3
390
F
  0
LAYER
  5
74A
100
AcDbSymbolTableRecord
100
AcDbLayerTableRecord
  2
VG_SOT563_B_-6001
 70
0
 62
7
  6
CONTINUOUS
370
-3
390
F
  0
LAYER
  5
74B
100
AcDbSymbolTableRecord
100
AcDbLayerTableRecord
  2
VG_SOT563_B_-8258
 70
0
 62
7
  6
CONTINUOUS
370
-3
390
F
  0
LAYER
  5
74C
100
AcDbSymbolTableRecord
100
AcDbLayerTableRecord
  2
VG_SOT563_B_-8258_1
 70
0
 62
7
  6
CONTINUOUS
370
-3
390
F
  0
LAYER
  5
74D
100
AcDbSymbolTableRecord
100
AcDbLayerTableRecord
  2
VG_SOT563_B_-8259
 70
0
 62
7
  6
CONTINUOUS
370
-3
390
F
  0
LAYER
  5
74E
100
AcDbSymbolTableRecord
100
AcDbLayerTableRecord
  2
VG_SOT563_B_-8259_1
 70
0
 62
7
  6
CONTINUOUS
370
-3
390
F
  0
LAYER
  5
74F
100
AcDbSymbolTableRecord
100
AcDbLayerTableRecord
  2
VG_TRA_RM6S_P501_1250000
 70
0
 62
7
  6
CONTINUOUS
370
-3
390
F
  0
LAYER
  5
750
100
AcDbSymbolTableRecord
100
AcDbLayerTableRecord
  2
VG_UDFN-6L_55000
 70
0
 62
7
  6
CONTINUOUS
370
-3
390
F
  0
LAYER
  5
751
100
AcDbSymbolTableRecord
100
AcDbLayerTableRecord
  2
VG_VSON14-4_15-3_15-1_0-EXPPAD_
 70
0
 62
7
  6
CONTINUOUS
370
-3
390
F
  0
LAYER
  5
752
100
AcDbSymbolTableRecord
100
AcDbLayerTableRecord
  2
VG_VSON14-4_15-3_15-1_0-EXPPA_1
 70
0
 62
7
  6
CONTINUOUS
370
-3
390
F
  0
LAYER
  5
753
100
AcDbSymbolTableRecord
100
AcDbLayerTableRecord
  2
VG_X-SMT-2-3_2-1_5-1_0
 70
0
 62
7
  6
CONTINUOUS
370
-3
390
F
  0
LAYER
  5
754
100
AcDbSymbolTableRecord
100
AcDbLayerTableRecord
  2
VG_X-SMT-2-3_2-1_5-1_0_1
 70
0
 62
7
  6
CONTINUOUS
370
-3
390
F
  0
LAYER
  5
755
100
AcDbSymbolTableRecord
100
AcDbLayerTableRecord
  2
VG_X-SMT-2-3_2-1_5-1_0_100000
 70
0
 62
7
  6
CONTINUOUS
370
-3
390
F
  0
LAYER
  5
756
100
AcDbSymbolTableRecord
100
AcDbLayerTableRecord
  2
VSONP8-3_5-3_25-0_9-EXPPAD_8000
 70
0
 62
7
  6
CONTINUOUS
370
-3
390
F
  0
LAYER
  5
757
100
AcDbSymbolTableRecord
100
AcDbLayerTableRecord
  2
WHITE
 70
0
 62
7
  6
CONTINUOUS
370
-3
390
F
  0
LAYER
  5
758
100
AcDbSymbolTableRecord
100
AcDbLayerTableRecord
  2
XSEC_DATUMS
 70
0
 62
7
  6
CONTINUOUS
370
-3
390
F
  0
LAYER
  5
759
100
AcDbSymbolTableRecord
100
AcDbLayerTableRecord
  2
ZIF_12_P0_5_MOLEX_528931233_200
 70
0
 62
7
  6
CONTINUOUS
370
-3
390
F
  0
LAYER
  5
75A
100
AcDbSymbolTableRecord
100
AcDbLayerTableRecord
  2
___SHELL
 70
0
 62
7
  6
CONTINUOUS
370
-3
390
F
  0
ENDTAB
  0
TABLE
  2
STYLE
  5
3
100
AcDbSymbolTable
 70
1
  0
STYLE
  5
11
100
AcDbSymbolTableRecord
100
AcDbTextStyleTableRecord
  2
STANDARD
 70
0
 40
0.0
 41
0.8
 50
0.0
 71
0
 42
0.2
  3
txt
  4

  0
STYLE
  5
75B
100
AcDbSymbolTableRecord
100
AcDbTextStyleTableRecord
  2
TEXTSTYLE_1
 70
0
 40
0.0
 41
0.8
 50
0.0
 71
0
 42
0.2
  3
gdt
  4

  0
ENDTAB
  0
TABLE
  2
VIEW
  5
6
100
AcDbSymbolTable
 70
0
  0
ENDTAB
  0
TABLE
  2
UCS
  5
7
100
AcDbSymbolTable
 70
0
  0
ENDTAB
  0
TABLE
  2
APPID
  5
9
100
AcDbSymbolTable
 70
1
  0
APPID
  5
75C
100
AcDbSymbolTableRecord
100
AcDbRegAppTableRecord
  2
ACAD
 70
0
  0
ENDTAB
  0
TABLE
  2
BLOCK_RECORD
  5
1
100
AcDbSymbolTable
 70
0
  0
BLOCK_RECORD
  5
75D
100
AcDbSymbolTableRecord
100
AcDbBlockTableRecord
  2
*Model_Space
  0
BLOCK_RECORD
  5
75E
100
AcDbSymbolTableRecord
100
AcDbBlockTableRecord
  2
*Paper_Space
  0
BLOCK_RECORD
  5
75F
100
AcDbSymbolTableRecord
100
AcDbBlockTableRecord
  2
_FILLED
  0
ENDTAB
  0
TABLE
  2
DIMSTYLE
  5
A
100
AcDbSymbolTable
 70
1
100
AcDbDimStyleTable
 71
0
  0
DIMSTYLE
105
760
100
AcDbSymbolTableRecord
100
AcDbDimStyleTableRecord
  2
STANDARD
 70
0
  3

  4

 40
1.0
 41
3.0
 42
0.5
 43
0.38
 44
1.5
 45
0.0
 46
0.0
 47
0.01
 48
0.01
140
3.0
141
0.09
142
0.0
143
25.4
144
1.0
145
0.0
146
1.0
147
0.625
 71
1
 72
0
 73
0
 74
0
 75
0
 76
0
 77
1
 78
8
 79
2
170
0
171
1
172
0
173
0
174
0
175
0
176
0
177
0
178
0
270
2
179
2
271
2
272
2
273
2
274
2
275
0
280
0
281
0
282
0
283
1
284
8
285
0
286
0
287
3
288
0
340
11
278
44
341
75F
342
75F
343
75F
344
75F
  0
ENDTAB
  0
ENDSEC
  0
SECTION
  2
BLOCKS
  0
BLOCK
  5
20
100
AcDbEntity
  8
0
100
AcDbBlockBegin
  2
*Model_Space
 70
0
 10
0.0
 20
0.0
 30
0.0
  3
*Model_Space
  1

  0
ENDBLK
  5
21
100
AcDbEntity
  8
0
100
AcDbBlockEnd
  0
BLOCK
  5
1C
100
AcDbEntity
  8
0
100
AcDbBlockBegin
  2
*Paper_Space
 70
0
 10
0.0
 20
0.0
 30
0.0
  3
*Paper_Space
  1

  0
ENDBLK
  5
1D
100
AcDbEntity
  8
0
100
AcDbBlockEnd
  0
BLOCK
  5
761
100
AcDbEntity
  8
0
100
AcDbBlockBegin
  2
_FILLED
 70
64
 10
0.0
 20
0.0
  3
_FILLED
  1

  0
SOLID
  5
762
100
AcDbEntity
  8
0
  6
BYBLOCK
 62
0
100
AcDbTrace
 10
0.0
 20
0.0
 11
-1.0
 21
0.3166666667
 12
-1.0
 22
-0.3166666667
 13
-1.0
 23
-0.3166666667
  0
ENDBLK
  5
763
100
AcDbEntity
  8
0
  6
BYBLOCK
 62
0
100
AcDbBlockEnd
  0
ENDSEC
  0
SECTION
  2
ENTITIES
  0
LINE
  5
764
100
AcDbEntity
  8
RACCORDO
100
AcDbLine
 62
7
  6
CONTINUOUS
 10
109.975643041
 20
182.8832043535
 11
109.3893255967
 21
182.4956760789
  0
LINE
  5
765
100
AcDbEntity
  8
RACCORDO
100
AcDbLine
 62
250
  6
CONTINUOUS
 10
110.2340902143
 20
182.8636981017
 11
109.6526847049
 21
182.4794163852
  0
LWPOLYLINE
  5
766
100
AcDbEntity
  8
RACCORDO
100
AcDbPolyline
 62
7
  6
CONTINUOUS
 90
16
 70
0
 10
94.9570063527
 20
173.348209076
 10
94.9193091629
 20
173.3234794935
 10
94.8692069803
 20
173.2857810948
 10
94.8212471708
 20
173.2436962047
 10
94.7757269291
 20
173.1972160372
 10
94.7330530614
 20
173.1464753288
 10
94.6936763482
 20
173.09176399
 10
94.6578427739
 20
173.0332154554
 10
94.6257873411
 20
172.9710087411
 10
94.5977970681
 20
172.9055219861
 10
94.5740113054
 20
172.8369359955
 10
94.5545260582
 20
172.765378586
 10
94.5394613447
 20
172.6910981727
 10
94.5288958667
 20
172.6142383843
 10
94.5228865973
 20
172.5349035116
 10
94.5214119842
 20
172.4703262893
  0
LWPOLYLINE
  5
767
100
AcDbEntity
  8
ASSI
100
AcDbPolyline
 62
7
  6
CONTINUOUS
 90
16
 70
0
 10
94.9570063527
 20
173.348209076
 10
94.9193091629
 20
173.3234794935
 10
94.8692069803
 20
173.2857810948
 10
94.8212471708
 20
173.2436962047
 10
94.7757269291
 20
173.1972160372
 10
94.7330530614
 20
173.1464753288
 10
94.6936763482
 20
173.09176399
 10
94.6578427739
 20
173.0332154554
 10
94.6257873411
 20
172.9710087411
 10
94.5977970681
 20
172.9055219861
 10
94.5740113054
 20
172.8369359955
 10
94.5545260582
 20
172.765378586
 10
94.5394613447
 20
172.6910981727
 10
94.5288958667
 20
172.6142383843
 10
94.5228865973
 20
172.5349035116
 10
94.5214119842
 20
172.4703262893
  0
LWPOLYLINE
  5
768
100
AcDbEntity
  8
RACCORDO
100
AcDbPolyline
 62
250
  6
CONTINUOUS
 90
16
 70
0
 10
109.6526847049
 20
182.4794163852
 10
109.6391361344
 20
182.4707464977
 10
109.6256241998
 20
182.4614979289
 10
109.6121688222
 20
182.4516841139
 10
109.5987899168
 20
182.4413193815
 10
109.5855071628
 20
182.4304187796
 10
109.5723399793
 20
182.4189980267
 10
109.5593071299
 20
182.4070731141
 10
109.5464286069
 20
182.3946620475
 10
109.5337253239
 20
182.3817848821
 10
109.5212158932
 20
182.368460517
 10
109.5089188776
 20
182.3547087567
 10
109.4968544963
 20
182.3405524292
 10
109.4850410813
 20
182.326013504
 10
109.4734951816
 20
182.3111128159
 10
109.4622336465
 20
182.2958725266
  0
LINE
  5
769
100
AcDbEntity
  8
RACCORDO
100
AcDbLine
 62
7
  6
CONTINUOUS
 10
94.9568205637
 20
173.3480984061
 11
104.3447084341
 21
179.1537090864
  0
LINE
  5
76A
100
AcDbEntity
  8
ASSI
100
AcDbLine
 62
7
  6
CONTINUOUS
 10
94.9568205637
 20
173.3480984061
 11
104.3447084341
 21
179.1537090864
  0
LINE
  5
76B
100
AcDbEntity
  8
RACCORDO
100
AcDbLine
 62
250
  6
CONTINUOUS
 10
95.7222407122
 20
173.2830677694
 11
105.1076198822
 21
179.0871270318
  0
LINE
  5
76C
100
AcDbEntity
  8
ASSI
100
AcDbLine
 62
250
  6
CONTINUOUS
 10
95.7222407122
 20
173.2830677694
 11
105.1076198822
 21
179.0871270318
  0
LINE
  5
76D
100
AcDbEntity
  8
CURVE
100
AcDbLine
 62
250
  6
CONTINUOUS
 10
185.5755371412
 20
47.0770978687
 11
184.535822816
 21
46.8341649522
  0
LINE
  5
76E
100
AcDbEntity
  8
CURVE
100
AcDbLine
 62
250
  6
CONTINUOUS
 10
184.535822816
 20
47.1917919969
 11
186.0463090735
 21
47.4829132889
  0
LINE
  5
76F
100
AcDbEntity
  8
CURVE
100
AcDbLine
 62
250
  6
CONTINUOUS
 10
184.9508660553
 20
50.6056139465
 11
185.5114267008
 21
50.7399788873
  0
LINE
  5
770
100
AcDbEntity
  8
CURVE
100
AcDbLine
 62
250
  6
CONTINUOUS
 10
185.7447625486
 20
50.7968775864
 11
186.0463090735
 21
50.8662624242
  0
LINE
  5
771
100
AcDbEntity
  8
CURVE
100
AcDbLine
 62
250
  6
CONTINUOUS
 10
186.0463090735
 20
50.512273571
 11
184.535822816
 21
50.2078201359
  0
LINE
  5
772
100
AcDbEntity
  8
CURVE
100
AcDbLine
 62
250
  6
CONTINUOUS
 10
185.3744492967
 20
49.2091947792
 11
184.535822816
 21
49.0994674504
  0
LINE
  5
773
100
AcDbEntity
  8
CURVE
100
AcDbLine
 62
250
  6
CONTINUOUS
 10
185.0641016493
 20
49.4848026116
 11
186.0463090735
 21
49.6069492834
  0
LWPOLYLINE
  5
774
100
AcDbEntity
  8
RACCORDO
100
AcDbPolyline
 62
250
  6
CONTINUOUS
 90
16
 70
0
 10
192.4416962116
 20
48.3688708497
 10
192.4605244934
 20
48.3710035812
 10
192.4792002015
 20
48.3735522877
 10
192.497695743
 20
48.3765134155
 10
192.5159846093
 20
48.3798829656
 10
192.5340388704
 20
48.3836560398
 10
192.5518293317
 20
48.3878266625
 10
192.5693293746
 20
48.3923886105
 10
192.5865135467
 20
48.3973352665
 10
192.6033552183
 20
48.4026589435
 10
192.6198288551
 20
48.4083514594
 10
192.6359110189
 20
48.4144046019
 10
192.6515790428
 20
48.4208098071
 10
192.6668101321
 20
48.4275577891
 10
192.6815814829
 20
48.4346384784
 10
192.6958713028
 20
48.442041446
  0
LWPOLYLINE
  5
775
100
AcDbEntity
  8
0
100
AcDbPolyline
 62
7
  6
CONTINUOUS
 90
22
 70
0
 10
190.2411203898
 20
57.1016681919
 10
190.2767429782
 20
57.1064493589
 10
190.3121886415
 20
57.1134359396
 10
190.3474573798
 20
57.1226279341
 10
190.382883305
 20
57.1341339437
 10
190.4181323052
 20
57.1478453672
 10
190.4522020442
 20
57.1634364001
 10
190.4849812287
 20
57.180904104
 10
190.5165811522
 20
57.2002514174
 10
190.5463333587
 20
57.221161352
 10
190.5740894552
 20
57.2435852858
 10
190.5999978348
 20
57.2675718409
 10
190.6238352211
 20
57.2929498945
 10
190.645646967
 20
57.3198649986
 10
190.6653877195
 20
57.3481716012
 10
190.6826981434
 20
57.3772619236
 10
190.6975588459
 20
57.4072417101
 10
190.7099892197
 20
57.4380052164
 10
190.7196881077
 20
57.4686274301
 10
190.7265551242
 20
57.498800014
 10
190.730690655
 20
57.5288313054
 10
190.7320947001
 20
57.5587213042
  0
LWPOLYLINE
  5
776
100
AcDbEntity
  8
0
100
AcDbPolyline
 62
7
  6
CONTINUOUS
 90
22
 70
0
 10
190.1890259365
 20
57.2722528882
 10
190.2245441988
 20
57.2769633904
 10
190.2600449491
 20
57.2839660312
 10
190.2955281875
 20
57.2932608105
 10
190.3314476216
 20
57.3050044788
 10
190.3673495438
 20
57.3190402856
 10
190.4018728309
 20
57.33489798
 10
190.4347573853
 20
57.35254685
 10
190.4662633046
 20
57.3720176076
 10
190.4958097577
 20
57.3929321375
 10
190.5232106565
 20
57.4151713806
 10
190.548652089
 20
57.438854396
 10
190.5721114886
 20
57.4639602454
 10
190.5937095359
 20
57.4906553946
 10
190.6133255501
 20
57.5187733779
 10
190.6305749222
 20
57.5477938593
 10
190.6454628641
 20
57.5779331174
 10
190.6579841639
 20
57.6089748737
 10
190.6677385766
 20
57.6397499572
 10
190.6745926871
 20
57.6698686444
 10
190.6786799105
 20
57.6997206588
 10
190.6800002468
 20
57.7293060005
  0
LINE
  5
777
100
AcDbEntity
  8
0
100
AcDbLine
 62
7
  6
CONTINUOUS
 10
188.2686776427
 20
56.9008557905
 11
189.0579388849
 21
56.9812096794
  0
LINE
  5
778
100
AcDbEntity
  8
0
100
AcDbLine
 62
7
  6
CONTINUOUS
 10
189.4518591476
 20
57.021314303
 11
190.2411203898
 21
57.1016681919
  0
LINE
  5
779
100
AcDbEntity
  8
0
100
AcDbLine
 62
7
  6
CONTINUOUS
 10
188.2165831894
 20
57.0714404867
 11
189.0058444316
 21
57.1517943756
  0
LINE
  5
77A
100
AcDbEntity
  8
0
100
AcDbLine
 62
7
  6
CONTINUOUS
 10
189.3997646943
 20
57.1918989992
 11
190.1890259365
 21
57.2722528882
  0
LINE
  5
77B
100
AcDbEntity
  8
0
100
AcDbLine
 62
7
  6
CONTINUOUS
 10
190.1437058618
 20
57.4184417554
 11
188.3662406038
 21
57.2374798149
  0
LWPOLYLINE
  5
77C
100
AcDbEntity
  8
RACCORDO
100
AcDbPolyline
 62
250
  6
CONTINUOUS
 90
19
 70
0
 10
95.374857679
 20
172.6743201976
 10
95.376173316
 20
172.7102651544
 10
95.3801104434
 20
172.7474619132
 10
95.3866397704
 20
172.7856336458
 10
95.3957127141
 20
172.8244962673
 10
95.4072617602
 20
172.8637605465
 10
95.4212009643
 20
172.9031342587
 10
95.4374265941
 20
172.9423243672
 10
95.4558178988
 20
172.9810391974
 10
95.4762380057
 20
173.0189906052
 10
95.4985349447
 20
173.0558961339
 10
95.5225427756
 20
173.0914811073
 10
95.5480828177
 20
173.125480669
 10
95.5749649918
 20
173.1576417707
 10
95.6029892276
 20
173.1877250446
 10
95.6319469458
 20
173.2155065787
 10
95.6616226237
 20
173.2407795992
 10
95.6917954005
 20
173.2633560071
 10
95.7222407122
 20
173.2830677694
  0
LWPOLYLINE
  5
77D
100
AcDbEntity
  8
ASSI
100
AcDbPolyline
 62
250
  6
CONTINUOUS
 90
19
 70
0
 10
95.374857679
 20
172.6743201976
 10
95.376173316
 20
172.7102651544
 10
95.3801104434
 20
172.7474619132
 10
95.3866397704
 20
172.7856336458
 10
95.3957127141
 20
172.8244962673
 10
95.4072617602
 20
172.8637605465
 10
95.4212009643
 20
172.9031342587
 10
95.4374265941
 20
172.9423243672
 10
95.4558178988
 20
172.9810391974
 10
95.4762380057
 20
173.0189906052
 10
95.4985349447
 20
173.0558961339
 10
95.5225427756
 20
173.0914811073
 10
95.5480828177
 20
173.125480669
 10
95.5749649918
 20
173.1576417707
 10
95.6029892276
 20
173.1877250446
 10
95.6319469458
 20
173.2155065787
 10
95.6616226237
 20
173.2407795992
 10
95.6917954005
 20
173.2633560071
 10
95.7222407122
 20
173.2830677694
  0
LWPOLYLINE
  5
77E
100
AcDbEntity
  8
RACCORDO
100
AcDbPolyline
 62
250
  6
CONTINUOUS
 90
3
 70
0
 10
109.1770109085
 20
182.1791812232
 10
109.1722019621
 20
182.1628829803
 10
109.1718905476
 20
182.1611366141
  0
LWPOLYLINE
  5
77F
100
AcDbEntity
  8
0
100
AcDbPolyline
 62
7
  6
CONTINUOUS
 90
22
 70
0
 10
188.2686776427
 20
59.350257761
 10
188.2330502603
 20
59.345475878
 10
188.1976004288
 20
59.338488639
 10
188.1623281482
 20
59.329296044
 10
188.1268993599
 20
59.3177894647
 10
188.0916481225
 20
59.3040775293
 10
188.0575766115
 20
59.2884861231
 10
188.0247961466
 20
59.2710182226
 10
187.9931954081
 20
59.2516708513
 10
187.9634426119
 20
59.2307609645
 10
187.9356861258
 20
59.2083371515
 10
187.909777582
 20
59.1843508231
 10
187.8859400932
 20
59.1589731669
 10
187.8641282392
 20
59.1320585852
 10
187.8443874402
 20
59.1037526757
 10
187.827077069
 20
59.0746634187
 10
187.8122165626
 20
59.0446850844
 10
187.799786484
 20
59.0139234026
 10
187.790087895
 20
58.9833035432
 10
187.7832211496
 20
58.9531338963
 10
187.7790858938
 20
58.9231060719
 10
187.7776821276
 20
58.8932200699
  0
LINE
  5
780
100
AcDbEntity
  8
0
100
AcDbLine
 62
7
  6
CONTINUOUS
 10
188.3665798794
 20
59.0337799722
 11
190.143536224
 21
59.2146901007
  0
LINE
  5
781
100
AcDbEntity
  8
0
100
AcDbLine
 62
7
  6
CONTINUOUS
 10
188.3144854261
 20
59.2043646684
 11
190.0914417707
 21
59.3852747969
  0
LINE
  5
782
100
AcDbEntity
  8
0
100
AcDbLine
 62
7
  6
CONTINUOUS
 10
190.2411203898
 20
59.5510701624
 11
189.4518591476
 21
59.4707162735
  0
LINE
  5
783
100
AcDbEntity
  8
0
100
AcDbLine
 62
7
  6
CONTINUOUS
 10
189.0579388849
 20
59.4306116499
 11
188.2686776427
 21
59.350257761
  0
LWPOLYLINE
  5
784
100
AcDbEntity
  8
0
100
AcDbPolyline
 62
7
  6
CONTINUOUS
 90
14
 70
0
 10
190.0914417707
 20
59.3852747969
 10
190.1117976683
 20
59.3863620999
 10
190.1316747265
 20
59.3857107144
 10
190.1510729452
 20
59.3833206405
 10
190.1703228947
 20
59.3790939989
 10
190.1890940048
 20
59.3731286689
 10
190.2063945644
 20
59.3657182883
 10
190.2219246211
 20
59.3569384694
 10
190.2359841273
 20
59.3467136
 10
190.2484812296
 20
59.3351104809
 10
190.2595439641
 20
59.321893467
 10
190.2690442947
 20
59.3072982035
 10
190.2765062605
 20
59.2920984269
 10
190.2806701162
 20
59.280394056
  0
LWPOLYLINE
  5
785
100
AcDbEntity
  8
0
100
AcDbPolyline
 62
7
  6
CONTINUOUS
 90
14
 70
0
 10
188.3662406038
 20
57.2374798149
 10
188.3460413701
 20
57.236401568
 10
188.3263231843
 20
57.237028259
 10
188.3070860463
 20
57.239359888
 10
188.2880513962
 20
57.2434521906
 10
188.269497794
 20
57.2492494312
 10
188.2522609198
 20
57.2565844029
 10
188.2365012265
 20
57.2654760067
 10
188.2220582612
 20
57.2759053415
 10
188.2092863457
 20
57.2876484973
 10
188.1981846808
 20
57.300862851
 10
188.1887540655
 20
57.3153910257
 10
188.1813512184
 20
57.3305369808
 10
188.177177859
 20
57.3422634611
  0
LWPOLYLINE
  5
786
100
AcDbEntity
  8
0
100
AcDbPolyline
 62
7
  6
CONTINUOUS
 90
14
 70
0
 10
190.143536224
 20
59.2146901007
 10
190.1637502869
 20
59.2157692811
 10
190.1834836093
 20
59.2151419453
 10
190.2027361913
 20
59.2128080932
 10
190.2217869405
 20
59.2087119707
 10
190.2403569493
 20
59.202909332
 10
190.2576094942
 20
59.1955674393
 10
190.2733840929
 20
59.1866672051
 10
190.2878412277
 20
59.176227717
 10
190.3006256225
 20
59.1644734994
 10
190.3117378678
 20
59.1512470555
 10
190.321177373
 20
59.1367058822
 10
190.3285870898
 20
59.1215469942
 10
190.3327646563
 20
59.1098090738
  0
LWPOLYLINE
  5
787
100
AcDbEntity
  8
RACCORDO
100
AcDbPolyline
 62
250
  6
CONTINUOUS
 90
10
 70
0
 10
95.374857679
 20
87.3298571314
 10
95.3761733437
 20
87.2954310893
 10
95.3801105458
 20
87.2627805605
 10
95.3866399827
 20
87.2321485471
 10
95.3957130589
 20
87.2037630287
 10
95.4072622477
 20
87.1778352652
 10
95.4212015941
 20
87.1545582246
 10
95.4374273542
 20
87.1341051467
 10
95.4558187673
 20
87.1166282541
 10
95.476238955
 20
87.102257619
  0
LWPOLYLINE
  5
788
100
AcDbEntity
  8
ASSI
100
AcDbPolyline
 62
250
  6
CONTINUOUS
 90
10
 70
0
 10
95.374857679
 20
87.3298571314
 10
95.3761733437
 20
87.2954310893
 10
95.3801105458
 20
87.2627805605
 10
95.3866399827
 20
87.2321485471
 10
95.3957130589
 20
87.2037630287
 10
95.4072622477
 20
87.1778352652
 10
95.4212015941
 20
87.1545582246
 10
95.4374273542
 20
87.1341051467
 10
95.4558187673
 20
87.1166282541
 10
95.476238955
 20
87.102257619
  0
LWPOLYLINE
  5
789
100
AcDbEntity
  8
RACCORDO
100
AcDbPolyline
 62
7
  6
CONTINUOUS
 90
24
 70
0
 10
94.5214548035
 20
88.7474784826
 10
94.5246239808
 20
88.6611887485
 10
94.5326557715
 20
88.5745280494
 10
94.5453563188
 20
88.4876989891
 10
94.5625433304
 20
88.4009019755
 10
94.5840209054
 20
88.3144253605
 10
94.6096209719
 20
88.2284787774
 10
94.639191304
 20
88.1432322325
 10
94.6725514853
 20
88.0589975361
 10
94.7095276187
 20
87.9760285497
 10
94.7499953844
 20
87.8944863108
 10
94.7938238272
 20
87.8145840223
 10
94.8408769809
 20
87.7365378521
 10
94.8910349579
 20
87.6605719357
 10
94.944178047
 20
87.5869045493
 10
95.0002251933
 20
87.51572618
 10
95.059045343
 20
87.4473092172
 10
95.1204671407
 20
87.3819554222
 10
95.1844175735
 20
87.3198834915
 10
95.2508000509
 20
87.2613423193
 10
95.3194772225
 20
87.2066344429
 10
95.3903742463
 20
87.1560171923
 10
95.4634089654
 20
87.1097647804
 10
95.4785685571
 20
87.1008909274
  0
LWPOLYLINE
  5
78A
100
AcDbEntity
  8
ASSI
100
AcDbPolyline
 62
7
  6
CONTINUOUS
 90
24
 70
0
 10
94.5214548035
 20
88.7474784826
 10
94.5246239808
 20
88.6611887485
 10
94.5326557715
 20
88.5745280494
 10
94.5453563188
 20
88.4876989891
 10
94.5625433304
 20
88.4009019755
 10
94.5840209054
 20
88.3144253605
 10
94.6096209719
 20
88.2284787774
 10
94.639191304
 20
88.1432322325
 10
94.6725514853
 20
88.0589975361
 10
94.7095276187
 20
87.9760285497
 10
94.7499953844
 20
87.8944863108
 10
94.7938238272
 20
87.8145840223
 10
94.8408769809
 20
87.7365378521
 10
94.8910349579
 20
87.6605719357
 10
94.944178047
 20
87.5869045493
 10
95.0002251933
 20
87.51572618
 10
95.059045343
 20
87.4473092172
 10
95.1204671407
 20
87.3819554222
 10
95.1844175735
 20
87.3198834915
 10
95.2508000509
 20
87.2613423193
 10
95.3194772225
 20
87.2066344429
 10
95.3903742463
 20
87.1560171923
 10
95.4634089654
 20
87.1097647804
 10
95.4785685571
 20
87.1008909274
  0
LWPOLYLINE
  5
78B
100
AcDbEntity
  8
RACCORDO
100
AcDbPolyline
 62
250
  6
CONTINUOUS
 90
28
 70
0
 10
94.6678585936
 20
88.5544154669
 10
94.6691210859
 20
88.5058050326
 10
94.6727084433
 20
88.4564292322
 10
94.6786206659
 20
88.4062880659
 10
94.6868908567
 20
88.3552487163
 10
94.6974859127
 20
88.3034440007
 10
94.7103065246
 20
88.2512723712
 10
94.7253785021
 20
88.1986838339
 10
94.7426760356
 20
88.1457283829
 10
94.7620223877
 20
88.0929544521
 10
94.7834365839
 20
88.0403712205
 10
94.8068995987
 20
87.9879695092
 10
94.8321776174
 20
87.9362702155
 10
94.8592897476
 20
87.8852786037
 10
94.8882168818
 20
87.8349894095
 10
94.9186678828
 20
87.7859077375
 10
94.950626899
 20
87.7380775684
 10
94.9841097821
 20
87.6914549215
 10
95.0188729496
 20
87.6464129586
 10
95.0549558429
 20
87.6029201801
 10
95.0923190208
 20
87.5610080856
 10
95.1306005766
 20
87.5211443366
 10
95.1698278141
 20
87.4833387198
 10
95.2099734296
 20
87.4475814485
 10
95.2505936056
 20
87.4143108239
 10
95.2915404029
 20
87.3836729463
 10
95.3329617607
 20
87.3555217155
 10
95.374857679
 20
87.3298571314
  0
LWPOLYLINE
  5
78C
100
AcDbEntity
  8
ASSI
100
AcDbPolyline
 62
250
  6
CONTINUOUS
 90
28
 70
0
 10
94.6678585936
 20
88.5544154669
 10
94.6691210859
 20
88.5058050326
 10
94.6727084433
 20
88.4564292322
 10
94.6786206659
 20
88.4062880659
 10
94.6868908567
 20
88.3552487163
 10
94.6974859127
 20
88.3034440007
 10
94.7103065246
 20
88.2512723712
 10
94.7253785021
 20
88.1986838339
 10
94.7426760356
 20
88.1457283829
 10
94.7620223877
 20
88.0929544521
 10
94.7834365839
 20
88.0403712205
 10
94.8068995987
 20
87.9879695092
 10
94.8321776174
 20
87.9362702155
 10
94.8592897476
 20
87.8852786037
 10
94.8882168818
 20
87.8349894095
 10
94.9186678828
 20
87.7859077375
 10
94.950626899
 20
87.7380775684
 10
94.9841097821
 20
87.6914549215
 10
95.0188729496
 20
87.6464129586
 10
95.0549558429
 20
87.6029201801
 10
95.0923190208
 20
87.5610080856
 10
95.1306005766
 20
87.5211443366
 10
95.1698278141
 20
87.4833387198
 10
95.2099734296
 20
87.4475814485
 10
95.2505936056
 20
87.4143108239
 10
95.2915404029
 20
87.3836729463
 10
95.3329617607
 20
87.3555217155
 10
95.374857679
 20
87.3298571314
  0
LINE
  5
78D
100
AcDbEntity
  8
RACCORDO
100
AcDbLine
 62
7
  6
CONTINUOUS
 10
94.5214119842
 20
172.470323981
 11
94.5214548035
 21
88.7474784826
  0
LINE
  5
78E
100
AcDbEntity
  8
ASSI
100
AcDbLine
 62
7
  6
CONTINUOUS
 10
94.5214119842
 20
172.470323981
 11
94.5214548035
 21
88.7474784826
  0
LINE
  5
78F
100
AcDbEntity
  8
RACCORDO
100
AcDbLine
 62
250
  6
CONTINUOUS
 10
94.6678585936
 20
172.2661866843
 11
94.6678585936
 21
88.5544154669
  0
LINE
  5
790
100
AcDbEntity
  8
ASSI
100
AcDbLine
 62
250
  6
CONTINUOUS
 10
94.6678585936
 20
172.2661866843
 11
94.6678585936
 21
88.5544154669
  0
LINE
  5
791
100
AcDbEntity
  8
RACCORDO
100
AcDbLine
 62
7
  6
CONTINUOUS
 10
94.5214119842
 20
88.7585527623
 11
94.5214121108
 21
88.7587581901
  0
LINE
  5
792
100
AcDbEntity
  8
ASSI
100
AcDbLine
 62
7
  6
CONTINUOUS
 10
94.5214119842
 20
88.7585527623
 11
94.5214121108
 21
88.7587581901
  0
LINE
  5
793
100
AcDbEntity
  8
RACCORDO
100
AcDbLine
 62
7
  6
CONTINUOUS
 10
109.1718905476
 20
182.1611366141
 11
108.3441550915
 21
177.2183921652
  0
LINE
  5
794
100
AcDbEntity
  8
RACCORDO
100
AcDbLine
 62
250
  6
CONTINUOUS
 10
108.5883253523
 20
177.0774113168
 11
109.4622336465
 21
182.2958725266
  0
LWPOLYLINE
  5
795
100
AcDbEntity
  8
RACCORDO
100
AcDbPolyline
 62
250
  6
CONTINUOUS
 90
3
 70
0
 10
192.1980129818
 20
48.1802310077
 10
192.1814923365
 20
48.1842180223
 10
192.179834653
 20
48.1848178284
  0
LWPOLYLINE
  5
796
100
AcDbEntity
  8
RACCORDO
100
AcDbPolyline
 62
250
  6
CONTINUOUS
 90
19
 70
0
 10
177.0659942213
 20
40.9787646467
 10
177.0977825694
 20
40.9619297495
 10
177.1319656612
 20
40.946739443
 10
177.1682890885
 20
40.9333067814
 10
177.2064825131
 20
40.9217317376
 10
177.2462616797
 20
40.9121004591
 10
177.2873305309
 20
40.904484627
 10
177.3293834107
 20
40.8989409222
 10
177.3721073398
 20
40.895510604
 10
177.4151843441
 20
40.8942192024
 10
177.4582938222
 20
40.8950763289
 10
177.5011149307
 20
40.8980756042
 10
177.5433289726
 20
40.9031947061
 10
177.5846217688
 20
40.9103955357
 10
177.6246859967
 20
40.9196245005
 10
177.6632234775
 20
40.9308129139
 10
177.6999473949
 20
40.9438775057
 10
177.7345844304
 20
40.9587210424
 10
177.7668767971
 20
40.9752330507
  0
LWPOLYLINE
  5
797
100
AcDbEntity
  8
ASSI
100
AcDbPolyline
 62
250
  6
CONTINUOUS
 90
19
 70
0
 10
177.0659942213
 20
40.9787646467
 10
177.0977825694
 20
40.9619297495
 10
177.1319656612
 20
40.946739443
 10
177.1682890885
 20
40.9333067814
 10
177.2064825131
 20
40.9217317376
 10
177.2462616797
 20
40.9121004591
 10
177.2873305309
 20
40.904484627
 10
177.3293834107
 20
40.8989409222
 10
177.3721073398
 20
40.895510604
 10
177.4151843441
 20
40.8942192024
 10
177.4582938222
 20
40.8950763289
 10
177.5011149307
 20
40.8980756042
 10
177.5433289726
 20
40.9031947061
 10
177.5846217688
 20
40.9103955357
 10
177.6246859967
 20
40.9196245005
 10
177.6632234775
 20
40.9308129139
 10
177.6999473949
 20
40.9438775057
 10
177.7345844304
 20
40.9587210424
 10
177.7668767971
 20
40.9752330507
  0
LWPOLYLINE
  5
798
100
AcDbEntity
  8
RACCORDO
100
AcDbPolyline
 62
250
  6
CONTINUOUS
 90
28
 70
0
 10
176.3589951359
 20
40.5706311334
 10
176.4004630561
 20
40.5481458296
 10
176.441431279
 20
40.5286334812
 10
176.4818998048
 20
40.5120940883
 10
176.5219671072
 20
40.4985090162
 10
176.5615347124
 20
40.4878968995
 10
176.6003071989
 20
40.4803136423
 10
176.6383149583
 20
40.4757714982
 10
176.6755275991
 20
40.4742582136
 10
176.7115585253
 20
40.4757929318
 10
176.7463902738
 20
40.4804077041
 10
176.7800403079
 20
40.4880704792
 10
176.8121744211
 20
40.4987042464
 10
176.8427784997
 20
40.5123392178
 10
176.8718666576
 20
40.5289451813
 10
176.8991470298
 20
40.5483544908
 10
176.9245894533
 20
40.5705662587
 10
176.9482240912
 20
40.5955813725
 10
176.9698495683
 20
40.6232348481
 10
176.9894734426
 20
40.6535678632
 10
177.007088156
 20
40.6865392401
 10
177.0224696597
 20
40.7218604616
 10
177.0355958247
 20
40.7595758315
 10
177.04648878
 20
40.7996410461
 10
177.0549908635
 20
40.8416346776
 10
177.0610495212
 20
40.8854162503
 10
177.0647173071
 20
40.93112624
 10
177.0659942213
 20
40.9787646467
  0
LWPOLYLINE
  5
799
100
AcDbEntity
  8
ASSI
100
AcDbPolyline
 62
250
  6
CONTINUOUS
 90
28
 70
0
 10
176.3589951359
 20
40.5706311334
 10
176.4004630561
 20
40.5481458296
 10
176.441431279
 20
40.5286334812
 10
176.4818998048
 20
40.5120940883
 10
176.5219671072
 20
40.4985090162
 10
176.5615347124
 20
40.4878968995
 10
176.6003071989
 20
40.4803136423
 10
176.6383149583
 20
40.4757714982
 10
176.6755275991
 20
40.4742582136
 10
176.7115585253
 20
40.4757929318
 10
176.7463902738
 20
40.4804077041
 10
176.7800403079
 20
40.4880704792
 10
176.8121744211
 20
40.4987042464
 10
176.8427784997
 20
40.5123392178
 10
176.8718666576
 20
40.5289451813
 10
176.8991470298
 20
40.5483544908
 10
176.9245894533
 20
40.5705662587
 10
176.9482240912
 20
40.5955813725
 10
176.9698495683
 20
40.6232348481
 10
176.9894734426
 20
40.6535678632
 10
177.007088156
 20
40.6865392401
 10
177.0224696597
 20
40.7218604616
 10
177.0355958247
 20
40.7595758315
 10
177.04648878
 20
40.7996410461
 10
177.0549908635
 20
40.8416346776
 10
177.0610495212
 20
40.8854162503
 10
177.0647173071
 20
40.93112624
 10
177.0659942213
 20
40.9787646467
  0
LWPOLYLINE
  5
79A
100
AcDbEntity
  8
RACCORDO
100
AcDbPolyline
 62
7
  6
CONTINUOUS
 90
16
 70
0
 10
176.4625396003
 20
40.3417608819
 10
176.5255596885
 20
40.3074775415
 10
176.596906385
 20
40.2736383357
 10
176.6683635332
 20
40.2449321972
 10
176.7398172511
 20
40.2213579021
 10
176.811106183
 20
40.2029165821
 10
176.8819540575
 20
40.1896282274
 10
176.9522028184
 20
40.1814702562
 10
177.0216286781
 20
40.1784089687
 10
177.0897642519
 20
40.1803827997
 10
177.1563400466
 20
40.1872754476
 10
177.2211248231
 20
40.1989369426
 10
177.283653446
 20
40.215123084
 10
177.3436136132
 20
40.23555209
 10
177.4008683725
 20
40.259964005
 10
177.4407267083
 20
40.2800580364
  0
LWPOLYLINE
  5
79B
100
AcDbEntity
  8
ASSI
100
AcDbPolyline
 62
7
  6
CONTINUOUS
 90
16
 70
0
 10
176.4625396003
 20
40.3417608819
 10
176.5255596885
 20
40.3074775415
 10
176.596906385
 20
40.2736383357
 10
176.6683635332
 20
40.2449321972
 10
176.7398172511
 20
40.2213579021
 10
176.811106183
 20
40.2029165821
 10
176.8819540575
 20
40.1896282274
 10
176.9522028184
 20
40.1814702562
 10
177.0216286781
 20
40.1784089687
 10
177.0897642519
 20
40.1803827997
 10
177.1563400466
 20
40.1872754476
 10
177.2211248231
 20
40.1989369426
 10
177.283653446
 20
40.215123084
 10
177.3436136132
 20
40.23555209
 10
177.4008683725
 20
40.259964005
 10
177.4407267083
 20
40.2800580364
  0
LINE
  5
79C
100
AcDbEntity
  8
RACCORDO
100
AcDbLine
 62
7
  6
CONTINUOUS
 10
95.4783989896
 20
87.1009887008
 11
176.4625364475
 21
40.3417627022
  0
LINE
  5
79D
100
AcDbEntity
  8
ASSI
100
AcDbLine
 62
7
  6
CONTINUOUS
 10
95.4783989896
 20
87.1009887008
 11
176.4625364475
 21
40.3417627022
  0
LINE
  5
79E
100
AcDbEntity
  8
RACCORDO
100
AcDbLine
 62
250
  6
CONTINUOUS
 10
95.374857679
 20
87.3298571314
 11
176.3589951359
 21
40.5706311334
  0
LINE
  5
79F
100
AcDbEntity
  8
ASSI
100
AcDbLine
 62
250
  6
CONTINUOUS
 10
95.374857679
 20
87.3298571314
 11
176.3589951359
 21
40.5706311334
  0
LWPOLYLINE
  5
7A0
100
AcDbEntity
  8
RACCORDO
100
AcDbPolyline
 62
250
  6
CONTINUOUS
 90
10
 70
0
 10
94.6678585936
 20
88.5544154669
 10
94.6387018646
 20
88.5727694615
 10
94.6123933704
 20
88.5925061523
 10
94.5891289215
 20
88.6134786566
 10
94.5690816741
 20
88.635530894
 10
94.5524008428
 20
88.6584987459
 10
94.5392105893
 20
88.6822112765
 10
94.5296090952
 20
88.7064920094
 10
94.5236678344
 20
88.7311602366
 10
94.5214310394
 20
88.7560323616
  0
LWPOLYLINE
  5
7A1
100
AcDbEntity
  8
ASSI
100
AcDbPolyline
 62
250
  6
CONTINUOUS
 90
10
 70
0
 10
94.6678585936
 20
88.5544154669
 10
94.6387018646
 20
88.5727694615
 10
94.6123933704
 20
88.5925061523
 10
94.5891289215
 20
88.6134786566
 10
94.5690816741
 20
88.635530894
 10
94.5524008428
 20
88.6584987459
 10
94.5392105893
 20
88.6822112765
 10
94.5296090952
 20
88.7064920094
 10
94.5236678344
 20
88.7311602366
 10
94.5214310394
 20
88.7560323616
  0
LINE
  5
7A2
100
AcDbEntity
  8
RACCORDO
100
AcDbLine
 62
7
  6
CONTINUOUS
 10
187.4857214341
 20
49.939118393
 11
192.179834653
 21
48.1848178284
  0
LINE
  5
7A3
100
AcDbEntity
  8
RACCORDO
100
AcDbLine
 62
250
  6
CONTINUOUS
 10
192.4416962116
 20
48.3688708497
 11
187.4857214341
 21
50.2210352404
  0
LWPOLYLINE
  5
7A4
100
AcDbEntity
  8
0
100
AcDbPolyline
 62
7
  6
CONTINUOUS
 90
21
 70
0
 10
189.1040512691
 20
56.6129352423
 10
189.1225400815
 20
56.6070300172
 10
189.1417219421
 20
56.6028567721
 10
189.1616188797
 20
56.6004501287
 10
189.1822088654
 20
56.5997754653
 10
189.2027989106
 20
56.6009143653
 10
189.2233889352
 20
56.6039681871
 10
189.2439790192
 20
56.6088355723
 10
189.2638764135
 20
56.6152940297
 10
189.2830592165
 20
56.6233737426
 10
189.3015493297
 20
56.6330445277
 10
189.3187197086
 20
56.643993344
 10
189.3344602592
 20
56.656192532
 10
189.3488810755
 20
56.6696697512
 10
189.3616853948
 20
56.6841949393
 10
189.3729300981
 20
56.7000108299
 10
189.3825583043
 20
56.7168746895
 10
189.3901026077
 20
56.7338282547
 10
189.3954072061
 20
56.7505521046
 10
189.3986279017
 20
56.7673656601
 10
189.3997646943
 20
56.7842689213
  0
LWPOLYLINE
  5
7A5
100
AcDbEntity
  8
0
100
AcDbPolyline
 62
7
  6
CONTINUOUS
 90
19
 70
0
 10
189.2027926988
 20
84.3767031925
 10
189.2218653633
 20
84.3793582902
 10
189.2407763732
 20
84.3833989139
 10
189.2595257283
 20
84.3888250638
 10
189.2784186127
 20
84.3957704729
 10
189.2971498424
 20
84.4041014081
 10
189.3148038657
 20
84.4134166701
 10
189.3311176745
 20
84.4236188269
 10
189.3463542768
 20
84.4348053107
 10
189.3603871451
 20
84.4468672179
 10
189.3732127099
 20
84.4598071447
 10
189.3848345406
 20
84.4736224951
 10
189.3951368183
 20
84.488196578
 10
189.4042047669
 20
84.5037561278
 10
189.4119531624
 20
84.52007441
 10
189.4180105136
 20
84.5363545306
 10
189.42225299
 20
84.552330858
 10
189.4248044221
 20
84.5682690237
 10
189.4256648098
 20
84.5841690277
  0
LWPOLYLINE
  5
7A6
100
AcDbEntity
  8
0
100
AcDbPolyline
 62
7
  6
CONTINUOUS
 90
20
 70
0
 10
189.9774395766
 20
85.5000659204
 10
189.9605042935
 20
85.4977527388
 10
189.9433975939
 20
85.4938788013
 10
189.9261194779
 20
85.4884441079
 10
189.9083167105
 20
85.4813427514
 10
189.8903425265
 20
85.472680639
 10
189.8732566314
 20
85.4627754926
 10
189.8571904869
 20
85.4515495204
 10
189.8420126313
 20
85.4390805142
 10
189.8283883843
 20
85.4259195708
 10
189.8164824529
 20
85.4120992649
 10
189.8061301302
 20
85.3975870218
 10
189.7975026153
 20
85.382836215
 10
189.7906274484
 20
85.3679343246
 10
189.7854770894
 20
85.3527938705
 10
189.7821401175
 20
85.3376057848
 10
189.7806517152
 20
85.322330729
 10
189.7809767
 20
85.3070080417
 10
189.7830981032
 20
85.2919466711
 10
189.7861286348
 20
85.2801261582
  0
LWPOLYLINE
  5
7A7
100
AcDbEntity
  8
0
100
AcDbPolyline
 62
7
  6
CONTINUOUS
 90
17
 70
0
 10
189.254887153
 20
84.2061184964
 10
189.2358549273
 20
84.2049199743
 10
189.2170514271
 20
84.2050969972
 10
189.1984766522
 20
84.2066495649
 10
189.1799123565
 20
84.2096136213
 10
189.1615767861
 20
84.2139532226
 10
189.1441246798
 20
84.2195605379
 10
189.1276613281
 20
84.2264318287
 10
189.1120814405
 20
84.2345708334
 10
189.097723884
 20
84.2438809362
 10
189.0846358661
 20
84.2544146088
 10
189.0727701794
 20
84.2661193795
 10
189.0623240687
 20
84.2787412173
 10
189.0532832063
 20
84.2923813352
 10
189.04566192
 20
84.3069385202
 10
189.0397004375
 20
84.3218551024
 10
189.0383869211
 20
84.3259510134
  0
LWPOLYLINE
  5
7A8
100
AcDbEntity
  8
0
100
AcDbPolyline
 62
7
  6
CONTINUOUS
 90
17
 70
0
 10
189.2548871513
 20
85.7208855468
 10
189.2739193769
 20
85.722084069
 10
189.2927228772
 20
85.7219070461
 10
189.3112976521
 20
85.7203544783
 10
189.3298619478
 20
85.717390422
 10
189.3481975182
 20
85.7130508206
 10
189.3656496244
 20
85.7074435054
 10
189.3821129762
 20
85.7005722146
 10
189.3976928638
 20
85.6924332099
 10
189.4120504203
 20
85.6831231071
 10
189.4251384382
 20
85.6725894345
 10
189.4370041249
 20
85.6608846638
 10
189.4474502356
 20
85.648262826
 10
189.456491098
 20
85.6346227081
 10
189.4641123843
 20
85.6200655231
 10
189.4700738668
 20
85.6051489408
 10
189.4713873832
 20
85.6010530299
  0
LINE
  5
7A9
100
AcDbEntity
  8
RACCORDO
100
AcDbLine
 62
7
  6
CONTINUOUS
 10
188.1511430292
 20
71.4727911396
 11
188.1186046209
 21
71.4883675693
  0
LWPOLYLINE
  5
7AA
100
AcDbEntity
  8
0
100
AcDbPolyline
 62
7
  6
CONTINUOUS
 90
4
 70
0
 10
189.0579388849
 20
56.6390318754
 10
189.0711437528
 20
56.6293797972
 10
189.0868824074
 20
56.6203869988
 10
189.1040512691
 20
56.6129352423
  0
LWPOLYLINE
  5
7AB
100
AcDbEntity
  8
RACCORDO
100
AcDbPolyline
 62
7
  6
CONTINUOUS
 90
9
 70
0
 10
188.1511430292
 20
71.4727911396
 10
188.1647647869
 20
71.4653816401
 10
188.1771168287
 20
71.4570055661
 10
188.1881991546
 20
71.4476629176
 10
188.198089952
 20
71.4372504946
 10
188.2067110335
 20
71.4258714971
 10
188.2138278369
 20
71.4138355246
 10
188.2193990591
 20
71.4011245386
 10
188.2216193846
 20
71.3946253697
  0
LWPOLYLINE
  5
7AC
100
AcDbEntity
  8
0
100
AcDbPolyline
 62
7
  6
CONTINUOUS
 90
13
 70
0
 10
187.8334792481
 20
57.18514906
 10
187.8569400058
 20
57.1648191668
 10
187.8823829649
 20
57.1463156054
 10
187.9097853899
 20
57.1296549103
 10
187.9393333126
 20
57.1147559823
 10
187.9708407012
 20
57.1016999206
 10
188.0037267254
 20
57.0907465577
 10
188.0382514553
 20
57.0819181425
 10
188.0741548208
 20
57.075192426
 10
188.1100757811
 20
57.0707624937
 10
188.1455606558
 20
57.0686927072
 10
188.1810631252
 20
57.0689187049
 10
188.2165831894
 20
57.0714404867
  0
LWPOLYLINE
  5
7AD
100
AcDbEntity
  8
0
100
AcDbPolyline
 62
7
  6
CONTINUOUS
 90
10
 70
0
 10
190.0826786499
 20
85.487099792
 10
190.073197684
 20
85.4907409266
 10
190.063131726
 20
85.4938572958
 10
190.052480776
 20
85.4964488994
 10
190.0412022659
 20
85.4985495348
 10
190.0293387638
 20
85.5001254046
 10
190.0170179735
 20
85.5010751173
 10
190.0042824628
 20
85.5013648755
 10
189.9910896638
 20
85.5010284766
 10
189.9774395766
 20
85.5000659204
  0
LWPOLYLINE
  5
7AE
100
AcDbEntity
  8
0
100
AcDbPolyline
 62
7
  6
CONTINUOUS
 90
8
 70
0
 10
189.0744677232
 20
84.3974895549
 10
189.090781532
 20
84.3906091828
 10
189.1084355552
 20
84.3848885973
 10
189.127166785
 20
84.3803716772
 10
189.1460596694
 20
84.3772731991
 10
189.1648090245
 20
84.375664755
 10
189.1837200343
 20
84.3754747528
 10
189.2027926988
 20
84.3767031925
  0
LINE
  5
7AF
100
AcDbEntity
  8
0
100
AcDbLine
 62
7
  6
CONTINUOUS
 10
189.8195971366
 20
85.3572428774
 11
189.8860612506
 21
85.3272965056
  0
LWPOLYLINE
  5
7B0
100
AcDbEntity
  8
0
100
AcDbPolyline
 62
7
  6
CONTINUOUS
 90
13
 70
0
 10
189.8716915899
 20
85.1866581812
 10
189.9375429085
 20
85.1569605408
 10
189.9998678282
 20
85.1239173276
 10
190.0586663491
 20
85.0875285416
 10
190.1141805909
 20
85.0476137985
 10
190.1661684339
 20
85.0043534827
 10
190.2139035186
 20
84.9582887468
 10
190.2572947766
 20
84.909397593
 10
190.2964332763
 20
84.8577020193
 10
190.3308658624
 20
84.803809172
 10
190.3605069537
 20
84.7476859033
 10
190.3854421313
 20
84.6893653611
 10
190.4024354106
 20
84.6397529436
  0
LWPOLYLINE
  5
7B1
100
AcDbEntity
  8
0
100
AcDbPolyline
 62
7
  6
CONTINUOUS
 90
12
 70
0
 10
189.8860612506
 20
85.3272965056
 10
189.9490114605
 20
85.2938344739
 10
190.0084477664
 20
85.2568567823
 10
190.0647124312
 20
85.2160833873
 10
190.117463192
 20
85.1717943324
 10
190.1656732601
 20
85.1248297477
 10
190.2090660271
 20
85.0753486715
 10
190.2479181014
 20
85.0231920655
 10
190.2820325191
 20
84.9687229453
 10
190.3114407312
 20
84.9117643463
 10
190.3361112866
 20
84.8524932331
 10
190.3503306168
 20
84.8103714877
  0
LWPOLYLINE
  5
7B2
100
AcDbEntity
  8
RACCORDO
100
AcDbPolyline
 62
7
  6
CONTINUOUS
 90
14
 70
0
 10
189.0076612198
 20
71.1373596192
 10
189.0101449444
 20
71.1350788991
 10
189.0224197408
 20
71.1261128325
 10
189.0359630198
 20
71.1182226988
 10
189.0503873051
 20
71.1116342367
 10
189.0657180454
 20
71.1063850456
 10
189.081929792
 20
71.1024375261
 10
189.0985587235
 20
71.0999046173
 10
189.1156168905
 20
71.0988271815
 10
189.1330922424
 20
71.0991643565
 10
189.1504848055
 20
71.1009064956
 10
189.1676279221
 20
71.1040503835
 10
189.18468825
 20
71.1085992355
 10
189.2016657892
 20
71.1145530517
  0
LWPOLYLINE
  5
7B3
100
AcDbEntity
  8
0
100
AcDbPolyline
 62
7
  6
CONTINUOUS
 90
3
 70
0
 10
187.7922630074
 20
57.2315717374
 10
187.8118800271
 20
57.2074472328
 10
187.8334792481
 20
57.18514906
  0
LINE
  5
7B4
100
AcDbEntity
  8
RACCORDO
100
AcDbLine
 62
250
  6
CONTINUOUS
 10
176.706378169
 20
126.5238417714
 11
186.425222806
 21
132.1353622525
  0
LINE
  5
7B5
100
AcDbEntity
  8
ASSI
100
AcDbLine
 62
250
  6
CONTINUOUS
 10
176.706378169
 20
126.5238417714
 11
186.425222806
 21
132.1353622525
  0
LINE
  5
7B6
100
AcDbEntity
  8
RACCORDO
100
AcDbLine
 62
250
  6
CONTINUOUS
 10
192.3425332874
 20
134.7353341609
 11
192.9660143635
 21
135.0953219725
  0
LINE
  5
7B7
100
AcDbEntity
  8
RACCORDO
100
AcDbLine
 62
250
  6
CONTINUOUS
 10
192.1520822289
 20
134.5517903023
 11
187.015902806
 21
131.5864607289
  0
LINE
  5
7B8
100
AcDbEntity
  8
RACCORDO
100
AcDbLine
 62
250
  6
CONTINUOUS
 10
187.3055512086
 20
131.0848544689
 11
192.4416962116
 21
134.0501641702
  0
LINE
  5
7B9
100
AcDbEntity
  8
RACCORDO
100
AcDbLine
 62
250
  6
CONTINUOUS
 10
192.6958713028
 20
134.1233347666
 11
193.3193523789
 21
134.4833225781
  0
LINE
  5
7BA
100
AcDbEntity
  8
RACCORDO
100
AcDbLine
 62
250
  6
CONTINUOUS
 10
177.7668767971
 20
124.6870042681
 11
187.4857214341
 21
130.2985247492
  0
LINE
  5
7BB
100
AcDbEntity
  8
ASSI
100
AcDbLine
 62
250
  6
CONTINUOUS
 10
177.7668767971
 20
124.6870042681
 11
187.4857214341
 21
130.2985247492
  0
LWPOLYLINE
  5
7BC
100
AcDbEntity
  8
0
100
AcDbPolyline
 62
7
  6
CONTINUOUS
 90
3
 70
0
 10
189.7924950676
 20
85.37198238
 10
189.8055659762
 20
85.3639045446
 10
189.8195971366
 20
85.3572428774
  0
LWPOLYLINE
  5
7BD
100
AcDbEntity
  8
RACCORDO
100
AcDbPolyline
 62
7
  6
CONTINUOUS
 90
15
 70
0
 10
188.3678957158
 20
71.0743074019
 10
188.3737496362
 20
71.0686199273
 10
188.3858255681
 20
71.0592319373
 10
188.3991461921
 20
71.0510485973
 10
188.4136757407
 20
71.0440352907
 10
188.4289885395
 20
71.0383974874
 10
188.4451077616
 20
71.0341758833
 10
188.4620102339
 20
71.0313297825
 10
188.4792007616
 20
71.0299425677
 10
188.4966878674
 20
71.0300574017
 10
188.5144630287
 20
71.0316311217
 10
188.5320054837
 20
71.0346176223
 10
188.5491416452
 20
71.0390015348
 10
188.5660451003
 20
71.0447982278
 10
188.5827158491
 20
71.0520077013
  0
LWPOLYLINE
  5
7BE
100
AcDbEntity
  8
RACCORDO
100
AcDbPolyline
 62
7
  6
CONTINUOUS
 90
16
 70
0
 10
189.6303111904
 20
71.2093209702
 10
189.6401730317
 20
71.1987884538
 10
189.6518009185
 20
71.1888631565
 10
189.6645596443
 20
71.1801507222
 10
189.6784825333
 20
71.1726868921
 10
189.6935362613
 20
71.1664359251
 10
189.7092815336
 20
71.1615802355
 10
189.7257387288
 20
71.15816094
 10
189.7428874684
 20
71.156136922
 10
189.7602273211
 20
71.155567246
 10
189.7777639189
 20
71.1564947691
 10
189.79549163
 20
71.1588766342
 10
189.8128931279
 20
71.1626433341
 10
189.8297959704
 20
71.1677716998
 10
189.8463725997
 20
71.1742849004
 10
189.8626230158
 20
71.1821829358
  0
LINE
  5
7BF
100
AcDbEntity
  8
0
100
AcDbLine
 62
7
  6
CONTINUOUS
 10
187.7779267921
 20
57.2527713248
 11
187.7922630074
 21
57.2315717374
  0
LWPOLYLINE
  5
7C0
100
AcDbEntity
  8
0
100
AcDbPolyline
 62
7
  6
CONTINUOUS
 90
5
 70
0
 10
189.0320150412
 20
84.4254588928
 10
189.0323726878
 20
84.4251065668
 10
189.0451982526
 20
84.4147781555
 10
189.0592311209
 20
84.4055735925
 10
189.0744677232
 20
84.3974895549
  0
LWPOLYLINE
  5
7C1
100
AcDbEntity
  8
RACCORDO
100
AcDbPolyline
 62
250
  6
CONTINUOUS
 90
16
 70
0
 10
192.4416962116
 20
134.0501641702
 10
192.4605244934
 20
134.0522969018
 10
192.4792002015
 20
134.0548456082
 10
192.497695743
 20
134.0578067361
 10
192.5159846093
 20
134.0611762861
 10
192.5340388704
 20
134.0649493604
 10
192.5518293317
 20
134.069119983
 10
192.5693293746
 20
134.073681931
 10
192.5865135467
 20
134.078628587
 10
192.6033552183
 20
134.083952264
 10
192.6198288551
 20
134.08964478
 10
192.6359110189
 20
134.0956979225
 10
192.6515790428
 20
134.1021031277
 10
192.6668101321
 20
134.1088511096
 10
192.6815814829
 20
134.115931799
 10
192.6958713028
 20
134.1233347666
  0
LWPOLYLINE
  5
7C2
100
AcDbEntity
  8
RACCORDO
100
AcDbPolyline
 62
250
  6
CONTINUOUS
 90
16
 70
0
 10
192.1520822289
 20
134.5517903023
 10
192.1633432506
 20
134.567029913
 10
192.174888207
 20
134.5819294437
 10
192.1867002244
 20
134.5964667747
 10
192.1987625855
 20
134.610620948
 10
192.2110570837
 20
134.6243702243
 10
192.2235639468
 20
134.6376923074
 10
192.2362644766
 20
134.650567256
 10
192.2491402164
 20
134.6629763356
 10
192.2621711947
 20
134.674900327
 10
192.2753375589
 20
134.6863212071
 10
192.2886204783
 20
134.6972227832
 10
192.3020012033
 20
134.7075897063
 10
192.3154602953
 20
134.7174068777
 10
192.3289776324
 20
134.7266595823
 10
192.3425332874
 20
134.7353341609
  0
LWPOLYLINE
  5
7C3
100
AcDbEntity
  8
RACCORDO
100
AcDbPolyline
 62
7
  6
CONTINUOUS
 90
4
 70
0
 10
190.3030802735
 20
71.5036185591
 10
190.2958952933
 20
71.5159036228
 10
190.2903028743
 20
71.5286075723
 10
190.288185604
 20
71.534834446
  0
LWPOLYLINE
  5
7C4
100
AcDbEntity
  8
RACCORDO
100
AcDbPolyline
 62
7
  6
CONTINUOUS
 90
4
 70
0
 10
190.2896892399
 20
71.6095654103
 10
190.3156402503
 20
71.5579772041
 10
190.3400554372
 20
71.4971411024
 10
190.3505072513
 20
71.4653659019
  0
LWPOLYLINE
  5
7C5
100
AcDbEntity
  8
RACCORDO
100
AcDbPolyline
 62
7
  6
CONTINUOUS
 90
49
 70
0
 10
187.7098133017
 20
70.545411948
 10
187.7441457904
 20
70.4724984455
 10
187.783963323
 20
70.4023400665
 10
187.8293295103
 20
70.3349687653
 10
187.8801807415
 20
70.2703525876
 10
187.9359295123
 20
70.2092380277
 10
187.9966326197
 20
70.1516656963
 10
188.0622332667
 20
70.0975949827
 10
188.1319735582
 20
70.0476505481
 10
188.2059015015
 20
70.0018802473
 10
188.2839690892
 20
69.9602362255
 10
188.3652744044
 20
69.92319958
 10
188.4498549946
 20
69.8908237442
 10
188.5376733122
 20
69.8630552848
 10
188.6277147974
 20
69.8402149979
 10
188.7200052319
 20
69.8223600372
 10
188.8145188339
 20
69.809433249
 10
188.9101636983
 20
69.8015839691
 10
189.0069529442
 20
69.7988710825
 10
189.1048734524
 20
69.8012357042
 10
189.2027939606
 20
69.8086505139
 10
189.3007144688
 20
69.82117408
 10
189.398634977
 20
69.8387478342
 10
189.4954242228
 20
69.8611687512
 10
189.5910690872
 20
69.888493045
 10
189.6855826893
 20
69.9206645017
 10
189.7778731237
 20
69.957311454
 10
189.8679146089
 20
69.998485806
 10
189.9557329265
 20
70.0441356537
 10
190.0403135167
 20
70.0937336181
 10
190.1216188319
 20
70.1473254875
 10
190.1996864197
 20
70.2048654736
 10
190.2736143629
 20
70.2656888327
 10
190.3433546544
 20
70.3298336444
 10
190.4089553014
 20
70.3972618291
 10
190.4696584088
 20
70.4671944044
 10
190.5254071797
 20
70.5396604164
 10
190.5762584108
 20
70.6146308189
 10
190.6216245982
 20
70.6912394914
 10
190.6614421308
 20
70.7695054358
 10
190.6957746195
 20
70.8494096502
 10
190.7242253925
 20
70.930029008
 10
190.746726238
 20
71.0113718059
 10
190.7633453678
 20
71.0934297471
 10
190.7738907455
 20
71.1752548152
 10
190.7782919312
 20
71.2568443126
 10
190.7766193648
 20
71.3382009368
 10
190.7688923292
 20
71.4183847634
 10
190.7550338237
 20
71.4973922048
  0
LWPOLYLINE
  5
7C6
100
AcDbEntity
  8
0
100
AcDbPolyline
 62
7
  6
CONTINUOUS
 90
29
 70
0
 10
189.0634971172
 20
56.5366667869
 10
189.0671121765
 20
56.5263176612
 10
189.0741822476
 20
56.5112919608
 10
189.0832287371
 20
56.4967423362
 10
189.0940732341
 20
56.4833404036
 10
189.1067951758
 20
56.4711591192
 10
189.121315125
 20
56.4601255269
 10
189.1372163587
 20
56.4506923739
 10
189.154581347
 20
56.4429470928
 10
189.1733276199
 20
56.436802251
 10
189.1927910443
 20
56.432448298
 10
189.2129890199
 20
56.4299217744
 10
189.233904147
 20
56.4291861395
 10
189.2548200924
 20
56.4303222207
 10
189.2757367888
 20
56.4334323235
 10
189.2966543036
 20
56.4384141424
 10
189.3168565055
 20
56.4450415891
 10
189.3363258555
 20
56.4533474555
 10
189.3550798926
 20
56.4632989497
 10
189.3724551035
 20
56.4745716072
 10
189.3883697883
 20
56.4872357063
 10
189.4029056468
 20
56.5012209686
 10
189.4156442648
 20
56.5159920949
 10
189.4265068354
 20
56.5316064729
 10
189.4355721656
 20
56.5480067149
 10
189.4426582613
 20
56.5644853574
 10
189.4477044579
 20
56.5808065794
 10
189.4507714199
 20
56.597206202
 10
189.4518591476
 20
56.6136842251
  0
LWPOLYLINE
  5
7C7
100
AcDbEntity
  8
0
100
AcDbPolyline
 62
7
  6
CONTINUOUS
 90
19
 70
0
 10
187.7917706534
 20
57.1646855551
 10
187.7994339439
 20
57.1426137061
 10
187.8116442149
 20
57.114631847
 10
187.8262665525
 20
57.0878732573
 10
187.8433110943
 20
57.0624312168
 10
187.8627677027
 20
57.0382124457
 10
187.8843360913
 20
57.0157405846
 10
187.9079758974
 20
56.9951345301
 10
187.9337274837
 20
56.9762753858
 10
187.961411652
 20
56.959330103
 10
187.99119842
 20
56.9442783943
 10
188.0229177701
 20
56.9311405472
 10
188.0558804513
 20
56.9201443754
 10
188.090216356
 20
56.9113192374
 10
188.1257955919
 20
56.9046357747
 10
188.1615392313
 20
56.9002337248
 10
188.1970876316
 20
56.8981596671
 10
188.2328004354
 20
56.8983670223
 10
188.2686776427
 20
56.9008557905
  0
LWPOLYLINE
  5
7C8
100
AcDbEntity
  8
RACCORDO
100
AcDbPolyline
 62
250
  6
CONTINUOUS
 90
11
 70
0
 10
176.3589951359
 20
40.5706311334
 10
176.3603107734
 20
40.5362054415
 10
176.3642479011
 20
40.503555179
 10
176.3707772285
 20
40.4729233496
 10
176.3798501725
 20
40.4445379363
 10
176.3913992188
 20
40.4186102062
 10
176.4053384231
 20
40.3953331377
 10
176.4215640531
 20
40.3748799798
 10
176.4399553579
 20
40.3574029673
 10
176.4603754647
 20
40.3430321871
 10
176.4625364475
 20
40.3417627022
  0
LWPOLYLINE
  5
7C9
100
AcDbEntity
  8
ASSI
100
AcDbPolyline
 62
250
  6
CONTINUOUS
 90
11
 70
0
 10
176.3589951359
 20
40.5706311334
 10
176.3603107734
 20
40.5362054415
 10
176.3642479011
 20
40.503555179
 10
176.3707772285
 20
40.4729233496
 10
176.3798501725
 20
40.4445379363
 10
176.3913992188
 20
40.4186102062
 10
176.4053384231
 20
40.3953331377
 10
176.4215640531
 20
40.3748799798
 10
176.4399553579
 20
40.3574029673
 10
176.4603754647
 20
40.3430321871
 10
176.4625364475
 20
40.3417627022
  0
LWPOLYLINE
  5
7CA
100
AcDbEntity
  8
RACCORDO
100
AcDbPolyline
 62
250
  6
CONTINUOUS
 90
19
 70
0
 10
177.0659942213
 20
124.6905358641
 10
177.0977822248
 20
124.6737011344
 10
177.1319649741
 20
124.6585109398
 10
177.1682880773
 20
124.6450783388
 10
177.2064812125
 20
124.6335033096
 10
177.2462601361
 20
124.6238720068
 10
177.2873287981
 20
124.6162561199
 10
177.3293815519
 20
124.6107123376
 10
177.3721054222
 20
124.6072819281
 10
177.415182431
 20
124.6059904307
 10
177.4582919781
 20
124.6068474647
 10
177.5011132172
 20
124.6098466591
 10
177.5433274369
 20
124.614965698
 10
177.5846204533
 20
124.6221664883
 10
177.6246849357
 20
124.631395443
 10
177.6632226848
 20
124.6425838763
 10
177.6999468727
 20
124.6556485191
 10
177.7345841756
 20
124.6704921406
 10
177.7668767971
 20
124.6870042681
  0
LWPOLYLINE
  5
7CB
100
AcDbEntity
  8
ASSI
100
AcDbPolyline
 62
250
  6
CONTINUOUS
 90
19
 70
0
 10
177.0659942213
 20
124.6905358641
 10
177.0977822248
 20
124.6737011344
 10
177.1319649741
 20
124.6585109398
 10
177.1682880773
 20
124.6450783388
 10
177.2064812125
 20
124.6335033096
 10
177.2462601361
 20
124.6238720068
 10
177.2873287981
 20
124.6162561199
 10
177.3293815519
 20
124.6107123376
 10
177.3721054222
 20
124.6072819281
 10
177.415182431
 20
124.6059904307
 10
177.4582919781
 20
124.6068474647
 10
177.5011132172
 20
124.6098466591
 10
177.5433274369
 20
124.614965698
 10
177.5846204533
 20
124.6221664883
 10
177.6246849357
 20
124.631395443
 10
177.6632226848
 20
124.6425838763
 10
177.6999468727
 20
124.6556485191
 10
177.7345841756
 20
124.6704921406
 10
177.7668767971
 20
124.6870042681
  0
LWPOLYLINE
  5
7CC
100
AcDbEntity
  8
RACCORDO
100
AcDbPolyline
 62
250
  6
CONTINUOUS
 90
28
 70
0
 10
95.374857679
 20
172.6743201976
 10
95.3333897589
 20
172.6968055014
 10
95.2924215359
 20
172.7163178498
 10
95.2519530101
 20
172.7328572427
 10
95.2118857078
 20
172.7464423149
 10
95.1723181026
 20
172.7570544315
 10
95.133545616
 20
172.7646376887
 10
95.0955378566
 20
172.7691798328
 10
95.0583252159
 20
172.7706931174
 10
95.0222942896
 20
172.7691583992
 10
94.9874625411
 20
172.7645436269
 10
94.9538125071
 20
172.7568808518
 10
94.9216783939
 20
172.7462470846
 10
94.8910743152
 20
172.7326121132
 10
94.8619861574
 20
172.7160061497
 10
94.8347057851
 20
172.6965968402
 10
94.8092633616
 20
172.6743850723
 10
94.7856287237
 20
172.6493699585
 10
94.7640032466
 20
172.6217164829
 10
94.7443793724
 20
172.5913834678
 10
94.7267646589
 20
172.558412091
 10
94.7113831552
 20
172.5230908694
 10
94.6982569902
 20
172.4853754995
 10
94.6873640349
 20
172.4453102849
 10
94.6788619514
 20
172.4033166534
 10
94.6728032937
 20
172.3595350807
 10
94.6691355078
 20
172.313825091
 10
94.6678585936
 20
172.2661866843
  0
LWPOLYLINE
  5
7CD
100
AcDbEntity
  8
ASSI
100
AcDbPolyline
 62
250
  6
CONTINUOUS
 90
28
 70
0
 10
95.374857679
 20
172.6743201976
 10
95.3333897589
 20
172.6968055014
 10
95.2924215359
 20
172.7163178498
 10
95.2519530101
 20
172.7328572427
 10
95.2118857078
 20
172.7464423149
 10
95.1723181026
 20
172.7570544315
 10
95.133545616
 20
172.7646376887
 10
95.0955378566
 20
172.7691798328
 10
95.0583252159
 20
172.7706931174
 10
95.0222942896
 20
172.7691583992
 10
94.9874625411
 20
172.7645436269
 10
94.9538125071
 20
172.7568808518
 10
94.9216783939
 20
172.7462470846
 10
94.8910743152
 20
172.7326121132
 10
94.8619861574
 20
172.7160061497
 10
94.8347057851
 20
172.6965968402
 10
94.8092633616
 20
172.6743850723
 10
94.7856287237
 20
172.6493699585
 10
94.7640032466
 20
172.6217164829
 10
94.7443793724
 20
172.5913834678
 10
94.7267646589
 20
172.558412091
 10
94.7113831552
 20
172.5230908694
 10
94.6982569902
 20
172.4853754995
 10
94.6873640349
 20
172.4453102849
 10
94.6788619514
 20
172.4033166534
 10
94.6728032937
 20
172.3595350807
 10
94.6691355078
 20
172.313825091
 10
94.6678585936
 20
172.2661866843
  0
LINE
  5
7CE
100
AcDbEntity
  8
RACCORDO
100
AcDbLine
 62
250
  6
CONTINUOUS
 10
176.3589951359
 20
125.9150941996
 11
95.374857679
 21
172.6743201976
  0
LINE
  5
7CF
100
AcDbEntity
  8
ASSI
100
AcDbLine
 62
250
  6
CONTINUOUS
 10
176.3589951359
 20
125.9150941996
 11
95.374857679
 21
172.6743201976
  0
LINE
  5
7D0
100
AcDbEntity
  8
RACCORDO
100
AcDbLine
 62
250
  6
CONTINUOUS
 10
176.706378169
 20
126.5238417714
 11
95.7222407122
 21
173.2830677694
  0
LINE
  5
7D1
100
AcDbEntity
  8
ASSI
100
AcDbLine
 62
250
  6
CONTINUOUS
 10
176.706378169
 20
126.5238417714
 11
95.7222407122
 21
173.2830677694
  0
LWPOLYLINE
  5
7D2
100
AcDbEntity
  8
RACCORDO
100
AcDbPolyline
 62
250
  6
CONTINUOUS
 90
11
 70
0
 10
94.6678585936
 20
172.2661866843
 10
94.6387015749
 20
172.2845408781
 10
94.6123928873
 20
172.3042777669
 10
94.5891283338
 20
172.3252504586
 10
94.5690810615
 20
172.3473028633
 10
94.5524002725
 20
172.3702708555
 10
94.5392101142
 20
172.3939834955
 10
94.5296087544
 20
172.4182643013
 10
94.5236676517
 20
172.4429325624
 10
94.5214310227
 20
172.4678046849
 10
94.5214119842
 20
172.470323981
  0
LWPOLYLINE
  5
7D3
100
AcDbEntity
  8
ASSI
100
AcDbPolyline
 62
250
  6
CONTINUOUS
 90
11
 70
0
 10
94.6678585936
 20
172.2661866843
 10
94.6387015749
 20
172.2845408781
 10
94.6123928873
 20
172.3042777669
 10
94.5891283338
 20
172.3252504586
 10
94.5690810615
 20
172.3473028633
 10
94.5524002725
 20
172.3702708555
 10
94.5392101142
 20
172.3939834955
 10
94.5296087544
 20
172.4182643013
 10
94.5236676517
 20
172.4429325624
 10
94.5214310227
 20
172.4678046849
 10
94.5214119842
 20
172.470323981
  0
LWPOLYLINE
  5
7D4
100
AcDbEntity
  8
0
100
AcDbPolyline
 62
7
  6
CONTINUOUS
 90
49
 70
0
 10
187.7166809078
 20
83.8773847361
 10
187.7515020545
 20
83.8063210662
 10
187.7917116414
 20
83.7379160493
 10
187.8373849738
 20
83.6721296078
 10
187.8884467464
 20
83.6090018193
 10
187.9444247411
 20
83.5491536336
 10
188.0054732949
 20
83.4925182588
 10
188.0714380708
 20
83.4391624869
 10
188.1413838396
 20
83.3899076429
 10
188.2153425814
 20
83.3448638089
 10
188.2932823161
 20
83.3039209028
 10
188.3741718742
 20
83.2675700038
 10
188.4579177831
 20
83.2358906016
 10
188.5446135155
 20
83.2088032065
 10
188.6335083191
 20
83.1865604289
 10
188.7246764682
 20
83.1692104597
 10
188.8180436886
 20
83.156705108
 10
188.9126364055
 20
83.1491524103
 10
189.0085385929
 20
83.1465818726
 10
189.1056662767
 20
83.1489639889
 10
189.2027939606
 20
83.1563182784
 10
189.2999216444
 20
83.1687409314
 10
189.3970493283
 20
83.1861357577
 10
189.4929515156
 20
83.2082337048
 10
189.5875442325
 20
83.2350471802
 10
189.680911453
 20
83.2665637766
 10
189.7720796021
 20
83.3024772198
 10
189.8609744057
 20
83.3428205776
 10
189.947670138
 20
83.3875607824
 10
190.031416047
 20
83.4362923572
 10
190.112305605
 20
83.4891138243
 10
190.1902453398
 20
83.5459266616
 10
190.2642040816
 20
83.6060298251
 10
190.3341498504
 20
83.6695268851
 10
190.4001146263
 20
83.7363142712
 10
190.4611631801
 20
83.805380229
 10
190.5171411748
 20
83.8766265408
 10
190.5682029474
 20
83.9501514242
 10
190.6138762798
 20
84.0252377773
 10
190.6540858667
 20
84.1018301889
 10
190.6889070133
 20
84.1799840703
 10
190.7180934173
 20
84.2591485531
 10
190.7416650118
 20
84.3395301437
 10
190.7596018636
 20
84.4209223359
 10
190.7715978701
 20
84.502154742
 10
190.7775498962
 20
84.5831699821
 10
190.777561077
 20
84.6640254362
 10
190.7716347153
 20
84.7437228568
 10
190.7596618477
 20
84.8222691974
  0
LWPOLYLINE
  5
7D5
100
AcDbEntity
  8
RACCORDO
100
AcDbPolyline
 62
7
  6
CONTINUOUS
 90
5
 70
0
 10
190.7851454951
 20
71.4116583081
 10
190.7577265834
 20
71.4900548334
 10
190.7270429174
 20
71.5600004155
 10
190.6910580053
 20
71.6279927984
 10
190.6497718469
 20
71.6940319823
  0
LWPOLYLINE
  5
7D6
100
AcDbEntity
  8
0
100
AcDbPolyline
 62
7
  6
CONTINUOUS
 90
29
 70
0
 10
189.4463030314
 20
59.9158596187
 10
189.4426871044
 20
59.9262105948
 10
189.4356173484
 20
59.9412338308
 10
189.4265710981
 20
59.9557818675
 10
189.4157266134
 20
59.9691827392
 10
189.4030044326
 20
59.981363534
 10
189.3884840175
 20
59.9923971639
 10
189.3725820133
 20
60.0018304002
 10
189.3552158597
 20
60.0095756695
 10
189.336468117
 20
60.0157205452
 10
189.3170031111
 20
60.0200745197
 10
189.2968033994
 20
60.0226009401
 10
189.2758864245
 20
60.0233364594
 10
189.2549688397
 20
60.0222005279
 10
189.2340507378
 20
60.0190909384
 10
189.213132026
 20
60.0141098982
 10
189.1929290791
 20
60.00748348
 10
189.1734595
 20
59.9991789297
 10
189.1547056857
 20
59.9892290014
 10
189.1373312019
 20
59.9779580303
 10
189.1214179341
 20
59.9652957514
 10
189.1068839969
 20
59.9513124298
 10
189.0941472999
 20
59.936543195
 10
189.0832866317
 20
59.9209307508
 10
189.0742232038
 20
59.9045323935
 10
189.0671385607
 20
59.8880551411
 10
189.0620932173
 20
59.8717346663
 10
189.0590266587
 20
59.8553352966
 10
189.0579388849
 20
59.8388570317
  0
LINE
  5
7D7
100
AcDbEntity
  8
RACCORDO
100
AcDbLine
 62
7
  6
CONTINUOUS
 10
189.1343226061
 20
72.3043712067
 11
189.150598856
 21
72.2577019548
  0
LWPOLYLINE
  5
7D8
100
AcDbEntity
  8
0
100
AcDbPolyline
 62
7
  6
CONTINUOUS
 90
19
 70
0
 10
190.7180056345
 20
59.2872598092
 10
190.7103433202
 20
59.3093292345
 10
190.6981335698
 20
59.3373105228
 10
190.6835120863
 20
59.3640682188
 10
190.6664688054
 20
59.3895089848
 10
190.6470137915
 20
59.4137261584
 10
190.6254472638
 20
59.4361963288
 10
190.6018096714
 20
59.4568005854
 10
190.5760605653
 20
59.4756578387
 10
190.5483788176
 20
59.4926014092
 10
190.5185944148
 20
59.507651648
 10
190.4868773704
 20
59.5207882039
 10
190.4539165974
 20
59.5317833438
 10
190.4195821443
 20
59.5406077793
 10
190.3840039625
 20
59.5472907989
 10
190.3482608194
 20
59.5516925338
 10
190.3127123041
 20
59.5537663613
 10
190.2769988276
 20
59.5535589042
 10
190.2411203898
 20
59.5510701624
  0
LWPOLYLINE
  5
7D9
100
AcDbEntity
  8
RACCORDO
100
AcDbPolyline
 62
7
  6
CONTINUOUS
 90
50
 70
0
 10
188.1071840379
 20
70.5940261088
 10
188.1262644458
 20
70.5390019442
 10
188.1514480544
 20
70.481389214
 10
188.1814019261
 20
70.4254900626
 10
188.2157478287
 20
70.3720102859
 10
188.2545414497
 20
70.3209805619
 10
188.2977271016
 20
70.2723702127
 10
188.3447594893
 20
70.2267929997
 10
188.3956873862
 20
70.1842873827
 10
188.450462019
 20
70.1448149019
 10
188.5083917727
 20
70.1088739401
 10
188.5695166515
 20
70.0765092754
 10
188.6337966514
 20
70.0476761296
 10
188.7004201455
 20
70.0227385503
 10
188.7694168472
 20
70.0017459312
 10
188.8407570433
 20
69.9846488786
 10
188.9135399675
 20
69.9716632587
 10
188.9877839122
 20
69.9628412019
 10
189.0634705851
 20
69.9581305777
 10
189.1396443431
 20
69.9575908605
 10
189.2163113619
 20
69.9612749348
 10
189.2934654658
 20
69.9691299161
 10
189.3701324847
 20
69.9810566251
 10
189.4463062427
 20
69.9971066888
 10
189.5219929155
 20
70.0172284803
 10
189.5962368602
 20
70.0411679389
 10
189.6690197845
 20
70.0689734708
 10
189.7403599805
 20
70.1005966698
 10
189.8093566822
 20
70.1356382577
 10
189.8759801764
 20
70.1741415781
 10
189.9402601762
 20
70.2160632875
 10
190.001385055
 20
70.2608740764
 10
190.0593148088
 20
70.3086105775
 10
190.1140894415
 20
70.3592361582
 10
190.1650173384
 20
70.4121116106
 10
190.2120497262
 20
70.4672654633
 10
190.255235378
 20
70.5246691876
 10
190.2940289991
 20
70.5835979902
 10
190.3283749016
 20
70.6440712101
 10
190.3583287734
 20
70.7060695083
 10
190.383512382
 20
70.7688100739
 10
190.4038652436
 20
70.8323023211
 10
190.4194478422
 20
70.8965368357
 10
190.4300633971
 20
70.9607025652
 10
190.4356489285
 20
71.0247986403
 10
190.4362674163
 20
71.0888259302
 10
190.4319110189
 20
71.1519759908
 10
190.4225106074
 20
71.2142467142
 10
190.4081353106
 20
71.2756402081
 10
190.4025975917
 20
71.2947946811
  0
LWPOLYLINE
  5
7DA
100
AcDbEntity
  8
RACCORDO
100
AcDbPolyline
 62
7
  6
CONTINUOUS
 90
54
 70
0
 10
187.7246709672
 20
70.4770484239
 10
187.7451253275
 20
70.4168687937
 10
187.7747185041
 20
70.3458669223
 10
187.8094253011
 20
70.2772254436
 10
187.8492999863
 20
70.2109694104
 10
187.894288292
 20
70.1470737701
 10
187.9439144089
 20
70.086214242
 10
187.9982275547
 20
70.0284230494
 10
188.0571785118
 20
69.973667969
 10
188.1201438174
 20
69.9225280508
 10
188.1871660724
 20
69.8750416623
 10
188.2582026758
 20
69.8311704359
 10
188.3325023618
 20
69.7913783181
 10
188.4100997585
 20
69.7557085997
 10
188.4909602377
 20
69.7241179899
 10
188.5742286488
 20
69.6969405629
 10
188.6599305449
 20
69.6742231543
 10
188.748040373
 20
69.6559189286
 10
188.8376263231
 20
69.6422214529
 10
188.9287040599
 20
69.6331796167
 10
189.0212579187
 20
69.6287445305
 10
189.1143090956
 20
69.6289630929
 10
189.2078628684
 20
69.6338846908
 10
189.3019139593
 20
69.6434599373
 10
189.3954677321
 20
69.6575875693
 10
189.4885189091
 20
69.6763158995
 10
189.5810727679
 20
69.6995966151
 10
189.6721505046
 20
69.7271835159
 10
189.7617364547
 20
69.7591223016
 10
189.8498462828
 20
69.7953672723
 10
189.935548179
 20
69.8355351276
 10
190.0188165901
 20
69.8796675001
 10
190.0996770692
 20
69.9277227571
 10
190.1772744659
 20
69.9791927005
 10
190.2515741519
 20
70.0341135701
 10
190.3226107554
 20
70.092449126
 10
190.3896330104
 20
70.1535824505
 10
190.4525983159
 20
70.217543237
 10
190.511549273
 20
70.2843017919
 10
190.5658624189
 20
70.3531521175
 10
190.6154885357
 20
70.4241164151
 10
190.6604768414
 20
70.4971724833
 10
190.7003515267
 20
70.5715477192
 10
190.7350583237
 20
70.6472561257
 10
190.7646515003
 20
70.7242836999
 10
190.7888180512
 20
70.8018158303
 10
190.8075003858
 20
70.8798578752
 10
190.8207560948
 20
70.9584044762
 10
190.8284449445
 20
71.0366249471
 10
190.8305078549
 20
71.1145158307
 10
190.8270039061
 20
71.1920805841
 10
190.8179701039
 20
71.2684988926
 10
190.8033425813
 20
71.3437662359
 10
190.7851454951
 20
71.4116583081
  0
LWPOLYLINE
  5
7DB
100
AcDbEntity
  8
RACCORDO
100
AcDbPolyline
 62
7
  6
CONTINUOUS
 90
5
 70
0
 10
190.4025975917
 20
71.2947946811
 10
190.3889846743
 20
71.3353543517
 10
190.3651252136
 20
71.3931217713
 10
190.3364904133
 20
71.4492098404
 10
190.3030802735
 20
71.5036185591
  0
LINE
  5
7DC
100
AcDbEntity
  8
RACCORDO
100
AcDbLine
 62
7
  6
CONTINUOUS
 10
189.6540714745
 20
71.0976410995
 11
189.6607968775
 21
71.0768475592
  0
LINE
  5
7DD
100
AcDbEntity
  8
0
100
AcDbLine
 62
250
  6
CONTINUOUS
 10
188.2165831894
 20
57.0714404867
 11
188.2686776427
 21
56.9008557905
  0
LINE
  5
7DE
100
AcDbEntity
  8
0
100
AcDbLine
 62
7
  6
CONTINUOUS
 10
188.125149494
 20
57.5126310758
 11
188.1772439473
 21
57.3420463796
  0
LINE
  5
7DF
100
AcDbEntity
  8
0
100
AcDbLine
 62
250
  6
CONTINUOUS
 10
188.1195715512
 20
57.549570184
 11
188.1716660045
 21
57.3789854877
  0
LINE
  5
7E0
100
AcDbEntity
  8
0
100
AcDbLine
 62
7
  6
CONTINUOUS
 10
188.1195715512
 20
57.579157514
 11
188.1716660045
 21
57.4085728178
  0
LINE
  5
7E1
100
AcDbEntity
  8
0
100
AcDbLine
 62
7
  6
CONTINUOUS
 10
188.1195715512
 20
57.9563212562
 11
188.1716660045
 21
57.78573656
  0
LINE
  5
7E2
100
AcDbEntity
  8
0
100
AcDbLine
 62
250
  6
CONTINUOUS
 10
188.1195715512
 20
59.0229242861
 11
188.1716660045
 21
58.8523395899
  0
LINE
  5
7E3
100
AcDbEntity
  8
0
100
AcDbLine
 62
250
  6
CONTINUOUS
 10
188.3144854261
 20
59.2043646684
 11
188.3665798794
 21
59.0337799722
  0
LINE
  5
7E4
100
AcDbEntity
  8
0
100
AcDbLine
 62
7
  6
CONTINUOUS
 10
189.0058444316
 20
57.1517943756
 11
189.0579388849
 21
56.9812096794
  0
LINE
  5
7E5
100
AcDbEntity
  8
0
100
AcDbLine
 62
250
  6
CONTINUOUS
 10
189.3997646943
 20
56.7842689213
 11
189.4518591476
 21
56.6136842251
  0
LINE
  5
7E6
100
AcDbEntity
  8
0
100
AcDbLine
 62
7
  6
CONTINUOUS
 10
189.3997646943
 20
57.1918989992
 11
189.4518591476
 21
57.021314303
  0
LINE
  5
7E7
100
AcDbEntity
  8
0
100
AcDbLine
 62
7
  6
CONTINUOUS
 10
189.3997646943
 20
59.6413009697
 11
189.4518591476
 21
59.4707162735
  0
LINE
  5
7E8
100
AcDbEntity
  8
0
100
AcDbLine
 62
250
  6
CONTINUOUS
 10
190.1890259365
 20
57.2722528882
 11
190.2411203898
 21
57.1016681919
  0
LINE
  5
7E9
100
AcDbEntity
  8
0
100
AcDbLine
 62
250
  6
CONTINUOUS
 10
190.0914417707
 20
59.3852747969
 11
190.143536224
 21
59.2146901007
  0
LINE
  5
7EA
100
AcDbEntity
  8
0
100
AcDbLine
 62
7
  6
CONTINUOUS
 10
190.2861860078
 20
58.8368067811
 11
190.3382804611
 21
58.6662220849
  0
LINE
  5
7EB
100
AcDbEntity
  8
0
100
AcDbLine
 62
250
  6
CONTINUOUS
 10
190.6800002468
 20
57.7293060005
 11
190.7320947001
 21
57.5587213042
  0
LINE
  5
7EC
100
AcDbEntity
  8
0
100
AcDbLine
 62
7
  6
CONTINUOUS
 10
190.3326985194
 20
59.110026315
 11
190.2806040661
 21
59.2806110112
  0
LINE
  5
7ED
100
AcDbEntity
  8
0
100
AcDbLine
 62
250
  6
CONTINUOUS
 10
190.6800002468
 20
59.3645905226
 11
190.7320947001
 21
59.1940058263
  0
LINE
  5
7EE
100
AcDbEntity
  8
0
100
AcDbLine
 62
7
  6
CONTINUOUS
 10
188.0551182242
 20
70.7645170024
 11
188.1072126775
 21
70.5939323062
  0
LINE
  5
7EF
100
AcDbEntity
  8
RACCORDO
100
AcDbLine
 62
250
  6
CONTINUOUS
 10
188.2066965542
 20
71.2901878526
 11
188.1546021009
 21
71.4607725488
  0
LINE
  5
7F0
100
AcDbEntity
  8
RACCORDO
100
AcDbLine
 62
250
  6
CONTINUOUS
 10
188.6348103024
 20
70.8814230051
 11
188.5827158491
 21
71.0520077013
  0
LINE
  5
7F1
100
AcDbEntity
  8
RACCORDO
100
AcDbLine
 62
250
  6
CONTINUOUS
 10
188.6702378093
 20
70.8985909044
 11
188.618143356
 21
71.0691756006
  0
LINE
  5
7F2
100
AcDbEntity
  8
RACCORDO
100
AcDbLine
 62
250
  6
CONTINUOUS
 10
188.7696058083
 20
71.071567882
 11
188.717511355
 21
71.2421525782
  0
LWPOLYLINE
  5
7F3
100
AcDbEntity
  8
0
100
AcDbPolyline
 62
7
  6
CONTINUOUS
 90
4
 70
0
 10
188.1250834877
 20
57.5128478871
 10
188.1239830901
 20
57.5166882824
 10
188.1207591377
 20
57.5328269137
 10
188.1195715512
 20
57.549570184
  0
LWPOLYLINE
  5
7F4
100
AcDbEntity
  8
0
100
AcDbPolyline
 62
7
  6
CONTINUOUS
 90
4
 70
0
 10
188.177177859
 20
57.3422634611
 10
188.1760950456
 20
57.3460687027
 10
188.172866641
 20
57.362218205
 10
188.1716660045
 20
57.3789854877
  0
LWPOLYLINE
  5
7F5
100
AcDbEntity
  8
0
100
AcDbPolyline
 62
7
  6
CONTINUOUS
 90
4
 70
0
 10
190.3327646563
 20
59.1098090738
 10
190.333848002
 20
59.10600273
 10
190.3370791258
 20
59.0898407511
 10
190.3382804611
 20
59.0730610577
  0
LWPOLYLINE
  5
7F6
100
AcDbEntity
  8
CURVE
100
AcDbPolyline
 62
250
  6
CONTINUOUS
 90
73
 70
0
 10
185.3323019583
 20
52.5493087595
 10
185.3313576076
 20
52.5546215675
 10
185.3299100542
 20
52.5594821549
 10
185.3280151547
 20
52.5639360135
 10
185.325728766
 20
52.5680286351
 10
185.3231067448
 20
52.5718055116
 10
185.3202049479
 20
52.5753121347
 10
185.317079232
 20
52.5785939964
 10
185.3137854539
 20
52.5816965885
 10
185.3103794704
 20
52.5846654029
 10
185.3069171382
 20
52.5875459313
 10
185.2981648633
 20
52.5945845846
 10
185.2893648146
 20
52.6013115156
 10
185.2804723379
 20
52.6076863961
 10
185.271442779
 20
52.6136688978
 10
185.2622314838
 20
52.6192186926
 10
185.2527937981
 20
52.6242954521
 10
185.2430850677
 20
52.6288588482
 10
185.2330606385
 20
52.6328685527
 10
185.2218423259
 20
52.6365407834
 10
185.2102344672
 20
52.6395296577
 10
185.1982678581
 20
52.6418447265
 10
185.185973294
 20
52.6434955408
 10
185.1733815704
 20
52.6444916515
 10
185.1605234829
 20
52.6448426095
 10
185.1474298269
 20
52.6445579658
 10
185.1341313981
 20
52.6436472711
 10
185.120658992
 20
52.6421200765
 10
185.107043404
 20
52.6399859329
 10
185.0933240647
 20
52.6372574137
 10
185.0795004581
 20
52.6339438402
 10
185.0655805004
 20
52.630056478
 10
185.0515721076
 20
52.6256065929
 10
185.0374831959
 20
52.6206054506
 10
185.0233216814
 20
52.6150643166
 10
185.0070549918
 20
52.6080836288
 10
184.9907244183
 20
52.6004345809
 10
184.9743506156
 20
52.5921398025
 10
184.9579542384
 20
52.5832219232
 10
184.9415559414
 20
52.5737035728
 10
184.9251763795
 20
52.5636073808
 10
184.9092431343
 20
52.5532231301
 10
184.89336669
 20
52.5423015657
 10
184.8775663978
 20
52.5308332365
 10
184.8618616092
 20
52.5188086912
 10
184.8462716756
 20
52.5062184785
 10
184.8323722491
 20
52.4944125497
 10
184.8185981571
 20
52.4821474129
 10
184.8049662909
 20
52.4694285744
 10
184.791493542
 20
52.4562615403
 10
184.7781968019
 20
52.4426518169
 10
184.7639419391
 20
52.4273428379
 10
184.7499393938
 20
52.4115445596
 10
184.7362128802
 20
52.3952857821
 10
184.7227861123
 20
52.3785953056
 10
184.7096828046
 20
52.3615019303
 10
184.6969266711
 20
52.3440344564
 10
184.6845414261
 20
52.3262216841
 10
184.6725507838
 20
52.3080924134
 10
184.661607763
 20
52.2907045313
 10
184.6510464824
 20
52.2730806508
 10
184.6408755312
 20
52.2552414089
 10
184.6311034986
 20
52.2372074425
 10
184.6217389736
 20
52.2189993884
 10
184.6127905455
 20
52.2006378836
 10
184.6042668034
 20
52.1821435649
 10
184.5983311958
 20
52.1685927112
 10
184.5926583165
 20
52.1549998232
 10
184.5872806939
 20
52.1413824665
 10
184.5822308564
 20
52.1277582069
 10
184.5775413325
 20
52.1141446099
 10
184.5732446505
 20
52.1005592411
 10
184.569373339
 20
52.087019666
  0
LWPOLYLINE
  5
7F7
100
AcDbEntity
  8
CURVE
100
AcDbPolyline
 62
250
  6
CONTINUOUS
 90
22
 70
0
 10
184.7931491211
 20
51.6731845689
 10
184.7913085783
 20
51.6846541467
 10
184.7895513916
 20
51.6961853972
 10
184.7878916418
 20
51.707788342
 10
184.7863434097
 20
51.7194730029
 10
184.7849207762
 20
51.7312494015
 10
184.7836378221
 20
51.7431275594
 10
184.782423124
 20
51.7560707628
 10
184.7813876028
 20
51.7691399656
 10
184.7805313168
 20
51.782330951
 10
184.7798543242
 20
51.7956395023
 10
184.7793566834
 20
51.8090614028
 10
184.7790384525
 20
51.8225924356
 10
184.77889969
 20
51.8362283841
 10
184.778940454
 20
51.8499650315
 10
184.779160803
 20
51.863798161
 10
184.7795607951
 20
51.8777235559
 10
184.7801404886
 20
51.8917369993
 10
184.7808999419
 20
51.9058342747
 10
184.7818392133
 20
51.9200111651
 10
184.7829583609
 20
51.9342634539
 10
184.7842574432
 20
51.9485869243
  0
LWPOLYLINE
  5
7F8
100
AcDbEntity
  8
RACCORDO
100
AcDbPolyline
 62
250
  6
CONTINUOUS
 90
28
 70
0
 10
177.7668767971
 20
124.6870042681
 10
177.7647189701
 20
124.7592765238
 10
177.7589914481
 20
124.8332355789
 10
177.7497385675
 20
124.9086208
 10
177.7370295965
 20
124.985106599
 10
177.7209233472
 20
125.0624900756
 10
177.7014400563
 20
125.1406999164
 10
177.6786197645
 20
125.219551303
 10
177.6525545844
 20
125.2987072951
 10
177.6233379558
 20
125.3778717585
 10
177.5910735525
 20
125.4567682757
 10
177.5558674675
 20
125.535144654
 10
177.5178347801
 20
125.6127420281
 10
177.4771012132
 20
125.689303101
 10
177.4338054348
 20
125.7645689132
 10
177.3880951015
 20
125.8382832737
 10
177.3401632657
 20
125.9101412142
 10
177.2901341243
 20
125.9799635277
 10
177.2380493299
 20
126.047676618
 10
177.1840246351
 20
126.1130891027
 10
177.1282734004
 20
126.1759039154
 10
177.0709823987
 20
126.2358823948
 10
177.0123177074
 20
126.2928161576
 10
176.9524907036
 20
126.3464681685
 10
176.891769235
 20
126.3965809358
 10
176.8303819563
 20
126.4429529902
 10
176.768514529
 20
126.4854272982
 10
176.706378169
 20
126.5238417714
  0
LWPOLYLINE
  5
7F9
100
AcDbEntity
  8
ASSI
100
AcDbPolyline
 62
250
  6
CONTINUOUS
 90
28
 70
0
 10
177.7668767971
 20
124.6870042681
 10
177.7647189701
 20
124.7592765238
 10
177.7589914481
 20
124.8332355789
 10
177.7497385675
 20
124.9086208
 10
177.7370295965
 20
124.985106599
 10
177.7209233472
 20
125.0624900756
 10
177.7014400563
 20
125.1406999164
 10
177.6786197645
 20
125.219551303
 10
177.6525545844
 20
125.2987072951
 10
177.6233379558
 20
125.3778717585
 10
177.5910735525
 20
125.4567682757
 10
177.5558674675
 20
125.535144654
 10
177.5178347801
 20
125.6127420281
 10
177.4771012132
 20
125.689303101
 10
177.4338054348
 20
125.7645689132
 10
177.3880951015
 20
125.8382832737
 10
177.3401632657
 20
125.9101412142
 10
177.2901341243
 20
125.9799635277
 10
177.2380493299
 20
126.047676618
 10
177.1840246351
 20
126.1130891027
 10
177.1282734004
 20
126.1759039154
 10
177.0709823987
 20
126.2358823948
 10
177.0123177074
 20
126.2928161576
 10
176.9524907036
 20
126.3464681685
 10
176.891769235
 20
126.3965809358
 10
176.8303819563
 20
126.4429529902
 10
176.768514529
 20
126.4854272982
 10
176.706378169
 20
126.5238417714
  0
LWPOLYLINE
  5
7FA
100
AcDbEntity
  8
RACCORDO
100
AcDbPolyline
 62
250
  6
CONTINUOUS
 90
28
 70
0
 10
177.0659942213
 20
124.6905358641
 10
177.064731729
 20
124.7391462984
 10
177.0611443716
 20
124.7885220988
 10
177.055232149
 20
124.8386632651
 10
177.0469619582
 20
124.8897026147
 10
177.0363669023
 20
124.9415073303
 10
177.0235462903
 20
124.9936789598
 10
177.0084743128
 20
125.0462674971
 10
176.9911767793
 20
125.0992229482
 10
176.9718304273
 20
125.151996879
 10
176.950416231
 20
125.2045801105
 10
176.9269532162
 20
125.2569818218
 10
176.9016751975
 20
125.3086811155
 10
176.8745630673
 20
125.3596727273
 10
176.8456359331
 20
125.4099619215
 10
176.8151849321
 20
125.4590435935
 10
176.7832259159
 20
125.5068737626
 10
176.7497430329
 20
125.5534964095
 10
176.7149798654
 20
125.5985383724
 10
176.678896972
 20
125.6420311509
 10
176.6415337942
 20
125.6839432454
 10
176.6032522383
 20
125.7238069944
 10
176.5640250008
 20
125.7616126112
 10
176.5238793853
 20
125.7973698825
 10
176.4832592094
 20
125.8306405072
 10
176.442312412
 20
125.8612783847
 10
176.4008910542
 20
125.8894296155
 10
176.3589951359
 20
125.9150941996
  0
LWPOLYLINE
  5
7FB
100
AcDbEntity
  8
ASSI
100
AcDbPolyline
 62
250
  6
CONTINUOUS
 90
28
 70
0
 10
177.0659942213
 20
124.6905358641
 10
177.064731729
 20
124.7391462984
 10
177.0611443716
 20
124.7885220988
 10
177.055232149
 20
124.8386632651
 10
177.0469619582
 20
124.8897026147
 10
177.0363669023
 20
124.9415073303
 10
177.0235462903
 20
124.9936789598
 10
177.0084743128
 20
125.0462674971
 10
176.9911767793
 20
125.0992229482
 10
176.9718304273
 20
125.151996879
 10
176.950416231
 20
125.2045801105
 10
176.9269532162
 20
125.2569818218
 10
176.9016751975
 20
125.3086811155
 10
176.8745630673
 20
125.3596727273
 10
176.8456359331
 20
125.4099619215
 10
176.8151849321
 20
125.4590435935
 10
176.7832259159
 20
125.5068737626
 10
176.7497430329
 20
125.5534964095
 10
176.7149798654
 20
125.5985383724
 10
176.678896972
 20
125.6420311509
 10
176.6415337942
 20
125.6839432454
 10
176.6032522383
 20
125.7238069944
 10
176.5640250008
 20
125.7616126112
 10
176.5238793853
 20
125.7973698825
 10
176.4832592094
 20
125.8306405072
 10
176.442312412
 20
125.8612783847
 10
176.4008910542
 20
125.8894296155
 10
176.3589951359
 20
125.9150941996
  0
LINE
  5
7FC
100
AcDbEntity
  8
RACCORDO
100
AcDbLine
 62
250
  6
CONTINUOUS
 10
177.0659942213
 20
40.9787646467
 11
177.0659942213
 21
124.6905358641
  0
LINE
  5
7FD
100
AcDbEntity
  8
ASSI
100
AcDbLine
 62
250
  6
CONTINUOUS
 10
177.0659942213
 20
40.9787646467
 11
177.0659942213
 21
124.6905358641
  0
LINE
  5
7FE
100
AcDbEntity
  8
RACCORDO
100
AcDbLine
 62
250
  6
CONTINUOUS
 10
177.7668767971
 20
40.9752330507
 11
177.7668767971
 21
124.6870042681
  0
LINE
  5
7FF
100
AcDbEntity
  8
ASSI
100
AcDbLine
 62
250
  6
CONTINUOUS
 10
177.7668767971
 20
40.9752330507
 11
177.7668767971
 21
124.6870042681
  0
LWPOLYLINE
  5
800
100
AcDbEntity
  8
RACCORDO
100
AcDbPolyline
 62
250
  6
CONTINUOUS
 90
19
 70
0
 10
176.3589951359
 20
125.9150941996
 10
176.3603108006
 20
125.9510395383
 10
176.3642480027
 20
125.9882366495
 10
176.3707774396
 20
126.0264086929
 10
176.3798505157
 20
126.0652715721
 10
176.3913997045
 20
126.1045360494
 10
176.405339051
 20
126.1439098979
 10
176.421564811
 20
126.1831000767
 10
176.4399562242
 20
126.2218149122
 10
176.4603764118
 20
126.2597662683
 10
176.4826733964
 20
126.296671691
 10
176.5066812319
 20
126.3322565109
 10
176.5322212395
 20
126.3662558873
 10
176.5591033372
 20
126.3984167788
 10
176.5871274543
 20
126.4284998274
 10
176.6160850206
 20
126.4562811392
 10
176.6457605188
 20
126.4815539513
 10
176.6759330883
 20
126.50413017
 10
176.706378169
 20
126.5238417714
  0
LWPOLYLINE
  5
801
100
AcDbEntity
  8
ASSI
100
AcDbPolyline
 62
250
  6
CONTINUOUS
 90
19
 70
0
 10
176.3589951359
 20
125.9150941996
 10
176.3603108006
 20
125.9510395383
 10
176.3642480027
 20
125.9882366495
 10
176.3707774396
 20
126.0264086929
 10
176.3798505157
 20
126.0652715721
 10
176.3913997045
 20
126.1045360494
 10
176.405339051
 20
126.1439098979
 10
176.421564811
 20
126.1831000767
 10
176.4399562242
 20
126.2218149122
 10
176.4603764118
 20
126.2597662683
 10
176.4826733964
 20
126.296671691
 10
176.5066812319
 20
126.3322565109
 10
176.5322212395
 20
126.3662558873
 10
176.5591033372
 20
126.3984167788
 10
176.5871274543
 20
126.4284998274
 10
176.6160850206
 20
126.4562811392
 10
176.6457605188
 20
126.4815539513
 10
176.6759330883
 20
126.50413017
 10
176.706378169
 20
126.5238417714
  0
LWPOLYLINE
  5
802
100
AcDbEntity
  8
RACCORDO
100
AcDbPolyline
 62
250
  6
CONTINUOUS
 90
15
 70
0
 10
95.7222407122
 20
173.2830677694
 10
95.6600354837
 20
173.3164926863
 10
95.598193053
 20
173.3455863346
 10
95.5369227321
 20
173.3702790539
 10
95.4764806396
 20
173.3905029467
 10
95.4170139167
 20
173.4062409635
 10
95.3585683272
 20
173.4174900474
 10
95.3012877368
 20
173.4242133656
 10
95.2454232429
 20
173.4263722971
 10
95.1911811586
 20
173.4239556107
 10
95.138750729
 20
173.4169737468
 10
95.0883007983
 20
173.405451719
 10
95.0399962592
 20
173.389427198
 10
94.9939971185
 20
173.3689529655
 10
94.9570223831
 20
173.3482231479
  0
LWPOLYLINE
  5
803
100
AcDbEntity
  8
ASSI
100
AcDbPolyline
 62
250
  6
CONTINUOUS
 90
15
 70
0
 10
95.7222407122
 20
173.2830677694
 10
95.6600354837
 20
173.3164926863
 10
95.598193053
 20
173.3455863346
 10
95.5369227321
 20
173.3702790539
 10
95.4764806396
 20
173.3905029467
 10
95.4170139167
 20
173.4062409635
 10
95.3585683272
 20
173.4174900474
 10
95.3012877368
 20
173.4242133656
 10
95.2454232429
 20
173.4263722971
 10
95.1911811586
 20
173.4239556107
 10
95.138750729
 20
173.4169737468
 10
95.0883007983
 20
173.405451719
 10
95.0399962592
 20
173.389427198
 10
94.9939971185
 20
173.3689529655
 10
94.9570223831
 20
173.3482231479
  0
LWPOLYLINE
  5
804
100
AcDbEntity
  8
0
100
AcDbPolyline
 62
7
  6
CONTINUOUS
 90
14
 70
0
 10
190.7850865723
 20
84.7596181394
 10
190.7685007999
 20
84.8093750737
 10
190.738571526
 20
84.8829207452
 10
190.7028573926
 20
84.9544596047
 10
190.6617146898
 20
85.0231736629
 10
190.614952985
 20
85.08903378
 10
190.5627627109
 20
85.1520690958
 10
190.5060714554
 20
85.2115490408
 10
190.4448395202
 20
85.2674228694
 10
190.3791066036
 20
85.3197413272
 10
190.30991939
 20
85.3679260817
 10
190.2376267738
 20
85.4117843551
 10
190.1618798604
 20
85.4515089253
 10
190.0826786499
 20
85.487099792
  0
LWPOLYLINE
  5
805
100
AcDbEntity
  8
0
100
AcDbPolyline
 62
7
  6
CONTINUOUS
 90
53
 70
0
 10
187.7250663912
 20
83.8240574859
 10
187.7395489633
 20
83.7801344106
 10
187.7691669503
 20
83.7060957926
 10
187.8046049085
 20
83.6339936169
 10
187.8454895298
 20
83.5647114817
 10
187.8919380386
 20
83.4983057585
 10
187.9438332106
 20
83.4347200758
 10
188.0004500642
 20
83.3746689178
 10
188.0618169834
 20
83.3181978129
 10
188.1279055843
 20
83.2652612326
 10
188.1979057341
 20
83.2164370758
 10
188.2718489457
 20
83.1717718554
 10
188.3497037061
 20
83.1312190585
 10
188.4305653442
 20
83.0952170443
 10
188.5144464645
 20
83.0638112707
 10
188.6013344625
 20
83.0369562798
 10
188.6902868533
 20
83.0149540575
 10
188.7813324422
 20
82.9978898734
 10
188.874442424
 20
82.9856784579
 10
188.9685878978
 20
82.978365988
 10
189.0637718053
 20
82.9759726667
 10
189.1599912049
 20
82.978478291
 10
189.2562083707
 20
82.9858684283
 10
189.3524239551
 20
82.9982037444
 10
189.4486373058
 20
83.0154235735
 10
189.5438087404
 20
83.0373314862
 10
189.6379355197
 20
83.0639474993
 10
189.7310203829
 20
83.095251596
 10
189.8220318653
 20
83.1309872962
 10
189.9109411132
 20
83.1712351332
 10
189.9977769804
 20
83.2159145737
 10
190.0815945628
 20
83.2645275375
 10
190.1623809278
 20
83.3171167553
 10
190.240149008
 20
83.3736394963
 10
190.3139926981
 20
83.4334694881
 10
190.3838780858
 20
83.4966448486
 10
190.4498390833
 20
83.56312746
 10
190.5110713216
 20
83.6321766954
 10
190.5675461686
 20
83.7038272144
 10
190.6192922565
 20
83.7780443575
 10
190.6655911126
 20
83.8539835194
 10
190.7063303602
 20
83.9316807133
 10
190.741622376
 20
84.0110999261
 10
190.7710858181
 20
84.0912885124
 10
190.7946484086
 20
84.1722680504
 10
190.8123824254
 20
84.2540169621
 10
190.8241233612
 20
84.3355178685
 10
190.8298121006
 20
84.4167244345
 10
190.829507759
 20
84.4976829951
 10
190.8232231743
 20
84.5775151768
 10
190.810897498
 20
84.6562216658
 10
190.7925915787
 20
84.7338017758
 10
190.7850865723
 20
84.7596181394
  0
LWPOLYLINE
  5
806
100
AcDbEntity
  8
0
100
AcDbPolyline
 62
7
  6
CONTINUOUS
 90
20
 70
0
 10
188.7242487605
 20
85.24225014
 10
188.722741262
 20
85.246858947
 10
188.7160262432
 20
85.262550987
 10
188.7070215338
 20
85.2775672292
 10
188.6962048072
 20
85.2914795395
 10
188.6835605766
 20
85.3042659932
 10
188.6691043288
 20
85.3159485149
 10
188.6533601974
 20
85.3261647446
 10
188.636277788
 20
85.3348902881
 10
188.6179074951
 20
85.3421495395
 10
188.5989246356
 20
85.3476533213
 10
188.5793460994
 20
85.3513349614
 10
188.5591549966
 20
85.3532611318
 10
188.5389759754
 20
85.3533426712
 10
188.518732314
 20
85.3514153969
 10
188.4985007342
 20
85.3476434916
 10
188.4791360493
 20
85.3424303423
 10
188.4609231972
 20
85.3359104116
 10
188.4435772401
 20
85.3279492369
 10
188.4270981779
 20
85.3185468183
  0
LINE
  5
807
100
AcDbEntity
  8
RACCORDO
100
AcDbLine
 62
7
  6
CONTINUOUS
 10
190.0376662897
 20
71.2072538453
 11
190.0345624186
 21
71.2169709098
  0
LWPOLYLINE
  5
808
100
AcDbEntity
  8
0
100
AcDbPolyline
 62
7
  6
CONTINUOUS
 90
10
 70
0
 10
189.7861286348
 20
85.2801261582
 10
189.7870973879
 20
85.2770924665
 10
189.7928930911
 20
85.2624995785
 10
189.8002238545
 20
85.2486394075
 10
189.8091592401
 20
85.2354894593
 10
189.819629686
 20
85.223072228
 10
189.8311651483
 20
85.2119265963
 10
189.8436089457
 20
85.2022321917
 10
189.8571177596
 20
85.1938093867
 10
189.8716915899
 20
85.1866581812
  0
LINE
  5
809
100
AcDbEntity
  8
RACCORDO
100
AcDbLine
 62
250
  6
CONTINUOUS
 10
189.2537602425
 20
70.9439683555
 11
189.2016657892
 21
71.1145530517
  0
LINE
  5
80A
100
AcDbEntity
  8
RACCORDO
100
AcDbLine
 62
250
  6
CONTINUOUS
 10
189.2923723746
 20
70.959366543
 11
189.2402779213
 21
71.1299512392
  0
LINE
  5
80B
100
AcDbEntity
  8
RACCORDO
100
AcDbLine
 62
250
  6
CONTINUOUS
 10
189.4083741877
 20
71.1285113938
 11
189.3562797344
 21
71.29909609
  0
LINE
  5
80C
100
AcDbEntity
  8
RACCORDO
100
AcDbLine
 62
250
  6
CONTINUOUS
 10
189.137263106
 20
72.2959520661
 11
189.1346604928
 21
72.3044743932
  0
LINE
  5
80D
100
AcDbEntity
  8
RACCORDO
100
AcDbLine
 62
250
  6
CONTINUOUS
 10
189.9147174691
 20
71.0115982396
 11
189.8626230158
 21
71.1821829358
  0
LINE
  5
80E
100
AcDbEntity
  8
RACCORDO
100
AcDbLine
 62
250
  6
CONTINUOUS
 10
189.9493810022
 20
71.0303415604
 11
189.8972865489
 21
71.2009262566
  0
LINE
  5
80F
100
AcDbEntity
  8
0
100
AcDbLine
 62
7
  6
CONTINUOUS
 10
189.9825282914
 20
71.3873578755
 11
190.0346227447
 21
71.2167731793
  0
LINE
  5
810
100
AcDbEntity
  8
RACCORDO
100
AcDbLine
 62
7
  6
CONTINUOUS
 10
190.0376662897
 20
71.2072538453
 11
189.9855718364
 21
71.3778385415
  0
LINE
  5
811
100
AcDbEntity
  8
0
100
AcDbLine
 62
7
  6
CONTINUOUS
 10
190.3504696969
 20
71.4654889111
 11
190.4025641502
 21
71.2949042149
  0
LINE
  5
812
100
AcDbEntity
  8
0
100
AcDbLine
 62
7
  6
CONTINUOUS
 10
188.0550044936
 20
84.112308474
 11
188.1070989469
 21
83.9417237778
  0
LINE
  5
813
100
AcDbEntity
  8
0
100
AcDbLine
 62
250
  6
CONTINUOUS
 10
188.5859907846
 20
85.2316506622
 11
188.6380852379
 21
85.061065966
  0
LINE
  5
814
100
AcDbEntity
  8
0
100
AcDbLine
 62
250
  6
CONTINUOUS
 10
189.2027929217
 20
84.3767032401
 11
189.2548871521
 21
84.2061185212
  0
LINE
  5
815
100
AcDbEntity
  8
0
100
AcDbLine
 62
250
  6
CONTINUOUS
 10
189.4256648098
 20
84.5841690277
 11
189.4777592631
 21
84.4135843315
  0
LINE
  5
816
100
AcDbEntity
  8
0
100
AcDbLine
 62
250
  6
CONTINUOUS
 10
189.4529918247
 20
85.639902127
 11
189.4777592631
 21
85.5588004802
  0
LINE
  5
817
100
AcDbEntity
  8
0
100
AcDbLine
 62
250
  6
CONTINUOUS
 10
189.8195971366
 20
85.3572428774
 11
189.8716915899
 21
85.1866581812
  0
LINE
  5
818
100
AcDbEntity
  8
0
100
AcDbLine
 62
7
  6
CONTINUOUS
 10
190.402452911
 20
84.6396956458
 11
190.3503584577
 21
84.810280342
  0
LWPOLYLINE
  5
819
100
AcDbEntity
  8
0
100
AcDbPolyline
 62
7
  6
CONTINUOUS
 90
49
 70
0
 10
190.4024354106
 20
84.6397529436
 10
190.405474984
 20
84.6295541353
 10
190.4206250182
 20
84.5682735954
 10
190.4308727275
 20
84.505502372
 10
190.4359631812
 20
84.4418829458
 10
190.435820876
 20
84.3773330356
 10
190.4305213151
 20
84.3119349226
 10
190.4200360774
 20
84.2465779317
 10
190.4042868446
 20
84.1812427975
 10
190.3833519351
 20
84.1159487854
 10
190.3574378833
 20
84.051643017
 10
190.3264411385
 20
83.9883510166
 10
190.2904652514
 20
83.9260472598
 10
190.2500274083
 20
83.8656022949
 10
190.2050687779
 20
83.8070368108
 10
190.1556481914
 20
83.7503301185
 10
190.1024593293
 20
83.6962907001
 10
190.0454423662
 20
83.6449630986
 10
189.9846571275
 20
83.5963027709
 10
189.9209767696
 20
83.5509845698
 10
189.8543893488
 20
83.5090587801
 10
189.7849068089
 20
83.4704751169
 10
189.7134381372
 20
83.4357575784
 10
189.6399567619
 20
83.4049887711
 10
189.5644892549
 20
83.3780860884
 10
189.4880243193
 20
83.3553257091
 10
189.4105566847
 20
83.3367362932
 10
189.3320916215
 20
83.3222891808
 10
189.2536336433
 20
83.3121745705
 10
189.1751843091
 20
83.3064517591
 10
189.09674206
 20
83.30506145
 10
189.0193067322
 20
83.3080159514
 10
188.9428841096
 20
83.315343872
 10
188.8674684084
 20
83.3270166031
 10
188.7940421137
 20
83.3429606281
 10
188.7226276394
 20
83.3632650073
 10
188.6532025716
 20
83.3878406803
 10
188.5866821537
 20
83.4163469485
 10
188.5230767347
 20
83.448840521
 10
188.4623759657
 20
83.4852646888
 10
188.4054640433
 20
83.5251086255
 10
188.3524057951
 20
83.5684307275
 10
188.3031363935
 20
83.6151725984
 10
188.2583455527
 20
83.6646482237
 10
188.2180988641
 20
83.7168840439
 10
188.1823307364
 20
83.7718536184
 10
188.1515341088
 20
83.8287916115
 10
188.1258101451
 20
83.8877392835
 10
188.1071197308
 20
83.9416557316
  0
LWPOLYLINE
  5
81A
100
AcDbEntity
  8
0
100
AcDbPolyline
 62
7
  6
CONTINUOUS
 90
21
 70
0
 10
188.1071197308
 20
83.9416557316
 10
188.1050576817
 20
83.9486553741
 10
188.0894661671
 20
84.0106507665
 10
188.0791089706
 20
84.0737208978
 10
188.0739127231
 20
84.1378703308
 10
188.0738467653
 20
84.2022236372
 10
188.0789829181
 20
84.266716921
 10
188.0892493608
 20
84.3314140782
 10
188.1043999716
 20
84.3956313681
 10
188.1244138688
 20
84.4593873782
 10
188.1493119342
 20
84.522663521
 10
188.1789106915
 20
84.5847202927
 10
188.2132946423
 20
84.6455437131
 10
188.252379285
 20
84.7051477624
 10
188.295727639
 20
84.762834878
 10
188.3434309515
 20
84.8186036825
 10
188.3953979753
 20
84.8724555533
 10
188.4509179881
 20
84.9236970601
 10
188.5097540824
 20
84.9720970595
 10
188.5721431656
 20
85.0178866947
 10
188.6380852379
 20
85.061065966
  0
LINE
  5
81B
100
AcDbEntity
  8
RACCORDO
100
AcDbLine
 62
7
  6
CONTINUOUS
 10
189.9824609863
 20
71.3875785054
 11
189.9763689679
 21
71.4087357602
  0
LINE
  5
81C
100
AcDbEntity
  8
RACCORDO
100
AcDbLine
 62
7
  6
CONTINUOUS
 10
188.3883201626
 20
70.9548202596
 11
188.3871003978
 21
70.9591231594
  0
LWPOLYLINE
  5
81D
100
AcDbEntity
  8
RACCORDO
100
AcDbPolyline
 62
7
  6
CONTINUOUS
 90
3
 70
0
 10
189.5456609505
 20
72.3291556863
 10
189.530070234
 20
72.3846846546
 10
189.5103433041
 20
72.438324846
  0
LWPOLYLINE
  5
81E
100
AcDbEntity
  8
RACCORDO
100
AcDbPolyline
 62
7
  6
CONTINUOUS
 90
11
 70
0
 10
188.0551149686
 20
70.7645276634
 10
188.0453755728
 20
70.7994562306
 10
188.0317658414
 20
70.8639842368
 10
188.0236878806
 20
70.9296980504
 10
188.021065444
 20
70.9965813249
 10
188.0239350357
 20
71.0637036229
 10
188.0323812711
 20
71.1310815942
 10
188.0463195348
 20
71.198698589
 10
188.065532484
 20
71.2655742206
 10
188.0899476709
 20
71.3313816933
 10
188.1196375432
 20
71.3964478027
  0
LWPOLYLINE
  5
81F
100
AcDbEntity
  8
RACCORDO
100
AcDbPolyline
 62
7
  6
CONTINUOUS
 90
3
 70
0
 10
189.1343226061
 20
72.3043712067
 10
189.1330916023
 20
72.308801766
 10
189.1304135454
 20
72.3218371611
  0
LWPOLYLINE
  5
820
100
AcDbEntity
  8
RACCORDO
100
AcDbPolyline
 62
7
  6
CONTINUOUS
 90
14
 70
0
 10
190.288185604
 20
71.534834446
 10
190.2863030168
 20
71.5417304076
 10
190.2838882638
 20
71.5553999008
 10
190.2830660721
 20
71.5694882799
 10
190.283858812
 20
71.5836122284
 10
190.2863108246
 20
71.5977727229
 10
190.2903777687
 20
71.6119687868
 10
190.2959489909
 20
71.6258141738
 10
190.3030657942
 20
71.6392992554
 10
190.3116868758
 20
71.6524336601
 10
190.3215776732
 20
71.6648600272
 10
190.3326599991
 20
71.6764592366
 10
190.3450120409
 20
71.6873504083
 10
190.3586337986
 20
71.6975335425
  0
LWPOLYLINE
  5
821
100
AcDbEntity
  8
RACCORDO
100
AcDbPolyline
 62
7
  6
CONTINUOUS
 90
4
 70
0
 10
190.0376662897
 20
71.2072538453
 10
190.0410962933
 20
71.1945556821
 10
190.0431081938
 20
71.1817217678
 10
190.0437019914
 20
71.1687521025
  0
LWPOLYLINE
  5
822
100
AcDbEntity
  8
RACCORDO
100
AcDbPolyline
 62
7
  6
CONTINUOUS
 90
9
 70
0
 10
188.2216193846
 20
71.3946253697
 10
188.2234660032
 20
71.3877565776
 10
188.2259180157
 20
71.374095357
 10
188.2267107556
 20
71.3601328246
 10
188.225888564
 20
71.3458770325
 10
188.223473811
 20
71.3317158522
 10
188.2194739534
 20
71.317778574
 10
188.2138815345
 20
71.3039359074
 10
188.2066965542
 20
71.2901878526
  0
LWPOLYLINE
  5
823
100
AcDbEntity
  8
RACCORDO
100
AcDbPolyline
 62
7
  6
CONTINUOUS
 90
3
 70
0
 10
190.0345624186
 20
71.2169709098
 10
190.0284050483
 20
71.2400693754
 10
190.021736895
 20
71.27466845
  0
LWPOLYLINE
  5
824
100
AcDbEntity
  8
0
100
AcDbPolyline
 62
7
  6
CONTINUOUS
 90
4
 70
0
 10
189.0383869211
 20
84.3259510134
 10
189.0354788349
 20
84.336945192
 10
189.0329170361
 20
84.3523946789
 10
189.0320150412
 20
84.368203563
  0
LWPOLYLINE
  5
825
100
AcDbEntity
  8
RACCORDO
100
AcDbPolyline
 62
7
  6
CONTINUOUS
 90
24
 70
0
 10
189.150598856
 20
72.2577019548
 10
189.1612575403
 20
72.2173622285
 10
189.1686416218
 20
72.176386624
 10
189.1728476254
 20
72.1344070023
 10
189.1739782052
 20
72.0913069236
 10
189.1723413236
 20
72.0467370679
 10
189.1678168818
 20
72.0006744246
 10
189.1605249786
 20
71.9531420044
 10
189.1511338725
 20
71.9038595204
 10
189.1394247558
 20
71.852632486
 10
189.1256164362
 20
71.7996553878
 10
189.111033595
 20
71.7452313976
 10
189.0955714382
 20
71.6893111012
 10
189.0793347598
 20
71.6319439128
 10
189.0639626225
 20
71.573581247
 10
189.0495175901
 20
71.5142794307
 10
189.0359370989
 20
71.4539821369
 10
189.0246725208
 20
71.3929717989
 10
189.0158417313
 20
71.3304143301
 10
189.0093268549
 20
71.267143817
 10
189.0062256373
 20
71.2059449521
 10
189.0069039937
 20
71.1477459663
 10
189.0109960088
 20
71.0916186288
 10
189.0185016826
 20
71.0375629395
  0
LWPOLYLINE
  5
826
100
AcDbEntity
  8
0
100
AcDbPolyline
 62
7
  6
CONTINUOUS
 90
20
 70
0
 10
188.0550327219
 20
84.1122160604
 10
188.0396348941
 20
84.1706946763
 10
188.0284297787
 20
84.2333256439
 10
188.0223071247
 20
84.2971855755
 10
188.0213754713
 20
84.3615585995
 10
188.0257250069
 20
84.4265086612
 10
188.035265543
 20
84.4919718153
 10
188.0498350532
 20
84.5570403543
 10
188.0694766345
 20
84.6217294513
 10
188.0941471899
 20
84.6860239331
 10
188.1235554021
 20
84.7489705728
 10
188.1576698197
 20
84.8103860016
 10
188.196521894
 20
84.8704535884
 10
188.2399146611
 20
84.9287702121
 10
188.2881247291
 20
84.9855512333
 10
188.3408754899
 20
85.0405812915
 10
188.3971401547
 20
85.0928111837
 10
188.4565764606
 20
85.1418911758
 10
188.5195266706
 20
85.1881710019
 10
188.5859907846
 20
85.2316506622
  0
LWPOLYLINE
  5
827
100
AcDbEntity
  8
RACCORDO
100
AcDbPolyline
 62
7
  6
CONTINUOUS
 90
3
 70
0
 10
190.1402706842
 20
72.1537801551
 10
190.1431358132
 20
72.1419645429
 10
190.1450982513
 20
72.1267272307
  0
LINE
  5
828
100
AcDbEntity
  8
RACCORDO
100
AcDbLine
 62
7
  6
CONTINUOUS
 10
189.0217639159
 20
71.0238812123
 11
189.0185016826
 21
71.0375629395
  0
LWPOLYLINE
  5
829
100
AcDbEntity
  8
RACCORDO
100
AcDbPolyline
 62
7
  6
CONTINUOUS
 90
20
 70
0
 10
188.717511355
 20
71.2421525782
 10
188.7108611526
 20
71.2721925379
 10
188.7072754767
 20
71.304928871
 10
188.7067543274
 20
71.3403615775
 10
188.709337697
 20
71.3783591712
 10
188.7149855932
 20
71.4190531383
 10
188.7235780385
 20
71.462837937
 10
188.7357703827
 20
71.5106266561
 10
188.750907276
 20
71.5615062068
 10
188.7669026919
 20
71.6131317813
 10
188.7839225457
 20
71.6650617211
 10
188.8018009221
 20
71.7177376846
 10
188.8179540474
 20
71.7701398392
 10
188.8319769286
 20
71.8220810267
 10
188.8442745589
 20
71.8737484054
 10
188.8534781436
 20
71.9246836177
 10
188.8592317852
 20
71.9749887001
 10
188.8618913813
 20
72.024561616
 10
188.8611558302
 20
72.0726378982
 10
188.8598251891
 20
72.0872067377
  0
LWPOLYLINE
  5
82A
100
AcDbEntity
  8
RACCORDO
100
AcDbPolyline
 62
7
  6
CONTINUOUS
 90
13
 70
0
 10
188.5120893132
 20
71.9143165744
 10
188.5088084316
 20
71.9296129158
 10
188.5074972974
 20
71.944964038
 10
188.5081559106
 20
71.960369941
 10
188.5108355677
 20
71.9760037156
 10
188.5154849721
 20
71.991692271
 10
188.521950234
 20
72.0069163342
 10
188.5302921267
 20
72.0216603597
 10
188.5404498769
 20
72.0359398931
 10
188.5520872748
 20
72.0492822985
 10
188.5650922508
 20
72.0615300307
 10
188.5795768745
 20
72.0728406349
 10
188.595541146
 20
72.083214111
  0
LWPOLYLINE
  5
82B
100
AcDbEntity
  8
RACCORDO
100
AcDbPolyline
 62
7
  6
CONTINUOUS
 90
11
 70
0
 10
188.5120893132
 20
71.9143165744
 10
188.5178297005
 20
71.8863906482
 10
188.5211657215
 20
71.8578620847
 10
188.5220973763
 20
71.828730884
 10
188.5204392613
 20
71.7995153288
 10
188.5163767801
 20
71.7696971362
 10
188.5104661431
 20
71.7377214584
 10
188.502496986
 20
71.7023269766
 10
188.4926796732
 20
71.6647750095
 10
188.4822015091
 20
71.6272946646
 10
188.4714828346
 20
71.5914299427
  0
LWPOLYLINE
  5
82C
100
AcDbEntity
  8
RACCORDO
100
AcDbPolyline
 62
7
  6
CONTINUOUS
 90
16
 70
0
 10
188.7628900839
 20
71.1059634266
 10
188.7720755826
 20
71.0586836081
 10
188.7731425052
 20
71.0457337968
 10
188.772806576
 20
71.0327184483
 10
188.7710428778
 20
71.0195332942
 10
188.7678763279
 20
71.0062826028
 10
188.7633816779
 20
70.9932791789
 10
188.7575273271
 20
70.980528906
 10
188.7503448763
 20
70.9680259006
 10
188.7420038793
 20
70.9560653171
 10
188.7324767697
 20
70.9446600619
 10
188.7217911139
 20
70.9337972286
 10
188.7101991646
 20
70.9237332527
 10
188.6977850062
 20
70.9145536126
 10
188.6844645545
 20
70.9061728298
 10
188.6702378093
 20
70.8985909044
  0
LINE
  5
82D
100
AcDbEntity
  8
RACCORDO
100
AcDbLine
 62
7
  6
CONTINUOUS
 10
189.5067256749
 20
72.4316529927
 11
189.5134781974
 21
72.3685693635
  0
LWPOLYLINE
  5
82E
100
AcDbEntity
  8
RACCORDO
100
AcDbPolyline
 62
7
  6
CONTINUOUS
 90
16
 70
0
 10
189.4083741877
 20
71.1285113938
 10
189.4097022421
 20
71.1152300347
 10
189.4096042766
 20
71.1019722274
 10
189.4080802913
 20
71.0887379719
 10
189.4050947262
 20
71.0754201085
 10
189.4006831412
 20
71.0621257969
 10
189.3949522159
 20
71.0491765161
 10
189.3878697873
 20
71.0365806772
 10
189.3794680183
 20
71.024329869
 10
189.369950078
 20
71.0127203369
 10
189.3592887562
 20
71.0017677139
 10
189.3475112631
 20
70.9914563669
 10
189.3349023984
 20
70.9820356417
 10
189.3215570954
 20
70.9735886536
 10
189.3073804208
 20
70.9660322874
 10
189.2923723746
 20
70.959366543
  0
LWPOLYLINE
  5
82F
100
AcDbEntity
  8
RACCORDO
100
AcDbPolyline
 62
7
  6
CONTINUOUS
 90
21
 70
0
 10
188.7628900839
 20
71.1059634266
 10
188.7594066997
 20
71.1419201247
 10
188.7591556558
 20
71.1794379762
 10
188.762498467
 20
71.2186901859
 10
188.7690736184
 20
71.2595035491
 10
188.7777965654
 20
71.3013584515
 10
188.7886004126
 20
71.3437162422
 10
188.8015520553
 20
71.3871155722
 10
188.8157676348
 20
71.4326527795
 10
188.8318074865
 20
71.4813048978
 10
188.849111275
 20
71.5320948934
 10
188.8651141355
 20
71.583188004
 10
188.8795171697
 20
71.6339430817
 10
188.892619276
 20
71.6850012744
 10
188.9027522841
 20
71.7364512637
 10
188.9096375924
 20
71.7889529255
 10
188.9135538027
 20
71.8418463839
 10
188.9136685496
 20
71.893240693
 10
188.9097043781
 20
71.9425055374
 10
188.9019387434
 20
71.9902712326
 10
188.8903716453
 20
72.0365377783
  0
LINE
  5
830
100
AcDbEntity
  8
RACCORDO
100
AcDbLine
 62
7
  6
CONTINUOUS
 10
189.1304135454
 20
72.3218371611
 11
189.1292289354
 21
72.3350582514
  0
LWPOLYLINE
  5
831
100
AcDbEntity
  8
0
100
AcDbPolyline
 62
7
  6
CONTINUOUS
 90
4
 70
0
 10
189.0579388849
 20
56.5735796015
 10
189.0590202303
 20
56.5573495456
 10
189.0620779942
 20
56.5415955655
 10
189.0634971172
 20
56.5366667869
  0
LWPOLYLINE
  5
832
100
AcDbEntity
  8
0
100
AcDbPolyline
 62
7
  6
CONTINUOUS
 90
4
 70
0
 10
189.4518591476
 20
59.8789616553
 10
189.4507782941
 20
59.8951865013
 10
189.4477209464
 20
59.9109361478
 10
189.4463030314
 20
59.9158596187
  0
LWPOLYLINE
  5
833
100
AcDbEntity
  8
0
100
AcDbPolyline
 62
7
  6
CONTINUOUS
 90
5
 70
0
 10
187.7776821276
 20
57.2579355479
 10
187.7790746831
 20
57.2285423612
 10
187.783149178
 20
57.1995689632
 10
187.7899056124
 20
57.1710153538
 10
187.7917706534
 20
57.1646855551
  0
LINE
  5
834
100
AcDbEntity
  8
CURVE
100
AcDbLine
 62
250
  6
CONTINUOUS
 10
184.5357321792
 20
47.6824196846
 11
184.5357321792
 21
47.3245485152
  0
LINE
  5
835
100
AcDbEntity
  8
CURVE
100
AcDbLine
 62
250
  6
CONTINUOUS
 10
184.535822816
 20
45.7818147795
 11
184.535822816
 21
46.1705738359
  0
LINE
  5
836
100
AcDbEntity
  8
CURVE
100
AcDbLine
 62
250
  6
CONTINUOUS
 10
184.535822816
 20
46.8341649522
 11
184.535822816
 21
47.1917919969
  0
LINE
  5
837
100
AcDbEntity
  8
CURVE
100
AcDbLine
 62
250
  6
CONTINUOUS
 10
184.535822816
 20
48.029928129
 11
184.535822816
 21
48.3875045526
  0
LINE
  5
838
100
AcDbEntity
  8
CURVE
100
AcDbLine
 62
250
  6
CONTINUOUS
 10
184.535822816
 20
49.0994674504
 11
184.535822816
 21
49.4535469318
  0
LINE
  5
839
100
AcDbEntity
  8
CURVE
100
AcDbLine
 62
250
  6
CONTINUOUS
 10
184.535822816
 20
50.2078201359
 11
184.535822816
 21
50.5540182297
  0
LINE
  5
83A
100
AcDbEntity
  8
CURVE
100
AcDbLine
 62
250
  6
CONTINUOUS
 10
185.2078071405
 20
52.108908248
 11
185.2078071405
 21
51.9043881757
  0
LINE
  5
83B
100
AcDbEntity
  8
CURVE
100
AcDbLine
 62
250
  6
CONTINUOUS
 10
185.4551883452
 20
52.0541886297
 11
185.4551883452
 21
52.2460708322
  0
LINE
  5
83C
100
AcDbEntity
  8
CURVE
100
AcDbLine
 62
250
  6
CONTINUOUS
 10
185.5114267008
 20
50.7399788873
 11
185.5114267008
 21
51.0826155378
  0
LINE
  5
83D
100
AcDbEntity
  8
CURVE
100
AcDbLine
 62
250
  6
CONTINUOUS
 10
185.7447625486
 20
51.2842384923
 11
185.7447625486
 21
50.7968775864
  0
LINE
  5
83E
100
AcDbEntity
  8
CURVE
100
AcDbLine
 62
250
  6
CONTINUOUS
 10
186.0463090735
 20
51.922263852
 11
186.0463090735
 21
51.5450815276
  0
LINE
  5
83F
100
AcDbEntity
  8
CURVE
100
AcDbLine
 62
250
  6
CONTINUOUS
 10
186.0463090735
 20
50.8662624242
 11
186.0463090735
 21
50.512273571
  0
LINE
  5
840
100
AcDbEntity
  8
CURVE
100
AcDbLine
 62
250
  6
CONTINUOUS
 10
186.0463090735
 20
50.4560783712
 11
186.0463090735
 21
50.1059848977
  0
LINE
  5
841
100
AcDbEntity
  8
CURVE
100
AcDbLine
 62
250
  6
CONTINUOUS
 10
186.0463090735
 20
49.6069492834
 11
186.0463090735
 21
49.5567575896
  0
LINE
  5
842
100
AcDbEntity
  8
CURVE
100
AcDbLine
 62
250
  6
CONTINUOUS
 10
186.0463090735
 20
49.0597027321
 11
186.0463090735
 21
48.7173363333
  0
LINE
  5
843
100
AcDbEntity
  8
CURVE
100
AcDbLine
 62
250
  6
CONTINUOUS
 10
186.0463090735
 20
47.4829132889
 11
186.0463090735
 21
47.1675385809
  0
LINE
  5
844
100
AcDbEntity
  8
CURVE
100
AcDbLine
 62
250
  6
CONTINUOUS
 10
186.0463090735
 20
48.1668108374
 11
186.0463090735
 21
48.5246820068
  0
LINE
  5
845
100
AcDbEntity
  8
CURVE
100
AcDbLine
 62
250
  6
CONTINUOUS
 10
186.0463093586
 20
52.0273522348
 11
186.0463093586
 21
52.3837838719
  0
LINE
  5
846
100
AcDbEntity
  8
CURVE
100
AcDbLine
 62
250
  6
CONTINUOUS
 10
186.0463093586
 20
52.9318148702
 11
186.0463093586
 21
53.2760457563
  0
LWPOLYLINE
  5
847
100
AcDbEntity
  8
CURVE
100
AcDbPolyline
 62
250
  6
CONTINUOUS
 90
48
 70
0
 10
185.4551883452
 20
52.2460708322
 10
185.4552499826
 20
52.251615381
 10
185.4554355669
 20
52.2572388231
 10
185.4557461068
 20
52.2629360498
 10
185.4561826106
 20
52.2687019522
 10
185.456746087
 20
52.2745314216
 10
185.4574375443
 20
52.2804193492
 10
185.458257991
 20
52.286360626
 10
185.4592084358
 20
52.2923501433
 10
185.460289887
 20
52.2983827923
 10
185.4615033531
 20
52.3044534642
 10
185.4628498427
 20
52.3105570501
 10
185.4643303643
 20
52.3166884412
 10
185.4659459263
 20
52.3228425287
 10
185.4676975371
 20
52.3290142037
 10
185.4695862054
 20
52.3351983576
 10
185.4716129397
 20
52.3413898813
 10
185.4737787483
 20
52.3475836662
 10
185.476144284
 20
52.3539325459
 10
185.4786525608
 20
52.3602746919
 10
185.4812990081
 20
52.366606365
 10
185.4840790551
 20
52.3729238262
 10
185.4869881313
 20
52.3792233364
 10
185.490021666
 20
52.3855011564
 10
185.4931750885
 20
52.3917535473
 10
185.4964438281
 20
52.3979767698
 10
185.4998233143
 20
52.4041670849
 10
185.5033089764
 20
52.4103207535
 10
185.5068962436
 20
52.4164340365
 10
185.5105805454
 20
52.4225031948
 10
185.5143573111
 20
52.4285244894
 10
185.51822197
 20
52.434494181
 10
185.5221699515
 20
52.4404085307
 10
185.526196685
 20
52.4462637994
 10
185.5302975997
 20
52.4520562478
 10
185.5344681251
 20
52.457782137
 10
185.5387036904
 20
52.4634377279
 10
185.542999725
 20
52.4690192813
 10
185.5473516583
 20
52.4745230582
 10
185.5517549196
 20
52.4799453195
 10
185.5562049383
 20
52.485282326
 10
185.5606971436
 20
52.4905303387
 10
185.565226965
 20
52.4956856185
 10
185.5697898317
 20
52.5007444263
 10
185.5743811732
 20
52.505703023
 10
185.5789964188
 20
52.5105576695
 10
185.5836309978
 20
52.5153046267
 10
185.5882803396
 20
52.5199401555
  0
LINE
  5
848
100
AcDbEntity
  8
RACCORDO
100
AcDbLine
 62
7
  6
CONTINUOUS
 10
186.425222806
 20
132.1353622525
 11
105.1076198822
 21
179.0871270318
  0
LINE
  5
849
100
AcDbEntity
  8
ASSI
100
AcDbLine
 62
7
  6
CONTINUOUS
 10
186.425222806
 20
132.1353622525
 11
105.1076198822
 21
179.0871270318
  0
LWPOLYLINE
  5
84A
100
AcDbEntity
  8
0
100
AcDbPolyline
 62
7
  6
CONTINUOUS
 90
4
 70
0
 10
189.4713873832
 20
85.6010530299
 10
189.4742954694
 20
85.5900588512
 10
189.4768572682
 20
85.5746093644
 10
189.4777592631
 20
85.5588004802
  0
LWPOLYLINE
  5
84B
100
AcDbEntity
  8
RACCORDO
100
AcDbPolyline
 62
7
  6
CONTINUOUS
 90
10
 70
0
 10
189.9763689679
 20
71.4087357602
 10
189.969764941
 20
71.442451354
 10
189.9657597558
 20
71.4789853228
 10
189.9644370134
 20
71.5186050517
 10
189.9657131126
 20
71.5610431557
 10
189.9693372502
 20
71.6054974798
 10
189.975660063
 20
71.6524893855
 10
189.9843309142
 20
71.7014975113
 10
189.9940470902
 20
71.750155618
 10
190.0047310912
 20
71.7976686659
  0
LWPOLYLINE
  5
84C
100
AcDbEntity
  8
RACCORDO
100
AcDbPolyline
 62
7
  6
CONTINUOUS
 90
23
 70
0
 10
189.4083741877
 20
71.1285113938
 10
189.4035993483
 20
71.1707189687
 10
189.4012545834
 20
71.2138326762
 10
189.401339893
 20
71.2578525162
 10
189.4038846661
 20
71.3023231876
 10
189.4088595137
 20
71.3476999915
 10
189.4161762684
 20
71.3953488312
 10
189.4262220636
 20
71.4461893681
 10
189.4386097659
 20
71.4993019408
 10
189.4520898085
 20
71.5532934685
 10
189.466645229
 20
71.6072481137
 10
189.4822929897
 20
71.6620817139
 10
189.497834411
 20
71.7191487015
 10
189.5136029244
 20
71.7797527239
 10
189.5292650984
 20
71.8425901338
 10
189.5426219586
 20
71.9051044216
 10
189.5534159999
 20
71.966315774
 10
189.5619047273
 20
72.0272040044
 10
189.5666616823
 20
72.0881520433
 10
189.5673461922
 20
72.1499370625
 10
189.5642989296
 20
72.2117818902
 10
189.5571154535
 20
72.2717379409
 10
189.5456609505
 20
72.3291556863
  0
LINE
  5
84D
100
AcDbEntity
  8
RACCORDO
100
AcDbLine
 62
7
  6
CONTINUOUS
 10
190.021736895
 20
71.27466845
 11
190.0176618299
 21
71.3110510693
  0
LWPOLYLINE
  5
84E
100
AcDbEntity
  8
0
100
AcDbPolyline
 62
7
  6
CONTINUOUS
 90
5
 70
0
 10
190.7320947001
 20
59.1940058263
 10
190.7307019966
 20
59.2233999782
 10
190.7266275336
 20
59.2523739622
 10
190.7198713111
 20
59.2809277782
 10
190.7180056345
 20
59.2872598092
  0
LWPOLYLINE
  5
84F
100
AcDbEntity
  8
RACCORDO
100
AcDbPolyline
 62
7
  6
CONTINUOUS
 90
8
 70
0
 10
190.0176618299
 20
71.3110510693
 10
190.0163807185
 20
71.3494214806
 10
190.0176926953
 20
71.3895754366
 10
190.0209951637
 20
71.4309001945
 10
190.0262954716
 20
71.4731502516
 10
190.0335862711
 20
71.5165711107
 10
190.0422429223
 20
71.5612865377
 10
190.0524426548
 20
71.6077116221
  0
LWPOLYLINE
  5
850
100
AcDbEntity
  8
RACCORDO
100
AcDbPolyline
 62
7
  6
CONTINUOUS
 90
8
 70
0
 10
189.5134781974
 20
72.3685693635
 10
189.5155573709
 20
72.3034733447
 10
189.513142358
 20
72.2362849377
 10
189.5056519836
 20
72.166430283
 10
189.4936674228
 20
72.09448324
 10
189.4791113637
 20
72.0220853885
 10
189.4615084302
 20
71.9488624105
 10
189.4219368843
 20
71.8038285634
  0
LINE
  5
851
100
AcDbEntity
  8
RACCORDO
100
AcDbLine
 62
7
  6
CONTINUOUS
 10
187.4857214341
 20
46.2017131824
 11
187.4857214341
 21
130.2985247492
  0
LINE
  5
852
100
AcDbEntity
  8
ASSI
100
AcDbLine
 62
7
  6
CONTINUOUS
 10
187.4857214341
 20
46.2017131824
 11
187.4857214341
 21
130.2985247492
  0
LINE
  5
853
100
AcDbEntity
  8
0
100
AcDbLine
 62
7
  6
CONTINUOUS
 10
187.7776821276
 20
58.8932200699
 11
187.7776821276
 21
57.2579355479
  0
LINE
  5
854
100
AcDbEntity
  8
0
100
AcDbLine
 62
7
  6
CONTINUOUS
 10
188.1195715512
 20
57.549570184
 11
188.1195715512
 21
57.579157514
  0
LINE
  5
855
100
AcDbEntity
  8
0
100
AcDbLine
 62
7
  6
CONTINUOUS
 10
188.1195715512
 20
57.9563212562
 11
188.1195715512
 21
59.0229242861
  0
LINE
  5
856
100
AcDbEntity
  8
0
100
AcDbLine
 62
7
  6
CONTINUOUS
 10
188.1716660045
 20
57.3789854877
 11
188.1716660045
 21
57.4085728178
  0
LINE
  5
857
100
AcDbEntity
  8
0
100
AcDbLine
 62
7
  6
CONTINUOUS
 10
188.1716660045
 20
57.78573656
 11
188.1716660045
 21
58.8523395899
  0
LINE
  5
858
100
AcDbEntity
  8
0
100
AcDbLine
 62
7
  6
CONTINUOUS
 10
189.0320150412
 20
85.5134197118
 11
189.0320150412
 21
84.368203563
  0
LINE
  5
859
100
AcDbEntity
  8
0
100
AcDbLine
 62
7
  6
CONTINUOUS
 10
189.0579388849
 20
59.8388570317
 11
189.0579388849
 21
59.4306116499
  0
LINE
  5
85A
100
AcDbEntity
  8
0
100
AcDbLine
 62
7
  6
CONTINUOUS
 10
189.0579388849
 20
56.9812096794
 11
189.0579388849
 21
56.5735796015
  0
LINE
  5
85B
100
AcDbEntity
  8
0
100
AcDbLine
 62
7
  6
CONTINUOUS
 10
189.3997646943
 20
56.7842689213
 11
189.3997646943
 21
57.1918989992
  0
LINE
  5
85C
100
AcDbEntity
  8
0
100
AcDbLine
 62
7
  6
CONTINUOUS
 10
189.3997646943
 20
59.6413009697
 11
189.3997646943
 21
59.9838253144
  0
LINE
  5
85D
100
AcDbEntity
  8
0
100
AcDbLine
 62
7
  6
CONTINUOUS
 10
189.4256648098
 20
84.5841690277
 11
189.4256648098
 21
85.6720702013
  0
LINE
  5
85E
100
AcDbEntity
  8
0
100
AcDbLine
 62
7
  6
CONTINUOUS
 10
189.4518591476
 20
56.6136842251
 11
189.4518591476
 21
57.021314303
  0
LINE
  5
85F
100
AcDbEntity
  8
0
100
AcDbLine
 62
7
  6
CONTINUOUS
 10
189.4518591476
 20
59.4707162735
 11
189.4518591476
 21
59.8789616553
  0
LINE
  5
860
100
AcDbEntity
  8
0
100
AcDbLine
 62
7
  6
CONTINUOUS
 10
189.4777592631
 20
84.4135843315
 11
189.4777592631
 21
85.5588004802
  0
LINE
  5
861
100
AcDbEntity
  8
0
100
AcDbLine
 62
7
  6
CONTINUOUS
 10
190.3382804611
 20
59.0730610577
 11
190.3382804611
 21
59.0434034072
  0
LINE
  5
862
100
AcDbEntity
  8
0
100
AcDbLine
 62
7
  6
CONTINUOUS
 10
190.3382804611
 20
58.6662220849
 11
190.3382804611
 21
57.5995663146
  0
LINE
  5
863
100
AcDbEntity
  8
0
100
AcDbLine
 62
7
  6
CONTINUOUS
 10
190.6800002468
 20
57.7293060005
 11
190.6800002468
 21
59.3645905226
  0
LINE
  5
864
100
AcDbEntity
  8
0
100
AcDbLine
 62
7
  6
CONTINUOUS
 10
190.7320947001
 20
57.5587213042
 11
190.7320947001
 21
59.1940058263
  0
LINE
  5
865
100
AcDbEntity
  8
RACCORDO
100
AcDbLine
 62
250
  6
CONTINUOUS
 10
192.4416962116
 20
48.3688708497
 11
192.4416962116
 21
134.0501641702
  0
LINE
  5
866
100
AcDbEntity
  8
RACCORDO
100
AcDbLine
 62
250
  6
CONTINUOUS
 10
192.6958713028
 20
48.442041446
 11
192.6958713028
 21
134.1233347666
  0
LINE
  5
867
100
AcDbEntity
  8
RACCORDO
100
AcDbLine
 62
7
  6
CONTINUOUS
 10
189.1292289354
 20
72.3350582514
 11
189.1295529618
 21
72.3485795947
  0
LWPOLYLINE
  5
868
100
AcDbEntity
  8
RACCORDO
100
AcDbPolyline
 62
7
  6
CONTINUOUS
 90
8
 70
0
 10
189.7503723356
 20
72.0634640358
 10
189.749566627
 20
72.0330655443
 10
189.7474935377
 20
72.0024965879
 10
189.7441530678
 20
71.9717571664
 10
189.7394381219
 20
71.9413479449
 10
189.7334557954
 20
71.9107682585
 10
189.7265273744
 20
71.8785161121
 10
189.7185269921
 20
71.8437334613
  0
LWPOLYLINE
  5
869
100
AcDbEntity
  8
RACCORDO
100
AcDbPolyline
 62
7
  6
CONTINUOUS
 90
13
 70
0
 10
189.7503723356
 20
72.0634640358
 10
189.750950318
 20
72.0790558607
 10
189.7533510675
 20
72.0943870351
 10
189.7575745841
 20
72.1094575589
 10
189.7637052368
 20
72.1244234233
 10
189.7716586566
 20
72.1391286372
 10
189.781181737
 20
72.1531052274
 10
189.7923249656
 20
72.1663297577
 10
189.8050378548
 20
72.1788256643
 10
189.8189158343
 20
72.1901952821
 10
189.8338240472
 20
72.2003060561
 10
189.8498973504
 20
72.2092905413
 10
189.8671357439
 20
72.2171487377
  0
LWPOLYLINE
  5
86A
100
AcDbEntity
  8
0
100
AcDbPolyline
 62
7
  6
CONTINUOUS
 90
19
 70
0
 10
189.0320150412
 20
85.5134197118
 10
189.032906549
 20
85.5292893573
 10
189.0354291235
 20
85.5451354524
 10
189.0395827648
 20
85.5609579969
 10
189.0454376289
 20
85.5769450808
 10
189.0529235598
 20
85.5929086142
 10
189.0618300891
 20
85.6082843276
 10
189.0721397769
 20
85.6229831458
 10
189.0838700631
 20
85.6370941441
 10
189.0968627991
 20
85.6503202782
 10
189.1111754781
 20
85.6626282636
 10
189.126750607
 20
85.674051385
 10
189.1432575577
 20
85.6843924525
 10
189.1608201623
 20
85.693675951
 10
189.1793145887
 20
85.7018773956
 10
189.1980387132
 20
85.7087261419
 10
189.2167584945
 20
85.7141319752
 10
189.2357079739
 20
85.7181851102
 10
189.2548871513
 20
85.7208855468
  0
LWPOLYLINE
  5
86B
100
AcDbEntity
  8
0
100
AcDbPolyline
 62
7
  6
CONTINUOUS
 90
19
 70
0
 10
189.4777592631
 20
84.4135843315
 10
189.4768677553
 20
84.397714686
 10
189.4743451807
 20
84.3818685909
 10
189.4701915395
 20
84.3660460463
 10
189.4643366753
 20
84.3500589624
 10
189.4568507445
 20
84.334095429
 10
189.4479442152
 20
84.3187197157
 10
189.4376345274
 20
84.3040208974
 10
189.4259042412
 20
84.2899098992
 10
189.4129115052
 20
84.276683765
 10
189.3985988262
 20
84.2643757796
 10
189.3830236973
 20
84.2529526583
 10
189.3665167466
 20
84.2426115908
 10
189.348954142
 20
84.2333280923
 10
189.3304597156
 20
84.2251266477
 10
189.3117355911
 20
84.2182779013
 10
189.2930158098
 20
84.2128720681
 10
189.2740663304
 20
84.2088189331
 10
189.254887153
 20
84.2061184964
  0
LWPOLYLINE
  5
86C
100
AcDbEntity
  8
RACCORDO
100
AcDbPolyline
 62
7
  6
CONTINUOUS
 90
13
 70
0
 10
190.0437019914
 20
71.1687521025
 10
190.0428597464
 20
71.1555407554
 10
190.0405993985
 20
71.1421936573
 10
190.0369747661
 20
71.1290286001
 10
190.031953106
 20
71.1160499529
 10
190.0255671613
 20
71.1032533467
 10
190.0179689804
 20
71.0909434664
 10
190.0091294691
 20
71.0791319935
 10
189.9990777216
 20
71.0678072466
 10
189.9880530681
 20
71.0572388658
 10
189.9761352854
 20
71.0475167312
 10
189.9632445968
 20
71.0385509627
 10
189.9493810022
 20
71.0303415604
  0
LWPOLYLINE
  5
86D
100
AcDbEntity
  8
0
100
AcDbPolyline
 62
7
  6
CONTINUOUS
 90
16
 70
0
 10
188.1195715512
 20
59.0229242861
 10
188.1207410558
 20
59.0398125448
 10
188.1239615784
 20
59.0565450844
 10
188.1292331191
 20
59.073121905
 10
188.136711703
 20
59.0898376773
 10
188.146241305
 20
59.1063977305
 10
188.1573538498
 20
59.1219180525
 10
188.1699381316
 20
59.1361456937
 10
188.1841053562
 20
59.1493336038
 10
188.1997210657
 20
59.1613566191
 10
188.2170767058
 20
59.1723366084
 10
188.2358808309
 20
59.182151703
 10
188.255124645
 20
59.1903111332
 10
188.2744718829
 20
59.1966513093
 10
188.29425881
 20
59.201335821
 10
188.3144854261
 20
59.2043646684
  0
LWPOLYLINE
  5
86E
100
AcDbEntity
  8
0
100
AcDbPolyline
 62
7
  6
CONTINUOUS
 90
16
 70
0
 10
188.1716660045
 20
58.8523395899
 10
188.1728313268
 20
58.8691193937
 10
188.17600745
 20
58.8857342584
 10
188.1811943742
 20
58.9021841841
 10
188.1884924817
 20
58.9187149578
 10
188.1978013902
 20
58.9350807924
 10
188.2088199524
 20
58.9505443266
 10
188.2215623051
 20
58.9649785003
 10
188.2360143115
 20
58.9785103735
 10
188.2518324139
 20
58.9907837645
 10
188.2692043912
 20
59.0018097106
 10
188.2879424646
 20
59.0115771744
 10
188.3071397396
 20
59.0196968619
 10
188.3264939179
 20
59.0260390083
 10
188.3463072979
 20
59.0307333784
 10
188.3665798794
 20
59.0337799722
  0
LWPOLYLINE
  5
86F
100
AcDbEntity
  8
CURVE
100
AcDbPolyline
 62
250
  6
CONTINUOUS
 90
49
 70
0
 10
184.7842574432
 20
51.9485869243
 10
184.7850063189
 20
51.9555633846
 10
184.7859113959
 20
51.9626273863
 10
184.7869722352
 20
51.9697714604
 10
184.7881883976
 20
51.9769881376
 10
184.789559444
 20
51.984269949
 10
184.7910849352
 20
51.9916094255
 10
184.7927644322
 20
51.9989990979
 10
184.7945974958
 20
52.0064314973
 10
184.7965836869
 20
52.0138991545
 10
184.7987225664
 20
52.0213946004
 10
184.8010136951
 20
52.028910366
 10
184.803456634
 20
52.0364389822
 10
184.806050944
 20
52.0439729799
 10
184.8087961858
 20
52.0515048901
 10
184.8116919205
 20
52.0590272436
 10
184.8147377088
 20
52.0665325713
 10
184.8179331116
 20
52.0740134043
 10
184.8212776899
 20
52.0814622734
 10
184.8247710045
 20
52.0888717095
 10
184.8284126164
 20
52.0962342435
 10
184.8322020862
 20
52.1035424065
 10
184.8361389751
 20
52.1107887292
 10
184.8402228438
 20
52.1179657427
 10
184.8444532532
 20
52.1250659778
 10
184.84880472
 20
52.1320446358
 10
184.8532938914
 20
52.1389340703
 10
184.8579139409
 20
52.1457283995
 10
184.862658042
 20
52.1524217417
 10
184.8675193682
 20
52.1590082152
 10
184.8724910932
 20
52.1654819382
 10
184.8775663905
 20
52.171837029
 10
184.8827384336
 20
52.1780676058
 10
184.8880003961
 20
52.1841677869
 10
184.8933454515
 20
52.1901316905
 10
184.8987667734
 20
52.1959534349
 10
184.9042575352
 20
52.2016271384
 10
184.9098109107
 20
52.2071469192
 10
184.9154200732
 20
52.2125068956
 10
184.9210781964
 20
52.2177011858
 10
184.9267784539
 20
52.222723908
 10
184.932514019
 20
52.2275691806
 10
184.9382780655
 20
52.2322311218
 10
184.9440637668
 20
52.2367038499
 10
184.9498642966
 20
52.240981483
 10
184.9556728282
 20
52.2450581396
 10
184.9614825354
 20
52.2489279377
 10
184.9672865916
 20
52.2525849957
 10
184.9730781704
 20
52.2560234319
  0
LWPOLYLINE
  5
870
100
AcDbEntity
  8
0
100
AcDbPolyline
 62
7
  6
CONTINUOUS
 90
13
 70
0
 10
188.6380852379
 20
85.061065966
 10
188.6537601827
 20
85.0720372065
 10
188.6681717132
 20
85.0841594793
 10
188.6813198294
 20
85.0974327843
 10
188.6933899506
 20
85.1120455702
 10
188.7041966576
 20
85.1278093884
 10
188.713183692
 20
85.1441588925
 10
188.7203522641
 20
85.1611488071
 10
188.7257011638
 20
85.1787244075
 10
188.7286705022
 20
85.1961561738
 10
188.7290436931
 20
85.2133782536
 10
188.7270373228
 20
85.2304564992
 10
188.7242487605
 20
85.24225014
  0
LWPOLYLINE
  5
871
100
AcDbEntity
  8
0
100
AcDbPolyline
 62
7
  6
CONTINUOUS
 90
4
 70
0
 10
188.5859907846
 20
85.2316506622
 10
188.6015629439
 20
85.2423500456
 10
188.6160088512
 20
85.2545103183
 10
188.6293285065
 20
85.2681314803
  0
LWPOLYLINE
  5
872
100
AcDbEntity
  8
0
100
AcDbPolyline
 62
7
  6
CONTINUOUS
 90
22
 70
0
 10
188.4270981779
 20
85.3185468183
 10
188.3476793989
 20
85.2666876317
 10
188.2717205087
 20
85.2113585424
 10
188.1992215072
 20
85.1525595504
 10
188.129820739
 20
85.0900179253
 10
188.0638798596
 20
85.0240063975
 10
188.0024838348
 20
84.9553431582
 10
187.9456805191
 20
84.883981233
 10
187.893422058
 20
84.8099675962
 10
187.8466498542
 20
84.7342613627
 10
187.8055645643
 20
84.6568727451
 10
187.7699655318
 20
84.5777915309
 10
187.7401921895
 20
84.4979461964
 10
187.7163051768
 20
84.4173388007
 10
187.6982438543
 20
84.3359672848
 10
187.6861657376
 20
84.2547539487
 10
187.6801274219
 20
84.1737286665
 10
187.680072312
 20
84.0928615641
 10
187.6859881382
 20
84.0129853195
 10
187.6979211321
 20
83.9340622972
 10
187.7158250621
 20
83.8561301328
 10
187.7250663912
 20
83.8240574859
  0
LINE
  5
873
100
AcDbEntity
  8
RACCORDO
100
AcDbLine
 62
250
  6
CONTINUOUS
 10
192.1520822289
 20
134.5517903023
 11
109.4622336465
 21
182.2958725266
  0
LINE
  5
874
100
AcDbEntity
  8
RACCORDO
100
AcDbLine
 62
250
  6
CONTINUOUS
 10
192.3425332874
 20
134.7353341609
 11
109.6526847049
 21
182.4794163852
  0
LINE
  5
875
100
AcDbEntity
  8
RACCORDO
100
AcDbLine
 62
7
  6
CONTINUOUS
 10
192.9660143635
 20
135.0953219725
 11
110.2340902143
 21
182.8636981017
  0
LWPOLYLINE
  5
876
100
AcDbEntity
  8
RACCORDO
100
AcDbPolyline
 62
250
  6
CONTINUOUS
 90
22
 70
0
 10
192.3425332874
 20
134.7353341609
 10
192.3680320552
 20
134.7184124425
 10
192.3934573414
 20
134.6993469004
 10
192.4186671778
 20
134.6782439914
 10
192.4435207992
 20
134.6552215489
 10
192.4678794293
 20
134.6304081241
 10
192.491607056
 20
134.6039422688
 10
192.5145711902
 20
134.5759717614
 10
192.5366436064
 20
134.546652782
 10
192.5577010577
 20
134.5161490402
 10
192.5776259649
 20
134.4846308609
 10
192.5963070725
 20
134.4522742335
 10
192.61364007
 20
134.419259829
 10
192.6295281744
 20
134.3857719912
 10
192.6438826706
 20
134.3519977076
 10
192.656623407
 20
134.3181255649
 10
192.6676792426
 20
134.2843446965
 10
192.6769884443
 20
134.2508437259
 10
192.6844990321
 20
134.2178097139
 10
192.6901690688
 20
134.1854271138
 10
192.6939668944
 20
134.1538767417
 10
192.6958713028
 20
134.1233347666
  0
LINE
  5
877
100
AcDbEntity
  8
RACCORDO
100
AcDbLine
 62
7
  6
CONTINUOUS
 10
193.3193523789
 20
48.7534461433
 11
193.3193523789
 21
134.4833225781
  0
LWPOLYLINE
  5
878
100
AcDbEntity
  8
RACCORDO
100
AcDbPolyline
 62
250
  6
CONTINUOUS
 90
12
 70
0
 10
192.6958713028
 20
48.442041446
 10
192.6939668944
 20
48.4116528376
 10
192.6901690688
 20
48.3826128468
 10
192.6844990321
 20
48.3550836254
 10
192.6769884443
 20
48.3292188893
 10
192.6676792426
 20
48.3051630607
 10
192.656623407
 20
48.2830504609
 10
192.6438826706
 20
48.263004561
 10
192.6295281744
 20
48.2451372922
 10
192.61364007
 20
48.2295484205
 10
192.5963070725
 20
48.2163249902
 10
192.5782861434
 20
48.2058687446
  0
LWPOLYLINE
  5
879
100
AcDbEntity
  8
0
100
AcDbPolyline
 62
7
  6
CONTINUOUS
 90
16
 70
0
 10
190.3382804611
 20
57.5995663146
 10
190.3371005586
 20
57.5826996992
 10
190.3339232716
 20
57.5660285523
 10
190.3287485998
 20
57.549552874
 10
190.3214751093
 20
57.5330313928
 10
190.3122042342
 20
57.5167053801
 10
190.3012402768
 20
57.5012986505
 10
190.2885801428
 20
57.4869439147
 10
190.2742269265
 20
57.473508462
 10
190.2584942138
 20
57.4613179739
 10
190.2411920822
 20
57.4503524524
 10
190.2225104541
 20
57.4406318956
 10
190.2033326827
 20
57.4325419799
 10
190.183953219
 20
57.426211264
 10
190.1640776121
 20
57.4215111892
 10
190.1437058618
 20
57.4184417554
  0
LWPOLYLINE
  5
87A
100
AcDbEntity
  8
RACCORDO
100
AcDbPolyline
 62
7
  6
CONTINUOUS
 90
10
 70
0
 10
189.1295529618
 20
72.3485795947
 10
189.1313704351
 20
72.3622866333
 10
189.1346357861
 20
72.3758356936
 10
189.1393856231
 20
72.3892227812
 10
189.1455833378
 20
72.4024518905
 10
189.1530735363
 20
72.415191331
 10
189.1618888979
 20
72.4274287218
 10
189.1719967432
 20
72.4391764437
 10
189.1831436406
 20
72.4501399488
 10
189.1952451128
 20
72.4602210543
  0
LWPOLYLINE
  5
87B
100
AcDbEntity
  8
RACCORDO
100
AcDbPolyline
 62
7
  6
CONTINUOUS
 90
6
 70
0
 10
189.9885049452
 20
71.3127783535
 10
189.9907652931
 20
71.3261254516
 10
189.9916075381
 20
71.3393367987
 10
189.9910137405
 20
71.3523064641
 10
189.98900184
 20
71.3651403783
 10
189.9855718364
 20
71.3778385415
  0
LWPOLYLINE
  5
87C
100
AcDbEntity
  8
RACCORDO
100
AcDbPolyline
 62
7
  6
CONTINUOUS
 90
8
 70
0
 10
189.3861489439
 20
71.669323912
 10
189.3717582636
 20
71.6063952698
 10
189.3612322942
 20
71.5468413968
 10
189.3538209559
 20
71.4904543445
 10
189.3496113233
 20
71.4374633626
 10
189.3486324213
 20
71.3879448679
 10
189.350855225
 20
71.3418224437
 10
189.3562797344
 20
71.29909609
  0
LINE
  5
87D
100
AcDbEntity
  8
RACCORDO
100
AcDbLine
 62
7
  6
CONTINUOUS
 10
190.0524426548
 20
71.6077116221
 11
190.0757833459
 21
71.7033239923
  0
LINE
  5
87E
100
AcDbEntity
  8
RACCORDO
100
AcDbLine
 62
7
  6
CONTINUOUS
 10
189.7185269921
 20
71.8437334613
 11
189.7003868306
 21
71.7702229175
  0
LWPOLYLINE
  5
87F
100
AcDbEntity
  8
RACCORDO
100
AcDbPolyline
 62
7
  6
CONTINUOUS
 90
7
 70
0
 10
190.0047310912
 20
71.7976686659
 10
190.0513788634
 20
71.9842798652
 10
190.0620586184
 20
72.0301912942
 10
190.0719766555
 20
72.0760417268
 10
190.0809798874
 20
72.1216610174
 10
190.0877191354
 20
72.1666387266
 10
190.0917446734
 20
72.2108380414
  0
LWPOLYLINE
  5
880
100
AcDbEntity
  8
RACCORDO
100
AcDbPolyline
 62
7
  6
CONTINUOUS
 90
9
 70
0
 10
190.0757833459
 20
71.7033239923
 10
190.0998808931
 20
71.7989283761
 10
190.111209475
 20
71.8469190364
 10
190.1219123432
 20
71.8953632614
 10
190.1317902583
 20
71.9439094221
 10
190.1392110261
 20
71.9914315011
 10
190.1436305818
 20
72.0375541593
 10
190.1455929902
 20
72.0826527358
 10
190.1450982513
 20
72.1267272307
  0
LWPOLYLINE
  5
881
100
AcDbEntity
  8
RACCORDO
100
AcDbPolyline
 62
7
  6
CONTINUOUS
 90
15
 70
0
 10
189.7003868306
 20
71.7702229175
 10
189.6815006866
 20
71.6955296691
 10
189.6720214157
 20
71.6565268224
 10
189.6624633818
 20
71.6160395578
 10
189.652992753
 20
71.5741962318
 10
189.6444426466
 20
71.5306261752
 10
189.6366131025
 20
71.4852374947
 10
189.6297040809
 20
71.4381220835
 10
189.6251485798
 20
71.3891849522
 10
189.6230282887
 20
71.3376636415
 10
189.6232615182
 20
71.2843206107
 10
189.6270361988
 20
71.2313482483
 10
189.6347483073
 20
71.1794773502
 10
189.6460018668
 20
71.1279771206
 10
189.6540714745
 20
71.0976410995
  0
LWPOLYLINE
  5
882
100
AcDbEntity
  8
CURVE
100
AcDbPolyline
 62
250
  6
CONTINUOUS
 90
32
 70
0
 10
184.569373339
 20
52.087019666
 10
184.5630918305
 20
52.0628014431
 10
184.5573504099
 20
52.0386854724
 10
184.5521228774
 20
52.0146747114
 10
184.5473830335
 20
51.9907721176
 10
184.5431046785
 20
51.9669806485
 10
184.5392616128
 20
51.9433032615
 10
184.5358276368
 20
51.9197429141
 10
184.5327765508
 20
51.8963025638
 10
184.5300821553
 20
51.872985168
 10
184.5277182505
 20
51.8497936842
 10
184.525658637
 20
51.8267310699
 10
184.523877115
 20
51.8038002825
 10
184.5216747916
 20
51.7695639821
 10
184.5200194464
 20
51.7356233845
 10
184.5188882765
 20
51.7019693095
 10
184.5182584791
 20
51.6685925769
 10
184.5181072513
 20
51.6354840064
 10
184.5184117902
 20
51.6026344177
 10
184.519149293
 20
51.5700346306
 10
184.5202969568
 20
51.5376754649
 10
184.5218319786
 20
51.5055477401
 10
184.5237315557
 20
51.4736422762
 10
184.5259728852
 20
51.4419498928
 10
184.5285331642
 20
51.4104614096
 10
184.5313895898
 20
51.3791676465
 10
184.5345193591
 20
51.3480594231
 10
184.5378996693
 20
51.3171275592
 10
184.5415077175
 20
51.2863628745
 10
184.5453207009
 20
51.2557561888
 10
184.5493158165
 20
51.2252983217
 10
184.5534702615
 20
51.1949800931
  0
LINE
  5
883
100
AcDbEntity
  8
RACCORDO
100
AcDbLine
 62
7
  6
CONTINUOUS
 10
189.4219368843
 20
71.8038285634
 11
189.3861489439
 21
71.669323912
  0
LWPOLYLINE
  5
884
100
AcDbEntity
  8
RACCORDO
100
AcDbPolyline
 62
7
  6
CONTINUOUS
 90
11
 70
0
 10
188.4203160539
 20
71.4314256589
 10
188.4071657916
 20
71.3867488173
 10
188.395228638
 20
71.3425814263
 10
188.3843450868
 20
71.2979462359
 10
188.375824791
 20
71.2517749695
 10
188.3697283863
 20
71.2030163521
 10
188.365995237
 20
71.1527216588
 10
188.3657530889
 20
71.102976438
 10
188.3693778573
 20
71.0544758726
 10
188.376493627
 20
71.0065247797
 10
188.3871003978
 20
70.9591231594
  0
LINE
  5
885
100
AcDbEntity
  8
RACCORDO
100
AcDbLine
 62
7
  6
CONTINUOUS
 10
188.4714828346
 20
71.5914299427
 11
188.4203160539
 21
71.4314256589
  0
LWPOLYLINE
  5
886
100
AcDbEntity
  8
0
100
AcDbPolyline
 62
7
  6
CONTINUOUS
 90
5
 70
0
 10
188.6293285065
 20
85.2681314803
 10
188.6418491432
 20
85.283652757
 10
188.653243528
 20
85.3006349231
 10
188.6625299599
 20
85.3177603023
 10
188.6633141604
 20
85.3197057047
  0
LINE
  5
887
100
AcDbEntity
  8
RACCORDO
100
AcDbLine
 62
7
  6
CONTINUOUS
 10
189.9076020485
 20
72.2334382848
 11
189.8671357439
 21
72.2171487377
  0
LWPOLYLINE
  5
888
100
AcDbEntity
  8
RACCORDO
100
AcDbPolyline
 62
7
  6
CONTINUOUS
 90
18
 70
0
 10
189.9076020485
 20
72.2334382848
 10
189.9255301841
 20
72.2397384264
 10
189.9435273861
 20
72.2444744033
 10
189.9615936546
 20
72.2476462156
 10
189.9799237417
 20
72.2492543285
 10
189.9983228952
 20
72.2492982766
 10
190.0162068589
 20
72.2477766647
 10
190.0335590981
 20
72.244639247
 10
190.0503961474
 20
72.2399362692
 10
190.0661833544
 20
72.233817072
 10
190.0808870253
 20
72.2262362029
 10
190.0945408538
 20
72.2172391145
 10
190.1067112692
 20
72.2071115049
 10
190.1173506626
 20
72.1958170909
 10
190.1265066428
 20
72.1833921559
 10
190.1338884662
 20
72.1702312475
 10
190.1393992181
 20
72.1564658818
 10
190.1402706842
 20
72.1537801551
  0
LWPOLYLINE
  5
889
100
AcDbEntity
  8
RACCORDO
100
AcDbPolyline
 62
7
  6
CONTINUOUS
 90
18
 70
0
 10
189.2537602425
 20
70.9439683555
 10
189.2367827033
 20
70.9380145393
 10
189.2197223754
 20
70.9334656872
 10
189.2025792588
 20
70.9303217994
 10
189.1851866957
 20
70.9285796602
 10
189.1677113438
 20
70.9282424853
 10
189.1506531768
 20
70.9293199211
 10
189.1340242453
 20
70.9318528299
 10
189.1178124987
 20
70.9358003494
 10
189.1024817584
 20
70.9410495404
 10
189.0880574731
 20
70.9476380026
 10
189.0745141941
 20
70.9555281362
 10
189.0622393977
 20
70.9644942029
 10
189.0512697248
 20
70.9745672817
 10
189.0415685344
 20
70.9857162935
 10
189.0334133797
 20
70.9976222628
 10
189.0268967783
 20
71.0101788643
 10
189.0217639159
 20
71.0238812123
  0
LWPOLYLINE
  5
88A
100
AcDbEntity
  8
RACCORDO
100
AcDbPolyline
 62
250
  6
CONTINUOUS
 90
12
 70
0
 10
109.6526847049
 20
182.4794163852
 10
109.6254143396
 20
182.492962903
 10
109.5983651417
 20
182.5041954703
 10
109.5716881471
 20
182.5130513673
 10
109.5455323131
 20
182.519481145
 10
109.520043687
 20
182.5234489012
 10
109.4953645909
 20
182.5249324809
 10
109.4716328263
 20
182.5239236003
 10
109.4489809052
 20
182.5204278927
 10
109.4275353102
 20
182.5144648772
 10
109.4074157878
 20
182.5060678497
 10
109.3893255967
 20
182.4956760789
  0
LWPOLYLINE
  5
88B
100
AcDbEntity
  8
RACCORDO
100
AcDbPolyline
 62
250
  6
CONTINUOUS
 90
16
 70
0
 10
192.1520822289
 20
134.5517903023
 10
192.1661474003
 20
134.520053097
 10
192.1814923365
 20
134.4870574441
 10
192.1980129818
 20
134.4530270911
 10
192.2155973077
 20
134.4181928018
 10
192.2341260727
 20
134.3827907918
 10
192.2534736311
 20
134.3470611262
 10
192.2735087848
 20
134.3112460923
 10
192.294095673
 20
134.275588556
 10
192.3150946936
 20
134.2403303153
 10
192.3363634497
 20
134.2057104606
 10
192.3577577153
 20
134.1719637533
 10
192.3791324133
 20
134.1393190338
 10
192.4003425994
 20
134.1079976699
 10
192.4212444448
 20
134.0782120554
 10
192.4416962116
 20
134.0501641702
  0
LINE
  5
88C
100
AcDbEntity
  8
RACCORDO
100
AcDbLine
 62
7
  6
CONTINUOUS
 10
189.9848803128
 20
71.2996132963
 11
189.9885049452
 21
71.3127783535
  0
LINE
  5
88D
100
AcDbEntity
  8
RACCORDO
100
AcDbLine
 62
7
  6
CONTINUOUS
 10
188.1546021009
 20
71.4607725488
 11
188.1587272274
 21
71.4686657459
  0
LINE
  5
88E
100
AcDbEntity
  8
RACCORDO
100
AcDbLine
 62
7
  6
CONTINUOUS
 10
188.1196375432
 20
71.3964478027
 11
188.1546021009
 21
71.4607725488
  0
LWPOLYLINE
  5
88F
100
AcDbEntity
  8
RACCORDO
100
AcDbPolyline
 62
7
  6
CONTINUOUS
 90
12
 70
0
 10
188.2066965542
 20
71.2901878526
 10
188.1732864144
 20
71.2289762288
 10
188.1446516141
 20
71.1670575995
 10
188.1207921534
 20
71.1044319649
 10
188.1016415171
 20
71.0408184074
 10
188.0872662204
 20
70.9764978446
 10
188.0778658088
 20
70.9123130284
 10
188.0735094114
 20
70.848275927
 10
188.0741278992
 20
70.7843745723
 10
188.0797134307
 20
70.7214158119
 10
188.0903289855
 20
70.6594116002
 10
188.1071840379
 20
70.5940261088
  0
LWPOLYLINE
  5
890
100
AcDbEntity
  8
RACCORDO
100
AcDbPolyline
 62
7
  6
CONTINUOUS
 90
14
 70
0
 10
187.8600049808
 20
71.4100086387
 10
187.8187188224
 20
71.3355628508
 10
187.7827339103
 20
71.2602432929
 10
187.7520502444
 20
71.1840499648
 10
187.7265916223
 20
71.1066984325
 10
187.7064342464
 20
71.02847313
 10
187.6918067239
 20
70.9502273602
 10
187.6827729217
 20
70.8719696071
 10
187.6792689728
 20
70.7936913867
 10
187.6813318833
 20
70.7162205488
 10
187.6890207329
 20
70.6395656659
 10
187.7022764419
 20
70.5637181655
 10
187.7209587766
 20
70.4894801799
 10
187.7246709672
 20
70.4770484239
  0
LWPOLYLINE
  5
891
100
AcDbEntity
  8
RACCORDO
100
AcDbPolyline
 62
7
  6
CONTINUOUS
 90
19
 70
0
 10
187.8600049808
 20
71.4100086387
 10
187.8686309037
 20
71.42299076
 10
187.8783851636
 20
71.4351865528
 10
187.8892677604
 20
71.4465960171
 10
187.9013948256
 20
71.4573060956
 10
187.9146502277
 20
71.4672298455
 10
187.9286855725
 20
71.4761064391
 10
187.9435215405
 20
71.4839081105
 10
187.9591374512
 20
71.4906626256
 10
187.9751228686
 20
71.4961924542
 10
187.9914875903
 20
71.500465123
 10
188.0082218187
 20
71.5035131053
 10
188.0248857248
 20
71.5052562904
 10
188.0414774441
 20
71.5056600809
 10
188.0579988411
 20
71.5047590741
 10
188.0740156808
 20
71.5025769515
 10
188.0893832181
 20
71.4991216067
 10
188.1042461982
 20
71.4943851459
 10
188.1186046209
 20
71.4883675693
  0
LWPOLYLINE
  5
892
100
AcDbEntity
  8
RACCORDO
100
AcDbPolyline
 62
7
  6
CONTINUOUS
 90
3
 70
0
 10
189.1952451128
 20
72.4602210543
 10
189.2083856369
 20
72.4695179429
 10
189.2225652131
 20
72.4780306147
  0
LINE
  5
893
100
AcDbEntity
  8
RACCORDO
100
AcDbLine
 62
7
  6
CONTINUOUS
 10
190.3911722069
 20
71.7197353771
 11
190.3586337986
 21
71.6975335425
  0
LWPOLYLINE
  5
894
100
AcDbEntity
  8
RACCORDO
100
AcDbPolyline
 62
7
  6
CONTINUOUS
 90
19
 70
0
 10
190.3911722069
 20
71.7197353771
 10
190.4055306296
 20
71.7286765868
 10
190.4203936096
 20
71.7364394174
 10
190.435761147
 20
71.7430238691
 10
190.4517779867
 20
71.7484673083
 10
190.4682993836
 20
71.7527323685
 10
190.4848911029
 20
71.7557069503
 10
190.501555009
 20
71.7573568361
 10
190.5182892374
 20
71.7577162435
 10
190.5346539591
 20
71.7567757262
 10
190.5506393765
 20
71.754500816
 10
190.5662552872
 20
71.7509259811
 10
190.5810912552
 20
71.7461451795
 10
190.5951266
 20
71.7401264344
 10
190.6083820022
 20
71.7329017226
 10
190.6205090674
 20
71.7246609327
 10
190.6313916642
 20
71.7154673607
 10
190.641145924
 20
71.7052577106
 10
190.6497718469
 20
71.6940319823
  0
LWPOLYLINE
  5
895
100
AcDbEntity
  8
RACCORDO
100
AcDbPolyline
 62
7
  6
CONTINUOUS
 90
4
 70
0
 10
189.8972865489
 20
71.2009262566
 10
189.9111501435
 20
71.2091356589
 10
189.9240408321
 20
71.2181014274
 10
189.9359586148
 20
71.227823562
  0
LINE
  5
896
100
AcDbEntity
  8
RACCORDO
100
AcDbLine
 62
7
  6
CONTINUOUS
 10
188.628812813
 20
72.1026584358
 11
188.595541146
 21
72.083214111
  0
LINE
  5
897
100
AcDbEntity
  8
RACCORDO
100
AcDbLine
 62
7
  6
CONTINUOUS
 10
189.2576685685
 20
72.4972325638
 11
189.2225652131
 21
72.4780306147
  0
LINE
  5
898
100
AcDbEntity
  8
RACCORDO
100
AcDbLine
 62
7
  6
CONTINUOUS
 10
189.8626230158
 20
71.1821829358
 11
189.8972865489
 21
71.2009262566
  0
LINE
  5
899
100
AcDbEntity
  8
RACCORDO
100
AcDbLine
 62
7
  6
CONTINUOUS
 10
189.9147174691
 20
71.0115982396
 11
189.9493810022
 21
71.0303415604
  0
LWPOLYLINE
  5
89A
100
AcDbEntity
  8
RACCORDO
100
AcDbPolyline
 62
7
  6
CONTINUOUS
 90
16
 70
0
 10
188.618143356
 20
71.0691756006
 10
188.6323701012
 20
71.0767575261
 10
188.6456905529
 20
71.0851383088
 10
188.6581047113
 20
71.0943179489
 10
188.6696966606
 20
71.1043819248
 10
188.6803823164
 20
71.1152447581
 10
188.689909426
 20
71.1266500133
 10
188.698250423
 20
71.1386105968
 10
188.7054328738
 20
71.1511136022
 10
188.7112872246
 20
71.1638638751
 10
188.7157818746
 20
71.176867299
 10
188.7189484245
 20
71.1901179904
 10
188.7207121227
 20
71.2033031445
 10
188.7210480519
 20
71.2163184931
 10
188.7199811293
 20
71.2292683043
 10
188.717511355
 20
71.2421525782
  0
LWPOLYLINE
  5
89B
100
AcDbEntity
  8
RACCORDO
100
AcDbPolyline
 62
7
  6
CONTINUOUS
 90
19
 70
0
 10
188.628812813
 20
72.1026584358
 10
188.6454286633
 20
72.1113793947
 10
188.6624494007
 20
72.1186169619
 10
188.6798750251
 20
72.1243711375
 10
188.6978992418
 20
72.1286715303
 10
188.7163283455
 20
72.1314885314
 10
188.7345812208
 20
72.1327333138
 10
188.7526522517
 20
72.1323557749
 10
188.7705470541
 20
72.1304060171
 10
188.7877013606
 20
72.1269455214
 10
188.8040915732
 20
72.1219261442
 10
188.8197412898
 20
72.115396029
 10
188.8341570359
 20
72.1075610866
 10
188.8472994879
 20
72.0983797353
 10
188.8592079694
 20
72.0878935568
 10
188.8695069762
 20
72.0764332064
 10
188.8780713405
 20
72.0641089023
 10
188.8850262302
 20
72.0508104263
 10
188.8903716453
 20
72.0365377783
  0
LWPOLYLINE
  5
89C
100
AcDbEntity
  8
RACCORDO
100
AcDbPolyline
 62
7
  6
CONTINUOUS
 90
19
 70
0
 10
189.2576685685
 20
72.4972325638
 10
189.2735194332
 20
72.5050505994
 10
189.2897030431
 20
72.5115454528
 10
189.306219398
 20
72.516717124
 10
189.3232303987
 20
72.5205894083
 10
189.3405741444
 20
72.5231385103
 10
189.3577649334
 20
72.524293044
 10
189.3747984418
 20
72.5240135872
 10
189.3916789934
 20
72.5223395619
 10
189.4079338578
 20
72.5193178484
 10
189.423545348
 20
72.5149103497
 10
189.4385311511
 20
72.5091551628
 10
189.452471598
 20
72.5022134583
 10
189.4653371383
 20
72.4940516956
 10
189.4771573225
 20
72.4847034153
 10
189.487601133
 20
72.4744304109
 10
189.4965582304
 20
72.4633199468
 10
189.5041389542
 20
72.4512847585
 10
189.5103433041
 20
72.438324846
  0
LWPOLYLINE
  5
89D
100
AcDbEntity
  8
RACCORDO
100
AcDbPolyline
 62
7
  6
CONTINUOUS
 90
19
 70
0
 10
189.9147174691
 20
71.0115982396
 10
189.898467053
 20
71.0037002042
 10
189.8818904237
 20
70.9971870036
 10
189.8649875812
 20
70.9920586379
 10
189.8475860833
 20
70.9882919379
 10
189.8298583722
 20
70.9859100729
 10
189.8123217744
 20
70.9849825498
 10
189.7949819217
 20
70.9855522258
 10
189.7778331821
 20
70.9875762438
 10
189.7613759869
 20
70.9909955393
 10
189.7456307146
 20
70.9958512288
 10
189.7305769866
 20
71.0021021959
 10
189.7166540976
 20
71.009566026
 10
189.7038953718
 20
71.0182784603
 10
189.692267485
 20
71.0282037576
 10
189.68210976
 20
71.03905228
 10
189.6735353041
 20
71.0507274813
 10
189.66643101
 20
71.0633259077
 10
189.6607968775
 20
71.0768475592
  0
LINE
  5
89E
100
AcDbEntity
  8
RACCORDO
100
AcDbLine
 62
7
  6
CONTINUOUS
 10
188.5827158491
 20
71.0520077013
 11
188.618143356
 21
71.0691756006
  0
LINE
  5
89F
100
AcDbEntity
  8
RACCORDO
100
AcDbLine
 62
7
  6
CONTINUOUS
 10
188.6348103024
 20
70.8814230051
 11
188.6702378093
 21
70.8985909044
  0
LWPOLYLINE
  5
8A0
100
AcDbEntity
  8
RACCORDO
100
AcDbPolyline
 62
7
  6
CONTINUOUS
 90
16
 70
0
 10
189.2402779213
 20
71.1299512392
 10
189.2552859675
 20
71.1366169836
 10
189.2694626421
 20
71.1441733498
 10
189.2828079451
 20
71.1526203379
 10
189.2954168098
 20
71.1620410631
 10
189.3071943029
 20
71.1723524101
 10
189.3178556247
 20
71.1833050331
 10
189.327373565
 20
71.1949145652
 10
189.335775334
 20
71.2071653734
 10
189.3428577626
 20
71.2197612123
 10
189.3485886879
 20
71.2327104932
 10
189.3530002729
 20
71.2460048048
 10
189.355985838
 20
71.2593226681
 10
189.3575098233
 20
71.2725569236
 10
189.3576077888
 20
71.2858147309
 10
189.3562797344
 20
71.29909609
  0
LWPOLYLINE
  5
8A1
100
AcDbEntity
  8
RACCORDO
100
AcDbPolyline
 62
7
  6
CONTINUOUS
 90
19
 70
0
 10
188.6348103024
 20
70.8814230051
 10
188.6181395536
 20
70.8742135316
 10
188.6012360985
 20
70.8684168386
 10
188.584099937
 20
70.8640329261
 10
188.566557482
 20
70.8610464255
 10
188.5487823207
 20
70.8594727055
 10
188.5312952149
 20
70.8593578715
 10
188.5141046872
 20
70.8607450862
 10
188.4972022149
 20
70.863591187
 10
188.4810829928
 20
70.8678127912
 10
188.465770194
 20
70.8734505945
 10
188.4512406454
 20
70.8804639011
 10
188.4379200214
 20
70.8886472411
 10
188.4258440895
 20
70.8980352311
 10
188.4149770822
 20
70.9085932544
 10
188.4056373722
 20
70.920011991
 10
188.3979310835
 20
70.9321883339
 10
188.3917520921
 20
70.9452253901
 10
188.3883201626
 20
70.9548202596
  0
LINE
  5
8A2
100
AcDbEntity
  8
RACCORDO
100
AcDbLine
 62
7
  6
CONTINUOUS
 10
189.2402779213
 20
71.1299512392
 11
189.2016657892
 21
71.1145530517
  0
LINE
  5
8A3
100
AcDbEntity
  8
RACCORDO
100
AcDbLine
 62
7
  6
CONTINUOUS
 10
189.2537602425
 20
70.9439683555
 11
189.2923723746
 21
70.959366543
  0
LWPOLYLINE
  5
8A4
100
AcDbEntity
  8
RACCORDO
100
AcDbPolyline
 62
7
  6
CONTINUOUS
 90
7
 70
0
 10
189.9359586148
 20
71.227823562
 10
189.9469832683
 20
71.2383919428
 10
189.9570350158
 20
71.2497166898
 10
189.9658745271
 20
71.2615281626
 10
189.973472708
 20
71.2738380429
 10
189.9798586527
 20
71.2866346491
 10
189.9848803128
 20
71.2996132963
  0
LINE
  5
8A5
100
AcDbEntity
  8
CURVE
100
AcDbLine
 62
7
  6
CONTINUOUS
 10
184.5830250801
 20
52.129338464
 11
185.0894622484
 21
52.6357756322
  0
LINE
  5
8A6
100
AcDbEntity
  8
CURVE
100
AcDbLine
 62
7
  6
CONTINUOUS
 10
184.5186810788
 20
51.6449730346
 11
184.7810156471
 21
51.9073076029
  0
LINE
  5
8A7
100
AcDbEntity
  8
CURVE
100
AcDbLine
 62
7
  6
CONTINUOUS
 10
185.1513800248
 20
52.2776719806
 11
186.0463093586
 21
53.1726013145
  0
LINE
  5
8A8
100
AcDbEntity
  8
CURVE
100
AcDbLine
 62
7
  6
CONTINUOUS
 10
184.5460021248
 20
51.2522726526
 11
185.1859061911
 21
51.8921767189
  0
LINE
  5
8A9
100
AcDbEntity
  8
CURVE
100
AcDbLine
 62
7
  6
CONTINUOUS
 10
185.2078071405
 20
51.9140776683
 11
185.4551883452
 21
52.1614588731
  0
LINE
  5
8AA
100
AcDbEntity
  8
CURVE
100
AcDbLine
 62
7
  6
CONTINUOUS
 10
185.3564583682
 20
51.642707468
 11
186.0463093586
 21
52.3325584584
  0
LWPOLYLINE
  5
8AB
100
AcDbEntity
  8
CURVE
100
AcDbPolyline
 62
250
  6
CONTINUOUS
 90
7
 70
0
 10
185.5882803396
 20
52.5199401555
 10
185.6091834119
 20
52.5402938041
 10
185.630194132
 20
52.5603529044
 10
185.6513006027
 20
52.5801493761
 10
185.6724909268
 20
52.5997151385
 10
185.6937532073
 20
52.6190821112
 10
185.7150755469
 20
52.6382822137
  0
LINE
  5
8AC
100
AcDbEntity
  8
CURVE
100
AcDbLine
 62
250
  6
CONTINUOUS
 10
185.8943299555
 20
52.7966809387
 11
186.0463093586
 21
52.9318148702
  0
LINE
  5
8AD
100
AcDbEntity
  8
CURVE
100
AcDbLine
 62
250
  6
CONTINUOUS
 10
185.7150755469
 20
52.6382822137
 11
185.7578528151
 21
52.6763094864
  0
LWPOLYLINE
  5
8AE
100
AcDbEntity
  8
CURVE
100
AcDbPolyline
 62
250
  6
CONTINUOUS
 90
44
 70
0
 10
185.5907116237
 20
52.8851831643
 10
185.5790047867
 20
52.8748377235
 10
185.5672439056
 20
52.8642812229
 10
185.5554046701
 20
52.8534487322
 10
185.5488983005
 20
52.8473945749
 10
185.5423678683
 20
52.8412408122
 10
185.5358199372
 20
52.8349895389
 10
185.5292610703
 20
52.8286428495
 10
185.5226978313
 20
52.8222028388
 10
185.5161367834
 20
52.8156716014
 10
185.5095844901
 20
52.8090512319
 10
185.5030475147
 20
52.802343825
 10
185.4965324207
 20
52.7955514754
 10
185.4900457716
 20
52.7886762777
 10
185.4835941306
 20
52.7817203266
 10
185.4771840612
 20
52.7746857168
 10
185.4708221268
 20
52.7675745428
 10
185.4645148909
 20
52.7603888994
 10
185.4582689168
 20
52.7531308813
 10
185.4520907678
 20
52.745802583
 10
185.4459870076
 20
52.7384060992
 10
185.4399641993
 20
52.7309435246
 10
185.4340289065
 20
52.7234169539
 10
185.4281876926
 20
52.7158284817
 10
185.4224471209
 20
52.7081802026
 10
185.4168137549
 20
52.7004742114
 10
185.4112941579
 20
52.6927126027
 10
185.4058948934
 20
52.6848974711
 10
185.4006225248
 20
52.6770309113
 10
185.3954836155
 20
52.6691150179
 10
185.3904847288
 20
52.6611518857
 10
185.3856324283
 20
52.6531436093
 10
185.3809332773
 20
52.6450922833
 10
185.3763938391
 20
52.6370000023
 10
185.3720206773
 20
52.6288688612
 10
185.3678203552
 20
52.6207009544
 10
185.3637994363
 20
52.6124983767
 10
185.3599644838
 20
52.6042632227
 10
185.3563220613
 20
52.5959975871
 10
185.3528787322
 20
52.5877035646
 10
185.3496410598
 20
52.5793832497
 10
185.3466156076
 20
52.5710387372
 10
185.3438089389
 20
52.5626721218
 10
185.3412276172
 20
52.554285498
  0
LINE
  5
8AF
100
AcDbEntity
  8
CURVE
100
AcDbLine
 62
250
  6
CONTINUOUS
 10
185.6140604057
 20
52.9055005876
 11
185.5907116237
 21
52.8851831643
  0
LINE
  5
8B0
100
AcDbEntity
  8
CURVE
100
AcDbLine
 62
250
  6
CONTINUOUS
 10
185.7466623355
 20
53.0198104881
 11
185.6140604057
 21
52.9055005876
  0
LINE
  5
8B1
100
AcDbEntity
  8
CURVE
100
AcDbLine
 62
250
  6
CONTINUOUS
 10
186.0463093586
 20
53.2760457563
 11
185.9923822486
 21
53.2296495915
  0
LINE
  5
8B2
100
AcDbEntity
  8
CURVE
100
AcDbLine
 62
250
  6
CONTINUOUS
 10
185.9923822486
 20
53.2296495915
 11
185.7466623355
 21
53.0198104881
  0
LINE
  5
8B3
100
AcDbEntity
  8
0
100
AcDbLine
 62
7
  6
CONTINUOUS
 10
190.3382804611
 20
59.0434034072
 11
188.1716660045
 21
57.78573656
  0
LINE
  5
8B4
100
AcDbEntity
  8
0
100
AcDbLine
 62
7
  6
CONTINUOUS
 10
188.1195715512
 20
57.579157514
 11
190.2861860078
 21
58.8368067811
  0
LINE
  5
8B5
100
AcDbEntity
  8
0
100
AcDbLine
 62
7
  6
CONTINUOUS
 10
188.1716660045
 20
57.4085728178
 11
190.3382804611
 21
58.6662220849
  0
LWPOLYLINE
  5
8B6
100
AcDbEntity
  8
RACCORDO
100
AcDbPolyline
 62
250
  6
CONTINUOUS
 90
13
 70
0
 10
192.4416962116
 20
48.3688708497
 10
192.4212444448
 20
48.338646484
 10
192.4003425994
 20
48.3105549986
 10
192.3791324133
 20
48.2847868854
 10
192.3577577153
 20
48.2615168809
 10
192.3363634497
 20
48.2409027818
 10
192.3150946936
 20
48.2230843748
 10
192.294095673
 20
48.2081824886
 10
192.2735087848
 20
48.1962981748
 10
192.2534736311
 20
48.1875120222
 10
192.2341260727
 20
48.1818836109
 10
192.2155973077
 20
48.1794511076
 10
192.1980129818
 20
48.1802310077
  0
LINE
  5
8B7
100
AcDbEntity
  8
CURVE
100
AcDbLine
 62
7
  6
CONTINUOUS
 10
184.535822816
 20
50.4020504877
 11
186.0463090735
 21
51.9125367453
  0
LINE
  5
8B8
100
AcDbEntity
  8
CURVE
100
AcDbLine
 62
7
  6
CONTINUOUS
 10
184.8186130612
 20
50.2648193049
 11
185.2251537575
 21
50.6713600012
  0
LINE
  5
8B9
100
AcDbEntity
  8
CURVE
100
AcDbLine
 62
7
  6
CONTINUOUS
 10
185.5114267008
 20
50.9576329446
 11
185.7447625486
 21
51.1909687923
  0
LINE
  5
8BA
100
AcDbEntity
  8
CURVE
100
AcDbLine
 62
7
  6
CONTINUOUS
 10
185.3446655725
 20
50.3708503882
 11
185.7784423881
 21
50.8046272038
  0
LINE
  5
8BB
100
AcDbEntity
  8
CURVE
100
AcDbLine
 62
7
  6
CONTINUOUS
 10
184.535822816
 20
49.1419862037
 11
185.4622993085
 21
50.0684626962
  0
LINE
  5
8BC
100
AcDbEntity
  8
CURVE
100
AcDbLine
 62
7
  6
CONTINUOUS
 10
185.8707180837
 20
50.4768814714
 11
186.0463090735
 21
50.6524724612
  0
LINE
  5
8BD
100
AcDbEntity
  8
CURVE
100
AcDbLine
 62
7
  6
CONTINUOUS
 10
184.9701541481
 20
49.1562961077
 11
185.3319729516
 21
49.5181149112
  0
LINE
  5
8BE
100
AcDbEntity
  8
CURVE
100
AcDbLine
 62
7
  6
CONTINUOUS
 10
185.7022444529
 20
49.8883864126
 11
186.0463090735
 21
50.2324510332
  0
LINE
  5
8BF
100
AcDbEntity
  8
CURVE
100
AcDbLine
 62
7
  6
CONTINUOUS
 10
184.535822816
 20
48.3019433476
 11
185.8116462349
 21
49.5777667665
  0
LINE
  5
8C0
100
AcDbEntity
  8
CURVE
100
AcDbLine
 62
7
  6
CONTINUOUS
 10
184.8074390308
 20
48.1535381344
 11
185.4073791417
 21
48.7534782453
  0
LINE
  5
8C1
100
AcDbEntity
  8
CURVE
100
AcDbLine
 62
7
  6
CONTINUOUS
 10
184.5357321792
 20
47.4618098548
 11
185.0343717801
 21
47.9604494557
  0
LINE
  5
8C2
100
AcDbEntity
  8
CURVE
100
AcDbLine
 62
7
  6
CONTINUOUS
 10
185.5782487886
 20
48.5043264642
 11
186.0463090735
 21
48.9723867491
  0
LINE
  5
8C3
100
AcDbEntity
  8
CURVE
100
AcDbLine
 62
7
  6
CONTINUOUS
 10
184.535822816
 20
47.0418790635
 11
184.7215272048
 21
47.2275834524
  0
LINE
  5
8C4
100
AcDbEntity
  8
CURVE
100
AcDbLine
 62
7
  6
CONTINUOUS
 10
185.1748486582
 20
47.6809049058
 11
185.9837370802
 21
48.4897933278
  0
LINE
  5
8C5
100
AcDbEntity
  8
CURVE
100
AcDbLine
 62
7
  6
CONTINUOUS
 10
184.8128611053
 20
46.8988959249
 11
185.2418280276
 21
47.3278628472
  0
LINE
  5
8C6
100
AcDbEntity
  8
CURVE
100
AcDbLine
 62
7
  6
CONTINUOUS
 10
185.3609440436
 20
47.0269574351
 11
185.7621288504
 21
47.428142242
  0
LINE
  5
8C7
100
AcDbEntity
  8
CURVE
100
AcDbLine
 62
7
  6
CONTINUOUS
 10
184.535822816
 20
45.7818147795
 11
186.0463090735
 21
47.292301037
  0
LINE
  5
8C8
100
AcDbEntity
  8
CURVE
100
AcDbLine
 62
250
  6
CONTINUOUS
 10
186.0463090735
 20
49.5567575896
 11
185.059989903
 21
48.5869825373
  0
LINE
  5
8C9
100
AcDbEntity
  8
CURVE
100
AcDbLine
 62
250
  6
CONTINUOUS
 10
184.535822816
 20
48.3875045526
 11
185.3744492967
 21
49.2091947792
  0
LINE
  5
8CA
100
AcDbEntity
  8
CURVE
100
AcDbLine
 62
250
  6
CONTINUOUS
 10
186.0463090735
 20
47.1675385809
 11
184.535822816
 21
45.7818147795
  0
LINE
  5
8CB
100
AcDbEntity
  8
CURVE
100
AcDbLine
 62
250
  6
CONTINUOUS
 10
184.535822816
 20
50.5540182297
 11
186.0463090735
 21
51.922263852
  0
LINE
  5
8CC
100
AcDbEntity
  8
CURVE
100
AcDbLine
 62
250
  6
CONTINUOUS
 10
185.7578528151
 20
52.6763094864
 11
185.8943299555
 21
52.7966809387
  0
LINE
  5
8CD
100
AcDbEntity
  8
CURVE
100
AcDbLine
 62
250
  6
CONTINUOUS
 10
184.535822816
 20
46.1705738359
 11
185.5755371412
 21
47.0770978687
  0
LINE
  5
8CE
100
AcDbEntity
  8
CURVE
100
AcDbLine
 62
250
  6
CONTINUOUS
 10
186.0463090735
 20
51.5450815276
 11
185.7447625486
 21
51.2842384923
  0
LINE
  5
8CF
100
AcDbEntity
  8
CURVE
100
AcDbLine
 62
250
  6
CONTINUOUS
 10
185.5114267008
 20
51.0826155378
 11
184.9508660553
 21
50.6056139465
  0
LINE
  5
8D0
100
AcDbEntity
  8
CURVE
100
AcDbLine
 62
250
  6
CONTINUOUS
 10
184.535822816
 20
49.4535469318
 11
186.0463090735
 21
50.4560783712
  0
LINE
  5
8D1
100
AcDbEntity
  8
CURVE
100
AcDbLine
 62
250
  6
CONTINUOUS
 10
186.0463090735
 20
50.1059848977
 11
185.0641016493
 21
49.4848026116
  0
LWPOLYLINE
  5
8D2
100
AcDbEntity
  8
CURVE
100
AcDbPolyline
 62
250
  6
CONTINUOUS
 90
59
 70
0
 10
184.9730781704
 20
52.2560234319
 10
184.9796364652
 20
52.2596998563
 10
184.9862454749
 20
52.2632151199
 10
184.9928961479
 20
52.2665640921
 10
184.9995794325
 20
52.2697416418
 10
185.0062862769
 20
52.2727426383
 10
185.0130076295
 20
52.2755619508
 10
185.0197344386
 20
52.2781944483
 10
185.0264576524
 20
52.2806349999
 10
185.0331682193
 20
52.2828784749
 10
185.0398570875
 20
52.2849197424
 10
185.0465152054
 20
52.2867536716
 10
185.0531335212
 20
52.2883751315
 10
185.0597029832
 20
52.2897789913
 10
185.0662145397
 20
52.2909601202
 10
185.0726591391
 20
52.2919133872
 10
185.0790277296
 20
52.2926336617
 10
185.0853112594
 20
52.2931158126
 10
185.091500677
 20
52.2933547092
 10
185.0975869306
 20
52.2933452205
 10
185.1035609684
 20
52.2930822158
 10
185.1094137388
 20
52.2925605642
 10
185.1151361901
 20
52.2917751348
 10
185.1207192706
 20
52.2907207967
 10
185.1261539286
 20
52.2893924191
 10
185.1314311123
 20
52.2877848712
 10
185.13654177
 20
52.2858930221
 10
185.1414768502
 20
52.283711741
 10
185.1462273009
 20
52.2812358969
 10
185.1507840706
 20
52.278460359
 10
185.1551381075
 20
52.2753799965
 10
185.159228288
 20
52.2720400388
 10
185.1631167363
 20
52.2684096476
 10
185.1668078476
 20
52.2645000656
 10
185.1703060173
 20
52.2603225355
 10
185.1736156404
 20
52.2558882999
 10
185.1767411123
 20
52.2512086014
 10
185.1796868281
 20
52.2462946828
 10
185.182457183
 20
52.2411577866
 10
185.1850565724
 20
52.2358091555
 10
185.1874893913
 20
52.2302600321
 10
185.1897600351
 20
52.2245216591
 10
185.1918728988
 20
52.2186052791
 10
185.1938323779
 20
52.2125221348
 10
185.1956428673
 20
52.2062834688
 10
185.1973087625
 20
52.1999005237
 10
185.1988344586
 20
52.1933845423
 10
185.2002243507
 20
52.186746767
 10
185.2014828342
 20
52.1799984407
 10
185.2026143043
 20
52.1731508059
 10
185.2036231561
 20
52.1662151053
 10
185.2045137849
 20
52.1592025815
 10
185.2052905859
 20
52.1521244772
 10
185.2059579544
 20
52.1449920349
 10
185.2065202855
 20
52.1378164975
 10
185.2069819744
 20
52.1306091074
 10
185.2073474164
 20
52.1233811074
 10
185.2076210067
 20
52.11614374
 10
185.2078071405
 20
52.108908248
  0
LINE
  5
8D3
100
AcDbEntity
  8
CURVE
100
AcDbLine
 62
250
  6
CONTINUOUS
 10
185.3412276172
 20
52.554285498
 11
185.3323019583
 21
52.5493087595
  0
LINE
  5
8D4
100
AcDbEntity
  8
CURVE
100
AcDbLine
 62
250
  6
CONTINUOUS
 10
186.0463093586
 20
52.3837838719
 11
185.4551883452
 21
52.0541886297
  0
LINE
  5
8D5
100
AcDbEntity
  8
CURVE
100
AcDbLine
 62
250
  6
CONTINUOUS
 10
185.2078071405
 20
51.9043881757
 11
184.7931491211
 21
51.6731845689
  0
LINE
  5
8D6
100
AcDbEntity
  8
CURVE
100
AcDbLine
 62
250
  6
CONTINUOUS
 10
184.5534702615
 20
51.1949800931
 11
186.0463093586
 21
52.0273522348
  0
LINE
  5
8D7
100
AcDbEntity
  8
CURVE
100
AcDbLine
 62
250
  6
CONTINUOUS
 10
186.0463090735
 20
48.5246820068
 11
184.5357321792
 21
47.6824196846
  0
LINE
  5
8D8
100
AcDbEntity
  8
CURVE
100
AcDbLine
 62
250
  6
CONTINUOUS
 10
184.5357321792
 20
47.3245485152
 11
186.0463090735
 21
48.1668108374
  0
LINE
  5
8D9
100
AcDbEntity
  8
CURVE
100
AcDbLine
 62
250
  6
CONTINUOUS
 10
185.059989903
 20
48.5869825373
 11
186.0463090735
 21
49.0597027321
  0
LINE
  5
8DA
100
AcDbEntity
  8
CURVE
100
AcDbLine
 62
250
  6
CONTINUOUS
 10
186.0463090735
 20
48.7173363333
 11
184.535822816
 21
48.029928129
  0
LWPOLYLINE
  5
8DB
100
AcDbEntity
  8
RACCORDO
100
AcDbPolyline
 62
250
  6
CONTINUOUS
 90
13
 70
0
 10
109.4622336465
 20
182.2958725266
 10
109.4258319424
 20
182.2932742627
 10
109.3910522251
 20
182.2892199566
 10
109.35813034
 20
182.2837371009
 10
109.3272895344
 20
182.2768628757
 10
109.2987389434
 20
182.2686438957
 10
109.272672172
 20
182.259135895
 10
109.2492659821
 20
182.2484033484
 10
109.2286790939
 20
182.2365190346
 10
109.2110511095
 20
182.2235635425
 10
109.1965015664
 20
182.2096247248
 10
109.1851291268
 20
182.1947971025
 10
109.1770109085
 20
182.1791812232
  0
LWPOLYLINE
  5
8DC
100
AcDbEntity
  8
RACCORDO
100
AcDbPolyline
 62
250
  6
CONTINUOUS
 90
15
 70
0
 10
177.4407421093
 20
40.2800620952
 10
177.4730550608
 20
40.2990550728
 10
177.5140382481
 20
40.3282369576
 10
177.5523028153
 20
40.361620222
 10
177.587755664
 20
40.3991145078
 10
177.6203538844
 20
40.4406982966
 10
177.6499896109
 20
40.4862985292
 10
177.6765122591
 20
40.5357545242
 10
177.6998085305
 20
40.5889187807
 10
177.7197810014
 20
40.6456509024
 10
177.7363300852
 20
40.7057616672
 10
177.7493667171
 20
40.7689976181
 10
177.7588307525
 20
40.8351263778
 10
177.764679032
 20
40.9039485835
 10
177.7668767971
 20
40.9752330507
  0
LWPOLYLINE
  5
8DD
100
AcDbEntity
  8
ASSI
100
AcDbPolyline
 62
250
  6
CONTINUOUS
 90
15
 70
0
 10
177.4407421093
 20
40.2800620952
 10
177.4730550608
 20
40.2990550728
 10
177.5140382481
 20
40.3282369576
 10
177.5523028153
 20
40.361620222
 10
177.587755664
 20
40.3991145078
 10
177.6203538844
 20
40.4406982966
 10
177.6499896109
 20
40.4862985292
 10
177.6765122591
 20
40.5357545242
 10
177.6998085305
 20
40.5889187807
 10
177.7197810014
 20
40.6456509024
 10
177.7363300852
 20
40.7057616672
 10
177.7493667171
 20
40.7689976181
 10
177.7588307525
 20
40.8351263778
 10
177.764679032
 20
40.9039485835
 10
177.7668767971
 20
40.9752330507
  0
LINE
  5
8DE
100
AcDbEntity
  8
RACCORDO
100
AcDbLine
 62
250
  6
CONTINUOUS
 10
177.7668767971
 20
40.9752330507
 11
187.4857214341
 21
46.2017131824
  0
LINE
  5
8DF
100
AcDbEntity
  8
ASSI
100
AcDbLine
 62
250
  6
CONTINUOUS
 10
177.7668767971
 20
40.9752330507
 11
187.4857214341
 21
46.2017131824
  0
LINE
  5
8E0
100
AcDbEntity
  8
RACCORDO
100
AcDbLine
 62
7
  6
CONTINUOUS
 10
177.4405233664
 20
40.2799443923
 11
187.1619661429
 21
45.5078217192
  0
LINE
  5
8E1
100
AcDbEntity
  8
ASSI
100
AcDbLine
 62
7
  6
CONTINUOUS
 10
177.4405233664
 20
40.2799443923
 11
187.1619661429
 21
45.5078217192
  0
LINE
  5
8E2
100
AcDbEntity
  8
RACCORDO
100
AcDbLine
 62
250
  6
CONTINUOUS
 10
192.6958713028
 20
48.442041446
 11
193.3193523789
 21
48.7534461433
  0
LINE
  5
8E3
100
AcDbEntity
  8
RACCORDO
100
AcDbLine
 62
7
  6
CONTINUOUS
 10
192.5782861434
 20
48.2058687446
 11
193.2070346854
 21
48.5199043374
  0
ARC
  5
8E4
100
AcDbEntity
  8
RACCORDO
100
AcDbCircle
 62
7
  6
CONTINUOUS
 10
192.3548721227
 20
48.6531786767
 40
0.5
100
AcDbArc
 50
249.5081011841
 51
296.5403557587
  0
ARC
  5
8E5
100
AcDbEntity
  8
RACCORDO
100
AcDbCircle
 62
7
  6
CONTINUOUS
 10
109.6650235403
 20
182.0785542215
 40
0.5
100
AcDbArc
 50
123.4628294588
 51
170.4931926939
  0
ELLIPSE
  5
8E6
100
AcDbEntity
  8
RACCORDO
100
AcDbEllipse
 62
7
  6
CONTINUOUS
 10
192.9655834818
 20
48.9582053939
 30
0.0
 11
-0.2503167301
 21
0.4335334643
 31
0.0
 40
0.5766289216
 41
-3.176455128
 42
-2.3568516818
  0
ELLIPSE
  5
8E7
100
AcDbEntity
  8
RACCORDO
100
AcDbEllipse
 62
7
  6
CONTINUOUS
 10
192.9655834818
 20
134.6870867823
 30
0.0
 11
-0.2500121243
 21
0.4330057017
 31
0.0
 40
0.5780352736
 41
-2.355633942
 42
-0.7860555904
  0
ELLIPSE
  5
8E8
100
AcDbEntity
  8
RACCORDO
100
AcDbEllipse
 62
7
  6
CONTINUOUS
 10
110.2345210959
 20
182.4549653402
 30
0.0
 11
-0.2503167301
 21
0.4335334643
 31
0.0
 40
0.5766289216
 41
-0.7848373798
 42
0.0348624744
  0
ELLIPSE
  5
8E9
100
AcDbEntity
  8
RACCORDO
100
AcDbEllipse
 62
7
  6
CONTINUOUS
 10
186.424899694
 20
130.9106568411
 30
0.0
 11
-0.7500362733
 21
1.2990171626
 31
0.0
 40
0.5775075436
 41
-2.3560905478
 42
-0.7855988075
  0
ELLIPSE
  5
8EA
100
AcDbEntity
  8
RACCORDO
100
AcDbEllipse
 62
7
  6
CONTINUOUS
 10
186.424899694
 20
46.8145914454
 30
0.0
 11
-0.7502646928
 21
1.2994129242
 31
0.0
 40
0.5771558487
 41
-3.1590397928
 42
-2.3563950755
  0
ELLIPSE
  5
8EB
100
AcDbEntity
  8
RACCORDO
100
AcDbEllipse
 62
7
  6
CONTINUOUS
 10
105.1079429941
 20
177.8620484988
 30
0.0
 11
-0.7502646928
 21
1.2994129242
 31
0.0
 40
0.5771558487
 41
-0.7852941622
 42
0.0174471392
  0
ELLIPSE
  5
8EC
100
AcDbEntity
  8
ASSI
100
AcDbEllipse
 62
7
  6
CONTINUOUS
 10
186.424899694
 20
130.9106568411
 30
0.0
 11
-0.7500362733
 21
1.2990171626
 31
0.0
 40
0.5775075436
 41
-2.3560905478
 42
-0.7855988075
  0
ELLIPSE
  5
8ED
100
AcDbEntity
  8
ASSI
100
AcDbEllipse
 62
7
  6
CONTINUOUS
 10
186.424899694
 20
46.8145914454
 30
0.0
 11
-0.7502646928
 21
1.2994129242
 31
0.0
 40
0.5771558487
 41
-3.1590397928
 42
-2.3563950755
  0
ELLIPSE
  5
8EE
100
AcDbEntity
  8
ASSI
100
AcDbEllipse
 62
7
  6
CONTINUOUS
 10
105.1079429941
 20
177.8620484988
 30
0.0
 11
-0.7502646928
 21
1.2994129242
 31
0.0
 40
0.5771558487
 41
-0.7852941622
 42
0.0174471392
  0
ENDSEC
  0
SECTION
  2
OBJECTS
  0
DICTIONARY
  5
C
100
AcDbDictionary
280
0
281
1
  3
ACAD_GROUP
350
D
  3
ACAD_MLINESTYLE
350
17
  3
ACAD_LAYOUT
350
1A
  3
ACAD_PLOTSETTINGS
350
19
  3
ACAD_PLOTSTYLENAME
350
E
  0
DICTIONARY
  5
D
102
{ACAD_REACTORS
330
C
102
}
100
AcDbDictionary
280
0
281
1
  0
ACDBDICTIONARYWDFLT
  5
E
102
{ACAD_REACTORS
330
C
102
}
100
AcDbDictionary
281
1
  3
Normal
350
F
100
AcDbDictionaryWithDefault
340
F
  0
DICTIONARY
  5
17
102
{ACAD_REACTORS
330
C
102
}
100
AcDbDictionary
280
0
281
1
  3
Standard
350
18
  0
DICTIONARY
  5
19
102
{ACAD_REACTORS
330
C
102
}
100
AcDbDictionary
281
1
  0
DICTIONARY
  5
1A
102
{ACAD_REACTORS
330
C
102
}
100
AcDbDictionary
281
1
  3
Model
350
8EF
  3
Layout1
350
8F0
  0
ACDBPLACEHOLDER
  5
F
102
{ACAD_REACTORS
330
E
102
}
  0
MLINESTYLE
  5
18
102
{ACAD_REACTORS
330
17
102
}
100
AcDbMlineStyle
  2
STANDARD
 70
0
  3

 62
256
 51
90.0
 52
90.0
 71
2
 49
0.5
 62
256
  6
BYLAYER
 49
-0.5
 62
256
  6
BYLAYER
  0
LAYOUT
  5
8EF
102
{ACAD_REACTORS
330
1A
102
}
100
AcDbPlotSettings
  1

  2
none_device
  4
ISO_A4_(297.00_x_210.00_MM)
  6

 40
0.0
 41
0.0
 42
0.0
 43
0.0
 44
297.0
 45
210.0
 46
0.0
 47
0.0
 48
0.0
 49
0.0
140
0.0
141
0.0
142
1.0
143
1.0
 70
1024
 72
1
 73
0
 74
0
  7

 75
0
147
1.0
148
0.0
149
0.0
100
AcDbLayout
  1
Model
 70
0
 71
0
 10
0.0
 20
0.0
 11
297.0
 21
210.0
 12
0.0
 22
0.0
 32
0.0
 14
0.0
 24
0.0
 34
0.0
 15
0.0
 25
0.0
 35
0.0
146
0.0
 13
0.0
 23
0.0
 33
0.0
 16
1.0
 26
0.0
 36
0.0
 17
0.0
 27
1.0
 37
0.0
 76
0
330
75D
345
0
346
0
  0
LAYOUT
  5
8F0
102
{ACAD_REACTORS
330
1A
102
}
100
AcDbPlotSettings
  1

  2
none_device
  4
ISO_A4_(297.00_x_210.00_MM)
  6

 40
0.0
 41
0.0
 42
0.0
 43
0.0
 44
297.0
 45
210.0
 46
0.0
 47
0.0
 48
0.0
 49
0.0
140
0.0
141
0.0
142
1.0
143
1.0
 70
0
 72
1
 73
0
 74
0
  7

 75
0
147
1.0
148
0.0
149
0.0
100
AcDbLayout
  1
Layout1
 70
0
 71
1
 10
0.0
 20
0.0
 11
297.0
 21
210.0
 12
0.0
 22
0.0
 32
0.0
 14
0.0
 24
0.0
 34
0.0
 15
0.0
 25
0.0
 35
0.0
146
0.0
 13
0.0
 23
0.0
 33
0.0
 16
1.0
 26
0.0
 36
0.0
 17
0.0
 27
1.0
 37
0.0
 76
0
330
75E
345
0
346
0
  0
ENDSEC
  0
EOF
