0
SECTION
2
HEADER
9
$ACADVER
1
AC1014
9
$HANDSEED
5
       2E3
9
$EXTMAX
10
297.0000000000
20
210.0000000000
9
$EXTMIN
10
0.0000000000
20
0.0000000000
9
$LIMMIN
10
0.0000000000
20
0.0000000000
9
$LIMMAX
10
297.0000000000
20
210.0000000000
9
$VIEWCTR
10
148.5000000000
20
105.0000000000
9
$VIEWSIZE
40
210.0000000000
9
$CLAYER
8
0
9
$LTSCALE
40
16.3350000000
9
$CELTYPE
6
BYLAYER
9
$DIMSCALE
40
1
9
$DIMASZ
40
3.0000000000
9
$DIMEXO
40
1.8562500000
9
$DIMDLI
40
11.2860000000
9
$DIMEXE
40
5.3460000000
9
$DIMCEN
40
2.6730000000
9
$DIMLFAC
40
1.0000000000
9
$DIMTXT
40
3.0000000000
9
$DIMTOL
70
1
9
$DIMLIM
70
0
9
$DIMTFAC
40
1.0000000000
9
$DIMTP
40
0.0100000000
9
$DIMTM
40
0.0100000000
9
$MEASUREMENT
70
1
0
ENDSEC
0
SECTION
2
CLASSES
0
ENDSEC
0
SECTION
2
TABLES
0
TABLE
2
VPORT
5
8
100
AcDbSymbolTable
70
2
0
VPORT
5
1F4
100
AcDbSymbolTableRecord
100
AcDbViewportTableRecord
2
*ACTIVE
70
0
10
0.0
20
0.0
11
1.0
21
1.0
12
148.5000000000
22
105.0000000000
13
0.0
23
0.0
14
1.0
24
1.0
15
0.0
25
0.0
16
0.0
26
0.0
36
1.0
17
0.0
27
0.0
37
0.0
40
210.0000000000
41
1.4142857143
42
50.0
43
0.0
44
0.0
50
0.0
51
0.0
71
0
72
100
73
1
74
1
75
0
76
0
77
0
78
0
0
ENDTAB
0
TABLE
2
LTYPE
5
5
100
AcDbSymbolTable
70
6
0
LTYPE
5
14
100
AcDbSymbolTableRecord
100
AcDbLinetypeTableRecord
2
BYBLOCK
70
0
3

72
65
73
0
40
0.0
0
LTYPE
5
15
100
AcDbSymbolTableRecord
100
AcDbLinetypeTableRecord
2
BYLAYER
70
0
3

72
65
73
0
40
0.0
0
LTYPE
5
16
100
AcDbSymbolTableRecord
100
AcDbLinetypeTableRecord
2
CONTINUOUS
70
64
3
Solid line
72
65
73
0
40
0
0
LTYPE
5
1F5
100
AcDbSymbolTableRecord
100
AcDbLinetypeTableRecord
2
CENTER
70
64
3
____ _ ____ _ ____ _ ____ _ ____ _ ____ _ ____
72
65
73
4
40
0.6
49
0.375
74
0
49
-0.075
74
0
49
0.075
74
0
49
-0.075
74
0
0
LTYPE
5
1F6
100
AcDbSymbolTableRecord
100
AcDbLinetypeTableRecord
2
HIDDEN
70
64
3
- - - - - - - - - - - - - - - - - - - -
72
65
73
2
40
0.2
49
0.1
74
0
49
-0.1
74
0
0
LTYPE
5
1F7
100
AcDbSymbolTableRecord
100
AcDbLinetypeTableRecord
2
PHANTOM
70
64
3
_____ _ _ _____ _ _ _____ _ _ _____
72
65
73
6
40
0.8
49
0.45
74
0
49
-0.05
74
0
49
0.1
74
0
49
-0.05
74
0
49
0.1
74
0
49
-0.05
74
0
0
LTYPE
5
1F8
100
AcDbSymbolTableRecord
100
AcDbLinetypeTableRecord
2
DOT
70
64
3
. . . . . . . . . . . . . . . . . . . .
72
65
73
2
40
0.2
49
0.1
74
0
49
-0.1
74
0
0
LTYPE
5
1F9
100
AcDbSymbolTableRecord
100
AcDbLinetypeTableRecord
2
DASHED
70
64
3
- - - - - - - - - - - - - - - - - - - -
72
65
73
2
40
0.2
49
0.1
74
0
49
-0.1
74
0
0
ENDTAB
0
TABLE
2
LAYER
5
2
100
AcDbSymbolTable
70
36
0
LAYER
5
10
100
AcDbSymbolTableRecord
100
AcDbLayerTableRecord
2
0
70
0
62
7
6
CONTINUOUS
0
LAYER
5
1FA
100
AcDbSymbolTableRecord
100
AcDbLayerTableRecord
2
DEFAULT_1
70
0
62
7
6
CENTER
0
LAYER
5
1FB
100
AcDbSymbolTableRecord
100
AcDbLayerTableRecord
2
DEFAULT_2
70
0
62
8
6
HIDDEN
0
LAYER
5
1FC
100
AcDbSymbolTableRecord
100
AcDbLayerTableRecord
2
DEFAULT_3
70
0
62
7
6
PHANTOM
0
LAYER
5
1FD
100
AcDbSymbolTableRecord
100
AcDbLayerTableRecord
2
ASSI
70
0
62
7
6
CONTINUOUS
0
LAYER
5
1FE
100
AcDbSymbolTableRecord
100
AcDbLayerTableRecord
2
COORDINATE
70
0
62
7
6
CONTINUOUS
0
LAYER
5
1FF
100
AcDbSymbolTableRecord
100
AcDbLayerTableRecord
2
COORD_ORIGINE
70
0
62
7
6
CONTINUOUS
0
LAYER
5
200
100
AcDbSymbolTableRecord
100
AcDbLayerTableRecord
2
CURVE
70
0
62
7
6
CONTINUOUS
0
LAYER
5
201
100
AcDbSymbolTableRecord
100
AcDbLayerTableRecord
2
PIANI
70
0
62
7
6
CONTINUOUS
0
LAYER
5
202
100
AcDbSymbolTableRecord
100
AcDbLayerTableRecord
2
PIANI_ORIGINE
70
0
62
7
6
CONTINUOUS
0
LAYER
5
203
100
AcDbSymbolTableRecord
100
AcDbLayerTableRecord
2
RACCORDO
70
0
62
7
6
CONTINUOUS
0
LAYER
5
204
100
AcDbSymbolTableRecord
100
AcDbLayerTableRecord
2
SUPERFICI
70
0
62
7
6
CONTINUOUS
0
LAYER
5
205
100
AcDbSymbolTableRecord
100
AcDbLayerTableRecord
2
TRASH
70
0
62
7
6
CONTINUOUS
0
ENDTAB
0
TABLE
2
STYLE
5
3
100
AcDbSymbolTable
70
1
0
STYLE
5
11
100
AcDbSymbolTableRecord
100
AcDbTextStyleTableRecord
2
STANDARD
70
0
40
0.0
41
0.8000000000
50
0.0
71
0
42
0.2
3
txt
4

0
ENDTAB
0
TABLE
2
VIEW
5
6
100
AcDbSymbolTable
70
0
0
ENDTAB
0
TABLE
2
UCS
5
7
100
AcDbSymbolTable
70
0
0
ENDTAB
0
TABLE
2
APPID
5
9
100
AcDbSymbolTable
70
1
0
APPID
5
206
100
AcDbSymbolTableRecord
100
AcDbRegAppTableRecord
2
ACAD
70
0
0
ENDTAB
0
TABLE
2
DIMSTYLE
5
A
100
AcDbSymbolTable
70
1
0
DIMSTYLE
105
207
100
AcDbSymbolTableRecord
100
AcDbDimStyleTableRecord
2
STANDARD
70
0
3

4

5

6

7

40
1.0
41
3.0000000000
42
0.0625
43
0.38
44
0.18
45
0.0
46
0.0
47
0.0100000000
48
0.0100000000
140
3.0000000000
141
0.09
142
0.0
143
25.4
144
1.0000000000
145
0.0
146
1.0000000000
147
0.09
71
1
72
0
73
0
74
0
75
0
76
0
77
1
78
8
170
0
171
2
172
0
173
0
174
0
175
0
176
0
177
0
178
0
270
2
271
2
272
2
273
2
274
2
340
11
275
0
280
0
281
0
282
0
283
1
284
8
285
0
286
0
287
3
288
0
0
ENDTAB
0
TABLE
2
BLOCK_RECORD
5
1
100
AcDbSymbolTable
70
0
0
BLOCK_RECORD
5
1B
100
AcDbSymbolTableRecord
100
AcDbBlockTableRecord
2
*MODEL_SPACE
0
BLOCK_RECORD
5
1C
100
AcDbSymbolTableRecord
100
AcDbBlockTableRecord
2
*PAPER_SPACE
0
ENDTAB
0
ENDSEC
0
SECTION
2
BLOCKS
0
BLOCK
5
1E
100
AcDbEntity
8
0
100
AcDbBlockBegin
2
*MODEL_SPACE
70
0
10
0.0
20
0.0
30
0.0
3
*MODEL_SPACE
1

0
ENDBLK
5
1F
100
AcDbEntity
8
0
100
AcDbBlockEnd
0
BLOCK
5
20
100
AcDbEntity
8
0
100
AcDbBlockBegin
2
*PAPER_SPACE
70
0
10
0.0
20
0.0
30
0.0
3
*PAPER_SPACE
1

0
ENDBLK
5
21
100
AcDbEntity
8
0
100
AcDbBlockEnd
0
ENDSEC
0
SECTION
2
ENTITIES
0
LINE
5
208
100
AcDbEntity
8
0
100
AcDbLine
62
7
6
CONTINUOUS
10
-19.7815717507
20
-11.4078213538
11
-19.7815717507
21
2.4485851067
0
LINE
5
209
100
AcDbEntity
8
0
100
AcDbLine
62
7
6
CONTINUOUS
10
-18.8976882742
20
-2.4966887312
11
-18.8976882742
21
-8.5588665577
0
LINE
5
20A
100
AcDbEntity
8
0
100
AcDbLine
62
7
6
CONTINUOUS
10
-9.5285234234
20
-16.5343455174
11
-19.7815717507
21
-11.4078213538
0
LINE
5
20B
100
AcDbEntity
8
0
100
AcDbLine
62
7
6
CONTINUOUS
10
-18.6855562398
20
-2.6027547484
11
-18.6855562398
21
-8.4528005405
0
LINE
5
20C
100
AcDbEntity
8
0
100
AcDbLine
62
7
6
CONTINUOUS
10
-18.6502009008
20
-2.6204324179
11
-18.6502009008
21
-8.4351228710
0
LINE
5
20D
100
AcDbEntity
8
0
100
AcDbLine
62
7
6
CONTINUOUS
10
-16.1046164885
20
-12.3802735811
11
-13.2054786856
21
-13.8298424826
0
LINE
5
20E
100
AcDbEntity
8
0
100
AcDbLine
62
7
6
CONTINUOUS
10
-15.8924844541
20
-12.2742075640
11
-13.2054786856
21
-13.6177104482
0
LINE
5
20F
100
AcDbEntity
8
0
100
AcDbLine
62
7
6
CONTINUOUS
10
-15.8571291151
20
-12.2565298944
11
-13.2054786856
21
-13.5823551091
0
LINE
5
210
100
AcDbEntity
8
0
100
AcDbLine
62
7
6
CONTINUOUS
10
-16.9884999650
20
-10.8991013583
11
-16.1046164885
21
-11.3410430966
0
LINE
5
211
100
AcDbEntity
8
0
100
AcDbLine
62
7
6
CONTINUOUS
10
-13.2054786856
20
-12.7906119980
11
-12.3215952091
21
-13.2325537363
0
LINE
5
212
100
AcDbEntity
8
0
100
AcDbLine
62
7
6
CONTINUOUS
10
-16.7763679306
20
-10.7930353412
11
-15.8924844541
21
-11.2349770794
0
LINE
5
213
100
AcDbEntity
8
0
100
AcDbLine
62
7
6
CONTINUOUS
10
-12.9933466513
20
-12.6845459808
11
-12.3215952091
21
-13.0204217019
0
LINE
5
214
100
AcDbEntity
8
0
100
AcDbLine
62
7
6
CONTINUOUS
10
-16.7410125916
20
-10.7753576716
11
-15.8571291151
21
-11.2172994099
0
LINE
5
215
100
AcDbEntity
8
0
100
AcDbLine
62
7
6
CONTINUOUS
10
-12.9579913122
20
-12.6668683113
11
-12.3215952091
21
-12.9850663628
0
LINE
5
216
100
AcDbEntity
8
0
100
AcDbLine
62
7
6
CONTINUOUS
10
-16.9884999650
20
-9.5134607123
11
-16.9884999650
21
-10.8991013583
0
LINE
5
217
100
AcDbEntity
8
0
100
AcDbLine
62
7
6
CONTINUOUS
10
-16.7763679306
20
-9.4073946951
11
-16.7763679306
21
-10.7930353412
0
LINE
5
218
100
AcDbEntity
8
0
100
AcDbLine
62
7
6
CONTINUOUS
10
-16.7410125916
20
-9.3897170256
11
-16.7410125916
21
-10.7753576716
0
LINE
5
219
100
AcDbEntity
8
0
100
AcDbLine
62
7
6
CONTINUOUS
10
-16.1046164885
20
-11.3410430966
11
-16.1046164885
21
-12.3802735811
0
LINE
5
21A
100
AcDbEntity
8
0
100
AcDbLine
62
7
6
CONTINUOUS
10
-15.8924844541
20
-11.2349770794
11
-15.8924844541
21
-12.2742075640
0
LINE
5
21B
100
AcDbEntity
8
0
100
AcDbLine
62
7
6
CONTINUOUS
10
-15.8571291151
20
-11.2172994099
11
-15.8571291151
21
-12.2565298944
0
LINE
5
21C
100
AcDbEntity
8
0
100
AcDbLine
62
7
6
CONTINUOUS
10
-15.1146669948
20
6.3115075931
11
-13.4529660590
21
8.7878063282
0
LINE
5
21D
100
AcDbEntity
8
0
100
AcDbLine
62
7
6
CONTINUOUS
10
-16.0339058104
20
-10.4218042810
11
-15.1500223339
21
-10.8637460193
0
LINE
5
21E
100
AcDbEntity
8
0
100
AcDbLine
62
7
6
CONTINUOUS
10
-18.8976882742
20
-8.5588665577
11
-16.9884999650
21
-9.5134607123
0
LINE
5
21F
100
AcDbEntity
8
0
100
AcDbLine
62
7
6
CONTINUOUS
10
-12.3215952091
20
-11.8469130902
11
-10.4124068999
21
-12.8015072448
0
LINE
5
220
100
AcDbEntity
8
0
100
AcDbLine
62
7
6
CONTINUOUS
10
-18.6855562398
20
-8.4528005405
11
-16.7763679306
21
-9.4073946951
0
LINE
5
221
100
AcDbEntity
8
0
100
AcDbLine
62
7
6
CONTINUOUS
10
-12.1094631748
20
-11.7408470730
11
-10.4124068999
21
-12.5893752105
0
LINE
5
222
100
AcDbEntity
8
0
100
AcDbLine
62
7
6
CONTINUOUS
10
-18.6502009008
20
-8.4351228710
11
-16.7410125916
21
-9.3897170256
0
LINE
5
223
100
AcDbEntity
8
0
100
AcDbLine
62
7
6
CONTINUOUS
10
-12.0741078357
20
-11.7231694035
11
-10.4124068999
21
-12.5540198714
0
LINE
5
224
100
AcDbEntity
8
0
100
AcDbLine
62
7
6
CONTINUOUS
10
-15.1500223339
20
-10.8637460193
11
-15.1500223339
21
-11.9029765038
0
LINE
5
225
100
AcDbEntity
8
0
100
AcDbLine
62
7
6
CONTINUOUS
10
-15.1146669948
20
5.8784948912
11
-15.1146669948
21
6.3115075931
0
LINE
5
226
100
AcDbEntity
8
0
100
AcDbLine
62
7
6
CONTINUOUS
10
-0.4422012852
20
16.8357006839
11
-8.2203758783
21
12.9466133874
0
LINE
5
227
100
AcDbEntity
8
0
100
AcDbLine
62
7
6
CONTINUOUS
10
-8.2203758783
20
12.8751000072
11
-8.3264418954
21
12.8220669986
0
LINE
5
228
100
AcDbEntity
8
0
100
AcDbLine
62
7
6
CONTINUOUS
10
-13.4529660590
20
8.7878063282
11
-13.0287019903
21
8.9999383625
0
LINE
5
229
100
AcDbEntity
8
0
100
AcDbLine
62
7
6
CONTINUOUS
10
0.2287717441
20
-16.7705248089
11
-4.8860551312
21
-14.2131113713
0
LINE
5
22A
100
AcDbEntity
8
0
100
AcDbLine
62
9
6
CONTINUOUS
10
0.2295501569
20
-16.6476358531
11
-4.7627769689
21
-14.1514722902
0
LINE
5
22B
100
AcDbEntity
8
0
100
AcDbLine
62
7
6
CONTINUOUS
10
-13.2054786856
20
-13.8298424826
11
-13.2054786856
21
-12.7906119980
0
LINE
5
22C
100
AcDbEntity
8
0
100
AcDbLine
62
7
6
CONTINUOUS
10
-12.9579913122
20
-12.7022236504
11
-12.9579913122
21
-12.6668683113
0
LINE
5
22D
100
AcDbEntity
8
0
100
AcDbLine
62
7
6
CONTINUOUS
10
-12.3215952091
20
-13.2325537363
11
-12.3215952091
21
-11.8469130902
0
LINE
5
22E
100
AcDbEntity
8
0
100
AcDbLine
62
7
6
CONTINUOUS
10
-12.0741078357
20
-11.7585247426
11
-12.0741078357
21
-11.7231694035
0
LINE
5
22F
100
AcDbEntity
8
0
100
AcDbLine
62
7
6
CONTINUOUS
10
1.9619617708
20
15.6336191559
11
0.5477482085
21
14.9265123747
0
LINE
5
230
100
AcDbEntity
8
0
100
AcDbLine
62
7
6
CONTINUOUS
10
-12.0760740462
20
8.5236243904
11
-6.2758322300
21
11.4237452985
0
LINE
5
231
100
AcDbEntity
8
0
100
AcDbLine
62
7
6
CONTINUOUS
10
1.9619617708
20
15.3738115348
11
0.8075558296
21
14.7966085642
0
LINE
5
232
100
AcDbEntity
8
0
100
AcDbLine
62
7
6
CONTINUOUS
10
-1.3614401007
20
-13.6175300450
11
-2.5281662897
21
-13.0341669506
0
LINE
5
233
100
AcDbEntity
8
0
100
AcDbLine
62
7
6
CONTINUOUS
10
-0.6896886586
20
-13.4699485649
11
-1.1493080664
21
-13.2401388611
0
LINE
5
234
100
AcDbEntity
8
0
100
AcDbLine
62
7
6
CONTINUOUS
10
-0.9725313711
20
-13.1906774670
11
-1.1493080664
21
-13.1022891194
0
LINE
5
235
100
AcDbEntity
8
0
100
AcDbLine
62
7
6
CONTINUOUS
10
-10.4124068999
20
-12.8015072448
11
-10.4124068999
21
-6.7393294183
0
LINE
5
236
100
AcDbEntity
8
0
100
AcDbLine
62
7
6
CONTINUOUS
10
-13.3404781551
20
4.2902736812
11
-12.7818804610
21
4.7121016243
0
LINE
5
237
100
AcDbEntity
8
0
100
AcDbLine
62
7
6
CONTINUOUS
10
-4.6970811307
20
10.9251583925
11
-4.8618654818
21
10.8427662169
0
LINE
5
238
100
AcDbEntity
8
0
100
AcDbLine
62
7
6
CONTINUOUS
10
3.2347539770
20
14.8196436555
11
3.0226219426
21
14.7135776383
0
LINE
5
239
100
AcDbEntity
8
0
100
AcDbLine
62
7
6
CONTINUOUS
10
3.6590180457
20
14.9972230528
11
2.0326724490
21
14.1840502545
0
LINE
5
23A
100
AcDbEntity
8
0
100
AcDbLine
62
7
6
CONTINUOUS
10
-3.6948924787
20
10.6838716876
11
-4.7555526504
21
10.1535416017
0
LINE
5
23B
100
AcDbEntity
8
0
100
AcDbLine
62
7
6
CONTINUOUS
10
-19.7815717507
20
2.4485851067
11
-14.0182095883
21
5.3302661879
0
LINE
5
23C
100
AcDbEntity
8
0
100
AcDbLine
62
9
6
CONTINUOUS
10
-0.0302574642
20
-13.1402329677
11
0.2295501569
21
-13.2701367783
0
LINE
5
23D
100
AcDbEntity
8
0
100
AcDbLine
62
7
6
CONTINUOUS
10
-10.4124068999
20
-6.7393294183
11
-18.8976882742
21
-2.4966887312
0
LINE
5
23E
100
AcDbEntity
8
0
100
AcDbLine
62
7
6
CONTINUOUS
10
-9.5285234234
20
-2.6779390569
11
-9.5285234234
21
-16.5343455174
0
LINE
5
23F
100
AcDbEntity
8
0
100
AcDbLine
62
7
6
CONTINUOUS
10
-8.3264418954
20
12.8220669986
11
-8.3264418954
21
10.3984404658
0
LINE
5
240
100
AcDbEntity
8
0
100
AcDbLine
62
7
6
CONTINUOUS
10
-8.2203758783
20
12.9466133874
11
-8.2203758783
21
10.4514734744
0
LINE
5
241
100
AcDbEntity
8
0
100
AcDbLine
62
7
6
CONTINUOUS
10
-6.9122283331
20
1.7772755603
11
-6.9122283331
21
2.2102882622
0
LINE
5
242
100
AcDbEntity
8
0
100
AcDbLine
62
7
6
CONTINUOUS
10
-6.9122283331
20
2.2102882622
11
-5.2505273973
21
4.6865869973
0
LINE
5
243
100
AcDbEntity
8
0
100
AcDbLine
62
7
6
CONTINUOUS
10
-1.2200187445
20
8.3857746487
11
-0.1593585727
21
8.9161047346
0
LINE
5
244
100
AcDbEntity
8
0
100
AcDbLine
62
7
6
CONTINUOUS
10
-1.2200187445
20
8.1259670276
11
-0.1593585727
21
8.6562971135
0
LINE
5
245
100
AcDbEntity
8
0
100
AcDbLine
62
7
6
CONTINUOUS
10
6.8409985610
20
11.7798871984
11
8.4673441577
21
12.5930599968
0
LINE
5
246
100
AcDbEntity
8
0
100
AcDbLine
62
7
6
CONTINUOUS
10
8.2552121234
20
12.2271863585
11
7.1008061822
21
11.6499833879
0
LINE
5
247
100
AcDbEntity
8
0
100
AcDbLine
62
7
6
CONTINUOUS
10
-5.4626594316
20
11.3079475429
11
-5.4626594316
21
11.1431631918
0
LINE
5
248
100
AcDbEntity
8
0
100
AcDbLine
62
7
6
CONTINUOUS
10
-5.2505273973
20
11.2018815258
11
-5.2505273973
21
11.0370971746
0
LINE
5
249
100
AcDbEntity
8
0
100
AcDbLine
62
7
6
CONTINUOUS
10
8.8916082265
20
11.9912165307
11
8.6794761921
21
11.8851505136
0
LINE
5
24A
100
AcDbEntity
8
0
100
AcDbLine
62
7
6
CONTINUOUS
10
-5.2505273973
20
4.6865869973
11
-4.8262633286
21
4.8987190316
0
LINE
5
24B
100
AcDbEntity
8
0
100
AcDbLine
62
7
6
CONTINUOUS
10
9.7401363639
20
11.7445318594
11
8.3259228015
21
11.0374250782
0
LINE
5
24C
100
AcDbEntity
8
0
100
AcDbLine
62
7
6
CONTINUOUS
10
-4.8262633286
20
3.9460910875
11
1.9266064318
21
7.3225259676
0
LINE
5
24D
100
AcDbEntity
8
0
100
AcDbLine
62
7
6
CONTINUOUS
10
-19.7815717507
20
2.4485851067
11
-9.5285234234
21
-2.6779390569
0
LINE
5
24E
100
AcDbEntity
8
0
100
AcDbLine
62
7
6
CONTINUOUS
10
-4.8262633286
20
4.8987190316
11
-4.8262633286
21
3.9460910875
0
LINE
5
24F
100
AcDbEntity
8
0
100
AcDbLine
62
7
6
CONTINUOUS
10
-4.7555526504
20
9.8937339806
11
-4.7555526504
21
10.1535416017
0
LINE
5
250
100
AcDbEntity
8
0
100
AcDbLine
62
7
6
CONTINUOUS
10
-4.6494866333
20
10.7365767926
11
-4.6494866333
21
10.9013611438
0
LINE
5
251
100
AcDbEntity
8
0
100
AcDbLine
62
7
6
CONTINUOUS
10
-3.6948924787
20
1.6177346388
11
-3.6948924787
21
1.8775422600
0
LINE
5
252
100
AcDbEntity
8
0
100
AcDbLine
62
7
6
CONTINUOUS
10
-2.7135481695
20
3.7514752800
11
-2.2231001160
21
4.1218396688
0
LINE
5
253
100
AcDbEntity
8
0
100
AcDbLine
62
7
6
CONTINUOUS
10
-5.8451462745
20
0.5426077409
11
-2.0411014347
21
3.4152519125
0
LINE
5
254
100
AcDbEntity
8
0
100
AcDbLine
62
7
6
CONTINUOUS
10
0.5123928694
20
5.4895861615
11
-6.9122283331
21
1.7772755603
0
LINE
5
255
100
AcDbEntity
8
0
100
AcDbLine
62
7
6
CONTINUOUS
10
4.3661248269
20
6.6533630348
11
12.1442994199
21
10.5424503314
0
LINE
5
256
100
AcDbEntity
8
0
100
AcDbLine
62
7
6
CONTINUOUS
10
4.5782568612
20
6.4996214309
11
12.1442994199
21
10.2826427102
0
LINE
5
257
100
AcDbEntity
8
0
100
AcDbLine
62
7
6
CONTINUOUS
10
-0.3714906071
20
3.8602101598
11
-1.9978362038
21
3.0470373614
0
LINE
5
258
100
AcDbEntity
8
0
100
AcDbLine
62
7
6
CONTINUOUS
10
12.2503654371
20
10.0997058911
11
4.6843228784
21
6.3166846117
0
LINE
5
259
100
AcDbEntity
8
0
100
AcDbLine
62
7
6
CONTINUOUS
10
4.8964549128
20
6.2106185945
11
12.6746295058
21
10.0997058911
0
LINE
5
25A
100
AcDbEntity
8
0
100
AcDbLine
62
7
6
CONTINUOUS
10
-3.6948924787
20
1.8775422600
11
1.8205404146
21
4.6352587066
0
LINE
5
25B
100
AcDbEntity
8
0
100
AcDbLine
62
7
6
CONTINUOUS
10
12.6746295058
20
10.0442830008
11
13.3817362870
21
10.3978363913
0
LINE
5
25C
100
AcDbEntity
8
0
100
AcDbLine
62
7
6
CONTINUOUS
10
-2.5281662897
20
0.8222395100
11
-2.5281662897
21
-13.0341669506
0
LINE
5
25D
100
AcDbEntity
8
0
100
AcDbLine
62
7
6
CONTINUOUS
10
-1.9978362038
20
3.1825379540
11
-1.9978362038
21
2.7260703974
0
LINE
5
25E
100
AcDbEntity
8
0
100
AcDbLine
62
7
6
CONTINUOUS
10
-3.6948924787
20
1.6177346388
11
-5.8451462745
21
0.5426077409
0
LINE
5
25F
100
AcDbEntity
8
0
100
AcDbLine
62
7
6
CONTINUOUS
10
2.2801598224
20
3.9485985074
11
0.8659462600
21
3.2414917262
0
LINE
5
260
100
AcDbEntity
8
0
100
AcDbLine
62
7
6
CONTINUOUS
10
13.5938683214
20
9.5846635930
11
12.6746295058
21
9.1250441852
0
LINE
5
261
100
AcDbEntity
8
0
100
AcDbLine
62
7
6
CONTINUOUS
10
-9.5285234234
20
-2.6779390569
11
-2.5281662897
21
0.8222395100
0
LINE
5
262
100
AcDbEntity
8
0
100
AcDbLine
62
7
6
CONTINUOUS
10
-5.8451462745
20
0.5426077409
11
-13.3404781551
21
4.2902736812
0
LINE
5
263
100
AcDbEntity
8
0
100
AcDbLine
62
7
6
CONTINUOUS
10
-1.3614401007
20
-13.6175300450
11
-1.3614401007
21
0.2388764155
0
LINE
5
264
100
AcDbEntity
8
0
100
AcDbLine
62
7
6
CONTINUOUS
10
-1.2200187445
20
8.1259670276
11
-1.2200187445
21
8.3857746487
0
LINE
5
265
100
AcDbEntity
8
0
100
AcDbLine
62
7
6
CONTINUOUS
10
-1.1493080664
20
0.6047500538
11
-1.1493080664
21
-13.5114640279
0
LINE
5
266
100
AcDbEntity
8
0
100
AcDbLine
62
7
6
CONTINUOUS
10
-0.9018206930
20
0.7523315339
11
-0.9018206930
21
-13.1040749266
0
LINE
5
267
100
AcDbEntity
8
0
100
AcDbLine
62
7
6
CONTINUOUS
10
-0.6896886586
20
0.6462655167
11
-0.6896886586
21
-13.4699485649
0
LINE
5
268
100
AcDbEntity
8
0
100
AcDbLine
62
7
6
CONTINUOUS
10
-0.3714906071
20
3.8602101598
11
-0.3714906071
21
5.0476444233
0
LINE
5
269
100
AcDbEntity
8
0
100
AcDbLine
62
7
6
CONTINUOUS
10
-0.1593585727
20
8.6562971135
11
-0.1593585727
21
8.9161047346
0
LINE
5
26A
100
AcDbEntity
8
0
100
AcDbLine
62
7
6
CONTINUOUS
10
-0.9018206930
20
0.7523315339
11
4.6843228784
21
3.5454033196
0
LINE
5
26B
100
AcDbEntity
8
0
100
AcDbLine
62
7
6
CONTINUOUS
10
-1.1493080664
20
0.6047500538
11
-0.9018206930
21
0.7284937405
0
LINE
5
26C
100
AcDbEntity
8
0
100
AcDbLine
62
7
6
CONTINUOUS
10
-0.6896886586
20
0.6462655167
11
4.8964549128
21
3.4393373024
0
LINE
5
26D
100
AcDbEntity
8
0
100
AcDbLine
62
7
6
CONTINUOUS
10
-1.3614401007
20
0.2388764155
11
-0.9018206930
21
0.4686861194
0
LINE
5
26E
100
AcDbEntity
8
0
100
AcDbLine
62
7
6
CONTINUOUS
10
-18.8976882742
20
-8.5588665577
11
-18.6855562398
21
-8.4528005405
0
LINE
5
26F
100
AcDbEntity
8
0
100
AcDbLine
62
7
6
CONTINUOUS
10
-18.6502009008
20
-8.4351228710
11
-12.8355104477
21
-5.5277776444
0
LINE
5
270
100
AcDbEntity
8
0
100
AcDbLine
62
7
6
CONTINUOUS
10
-6.9122283331
20
1.7772755603
11
-15.1146669948
21
5.8784948912
0
LINE
5
271
100
AcDbEntity
8
0
100
AcDbLine
62
7
6
CONTINUOUS
10
-6.9122283331
20
2.2102882622
11
-15.1146669948
21
6.3115075931
0
LINE
5
272
100
AcDbEntity
8
0
100
AcDbLine
62
7
6
CONTINUOUS
10
-2.5281662897
20
0.8222395100
11
-1.3614401007
21
0.2388764155
0
LINE
5
273
100
AcDbEntity
8
0
100
AcDbLine
62
7
6
CONTINUOUS
10
-3.6948924787
20
1.6177346388
11
-1.1493080664
21
0.3449424327
0
LINE
5
274
100
AcDbEntity
8
0
100
AcDbLine
62
7
6
CONTINUOUS
10
-3.6948924787
20
1.8775422600
11
-1.1493080664
21
0.6047500538
0
LINE
5
275
100
AcDbEntity
8
0
100
AcDbLine
62
7
6
CONTINUOUS
10
-2.0411014347
20
3.4152519125
11
-1.9978362038
21
3.1825379540
0
LINE
5
276
100
AcDbEntity
8
0
100
AcDbLine
62
7
6
CONTINUOUS
10
0.2295501569
20
-16.6476358531
11
0.2295501569
21
-13.2701367783
0
LINE
5
277
100
AcDbEntity
8
0
100
AcDbLine
62
7
6
CONTINUOUS
10
0.8659462600
20
3.2414917262
11
0.8659462600
21
5.2333501549
0
LINE
5
278
100
AcDbEntity
8
0
100
AcDbLine
62
7
6
CONTINUOUS
10
1.6084083802
20
7.6076292859
11
1.6084083802
21
7.7724136370
0
LINE
5
279
100
AcDbEntity
8
0
100
AcDbLine
62
7
6
CONTINUOUS
10
-16.9884999650
20
-9.5134607123
11
-16.7763679306
21
-9.4073946951
0
LINE
5
27A
100
AcDbEntity
8
0
100
AcDbLine
62
7
6
CONTINUOUS
10
-16.7410125916
20
-9.3897170256
11
-10.9263221385
21
-6.4823717990
0
LINE
5
27B
100
AcDbEntity
8
0
100
AcDbLine
62
7
6
CONTINUOUS
10
12.6746295058
20
4.8116928200
11
14.3716857807
21
5.6602209574
0
LINE
5
27C
100
AcDbEntity
8
0
100
AcDbLine
62
7
6
CONTINUOUS
10
15.0787925618
20
6.0137743480
11
17.9072196866
21
7.4279879104
0
LINE
5
27D
100
AcDbEntity
8
0
100
AcDbLine
62
7
6
CONTINUOUS
10
12.6746295058
20
4.5518851988
11
14.3716857807
21
5.4004133363
0
LINE
5
27E
100
AcDbEntity
8
0
100
AcDbLine
62
7
6
CONTINUOUS
10
15.3386001830
20
5.8838705374
11
17.9072196866
21
7.1681802892
0
LINE
5
27F
100
AcDbEntity
8
0
100
AcDbLine
62
7
6
CONTINUOUS
10
-0.6896886586
20
0.6462655167
11
-0.9018206930
21
0.7523315339
0
LINE
5
280
100
AcDbEntity
8
0
100
AcDbLine
62
7
6
CONTINUOUS
10
-5.2505273973
20
4.6865869973
11
-13.4529660590
21
8.7878063282
0
LINE
5
281
100
AcDbEntity
8
0
100
AcDbLine
62
7
6
CONTINUOUS
10
1.9619617708
20
15.3738115348
11
1.9619617708
21
15.6336191559
0
LINE
5
282
100
AcDbEntity
8
0
100
AcDbLine
62
7
6
CONTINUOUS
10
2.2801598224
20
7.0662899610
11
2.2801598224
21
3.9485985074
0
LINE
5
283
100
AcDbEntity
8
0
100
AcDbLine
62
7
6
CONTINUOUS
10
3.0226219426
20
14.6790250013
11
3.0226219426
21
14.7135776383
0
LINE
5
284
100
AcDbEntity
8
0
100
AcDbLine
62
7
6
CONTINUOUS
10
3.2347539770
20
14.8196436555
11
3.2347539770
21
14.7850910185
0
LINE
5
285
100
AcDbEntity
8
0
100
AcDbLine
62
7
6
CONTINUOUS
10
-16.9884999650
20
-10.8991013583
11
-16.7763679306
21
-10.7930353412
0
LINE
5
286
100
AcDbEntity
8
0
100
AcDbLine
62
7
6
CONTINUOUS
10
-16.7410125916
20
-10.7753576716
11
-16.0339058104
21
-10.4218042810
0
LINE
5
287
100
AcDbEntity
8
0
100
AcDbLine
62
7
6
CONTINUOUS
10
19.5335652833
20
7.3219218932
11
18.8264585021
21
6.9683685026
0
LINE
5
288
100
AcDbEntity
8
0
100
AcDbLine
62
7
6
CONTINUOUS
10
15.9980313774
20
5.5541549402
11
15.2909245962
21
5.2006015496
0
LINE
5
289
100
AcDbEntity
8
0
100
AcDbLine
62
7
6
CONTINUOUS
10
-10.4124068999
20
-7.6976573662
11
-15.9473032700
21
-10.4651055512
0
LINE
5
28A
100
AcDbEntity
8
0
100
AcDbLine
62
7
6
CONTINUOUS
10
19.5335652833
20
7.0621142720
11
18.8264585021
21
6.7085608815
0
LINE
5
28B
100
AcDbEntity
8
0
100
AcDbLine
62
7
6
CONTINUOUS
10
15.9980313774
20
5.2943473191
11
15.2909245962
21
4.9407939285
0
LINE
5
28C
100
AcDbEntity
8
0
100
AcDbLine
62
7
6
CONTINUOUS
10
-16.1046164885
20
-11.3410430966
11
-15.8924844541
21
-11.2349770794
0
LINE
5
28D
100
AcDbEntity
8
0
100
AcDbLine
62
7
6
CONTINUOUS
10
-15.8571291151
20
-11.2172994099
11
-15.1500223339
21
-10.8637460193
0
LINE
5
28E
100
AcDbEntity
8
0
100
AcDbLine
62
7
6
CONTINUOUS
10
-2.0411014347
20
3.4152519125
11
-2.8386885316
21
3.8140454610
0
LINE
5
28F
100
AcDbEntity
8
0
100
AcDbLine
62
7
6
CONTINUOUS
10
-4.8262633286
20
4.8987190316
11
-13.0287019903
21
8.9999383625
0
LINE
5
290
100
AcDbEntity
8
0
100
AcDbLine
62
7
6
CONTINUOUS
10
-0.0505236431
20
3.6997266778
11
-0.3714906071
21
3.8602101598
0
LINE
5
291
100
AcDbEntity
8
0
100
AcDbLine
62
7
6
CONTINUOUS
10
4.3661248269
20
3.3863042938
11
4.3661248269
21
6.6533630348
0
LINE
5
292
100
AcDbEntity
8
0
100
AcDbLine
62
7
6
CONTINUOUS
10
4.5782568612
20
6.4996214309
11
4.5782568612
21
3.4923703110
0
LINE
5
293
100
AcDbEntity
8
0
100
AcDbLine
62
7
6
CONTINUOUS
10
4.6843228784
20
6.3166846117
11
4.6843228784
21
3.5454033196
0
LINE
5
294
100
AcDbEntity
8
0
100
AcDbLine
62
7
6
CONTINUOUS
10
4.7196782175
20
6.3343622813
11
4.7196782175
21
6.5703321090
0
LINE
5
295
100
AcDbEntity
8
0
100
AcDbLine
62
7
6
CONTINUOUS
10
4.8964549128
20
6.2106185945
11
4.8964549128
21
3.4393373024
0
LINE
5
296
100
AcDbEntity
8
0
100
AcDbLine
62
7
6
CONTINUOUS
10
-16.1046164885
20
-12.3802735811
11
-15.8924844541
21
-12.2742075640
0
LINE
5
297
100
AcDbEntity
8
0
100
AcDbLine
62
7
6
CONTINUOUS
10
-15.8571291151
20
-12.2565298944
11
-15.1500223339
21
-11.9029765038
0
LINE
5
298
100
AcDbEntity
8
0
100
AcDbLine
62
7
6
CONTINUOUS
10
-12.3215952091
20
-11.8469130902
11
-12.1094631748
21
-11.7408470730
0
LINE
5
299
100
AcDbEntity
8
0
100
AcDbLine
62
7
6
CONTINUOUS
10
-12.0741078357
20
-11.7231694035
11
-10.4124068999
21
-10.8923189356
0
LINE
5
29A
100
AcDbEntity
8
0
100
AcDbLine
62
7
6
CONTINUOUS
10
1.8205404146
20
4.6352587066
11
4.3422870335
21
3.3743853972
0
LINE
5
29B
100
AcDbEntity
8
0
100
AcDbLine
62
9
6
CONTINUOUS
10
0.8659462600
20
5.2333501549
11
0.4329335581
21
5.4498565059
0
LINE
5
29C
100
AcDbEntity
8
0
100
AcDbLine
62
7
6
CONTINUOUS
10
4.8964549128
20
3.4393373024
11
4.6843228784
21
3.5454033196
0
LINE
5
29D
100
AcDbEntity
8
0
100
AcDbLine
62
7
6
CONTINUOUS
10
6.1692471189
20
7.0591467320
11
6.1692471189
21
7.2951165597
0
LINE
5
29E
100
AcDbEntity
8
0
100
AcDbLine
62
7
6
CONTINUOUS
10
-13.2054786856
20
-12.7906119980
11
-12.9933466513
21
-12.6845459808
0
LINE
5
29F
100
AcDbEntity
8
0
100
AcDbLine
62
7
6
CONTINUOUS
10
-12.9579913122
20
-12.6668683113
11
-12.3215952091
21
-12.3486702598
0
LINE
5
2A0
100
AcDbEntity
8
0
100
AcDbLine
62
7
6
CONTINUOUS
10
12.4624974715
20
-0.6584725927
11
11.8261013684
21
-0.9766706442
0
LINE
5
2A1
100
AcDbEntity
8
0
100
AcDbLine
62
7
6
CONTINUOUS
10
-4.7555526504
20
9.8937339806
11
-1.2200187445
21
8.1259670276
0
LINE
5
2A2
100
AcDbEntity
8
0
100
AcDbLine
62
7
6
CONTINUOUS
10
-4.7555526504
20
10.1535416017
11
-1.2200187445
21
8.3857746487
0
LINE
5
2A3
100
AcDbEntity
8
0
100
AcDbLine
62
7
6
CONTINUOUS
10
8.2552121234
20
11.0727804173
11
8.2552121234
21
12.2271863585
0
LINE
5
2A4
100
AcDbEntity
8
0
100
AcDbLine
62
7
6
CONTINUOUS
10
8.4673441577
20
12.5930599968
11
8.4673441577
21
11.1081357563
0
LINE
5
2A5
100
AcDbEntity
8
0
100
AcDbLine
62
7
6
CONTINUOUS
10
8.6794761921
20
11.2142017735
11
8.6794761921
21
11.8851505136
0
LINE
5
2A6
100
AcDbEntity
8
0
100
AcDbLine
62
9
6
CONTINUOUS
10
-6.2758322300
20
11.4237452985
11
-4.2454887434
21
10.4085735552
0
LINE
5
2A7
100
AcDbEntity
8
0
100
AcDbLine
62
9
6
CONTINUOUS
10
-0.4501472163
20
8.5109027917
11
1.9266064318
21
7.3225259676
0
LINE
5
2A8
100
AcDbEntity
8
0
100
AcDbLine
62
7
6
CONTINUOUS
10
-6.0522254322
20
11.4379461921
11
-4.1194844509
21
10.4715757015
0
LINE
5
2A9
100
AcDbEntity
8
0
100
AcDbLine
62
7
6
CONTINUOUS
10
-0.3241429238
20
8.5739049379
11
2.1502132295
21
7.3367268613
0
LINE
5
2AA
100
AcDbEntity
8
0
100
AcDbLine
62
7
6
CONTINUOUS
10
-5.4626594316
20
11.3079475429
11
-3.9547000998
21
10.5539678770
0
LINE
5
2AB
100
AcDbEntity
8
0
100
AcDbLine
62
7
6
CONTINUOUS
10
-0.1593585727
20
8.6562971135
11
1.6084083802
21
7.7724136370
0
LINE
5
2AC
100
AcDbEntity
8
0
100
AcDbLine
62
7
6
CONTINUOUS
10
-8.3264418954
20
12.8220669986
11
-8.2203758783
21
12.7690339901
0
LINE
5
2AD
100
AcDbEntity
8
0
100
AcDbLine
62
7
6
CONTINUOUS
10
4.6843228784
20
6.3166846117
11
4.8964549128
21
6.2106185945
0
LINE
5
2AE
100
AcDbEntity
8
0
100
AcDbLine
62
7
6
CONTINUOUS
10
-8.2203758783
20
12.9466133874
11
-3.6948924787
21
10.6838716876
0
LINE
5
2AF
100
AcDbEntity
8
0
100
AcDbLine
62
7
6
CONTINUOUS
10
-0.1593585727
20
8.9161047346
11
4.3661248269
21
6.6533630348
0
LINE
5
2B0
100
AcDbEntity
8
0
100
AcDbLine
62
7
6
CONTINUOUS
10
11.6139693340
20
-10.9554262645
11
11.6139693340
21
-1.3425442825
0
LINE
5
2B1
100
AcDbEntity
8
0
100
AcDbLine
62
7
6
CONTINUOUS
10
12.1442994199
20
10.2826427102
11
12.1442994199
21
10.5424503314
0
LINE
5
2B2
100
AcDbEntity
8
0
100
AcDbLine
62
7
6
CONTINUOUS
10
-9.5285234234
20
-16.5343455174
11
-2.5281662897
21
-13.0341669506
0
LINE
5
2B3
100
AcDbEntity
8
0
100
AcDbLine
62
7
6
CONTINUOUS
10
-1.1493080664
20
-13.5114640279
11
-1.3614401007
21
-13.6175300450
0
LINE
5
2B4
100
AcDbEntity
8
0
100
AcDbLine
62
7
6
CONTINUOUS
10
0.0174181226
20
-13.1163951743
11
-0.6896886586
21
-13.4699485649
0
LINE
5
2B5
100
AcDbEntity
8
0
100
AcDbLine
62
7
6
CONTINUOUS
10
15.2909245962
20
4.9407939285
11
14.3716857807
21
5.4004133363
0
LINE
5
2B6
100
AcDbEntity
8
0
100
AcDbLine
62
7
6
CONTINUOUS
10
15.2909245962
20
5.2006015496
11
14.3716857807
21
5.6602209574
0
LINE
5
2B7
100
AcDbEntity
8
0
100
AcDbLine
62
7
6
CONTINUOUS
10
15.0787925618
20
6.0137743480
11
15.9980313774
21
5.5541549402
0
LINE
5
2B8
100
AcDbEntity
8
0
100
AcDbLine
62
7
6
CONTINUOUS
10
12.6746295058
20
-0.2925989543
11
12.6746295058
21
10.0997058911
0
LINE
5
2B9
100
AcDbEntity
8
0
100
AcDbLine
62
7
6
CONTINUOUS
10
10.6579166703
20
9.5394513354
11
10.7883907234
21
9.4742143089
0
LINE
5
2BA
100
AcDbEntity
8
0
100
AcDbLine
62
7
6
CONTINUOUS
10
0.5477482085
20
14.9265123747
11
2.0326724490
21
14.1840502545
0
LINE
5
2BB
100
AcDbEntity
8
0
100
AcDbLine
62
7
6
CONTINUOUS
10
6.8409985610
20
11.7798871984
11
8.3259228015
21
11.0374250782
0
LINE
5
2BC
100
AcDbEntity
8
0
100
AcDbLine
62
7
6
CONTINUOUS
10
14.3716857807
20
5.4004133363
11
14.3716857807
21
5.6602209574
0
LINE
5
2BD
100
AcDbEntity
8
0
100
AcDbLine
62
7
6
CONTINUOUS
10
15.2909245962
20
4.9407939285
11
15.2909245962
21
5.2006015496
0
LINE
5
2BE
100
AcDbEntity
8
0
100
AcDbLine
62
9
6
CONTINUOUS
10
11.6139693340
20
-10.9554262645
11
0.2295501569
21
-16.6476358531
0
LINE
5
2BF
100
AcDbEntity
8
0
100
AcDbLine
62
7
6
CONTINUOUS
10
11.4572550098
20
-11.1570615889
11
0.2303285697
21
-16.7705248089
0
LINE
5
2C0
100
AcDbEntity
8
0
100
AcDbLine
62
7
6
CONTINUOUS
10
18.8264585021
20
6.7085608815
11
17.9072196866
21
7.1681802892
0
LINE
5
2C1
100
AcDbEntity
8
0
100
AcDbLine
62
7
6
CONTINUOUS
10
13.3340607002
20
9.4547597824
11
12.6746295058
21
9.7844753796
0
LINE
5
2C2
100
AcDbEntity
8
0
100
AcDbLine
62
7
6
CONTINUOUS
10
1.8320579603
20
15.3088596295
11
3.0226219426
21
14.7135776383
0
LINE
5
2C3
100
AcDbEntity
8
0
100
AcDbLine
62
7
6
CONTINUOUS
10
8.6794761921
20
11.8851505136
11
9.3504249322
21
11.5496761435
0
LINE
5
2C4
100
AcDbEntity
8
0
100
AcDbLine
62
7
6
CONTINUOUS
10
12.0143956094
20
10.2176908049
11
12.2503654371
21
10.0997058911
0
LINE
5
2C5
100
AcDbEntity
8
0
100
AcDbLine
62
7
6
CONTINUOUS
10
18.8264585021
20
6.9683685026
11
17.9072196866
21
7.4279879104
0
LINE
5
2C6
100
AcDbEntity
8
0
100
AcDbLine
62
7
6
CONTINUOUS
10
13.5938683214
20
9.5846635930
11
12.6746295058
21
10.0442830008
0
LINE
5
2C7
100
AcDbEntity
8
0
100
AcDbLine
62
7
6
CONTINUOUS
10
12.6746295058
20
10.0997058911
11
12.1442994199
21
10.3648709340
0
LINE
5
2C8
100
AcDbEntity
8
0
100
AcDbLine
62
7
6
CONTINUOUS
10
9.5625569665
20
11.6557421607
11
8.8916082265
21
11.9912165307
0
LINE
5
2C9
100
AcDbEntity
8
0
100
AcDbLine
62
7
6
CONTINUOUS
10
3.2347539770
20
14.8196436555
11
1.9619617708
21
15.4560397586
0
LINE
5
2CA
100
AcDbEntity
8
0
100
AcDbLine
62
7
6
CONTINUOUS
10
12.1442994199
20
10.5424503314
11
9.7401363639
21
11.7445318594
0
LINE
5
2CB
100
AcDbEntity
8
0
100
AcDbLine
62
7
6
CONTINUOUS
10
1.9619617708
20
15.6336191559
11
-0.4422012852
21
16.8357006839
0
LINE
5
2CC
100
AcDbEntity
8
0
100
AcDbLine
62
7
6
CONTINUOUS
10
8.4673441577
20
12.5930599968
11
3.6590180457
21
14.9972230528
0
LINE
5
2CD
100
AcDbEntity
8
0
100
AcDbLine
62
7
6
CONTINUOUS
10
13.3817362870
20
10.3978363913
11
19.5335652833
21
7.3219218932
0
LINE
5
2CE
100
AcDbEntity
8
0
100
AcDbLine
62
7
6
CONTINUOUS
10
15.9980313774
20
5.2943473191
11
15.9980313774
21
5.5541549402
0
LINE
5
2CF
100
AcDbEntity
8
0
100
AcDbLine
62
7
6
CONTINUOUS
10
17.9072196866
20
7.1681802892
11
17.9072196866
21
7.4279879104
0
LINE
5
2D0
100
AcDbEntity
8
0
100
AcDbLine
62
7
6
CONTINUOUS
10
18.8264585021
20
6.7085608815
11
18.8264585021
21
6.9683685026
0
LINE
5
2D1
100
AcDbEntity
8
0
100
AcDbLine
62
7
6
CONTINUOUS
10
19.5335652833
20
7.0621142720
11
19.5335652833
21
7.3219218932
0
SPLINE
5
2D2
100
AcDbEntity
8
0
100
AcDbSpline
62
7
6
CONTINUOUS
70
0
71
3
72
11
73
7
74
5
42
0.0000001000
43
0.0000001000
44
0.0000000001
12
0.2396703768
22
0.1194177922
32
0.0000000000
13
0.0000000000
23
0.2674352735
33
0.0000000000
40
0.0000000000
40
0.0000000000
40
0.0000000000
40
0.0000000000
40
0.1604268734
40
0.4454209176
40
0.7220007722
40
1.0000000000
40
1.0000000000
40
1.0000000000
40
1.0000000000
10
11.4575055388
20
-11.1569437171
30
0.0000000000
10
11.4703220619
20
-11.1505577761
30
0.0000000000
10
11.5050524831
20
-11.1311228471
30
0.0000000000
10
11.5562194491
20
-11.0911757396
30
0.0000000000
10
11.6016163242
20
-11.0301306793
30
0.0000000000
10
11.6139693340
20
-10.9802085310
30
0.0000000000
10
11.6139693340
20
-10.9554262645
30
0.0000000000
11
11.4575055388
21
-11.1569437171
31
0.0000000000
11
11.4949292489
21
-11.1358822701
31
0.0000000000
11
11.5543863746
21
-11.0881963033
31
0.0000000000
11
11.5971536524
21
-11.0278464237
31
0.0000000000
11
11.6139693340
21
-10.9554262645
31
0.0000000000
0
SPLINE
5
2D3
100
AcDbEntity
8
0
100
AcDbSpline
62
7
6
CONTINUOUS
70
0
71
3
72
10
73
6
74
4
42
0.0000001000
43
0.0000001000
44
0.0000000001
12
0.1237660608
22
0.0618830304
32
0.0000000000
13
0.1244168713
23
-0.0629527646
33
0.0000000000
40
0.0000000000
40
0.0000000000
40
0.0000000000
40
0.0000000000
40
0.4931032076
40
0.9267812438
40
1.0000000000
40
1.0000000000
40
1.0000000000
40
1.0000000000
10
0.0174181226
20
-13.1163951743
30
0.0000000000
10
0.0377612698
20
-13.1062236007
30
0.0000000000
10
0.0791663008
20
-13.0920481987
30
0.0000000000
10
0.1269860069
20
-13.0966837549
30
0.0000000000
10
0.1484691411
20
-13.1063479661
30
0.0000000000
10
0.1515056906
20
-13.1078844072
30
0.0000000000
11
0.0174181226
21
-13.1163951743
31
0.0000000000
11
0.0826459307
21
-13.0963683430
31
0.0000000000
11
0.1422053611
21
-13.1037086821
31
0.0000000000
11
0.1515056906
21
-13.1078844072
31
0.0000000000
0
SPLINE
5
2D4
100
AcDbEntity
8
0
100
AcDbSpline
62
7
6
CONTINUOUS
70
0
71
3
72
12
73
8
74
6
42
0.0000001000
43
0.0000001000
44
0.0000000001
12
0.0000000000
22
0.4409637184
32
0.0000000000
13
0.3944099400
23
0.1972049700
33
0.0000000000
40
0.0000000000
40
0.0000000000
40
0.0000000000
40
0.0000000000
40
0.1943894074
40
0.4051922094
40
0.6169088013
40
0.8200336078
40
1.0000000000
40
1.0000000000
40
1.0000000000
40
1.0000000000
10
11.6139693340
20
-1.3425442825
30
0.0000000000
10
11.6139693340
20
-1.3139713905
30
0.0000000000
10
11.6218609153
20
-1.2543160798
30
0.0000000000
10
11.6518837871
20
-1.1682095277
30
0.0000000000
10
11.6981463564
20
-1.0880627463
30
0.0000000000
10
11.7560697033
20
-1.0218260683
30
0.0000000000
10
11.8024411904
20
-0.9885007332
30
0.0000000000
10
11.8261013684
20
-0.9766706442
30
0.0000000000
11
11.6139693340
21
-1.3425442825
31
0.0000000000
11
11.6242634796
21
-1.2574459748
31
0.0000000000
11
11.6544978133
21
-1.1695438985
31
0.0000000000
11
11.7013141298
21
-1.0887713905
31
0.0000000000
11
11.7608735603
21
-1.0218716209
31
0.0000000000
11
11.8261013684
21
-0.9766706442
31
0.0000000000
0
SPLINE
5
2D5
100
AcDbEntity
8
0
100
AcDbSpline
62
7
6
CONTINUOUS
70
0
71
3
72
12
73
8
74
6
42
0.0000001000
43
0.0000001000
44
0.0000000001
12
0.3944099485
22
0.1972049743
32
0.0000000000
13
0.0000000000
23
0.4409637280
33
0.0000000000
40
0.0000000000
40
0.0000000000
40
0.0000000000
40
0.0000000000
40
0.1801238002
40
0.3827869496
40
0.5944974290
40
0.8057778055
40
1.0000000000
40
1.0000000000
40
1.0000000000
40
1.0000000000
10
12.4624974715
20
-0.6584725927
30
0.0000000000
10
12.4861783444
20
-0.6466321562
30
0.0000000000
10
12.5325098760
20
-0.6133263850
30
0.0000000000
10
12.5904075220
20
-0.5471331543
30
0.0000000000
10
12.6366927987
20
-0.4669975116
30
0.0000000000
10
12.6667384229
20
-0.3808478851
30
0.0000000000
10
12.6746295058
20
-0.3211472687
30
0.0000000000
10
12.6746295058
20
-0.2925989543
30
0.0000000000
11
12.4624974715
21
-0.6584725927
31
0.0000000000
11
12.5277773814
21
-0.6132249357
31
0.0000000000
11
12.5872060111
21
-0.5464812757
31
0.0000000000
11
12.6340438066
21
-0.4657243344
31
0.0000000000
11
12.6643522040
21
-0.3776250287
31
0.0000000000
11
12.6746295058
21
-0.2925989543
31
0.0000000000
0
SPLINE
5
2D6
100
AcDbEntity
8
0
100
AcDbSpline
62
7
6
CONTINUOUS
70
0
71
3
72
10
73
6
74
4
42
0.0000001000
43
0.0000001000
44
0.0000000001
12
0.0000000000
22
0.0000000000
32
0.0000000000
13
0.0000000000
23
0.1208712057
33
0.0000000000
40
0.0000000000
40
0.0000000000
40
0.0000000000
40
0.0000000000
40
0.1480306790
40
0.4704088707
40
1.0000000000
40
1.0000000000
40
1.0000000000
40
1.0000000000
10
0.2295501569
20
-16.7693901548
30
0.0000000000
10
0.2295501569
20
-16.7693901548
30
0.0000000000
10
0.2295501569
20
-16.7365172777
30
0.0000000000
10
0.2295501569
20
-16.7077122792
30
0.0000000000
10
0.2295501569
20
-16.6689732925
30
0.0000000000
10
0.2295501569
20
-16.6476358531
30
0.0000000000
11
0.2295501569
21
-16.7693901548
31
0.0000000000
11
0.2295501569
21
-16.7506144121
31
0.0000000000
11
0.2295501569
21
-16.7116481714
31
0.0000000000
11
0.2295501569
21
-16.6476358531
31
0.0000000000
0
SPLINE
5
2D7
100
AcDbEntity
8
0
100
AcDbSpline
62
7
6
CONTINUOUS
70
0
71
3
72
10
73
6
74
4
42
0.0000001000
43
0.0000001000
44
0.0000000001
12
0.1693283326
22
-0.0856771800
32
0.0000000000
13
0.0000000000
23
-0.1883245468
33
0.0000000000
40
0.0000000000
40
0.0000000000
40
0.0000000000
40
0.0000000000
40
0.2532996538
40
0.5990477411
40
1.0000000000
40
1.0000000000
40
1.0000000000
40
1.0000000000
10
0.1515056906
20
-13.1078844072
30
0.0000000000
10
0.1658026266
20
-13.1151184072
30
0.0000000000
10
0.1961237760
20
-13.1395922299
30
0.0000000000
10
0.2241187674
20
-13.1977157232
30
0.0000000000
10
0.2295501569
20
-13.2449670608
30
0.0000000000
10
0.2295501569
20
-13.2701367783
30
0.0000000000
11
0.1515056906
21
-13.1078844072
31
0.0000000000
11
0.1890216777
21
-13.1376648735
31
0.0000000000
11
0.2192560114
21
-13.1953326162
31
0.0000000000
11
0.2295501569
21
-13.2701367783
31
0.0000000000
0
SPLINE
5
2D8
100
AcDbEntity
8
0
100
AcDbSpline
62
7
6
CONTINUOUS
70
0
71
3
72
10
73
6
74
4
42
0.0000001000
43
0.0000001000
44
0.0000000001
12
0.2068514505
22
0.1034257252
32
0.0000000000
13
0.2086230066
23
-0.1039838077
33
0.0000000000
40
0.0000000000
40
0.0000000000
40
0.0000000000
40
0.0000000000
40
0.4130410095
40
0.7863529120
40
1.0000000000
40
1.0000000000
40
1.0000000000
40
1.0000000000
10
0.5123928694
20
5.4895861615
30
0.0000000000
10
0.5408722467
20
5.5038258502
30
0.0000000000
10
0.5987102991
20
5.5248426254
30
0.0000000000
10
0.6776932591
20
5.5261771382
30
0.0000000000
10
0.7211859858
20
5.5110814899
30
0.0000000000
10
0.7360432185
20
5.5036762107
30
0.0000000000
11
0.5123928694
21
5.4895861615
31
0.0000000000
11
0.6028106758
21
5.5203954664
31
0.0000000000
11
0.6891443187
21
5.5199670342
31
0.0000000000
11
0.7360432185
21
5.5036762107
31
0.0000000000
0
SPLINE
5
2D9
100
AcDbEntity
8
0
100
AcDbSpline
62
7
6
CONTINUOUS
70
0
71
3
72
10
73
6
74
4
42
0.0000001000
43
0.0000001000
44
0.0000000001
12
0.2068609055
22
0.1034304528
32
0.0000000000
13
0.2086280326
23
-0.1040102415
33
0.0000000000
40
0.0000000000
40
0.0000000000
40
0.0000000000
40
0.0000000000
40
0.4128853377
40
0.7869239717
40
1.0000000000
40
1.0000000000
40
1.0000000000
40
1.0000000000
10
-6.2758322300
20
11.4237452985
30
0.0000000000
10
-6.2473622850
20
11.4379802710
30
0.0000000000
10
-6.1894828392
20
11.4590154277
30
0.0000000000
10
-6.1104859635
20
11.4603357454
30
0.0000000000
10
-6.0669884022
20
11.4452161783
30
0.0000000000
10
-6.0521705247
20
11.4378288153
30
0.0000000000
11
-6.2758322300
21
11.4237452985
31
0.0000000000
11
-6.1854459553
21
11.4545490516
31
0.0000000000
11
-6.0989404072
21
11.4540970652
31
0.0000000000
11
-6.0521705247
21
11.4378288153
31
0.0000000000
0
SPLINE
5
2DA
100
AcDbEntity
8
0
100
AcDbSpline
62
7
6
CONTINUOUS
70
0
71
3
72
11
73
7
74
5
42
0.0000001000
43
0.0000001000
44
0.0000000001
12
0.0000000000
22
0.3143765183
32
0.0000000000
13
-0.2835889695
23
0.1413815624
33
0.0000000000
40
0.0000000000
40
0.0000000000
40
0.0000000000
40
0.0000000000
40
0.3356395771
40
0.6374111666
40
0.9023475864
40
1.0000000000
40
1.0000000000
40
1.0000000000
40
1.0000000000
10
2.2801598224
20
7.0662899610
30
0.0000000000
10
2.2801598224
20
7.1014623616
30
0.0000000000
10
2.2736068132
20
7.1686141908
30
0.0000000000
10
2.2395371202
20
7.2584077147
30
0.0000000000
10
2.1923792929
20
7.3121814934
30
0.0000000000
10
2.1594991862
20
7.3320074008
30
0.0000000000
10
2.1502681371
20
7.3366094844
30
0.0000000000
11
2.2801598224
21
7.0662899610
31
0.0000000000
11
2.2684025995
21
7.1711500943
31
0.0000000000
11
2.2328072240
21
7.2590890929
31
0.0000000000
11
2.1766916402
21
7.3206376936
31
0.0000000000
11
2.1502681371
21
7.3366094844
31
0.0000000000
0
SPLINE
5
2DB
100
AcDbEntity
8
0
100
AcDbSpline
62
7
6
CONTINUOUS
70
0
71
3
72
8
73
4
74
2
42
0.0000001000
43
0.0000001000
44
0.0000000001
12
-0.0793620272
22
0.0728329608
32
0.0000000000
13
-0.0962311087
23
0.0481727015
33
0.0000000000
40
0.0000000000
40
0.0000000000
40
0.0000000000
40
0.0000000000
40
1.0000000000
40
1.0000000000
40
1.0000000000
40
1.0000000000
10
10.8766547128
20
9.4130791728
30
0.0000000000
10
10.8502007037
20
9.4373568264
30
0.0000000000
10
10.8204794742
20
9.4581495604
30
0.0000000000
10
10.7884024380
20
9.4742071275
30
0.0000000000
11
10.8766547128
21
9.4130791728
31
0.0000000000
11
10.7884024380
21
9.4742071275
31
0.0000000000
0
SPLINE
5
2DC
100
AcDbEntity
8
0
100
AcDbSpline
62
7
6
CONTINUOUS
70
0
71
3
72
10
73
6
74
4
42
0.0000001000
43
0.0000001000
44
0.0000000001
12
-0.2086280326
22
0.1040102415
32
0.0000000000
13
-0.2068609055
23
-0.1034304528
33
0.0000000000
40
0.0000000000
40
0.0000000000
40
0.0000000000
40
0.0000000000
40
0.2130760283
40
0.5871146623
40
1.0000000000
40
1.0000000000
40
1.0000000000
40
1.0000000000
10
2.1502681371
20
7.3366094844
30
0.0000000000
10
2.1354502596
20
7.3439968474
30
0.0000000000
10
2.0919526983
20
7.3591164145
30
0.0000000000
10
2.0129558226
20
7.3577960968
30
0.0000000000
10
1.9550763767
20
7.3367609401
30
0.0000000000
10
1.9266064318
20
7.3225259676
30
0.0000000000
11
2.1502681371
21
7.3366094844
31
0.0000000000
11
2.1034982546
21
7.3528777344
31
0.0000000000
11
2.0169927065
21
7.3533297207
31
0.0000000000
11
1.9266064318
21
7.3225259676
31
0.0000000000
0
SPLINE
5
2DD
100
AcDbEntity
8
0
100
AcDbSpline
62
7
6
CONTINUOUS
70
0
71
3
72
11
73
7
74
5
42
0.0000001000
43
0.0000001000
44
0.0000000001
12
0.2836051867
22
-0.1413571191
32
0.0000000000
13
-0.0000000000
23
-0.3143876997
33
0.0000000000
40
0.0000000000
40
0.0000000000
40
0.0000000000
40
0.0000000000
40
0.0970275296
40
0.3621276886
40
0.6644842065
40
1.0000000000
40
1.0000000000
40
1.0000000000
40
1.0000000000
10
0.7360432185
20
5.5036762107
30
0.0000000000
10
0.7452157220
20
5.4991043667
30
0.0000000000
10
0.7780643849
20
5.4793233146
30
0.0000000000
10
0.8252824900
20
5.4255743908
30
0.0000000000
10
0.8593905692
20
5.3357119242
30
0.0000000000
10
0.8659462600
20
5.2685108345
30
0.0000000000
10
0.8659462600
20
5.2333501549
30
0.0000000000
11
0.7360432185
21
5.5036762107
31
0.0000000000
11
0.7623076319
21
5.4878214174
31
0.0000000000
11
0.8185125895
21
5.4262806725
31
0.0000000000
11
0.8541973769
21
5.3381758398
31
0.0000000000
11
0.8659462600
21
5.2333501549
31
0.0000000000
0
SPLINE
5
2DE
100
AcDbEntity
8
0
100
AcDbSpline
62
7
6
CONTINUOUS
70
0
71
3
72
10
73
6
74
4
42
0.0000001000
43
0.0000001000
44
0.0000000001
12
-0.1665377100
22
0.0833677539
32
0.0000000000
13
-0.1860381753
23
-0.0000409498
33
0.0000000000
40
0.0000000000
40
0.0000000000
40
0.0000000000
40
0.0000000000
40
0.0320592269
40
0.7863437130
40
1.0000000000
40
1.0000000000
40
1.0000000000
40
1.0000000000
10
10.7884024380
20
9.4742071275
30
0.0000000000
10
10.7866227479
20
9.4750980295
30
0.0000000000
10
10.7427929189
20
9.4965924169
30
0.0000000000
10
10.6816251156
20
9.5126119289
30
0.0000000000
10
10.6216032538
20
9.5152241968
30
0.0000000000
10
10.6083538452
20
9.5152212804
30
0.0000000000
11
10.7884024380
21
9.4742071275
31
0.0000000000
11
10.7830417683
21
9.4768358920
31
0.0000000000
11
10.6480611306
21
9.5134427523
31
0.0000000000
11
10.6083538452
21
9.5152212804
31
0.0000000000
0
ENDSEC
0
SECTION
2
OBJECTS
0
DICTIONARY
5
2DF
100
AcDbDictionary
3
ACAD_GROUP
350
2E0
3
ACAD_MLINESTYLE
350
2E1
0
DICTIONARY
5
2E0
102
{ACAD_REACTORS
330
2DF
102
}
100
AcDbDictionary
0
DICTIONARY
5
2E1
102
{ACAD_REACTORS
330
2DF
102
}
100
AcDbDictionary
3
STANDARD
350
2E2
0
MLINESTYLE
5
2E2
102
{ACAD_REACTORS
330
2E1
102
}
100
AcDbMlineStyle
2
STANDARD
70
0
3

62
256
51
90.0
52
90.0
71
2
49
0.5
62
256
6
BYLAYER
49
-0.5
62
256
6
BYLAYER
0
ENDSEC
0
EOF
