  0
SECTION
  2
HEADER
  9
$ACADVER
  1
AC1015
  9
$DWGCODEPAGE
  3
ANSI_1252
  9
$EXTMAX
 10
297.0
 20
210.0
 30
0.0
  9
$EXTMIN
 10
0.0
 20
0.0
 30
0.0
  9
$LIMMIN
 10
0.0
 20
0.0
  9
$LIMMAX
 10
297.0
 20
210.0
  9
$VIEWCTR
 10
148.5
 20
105.0
  9
$VIEWSIZE
 40
210.0
  9
$CLAYER
  8
0
  9
$LTSCALE
 40
16.335
  9
$CELTYPE
  6
BYLAYER
  9
$DIMSCALE
 40
1.0
  9
$DIMASZ
 40
3.0
  9
$DIMEXO
 40
1.85625
  9
$DIMDLI
 40
11.286
  9
$DIMEXE
 40
5.346
  9
$DIMCEN
 40
2.673
  9
$DIMLFAC
 40
1.0
  9
$DIMBLK
  1
_FILLED
  9
$DIMTXT
 40
3.0
  9
$DIMTOL
 70
1
  9
$DIMLIM
 70
0
  9
$DIMTFAC
 40
1.0
  9
$DIMTP
 40
0.01
  9
$DIMTM
 40
0.01
  9
$PDMODE
 70
3
  9
$PDSIZE
 40
3.0
  9
$HANDSEED
  5
476
  9
$TILEMODE
 70
1
  9
$MEASUREMENT
 70
1
  9
$INSUNITS
 70
4
  0
ENDSEC
  0
SECTION
  2
CLASSES
  0
CLASS
  1
ACDBDICTIONARYWDFLT
  2
AcDbDictionaryWithDefault
  3
AutoCAD 2000
 90
0
280
0
281
0
  0
CLASS
  1
ACDBPLACEHOLDER
  2
AcDbPlaceHolder
  3
AutoCAD 2000
 90
0
280
0
281
0
  0
CLASS
  1
LAYOUT
  2
AcDbLayout
  3
AutoCAD 2000
 90
0
280
0
281
0
  0
ENDSEC
  0
SECTION
  2
TABLES
  0
TABLE
  2
VPORT
  5
8
100
AcDbSymbolTable
 70
2
  0
VPORT
  5
1F4
100
AcDbSymbolTableRecord
100
AcDbViewportTableRecord
  2
*ACTIVE
 70
0
 10
0.0
 20
0.0
 11
1.0
 21
1.0
 12
148.5
 22
105.0
 13
0.0
 23
0.0
 14
1.0
 24
1.0
 15
0.0
 25
0.0
 16
0.0
 26
0.0
 36
1.0
 17
0.0
 27
0.0
 37
0.0
 40
210.0
 41
1.4142857143
 42
50.0
 43
0.0
 44
0.0
 50
0.0
 51
0.0
 71
0
 72
100
 73
1
 74
1
 75
0
 76
0
 77
0
 78
0
  0
ENDTAB
  0
TABLE
  2
LTYPE
  5
5
100
AcDbSymbolTable
 70
6
  0
LTYPE
  5
14
100
AcDbSymbolTableRecord
100
AcDbLinetypeTableRecord
  2
BYBLOCK
 70
0
  3

 72
65
 73
0
 40
0.0
  0
LTYPE
  5
15
100
AcDbSymbolTableRecord
100
AcDbLinetypeTableRecord
  2
BYLAYER
 70
0
  3

 72
65
 73
0
 40
0.0
  0
LTYPE
  5
16
100
AcDbSymbolTableRecord
100
AcDbLinetypeTableRecord
  2
CONTINUOUS
 70
64
  3
Solid line
 72
65
 73
0
 40
0.0
  0
LTYPE
  5
1F5
100
AcDbSymbolTableRecord
100
AcDbLinetypeTableRecord
  2
CENTER
 70
64
  3
____ _ ____ _ ____ _ ____ _ ____ _ ____ _ ____
 72
65
 73
4
 40
0.6
 49
0.375
 74
0
 49
-0.075
 74
0
 49
0.075
 74
0
 49
-0.075
 74
0
  0
LTYPE
  5
1F6
100
AcDbSymbolTableRecord
100
AcDbLinetypeTableRecord
  2
HIDDEN
 70
64
  3
- - - - - - - - - - - - - - - - - - - -
 72
65
 73
2
 40
0.2
 49
0.1
 74
0
 49
-0.1
 74
0
  0
LTYPE
  5
1F7
100
AcDbSymbolTableRecord
100
AcDbLinetypeTableRecord
  2
PHANTOM
 70
64
  3
_____ _ _ _____ _ _ _____ _ _ _____
 72
65
 73
6
 40
0.8
 49
0.45
 74
0
 49
-0.05
 74
0
 49
0.1
 74
0
 49
-0.05
 74
0
 49
0.1
 74
0
 49
-0.05
 74
0
  0
LTYPE
  5
1F8
100
AcDbSymbolTableRecord
100
AcDbLinetypeTableRecord
  2
DOT
 70
64
  3
. . . . . . . . . . . . . . . . . . . .
 72
65
 73
2
 40
0.2
 49
0.1
 74
0
 49
-0.1
 74
0
  0
LTYPE
  5
1F9
100
AcDbSymbolTableRecord
100
AcDbLinetypeTableRecord
  2
DASHED
 70
64
  3
- - - - - - - - - - - - - - - - - - - -
 72
65
 73
2
 40
0.2
 49
0.1
 74
0
 49
-0.1
 74
0
  0
ENDTAB
  0
TABLE
  2
LAYER
  5
2
100
AcDbSymbolTable
 70
36
  0
LAYER
  5
10
100
AcDbSymbolTableRecord
100
AcDbLayerTableRecord
  2
0
 70
0
 62
7
  6
CONTINUOUS
370
-3
390
F
  0
LAYER
  5
1FA
100
AcDbSymbolTableRecord
100
AcDbLayerTableRecord
  2
DEFAULT_1
 70
0
 62
7
  6
CENTER
370
-3
390
F
  0
LAYER
  5
1FB
100
AcDbSymbolTableRecord
100
AcDbLayerTableRecord
  2
DEFAULT_2
 70
0
 62
7
  6
HIDDEN
370
-3
390
F
  0
LAYER
  5
1FC
100
AcDbSymbolTableRecord
100
AcDbLayerTableRecord
  2
DEFAULT_3
 70
0
 62
7
  6
PHANTOM
370
-3
390
F
  0
LAYER
  5
1FD
100
AcDbSymbolTableRecord
100
AcDbLayerTableRecord
  2
ASSI
 70
0
 62
7
  6
CONTINUOUS
370
-3
390
F
  0
LAYER
  5
1FE
100
AcDbSymbolTableRecord
100
AcDbLayerTableRecord
  2
COORDINATE
 70
0
 62
7
  6
CONTINUOUS
370
-3
390
F
  0
LAYER
  5
1FF
100
AcDbSymbolTableRecord
100
AcDbLayerTableRecord
  2
COPY_PUBLISH
 70
0
 62
7
  6
CONTINUOUS
370
-3
390
F
  0
LAYER
  5
200
100
AcDbSymbolTableRecord
100
AcDbLayerTableRecord
  2
COSMETICI
 70
0
 62
7
  6
CONTINUOUS
370
-3
390
F
  0
LAYER
  5
201
100
AcDbSymbolTableRecord
100
AcDbLayerTableRecord
  2
CURVE
 70
0
 62
7
  6
CONTINUOUS
370
-3
390
F
  0
LAYER
  5
202
100
AcDbSymbolTableRecord
100
AcDbLayerTableRecord
  2
DRAFT
 70
0
 62
7
  6
CONTINUOUS
370
-3
390
F
  0
LAYER
  5
203
100
AcDbSymbolTableRecord
100
AcDbLayerTableRecord
  2
IMPORT_IGES
 70
0
 62
7
  6
CONTINUOUS
370
-3
390
F
  0
LAYER
  5
204
100
AcDbSymbolTableRecord
100
AcDbLayerTableRecord
  2
NOTE
 70
0
 62
7
  6
CONTINUOUS
370
-3
390
F
  0
LAYER
  5
205
100
AcDbSymbolTableRecord
100
AcDbLayerTableRecord
  2
PIANI
 70
0
 62
7
  6
CONTINUOUS
370
-3
390
F
  0
LAYER
  5
206
100
AcDbSymbolTableRecord
100
AcDbLayerTableRecord
  2
PUNTI
 70
0
 62
7
  6
CONTINUOUS
370
-3
390
F
  0
LAYER
  5
207
100
AcDbSymbolTableRecord
100
AcDbLayerTableRecord
  2
RACCORDO
 70
0
 62
7
  6
CONTINUOUS
370
-3
390
F
  0
LAYER
  5
208
100
AcDbSymbolTableRecord
100
AcDbLayerTableRecord
  2
SIMBOLI
 70
0
 62
7
  6
CONTINUOUS
370
-3
390
F
  0
LAYER
  5
209
100
AcDbSymbolTableRecord
100
AcDbLayerTableRecord
  2
SMUSSO
 70
0
 62
7
  6
CONTINUOUS
370
-3
390
F
  0
LAYER
  5
20A
100
AcDbSymbolTableRecord
100
AcDbLayerTableRecord
  2
SUPERFICI
 70
0
 62
7
  6
CONTINUOUS
370
-3
390
F
  0
LAYER
  5
20B
100
AcDbSymbolTableRecord
100
AcDbLayerTableRecord
  2
TRASH
 70
0
 62
7
  6
CONTINUOUS
370
-3
390
F
  0
ENDTAB
  0
TABLE
  2
STYLE
  5
3
100
AcDbSymbolTable
 70
1
  0
STYLE
  5
11
100
AcDbSymbolTableRecord
100
AcDbTextStyleTableRecord
  2
STANDARD
 70
0
 40
0.0
 41
0.8
 50
0.0
 71
0
 42
0.2
  3
txt
  4

  0
STYLE
  5
20C
100
AcDbSymbolTableRecord
100
AcDbTextStyleTableRecord
  2
TEXTSTYLE_1
 70
0
 40
0.0
 41
0.8
 50
0.0
 71
0
 42
0.2
  3
gdt
  4

  0
ENDTAB
  0
TABLE
  2
VIEW
  5
6
100
AcDbSymbolTable
 70
0
  0
ENDTAB
  0
TABLE
  2
UCS
  5
7
100
AcDbSymbolTable
 70
0
  0
ENDTAB
  0
TABLE
  2
APPID
  5
9
100
AcDbSymbolTable
 70
1
  0
APPID
  5
20D
100
AcDbSymbolTableRecord
100
AcDbRegAppTableRecord
  2
ACAD
 70
0
  0
ENDTAB
  0
TABLE
  2
BLOCK_RECORD
  5
1
100
AcDbSymbolTable
 70
0
  0
BLOCK_RECORD
  5
20E
100
AcDbSymbolTableRecord
100
AcDbBlockTableRecord
  2
*Model_Space
  0
BLOCK_RECORD
  5
20F
100
AcDbSymbolTableRecord
100
AcDbBlockTableRecord
  2
*Paper_Space
  0
ENDTAB
  0
TABLE
  2
DIMSTYLE
  5
A
100
AcDbSymbolTable
 70
1
100
AcDbDimStyleTable
 71
0
  0
DIMSTYLE
105
210
100
AcDbSymbolTableRecord
100
AcDbDimStyleTableRecord
  2
STANDARD
 70
0
  3

  4

 40
1.0
 41
3.0
 42
0.0625
 43
0.38
 44
0.18
 45
0.0
 46
0.0
 47
0.01
 48
0.01
140
3.0
141
0.09
142
0.0
143
25.4
144
1.0
145
0.0
146
1.0
147
0.09
 71
1.0
 72
0.0
 73
0
 74
0
 75
0
 76
0
 77
1
 78
8
170
0
171
2
172
0
173
0
174
0
175
0
176
0
177
0
178
0
270
2
271
2
272
2
273
2
274
2
275
0
280
0
281
0
282
0
283
1
284
8
285
0
286
0
287
3
288
0
340
11
  0
ENDTAB
  0
ENDSEC
  0
SECTION
  2
BLOCKS
  0
BLOCK
  5
20
100
AcDbEntity
  8
0
100
AcDbBlockBegin
  2
*Model_Space
 70
0
 10
0.0
 20
0.0
 30
0.0
  3
*Model_Space
  1

  0
ENDBLK
  5
21
100
AcDbEntity
  8
0
100
AcDbBlockEnd
  0
BLOCK
  5
1C
100
AcDbEntity
  8
0
100
AcDbBlockBegin
  2
*Paper_Space
 70
0
 10
0.0
 20
0.0
 30
0.0
  3
*Paper_Space
  1

  0
ENDBLK
  5
1D
100
AcDbEntity
  8
0
100
AcDbBlockEnd
  0
ENDSEC
  0
SECTION
  2
ENTITIES
  0
LWPOLYLINE
  5
211
100
AcDbEntity
  8
RACCORDO
100
AcDbPolyline
 62
7
  6
CONTINUOUS
 90
10
 70
0
 10
-21.6979175937
 20
-50.3926607739
 10
-21.6805526363
 20
-50.4004434255
 10
-21.6635219058
 20
-50.4064093962
 10
-21.6468254022
 20
-50.4105586861
 10
-21.6303582701
 20
-50.4128946704
 10
-21.6142253649
 20
-50.4134139739
 10
-21.5987412524
 20
-50.412106471
 10
-21.584010788
 20
-50.4089687865
 10
-21.5699291164
 20
-50.4040042956
 10
-21.5638727956
 20
-50.4012084654
  0
LINE
  5
212
100
AcDbEntity
  8
RACCORDO
100
AcDbLine
 62
7
  6
CONTINUOUS
 10
-29.7589348992
 20
-46.3621521212
 11
-29.1225387962
 21
-46.6803501727
  0
LINE
  5
213
100
AcDbEntity
  8
0
100
AcDbLine
 62
7
  6
CONTINUOUS
 10
-28.7689854056
 20
-46.857126868
 11
-28.2032999806
 21
-47.1399695805
  0
LINE
  5
214
100
AcDbEntity
  8
0
100
AcDbLine
 62
7
  6
CONTINUOUS
 10
-27.84974659
 20
-47.3167462758
 11
-27.2840611651
 21
-47.5995889883
  0
LINE
  5
215
100
AcDbEntity
  8
0
100
AcDbLine
 62
7
  6
CONTINUOUS
 10
-26.9305077745
 20
-47.7763656836
 11
-26.3648223495
 21
-48.059208396
  0
LINE
  5
216
100
AcDbEntity
  8
0
100
AcDbLine
 62
7
  6
CONTINUOUS
 10
-26.011268959
 20
-48.2359850913
 11
-25.445583534
 21
-48.5188278038
  0
LINE
  5
217
100
AcDbEntity
  8
0
100
AcDbLine
 62
7
  6
CONTINUOUS
 10
-25.0920301434
 20
-48.6956044991
 11
-24.5263447185
 21
-48.9784472116
  0
LINE
  5
218
100
AcDbEntity
  8
0
100
AcDbLine
 62
7
  6
CONTINUOUS
 10
-24.1727913279
 20
-49.1552239069
 11
-23.6071059029
 21
-49.4380666193
  0
LINE
  5
219
100
AcDbEntity
  8
0
100
AcDbLine
 62
7
  6
CONTINUOUS
 10
-23.2535525123
 20
-49.6148433146
 11
-22.6878670874
 21
-49.8976860271
  0
LINE
  5
21A
100
AcDbEntity
  8
RACCORDO
100
AcDbLine
 62
7
  6
CONTINUOUS
 10
-22.3343136968
 20
-50.0744627224
 11
-21.6979175937
 21
-50.3926607739
  0
LINE
  5
21B
100
AcDbEntity
  8
0
100
AcDbLine
 62
7
  6
CONTINUOUS
 10
-22.3343136968
 20
-48.3424119148
 11
-22.6878670874
 21
-48.1656352195
  0
LINE
  5
21C
100
AcDbEntity
  8
0
100
AcDbLine
 62
7
  6
CONTINUOUS
 10
-23.2535525123
 20
-47.8827925071
 11
-23.6071059029
 21
-47.7060158118
  0
LINE
  5
21D
100
AcDbEntity
  8
0
100
AcDbLine
 62
7
  6
CONTINUOUS
 10
-24.1727913279
 20
-47.4231730993
 11
-24.5263447185
 21
-47.246396404
  0
LINE
  5
21E
100
AcDbEntity
  8
0
100
AcDbLine
 62
7
  6
CONTINUOUS
 10
-25.0920301434
 20
-46.9635536915
 11
-25.445583534
 21
-46.7867769962
  0
LINE
  5
21F
100
AcDbEntity
  8
0
100
AcDbLine
 62
7
  6
CONTINUOUS
 10
-26.011268959
 20
-46.5039342838
 11
-26.3648223495
 21
-46.3271575885
  0
LINE
  5
220
100
AcDbEntity
  8
0
100
AcDbLine
 62
7
  6
CONTINUOUS
 10
-26.9305077745
 20
-46.044314876
 11
-27.2840611651
 21
-45.8675381807
  0
LINE
  5
221
100
AcDbEntity
  8
0
100
AcDbLine
 62
7
  6
CONTINUOUS
 10
-27.84974659
 20
-45.5846954682
 11
-28.2032999806
 21
-45.4079187729
  0
LINE
  5
222
100
AcDbEntity
  8
0
100
AcDbLine
 62
7
  6
CONTINUOUS
 10
-28.7689854056
 20
-45.1250760604
 11
-29.1225387962
 21
-44.9482993651
  0
LINE
  5
223
100
AcDbEntity
  8
0
100
AcDbLine
 62
7
  6
CONTINUOUS
 10
-28.5568533712
 20
-43.8597878897
 11
-24.3142126841
 21
-45.9811082333
  0
LINE
  5
224
100
AcDbEntity
  8
0
100
AcDbLine
 62
7
  6
CONTINUOUS
 10
-29.9003562555
 20
-42.4809296664
 11
-28.5568533712
 21
-43.1526811085
  0
LINE
  5
225
100
AcDbEntity
  8
0
100
AcDbLine
 62
7
  6
CONTINUOUS
 10
-21.5564962375
 20
-46.6528596754
 11
-23.6071059029
 21
-45.6275548427
  0
LINE
  5
226
100
AcDbEntity
  8
0
100
AcDbLine
 62
7
  6
CONTINUOUS
 10
-29.1932494743
 20
-42.1273762758
 11
-28.5568533712
 21
-42.4455743274
  0
LINE
  5
227
100
AcDbEntity
  8
0
100
AcDbLine
 62
7
  6
CONTINUOUS
 10
-20.8493894563
 20
-46.2993062848
 11
-22.8999991217
 21
-45.2740014521
  0
LWPOLYLINE
  5
228
100
AcDbEntity
  8
RACCORDO
100
AcDbPolyline
 62
7
  6
CONTINUOUS
 90
10
 70
0
 10
-29.9003562555
 20
-46.2252829892
 10
-29.8869233766
 20
-46.2455071655
 10
-29.8728417049
 20
-46.264553328
 10
-29.8581112405
 20
-46.2824214769
 10
-29.8426271281
 20
-46.2992130923
 10
-29.8264942228
 20
-46.3148266941
 10
-29.8100270908
 20
-46.3289578418
 10
-29.7933305871
 20
-46.3415050556
 10
-29.7762998566
 20
-46.3525698153
 10
-29.7589348992
 20
-46.3621521212
  0
LINE
  5
229
100
AcDbEntity
  8
0
100
AcDbLine
 62
7
  6
CONTINUOUS
 10
-28.5568533712
 20
-41.2617116784
 11
-24.3142126841
 21
-43.3830320219
  0
LINE
  5
22A
100
AcDbEntity
  8
0
100
AcDbLine
 62
7
  6
CONTINUOUS
 10
-29.1932494743
 20
-40.8283381701
 11
-28.4416779145
 21
-41.20412395
  0
LINE
  5
22B
100
AcDbEntity
  8
0
100
AcDbLine
 62
7
  6
CONTINUOUS
 10
-20.8493894563
 20
-45.0002681791
 11
-22.8999991217
 21
-43.9749633464
  0
LINE
  5
22C
100
AcDbEntity
  8
0
100
AcDbLine
 62
7
  6
CONTINUOUS
 10
-25.8609838745
 20
-39.91377693
 11
-21.6183431874
 21
-42.0350972736
  0
LINE
  5
22D
100
AcDbEntity
  8
0
100
AcDbLine
 62
7
  6
CONTINUOUS
 10
-22.954973253
 20
36.9097247138
 11
-25.8609838745
 21
34.5644077955
  0
LWPOLYLINE
  5
22E
100
AcDbEntity
  8
RACCORDO
100
AcDbPolyline
 62
253
  6
CONTINUOUS
 90
22
 70
0
 10
-19.3635918265
 20
40.6486698601
 10
-19.4126981221
 20
40.616010805
 10
-19.4612203517
 20
40.579451791
 10
-19.5089202497
 20
40.5391723382
 10
-19.5555635895
 20
40.4953702346
 10
-19.600921328
 20
40.4482605699
 10
-19.6447707317
 20
40.3980746806
 10
-19.6868964772
 20
40.3450590065
 10
-19.7270917107
 20
40.2894738768
 10
-19.7651590572
 20
40.2315922373
 10
-19.8009115885
 20
40.1716983137
 10
-19.8341737429
 20
40.1100862131
 10
-19.864782189
 20
40.0470584765
 10
-19.8925866262
 20
39.9829245959
 10
-19.9174505197
 20
39.9179995016
 10
-19.9392517732
 20
39.8526020138
 10
-19.9578833322
 20
39.7870532676
 10
-19.9732537089
 20
39.7216751349
 10
-19.9852874285
 20
39.6567886512
 10
-19.9939254002
 20
39.5927124389
 10
-19.999125208
 20
39.5297611421
 10
-20.0008613189
 20
39.4682438807
  0
LWPOLYLINE
  5
22F
100
AcDbEntity
  8
RACCORDO
100
AcDbPolyline
 62
253
  6
CONTINUOUS
 90
4
 70
0
 10
-20.6363840421
 20
41.2850659573
 10
-20.5869348123
 20
41.3136646854
 10
-20.5373854694
 20
41.3380626514
 10
-20.4879793237
 20
41.3581400503
  0
LINE
  5
230
100
AcDbEntity
  8
RACCORDO
100
AcDbLine
 62
7
  6
CONTINUOUS
 10
-15.3656668992
 20
40.5844216025
 11
-14.5488818261
 21
40.992814139
  0
LINE
  5
231
100
AcDbEntity
  8
RACCORDO
100
AcDbLine
 62
7
  6
CONTINUOUS
 10
-29.1932494743
 20
33.6498465553
 11
-23.4133244281
 21
36.5398090784
  0
LINE
  5
232
100
AcDbEntity
  8
RACCORDO
100
AcDbLine
 62
7
  6
CONTINUOUS
 10
-22.8142332051
 20
36.8393546899
 11
-21.3610567299
 21
37.5659429275
  0
LINE
  5
233
100
AcDbEntity
  8
RACCORDO
100
AcDbLine
 62
253
  6
CONTINUOUS
 10
-15.2920984817
 20
40.5456032358
 11
-14.4147177475
 21
40.9842936029
  0
LINE
  5
234
100
AcDbEntity
  8
0
100
AcDbLine
 62
7
  6
CONTINUOUS
 10
-28.5568533712
 20
33.2164730471
 11
-25.8609838745
 21
34.5644077955
  0
LWPOLYLINE
  5
235
100
AcDbEntity
  8
RACCORDO
100
AcDbPolyline
 62
253
  6
CONTINUOUS
 90
9
 70
0
 10
-14.4147177475
 20
40.9842936029
 10
-14.3962292225
 20
40.9925492189
 10
-14.3778814063
 20
40.9987647119
 10
-14.3598139369
 20
41.0028927781
 10
-14.3421643187
 20
41.0049020005
 10
-14.3250668759
 20
41.0047770877
 10
-14.3086517303
 20
41.0025189903
 10
-14.2930438112
 20
40.9981448939
 10
-14.2805536688
 20
40.992814139
  0
LWPOLYLINE
  5
236
100
AcDbEntity
  8
RACCORDO
100
AcDbPolyline
 62
253
  6
CONTINUOUS
 90
9
 70
0
 10
-14.5488779779
 20
40.992816063
 10
-14.5358608556
 20
40.9983332284
 10
-14.5201788606
 20
41.0026426469
 10
-14.503714688
 20
41.0048219318
 10
-14.4865976429
 20
41.004863899
 10
-14.4689975871
 20
41.0027843147
 10
-14.4510650927
 20
40.9986250929
 10
-14.4329261288
 20
40.9924389357
 10
-14.4147177475
 20
40.9842936029
  0
LWPOLYLINE
  5
237
100
AcDbEntity
  8
RACCORDO
100
AcDbPolyline
 62
253
  6
CONTINUOUS
 90
4
 70
0
 10
-19.2151871175
 20
40.7217439472
 10
-19.2645932596
 20
40.70166655
 10
-19.3141425993
 20
40.677268586
 10
-19.3635918265
 20
40.6486698601
  0
LWPOLYLINE
  5
238
100
AcDbEntity
  8
RACCORDO
100
AcDbPolyline
 62
253
  6
CONTINUOUS
 90
16
 70
0
 10
-20.2051366112
 20
41.2167186941
 10
-19.9560704861
 20
41.3016500944
 10
-19.7115223333
 20
41.3742391572
 10
-19.4717365789
 20
41.4348396672
 10
-19.2379395985
 20
41.483631747
 10
-19.0093028064
 20
41.5212747918
 10
-18.783035601
 20
41.5484472976
 10
-18.5585167181
 20
41.5651834211
 10
-18.3368850643
 20
41.5713573385
 10
-18.118079665
 20
41.5669684825
 10
-17.9021720075
 20
41.5519798955
 10
-17.6896033744
 20
41.5263832004
 10
-17.4808632055
 20
41.4902309059
 10
-17.2762111521
 20
41.4435831837
 10
-17.0758461529
 20
41.3865008704
 10
-16.8801366016
 20
41.319115582
  0
LWPOLYLINE
  5
239
100
AcDbEntity
  8
RACCORDO
100
AcDbPolyline
 62
253
  6
CONTINUOUS
 90
17
 70
0
 10
-19.0737657613
 20
40.6510332691
 10
-18.8246996362
 20
40.7359646695
 10
-18.5801514834
 20
40.8085537322
 10
-18.340365729
 20
40.8691542422
 10
-18.1065687486
 20
40.9179463221
 10
-17.8779319565
 20
40.9555893669
 10
-17.6516647511
 20
40.9827618727
 10
-17.4271458682
 20
40.9994979961
 10
-17.2055142144
 20
41.0056719135
 10
-16.9867088151
 20
41.0012830576
 10
-16.7708011576
 20
40.9862944706
 10
-16.5582325245
 20
40.9606977755
 10
-16.3494923556
 20
40.9245454809
 10
-16.1448403022
 20
40.8778977587
 10
-15.944475303
 20
40.8208154454
 10
-15.7487657517
 20
40.753430157
 10
-15.5581452631
 20
40.6759534435
  0
LWPOLYLINE
  5
23A
100
AcDbEntity
  8
RACCORDO
100
AcDbPolyline
 62
253
  6
CONTINUOUS
 90
16
 70
0
 10
-20.4879793237
 20
41.3581400503
 10
-20.2075754507
 20
41.4529748703
 10
-19.9313047777
 20
41.532620728
 10
-19.659551616
 20
41.5973321911
 10
-19.3935631255
 20
41.6472447164
 10
-19.1327643617
 20
41.6828982424
 10
-18.8748595279
 20
41.7047678441
 10
-18.619294888
 20
41.7127804369
 10
-18.3674391048
 20
41.7067711041
 10
-18.1199527575
 20
41.6867337229
 10
-17.8772366529
 20
41.6527048327
 10
-17.6396233787
 20
41.604735231
 10
-17.4076352257
 20
41.5429481074
 10
-17.1816056458
 20
41.4674669591
 10
-16.9618604208
 20
41.3784361257
 10
-16.80151757
 20
41.3029452014
  0
LWPOLYLINE
  5
23B
100
AcDbEntity
  8
RACCORDO
100
AcDbPolyline
 62
253
  6
CONTINUOUS
 90
13
 70
0
 10
-20.0165748029
 20
40.8406686741
 10
-19.7481190492
 20
40.9306475829
 10
-19.4854119585
 20
41.0068822549
 10
-19.228453531
 20
41.0693726904
 10
-18.9781919607
 20
41.1177447149
 10
-18.7336790535
 20
41.1523725028
 10
-18.492070227
 20
41.1743785767
 10
-18.2519896727
 20
41.1841551748
 10
-18.014813199
 20
41.181310059
 10
-17.7818236495
 20
41.1657890366
 10
-17.5530904364
 20
41.1374969435
 10
-17.3285441474
 20
41.0965289438
 10
-17.3143803724
 20
41.0930789816
  0
LWPOLYLINE
  5
23C
100
AcDbEntity
  8
RACCORDO
100
AcDbPolyline
 62
253
  6
CONTINUOUS
 90
16
 70
0
 10
-18.885203953
 20
40.2749832492
 10
-18.6167481993
 20
40.3649621579
 10
-18.3540411086
 20
40.44119683
 10
-18.0970826811
 20
40.5036872654
 10
-17.8468211108
 20
40.55205929
 10
-17.6023082036
 20
40.5866870779
 10
-17.3606993771
 20
40.6086931517
 10
-17.1206188228
 20
40.6184697499
 10
-16.8834423491
 20
40.615624634
 10
-16.6504527996
 20
40.6001036116
 10
-16.4217195865
 20
40.5718115185
 10
-16.1971732975
 20
40.5308435189
 10
-15.9778885387
 20
40.4774309125
 10
-15.7638886038
 20
40.4114788477
 10
-15.555150199
 20
40.3330821763
 10
-15.3526780501
 20
40.2427567535
  0
LWPOLYLINE
  5
23D
100
AcDbEntity
  8
RACCORDO
100
AcDbPolyline
 62
7
  6
CONTINUOUS
 90
4
 70
0
 10
-14.4868541082
 20
41.015684078
 10
-14.5162567005
 20
41.0067798728
 10
-14.5443291716
 20
40.9950425908
 10
-14.5489064467
 20
40.992801825
  0
LWPOLYLINE
  5
23E
100
AcDbEntity
  8
RACCORDO
100
AcDbPolyline
 62
253
  6
CONTINUOUS
 90
8
 70
0
 10
-20.6139312401
 20
41.3701453904
 10
-20.5972031524
 20
41.3750020611
 10
-20.5798385419
 20
41.3776700874
 10
-20.561954211
 20
41.3781347371
 10
-20.5436862702
 20
41.3763924738
 10
-20.5251737496
 20
41.3724565572
 10
-20.5065575405
 20
41.3663569422
 10
-20.4879793237
 20
41.3581400503
  0
LWPOLYLINE
  5
23F
100
AcDbEntity
  8
RACCORDO
100
AcDbPolyline
 62
7
  6
CONTINUOUS
 90
9
 70
0
 10
-9.3235489229
 20
-44.2054764386
 10
-9.304831919
 20
-44.2137842707
 10
-9.2865306488
 20
-44.2199839958
 10
-9.2686451124
 20
-44.2240756138
 10
-9.2510461757
 20
-44.2260581815
 10
-9.2338629727
 20
-44.2259326421
 10
-9.2174829058
 20
-44.223701826
 10
-9.2019242189
 20
-44.2193179096
 10
-9.189370987
 20
-44.2139571433
  0
LINE
  5
240
100
AcDbEntity
  8
0
100
AcDbLine
 62
7
  6
CONTINUOUS
 10
-22.954973253
 20
-37.5684600116
 11
-21.9650237593
 21
-38.0634347585
  0
LINE
  5
241
100
AcDbEntity
  8
0
100
AcDbLine
 62
7
  6
CONTINUOUS
 10
-18.7123325659
 20
-39.6897803552
 11
-19.7022820595
 21
-39.1948056084
  0
LINE
  5
242
100
AcDbEntity
  8
RACCORDO
100
AcDbLine
 62
7
  6
CONTINUOUS
 10
-10.1720770604
 20
-43.7812123698
 11
-9.3235489229
 21
-44.2054764386
  0
LINE
  5
243
100
AcDbEntity
  8
RACCORDO
100
AcDbLine
 62
7
  6
CONTINUOUS
 10
-21.273653525
 20
-37.0099615517
 11
-20.8945593003
 21
-37.1995086641
  0
LINE
  5
244
100
AcDbEntity
  8
RACCORDO
100
AcDbLine
 62
7
  6
CONTINUOUS
 10
-18.0047036584
 20
-38.644436485
 11
-13.2126362195
 21
-41.0404702045
  0
LINE
  5
245
100
AcDbEntity
  8
RACCORDO
100
AcDbLine
 62
7
  6
CONTINUOUS
 10
-13.4954789319
 20
-40.8124463079
 11
-14.4854284256
 21
-40.317471561
  0
LINE
  5
246
100
AcDbEntity
  8
RACCORDO
100
AcDbLine
 62
7
  6
CONTINUOUS
 10
-14.6268497818
 20
-40.2467608829
 11
-17.9384460091
 21
-38.5909627693
  0
LINE
  5
247
100
AcDbEntity
  8
RACCORDO
100
AcDbLine
 62
7
  6
CONTINUOUS
 10
-20.828301651
 20
-37.1460349484
 11
-20.9908108125
 21
-37.0647803676
  0
LWPOLYLINE
  5
248
100
AcDbEntity
  8
RACCORDO
100
AcDbPolyline
 62
7
  6
CONTINUOUS
 90
10
 70
0
 10
-21.273653525
 20
-37.0099615517
 10
-21.2902837766
 20
-37.0009117202
 10
-21.3052329352
 20
-36.9913555689
 10
-21.3185010008
 20
-36.9812930981
 10
-21.3301527775
 20
-36.9706518544
 10
-21.3401234613
 20
-36.9595042911
 10
-21.3482186397
 20
-36.9480677678
 10
-21.3543735085
 20
-36.9364147378
 10
-21.3586528719
 20
-36.9244727478
 10
-21.3610567299
 20
-36.9122417979
  0
LINE
  5
249
100
AcDbEntity
  8
0
100
AcDbLine
 62
7
  6
CONTINUOUS
 10
-17.8497472817
 20
39.7360136524
 11
-21.9650237593
 21
36.414749967
  0
LINE
  5
24A
100
AcDbEntity
  8
0
100
AcDbLine
 62
7
  6
CONTINUOUS
 10
-15.5870055819
 20
38.6046428025
 11
-19.7022820595
 21
35.2833791171
  0
LINE
  5
24B
100
AcDbEntity
  8
0
100
AcDbLine
 62
7
  6
CONTINUOUS
 10
-15.4291373734
 20
37.9123776639
 11
-19.0751681175
 21
34.9698221461
  0
LINE
  5
24C
100
AcDbEntity
  8
0
100
AcDbLine
 62
7
  6
CONTINUOUS
 10
-18.7123325659
 20
34.7884043703
 11
-21.6183431874
 21
32.4430874519
  0
LWPOLYLINE
  5
24D
100
AcDbEntity
  8
RACCORDO
100
AcDbPolyline
 62
253
  6
CONTINUOUS
 90
22
 70
0
 10
-13.9895802895
 20
37.9616640916
 10
-14.0386865851
 20
37.9290050365
 10
-14.0872088147
 20
37.8924460225
 10
-14.1349087127
 20
37.8521665697
 10
-14.1815520525
 20
37.808364466
 10
-14.226909791
 20
37.7612548014
 10
-14.2707591946
 20
37.7110689121
 10
-14.3128849402
 20
37.658053238
 10
-14.3530801737
 20
37.6024681082
 10
-14.3911475202
 20
37.5445864688
 10
-14.4269000515
 20
37.4846925452
 10
-14.4601622058
 20
37.4230804446
 10
-14.490770652
 20
37.360052708
 10
-14.5185750892
 20
37.2959188274
 10
-14.5434389827
 20
37.2309937331
 10
-14.5652402361
 20
37.1655962453
 10
-14.5838717952
 20
37.1000474991
 10
-14.5992421719
 20
37.0346693664
 10
-14.6112758915
 20
36.9697828827
 10
-14.6199138632
 20
36.9057066704
 10
-14.625113671
 20
36.8427553736
 10
-14.6268497818
 20
36.7812381122
  0
LINE
  5
24E
100
AcDbEntity
  8
0
100
AcDbLine
 62
7
  6
CONTINUOUS
 10
-29.9003562555
 20
31.9972550591
 11
-29.1932494743
 21
32.3508084496
  0
LINE
  5
24F
100
AcDbEntity
  8
RACCORDO
100
AcDbLine
 62
7
  6
CONTINUOUS
 10
-14.2579665956
 20
39.4363235821
 11
-15.7541668683
 21
38.6882234457
  0
LINE
  5
250
100
AcDbEntity
  8
RACCORDO
100
AcDbLine
 62
7
  6
CONTINUOUS
 10
-9.7350508482
 20
38.7200627287
 11
-4.9675849412
 21
41.1037956822
  0
LINE
  5
251
100
AcDbEntity
  8
0
100
AcDbLine
 62
7
  6
CONTINUOUS
 10
-21.6183431874
 20
32.4430874519
 11
-24.3142126841
 21
31.0951527035
  0
LWPOLYLINE
  5
252
100
AcDbEntity
  8
RACCORDO
100
AcDbPolyline
 62
253
  6
CONTINUOUS
 90
14
 70
0
 10
-9.6594482727
 20
38.682261441
 10
-4.1119558983
 20
41.4545865063
 10
-3.4149869008
 20
41.7989353726
 10
-2.7418530278
 20
42.1288393271
 10
-2.0929693713
 20
42.4442889148
 10
-1.4666282103
 20
42.7463046851
 10
-0.8591399413
 20
43.0368278876
 10
-0.2693687175
 20
43.3165388932
 10
0.30244869
 20
43.5854606645
 10
0.857758026
 20
43.8444044286
 10
1.3979419113
 20
44.0941324067
 10
1.9223666954
 20
44.3344676617
 10
2.4294747468
 20
44.5648284752
 10
2.9190579042
 20
44.7852658122
  0
LINE
  5
253
100
AcDbEntity
  8
RACCORDO
100
AcDbLine
 62
7
  6
CONTINUOUS
 10
-2.4282646687
 20
42.3553112855
 11
-4.9675852448
 21
41.1037955595
  0
LWPOLYLINE
  5
254
100
AcDbEntity
  8
RACCORDO
100
AcDbPolyline
 62
253
  6
CONTINUOUS
 90
8
 70
0
 10
-4.9675849411
 20
41.1037956823
 10
-4.9581089404
 20
41.1080003477
 10
-4.9394868764
 20
41.1135005342
 10
-4.9197027311
 20
41.115954533
 10
-4.8989732638
 20
41.1153354576
 10
-4.8775255907
 20
41.1116500908
 10
-4.8555946971
 20
41.1049388102
 10
-4.8334208624
 20
41.0952751461
  0
LINE
  5
255
100
AcDbEntity
  8
RACCORDO
100
AcDbLine
 62
253
  6
CONTINUOUS
 10
2.9190579042
 20
44.7852658122
 11
3.8493406104
 21
45.19859476
  0
LINE
  5
256
100
AcDbEntity
  8
RACCORDO
100
AcDbLine
 62
253
  6
CONTINUOUS
 10
3.8493406104
 20
45.19859476
 11
4.7123645056
 21
45.5752200768
  0
LINE
  5
257
100
AcDbEntity
  8
RACCORDO
100
AcDbLine
 62
253
  6
CONTINUOUS
 10
4.7123645056
 20
45.5752200768
 11
5.5373479776
 21
45.9287315102
  0
LINE
  5
258
100
AcDbEntity
  8
RACCORDO
100
AcDbLine
 62
253
  6
CONTINUOUS
 10
5.5373479776
 20
45.9287315102
 11
6.3401326648
 21
46.2662483584
  0
LWPOLYLINE
  5
259
100
AcDbEntity
  8
RACCORDO
100
AcDbPolyline
 62
253
  6
CONTINUOUS
 90
22
 70
0
 10
-12.2384002098
 20
36.9515813776
 10
-12.2781171055
 20
36.9351650348
 10
-12.3175086748
 20
36.9150677017
 10
-12.3565749176
 20
36.891289378
 10
-12.395591137
 20
36.8636174758
 10
-12.43428203
 20
36.8322645831
 10
-12.4718216876
 20
36.7978684646
 10
-12.5081551542
 20
36.7603868231
 10
-12.5433373854
 20
36.7198619558
 10
-12.5767073388
 20
36.677058518
 10
-12.6082348918
 20
36.6319278558
 10
-12.6379501669
 20
36.5845186231
 10
-12.6652824894
 20
36.5357414374
 10
-12.6901834967
 20
36.4855767241
 10
-12.7127015513
 20
36.4340440577
 10
-12.7324110657
 20
36.3821127793
 10
-12.7492614914
 20
36.3297342101
 10
-12.7633033769
 20
36.2769570287
 10
-12.7742627798
 20
36.2248966125
 10
-12.7820483861
 20
36.1739247536
 10
-12.7867515097
 20
36.1236696598
 10
-12.7883721508
 20
36.0741313311
  0
LWPOLYLINE
  5
25A
100
AcDbEntity
  8
RACCORDO
100
AcDbPolyline
 62
253
  6
CONTINUOUS
 90
72
 70
0
 10
6.3401326648
 20
46.2662483584
 10
7.1494414852
 20
46.5996362347
 10
7.5515460477
 20
46.7625792922
 10
7.9518913502
 20
46.9229515871
 10
8.3496094502
 20
47.0803752752
 10
8.7403077459
 20
47.2331183885
 10
9.1223967725
 20
47.3806108428
 10
9.4977079223
 20
47.5236108653
 10
9.8671184871
 20
47.6624852963
 10
10.2303797216
 20
47.7971696989
 10
10.587878177
 20
47.9278365759
 10
10.9413445233
 20
48.0551318207
 10
11.2915441662
 20
48.179324522
 10
11.6376841943
 20
48.3001269644
 10
11.9791175369
 20
48.4173189806
 10
12.3160031993
 20
48.5309653956
 10
12.6482267319
 20
48.6410379893
 10
12.9748013916
 20
48.7472309733
 10
13.2952536814
 20
48.8494262453
 10
13.610206131
 20
48.9478583352
 10
13.9203320844
 20
49.0427626616
 10
14.2256023365
 20
49.1341500833
 10
14.5261259556
 20
49.2220732186
 10
14.8227218679
 20
49.3067829094
 10
15.1158321336
 20
49.3884038077
 10
15.4050095126
 20
49.4668098616
 10
15.6897288509
 20
49.5418681233
 10
15.9700879983
 20
49.6136192717
 10
16.2460446459
 20
49.6820675515
 10
16.5169217243
 20
49.747069111
 10
16.7823734776
 20
49.8085766137
 10
17.0428833677
 20
49.8667373655
 10
17.2990264887
 20
49.9217034181
 10
17.5507743588
 20
49.973486655
 10
17.7982300481
 20
50.0221265325
 10
18.0421067878
 20
50.067771262
 10
18.2827732624
 20
50.1104829499
 10
18.5198533164
 20
50.1501879969
 10
18.7529311327
 20
50.1868220387
 10
18.9821156826
 20
50.220412939
 10
19.2073443565
 20
50.2509625053
 10
19.4280003494
 20
50.2784106174
 10
19.6437803108
 20
50.302760787
 10
19.8551174023
 20
50.3241035516
 10
20.0625090501
 20
50.3425166309
 10
20.2659000702
 20
50.3580164307
 10
20.4654148844
 20
50.3706340959
 10
20.661757439
 20
50.3804208599
 10
20.855249183
 20
50.3873790149
 10
21.0455458467
 20
50.3914824439
 10
21.2323334243
 20
50.3927247451
 10
21.4157392401
 20
50.3911118009
 10
21.5956597212
 20
50.3866498236
 10
21.7714919415
 20
50.3793775709
 10
21.9429536224
 20
50.3693553304
 10
22.1104447014
 20
50.3566060173
 10
22.2743975498
 20
50.3411191411
 10
22.4347191741
 20
50.3229185103
 10
22.591555258
 20
50.3020031034
 10
22.7456239448
 20
50.2782679
 10
22.8972014839
 20
50.251629043
 10
23.0459520769
 20
50.2221035976
 10
23.1916443315
 20
50.1897127865
 10
23.334410239
 20
50.154404818
 10
23.4740976139
 20
50.116194721
 10
23.6101100134
 20
50.0752530553
 10
23.7421863697
 20
50.0317045726
 10
23.8706795592
 20
49.9854785103
 10
23.995928324
 20
49.9364646457
 10
24.1178121263
 20
49.8847117863
 10
24.2364650724
 20
49.8301649243
 10
24.2577411513
 20
49.819937847
  0
LWPOLYLINE
  5
25B
100
AcDbEntity
  8
RACCORDO
100
AcDbPolyline
 62
253
  6
CONTINUOUS
 90
4
 70
0
 10
-13.8411755805
 20
38.0347381787
 10
-13.8905817226
 20
38.0146607815
 10
-13.9401310623
 20
37.9902628175
 10
-13.9895802895
 20
37.9616640916
  0
LWPOLYLINE
  5
25C
100
AcDbEntity
  8
RACCORDO
100
AcDbPolyline
 62
253
  6
CONTINUOUS
 90
4
 70
0
 10
-12.7098047306
 20
37.4690527538
 10
-12.7592108727
 20
37.4489753565
 10
-12.8087602124
 20
37.4245773926
 10
-12.8582094396
 20
37.3959786667
  0
LWPOLYLINE
  5
25D
100
AcDbEntity
  8
RACCORDO
100
AcDbPolyline
 62
253
  6
CONTINUOUS
 90
25
 70
0
 10
-12.4269620182
 20
37.3276313975
 10
-12.4763681638
 20
37.3075539986
 10
-12.5259175067
 20
37.2831560327
 10
-12.5753667365
 20
37.2545573046
 10
-12.6244730344
 20
37.221898247
 10
-12.6729952657
 20
37.1853392306
 10
-12.7206951641
 20
37.1450597762
 10
-12.7673385023
 20
37.1012576729
 10
-12.8126962379
 20
37.05414801
 10
-12.8565456397
 20
37.0039621219
 10
-12.8986713854
 20
36.9509464468
 10
-12.9388666196
 20
36.895361315
 10
-12.9769339662
 20
36.8374796743
 10
-13.0126864962
 20
36.7775857515
 10
-13.0459486489
 20
36.7159736528
 10
-13.076557094
 20
36.6529459173
 10
-13.1043615312
 20
36.5888120356
 10
-13.1292254248
 20
36.5238869394
 10
-13.1510266779
 20
36.4584894505
 10
-13.1696582361
 20
36.3929407052
 10
-13.1850286118
 20
36.3275625743
 10
-13.1970623305
 20
36.2626760929
 10
-13.2057003015
 20
36.1985998831
 10
-13.2109001088
 20
36.1356485892
 10
-13.2126362195
 20
36.0741313311
  0
LWPOLYLINE
  5
25E
100
AcDbEntity
  8
RACCORDO
100
AcDbPolyline
 62
253
  6
CONTINUOUS
 90
17
 70
0
 10
-13.6997542243
 20
37.9640275006
 10
-13.4506880992
 20
38.048958901
 10
-13.2061399464
 20
38.1215479637
 10
-12.966354192
 20
38.1821484737
 10
-12.7325572116
 20
38.2309405536
 10
-12.5039204195
 20
38.2685835984
 10
-12.2776532141
 20
38.2957561041
 10
-12.0531343312
 20
38.3124922276
 10
-11.8315026774
 20
38.318666145
 10
-11.6126972781
 20
38.314277289
 10
-11.3967896206
 20
38.2992887021
 10
-11.1842209875
 20
38.273692007
 10
-10.9754808186
 20
38.2375397124
 10
-10.7708287652
 20
38.1908919902
 10
-10.570463766
 20
38.1338096769
 10
-10.3747542147
 20
38.0664243885
 10
-10.1841337261
 20
37.988947675
  0
LWPOLYLINE
  5
25F
100
AcDbEntity
  8
RACCORDO
100
AcDbPolyline
 62
253
  6
CONTINUOUS
 90
13
 70
0
 10
-13.511192416
 20
37.5879774807
 10
-13.2427366622
 20
37.6779563894
 10
-12.9800295716
 20
37.7541910615
 10
-12.7230711441
 20
37.8166814969
 10
-12.4728095738
 20
37.8650535215
 10
-12.2282966666
 20
37.8996813093
 10
-11.9866878401
 20
37.9216873832
 10
-11.7466072858
 20
37.9314639814
 10
-11.5094308121
 20
37.9286188655
 10
-11.2764412626
 20
37.9130978431
 10
-11.0477080495
 20
37.88480575
 10
-10.8231617605
 20
37.8438377503
 10
-10.8089979855
 20
37.8403877881
  0
LWPOLYLINE
  5
260
100
AcDbEntity
  8
RACCORDO
100
AcDbPolyline
 62
7
  6
CONTINUOUS
 90
10
 70
0
 10
-13.0171967119
 20
-41.0841718069
 10
-13.0416586117
 20
-41.0829698779
 10
-13.0655425916
 20
-41.0808301962
 10
-13.0888486516
 20
-41.0777527618
 10
-13.1117216981
 20
-41.0737051726
 10
-13.1340168248
 20
-41.0687198308
 10
-13.1552993122
 20
-41.0628939424
 10
-13.1754242539
 20
-41.0562599096
 10
-13.1945365563
 20
-41.0487853303
 10
-13.2126362195
 20
-41.0404702045
  0
LWPOLYLINE
  5
261
100
AcDbEntity
  8
RACCORDO
100
AcDbPolyline
 62
253
  6
CONTINUOUS
 90
8
 70
0
 10
-12.7098047301
 20
-37.0091319715
 10
-12.7283829472
 20
-37.0009150797
 10
-12.7469991565
 20
-36.9948154647
 10
-12.7655116773
 20
-36.9908795482
 10
-12.7837796181
 20
-36.9891372849
 10
-12.801663949
 20
-36.9896019346
 10
-12.8190285595
 20
-36.9922699609
 10
-12.8357566471
 20
-36.9971266316
  0
LWPOLYLINE
  5
262
100
AcDbEntity
  8
RACCORDO
100
AcDbPolyline
 62
253
  6
CONTINUOUS
 90
8
 70
0
 10
-13.84117558
 20
-36.4434465465
 10
-13.8597537971
 20
-36.4352296548
 10
-13.8783700063
 20
-36.4291300397
 10
-13.8968825272
 20
-36.4251941233
 10
-13.915150468
 20
-36.42345186
 10
-13.9330347989
 20
-36.4239165096
 10
-13.9503994094
 20
-36.4265845359
 10
-13.967127497
 20
-36.4314412067
  0
LWPOLYLINE
  5
263
100
AcDbEntity
  8
RACCORDO
100
AcDbPolyline
 62
253
  6
CONTINUOUS
 90
8
 70
0
 10
-19.215187117
 20
-33.756440778
 10
-19.2337653341
 20
-33.7482238862
 10
-19.2523815434
 20
-33.7421242712
 10
-19.2708940642
 20
-33.7381883547
 10
-19.2891620051
 20
-33.7364460915
 10
-19.307046336
 20
-33.7369107411
 10
-19.3244109464
 20
-33.7395787674
 10
-19.341139034
 20
-33.7444354382
  0
LWPOLYLINE
  5
264
100
AcDbEntity
  8
RACCORDO
100
AcDbPolyline
 62
7
  6
CONTINUOUS
 90
9
 70
0
 10
-7.2022285794
 20
-43.1448162668
 10
-7.1835115754
 20
-43.1531240989
 10
-7.1652103052
 20
-43.159323824
 10
-7.1473247688
 20
-43.1634154421
 10
-7.1297258321
 20
-43.1653980097
 10
-7.1125426292
 20
-43.1652724703
 10
-7.0961625622
 20
-43.1630416542
 10
-7.0806038754
 20
-43.1586577378
 10
-7.0680506435
 20
-43.1532969716
  0
LWPOLYLINE
  5
265
100
AcDbEntity
  8
RACCORDO
100
AcDbPolyline
 62
253
  6
CONTINUOUS
 90
19
 70
0
 10
-14.4854284256
 20
-37.7676572913
 10
-14.4661326741
 20
-37.7764979406
 10
-14.4453693221
 20
-37.7844640808
 10
-14.4232963911
 20
-37.7914950848
 10
-14.4000818696
 20
-37.7975374423
 10
-14.375902434
 20
-37.8025451673
 10
-14.3509421045
 20
-37.8064801481
 10
-14.3253908443
 20
-37.8093124371
 10
-14.2994431138
 20
-37.8110204789
 10
-14.2732963909
 20
-37.8115912742
 10
-14.2471496681
 20
-37.8110204789
 10
-14.2212019376
 20
-37.8093124371
 10
-14.1956506775
 20
-37.8064801481
 10
-14.170690348
 20
-37.8025451672
 10
-14.1465109126
 20
-37.7975374422
 10
-14.1232963911
 20
-37.7914950847
 10
-14.1012234603
 20
-37.7844640808
 10
-14.0804601083
 20
-37.7764979406
 10
-14.0611643569
 20
-37.7676572913
  0
LWPOLYLINE
  5
266
100
AcDbEntity
  8
RACCORDO
100
AcDbPolyline
 62
253
  6
CONTINUOUS
 90
19
 70
0
 10
-19.8594399626
 20
-35.0806515228
 10
-19.8401442111
 20
-35.0894921721
 10
-19.8193808591
 20
-35.0974583123
 10
-19.7973079282
 20
-35.1044893163
 10
-19.7740934066
 20
-35.1105316737
 10
-19.7499139711
 20
-35.1155393988
 10
-19.7249536415
 20
-35.1194743796
 10
-19.6994023813
 20
-35.1223066686
 10
-19.6734546508
 20
-35.1240147104
 10
-19.6473079279
 20
-35.1245855057
 10
-19.6211612051
 20
-35.1240147104
 10
-19.5952134747
 20
-35.1223066686
 10
-19.5696622145
 20
-35.1194743796
 10
-19.5447018851
 20
-35.1155393987
 10
-19.5205224496
 20
-35.1105316737
 10
-19.4973079282
 20
-35.1044893162
 10
-19.4752349973
 20
-35.0974583123
 10
-19.4544716453
 20
-35.0894921721
 10
-19.4351758939
 20
-35.0806515228
  0
LWPOLYLINE
  5
267
100
AcDbEntity
  8
RACCORDO
100
AcDbPolyline
 62
253
  6
CONTINUOUS
 90
19
 70
0
 10
-20.9908108125
 20
-34.5149660979
 10
-20.971515061
 20
-34.5238067472
 10
-20.950751709
 20
-34.5317728874
 10
-20.9286787781
 20
-34.5388038913
 10
-20.9054642565
 20
-34.5448462488
 10
-20.881284821
 20
-34.5498539739
 10
-20.8563244914
 20
-34.5537889547
 10
-20.8307732312
 20
-34.5566212437
 10
-20.8048255007
 20
-34.5583292854
 10
-20.7786787778
 20
-34.5589000807
 10
-20.752532055
 20
-34.5583292854
 10
-20.7265843246
 20
-34.5566212436
 10
-20.7010330644
 20
-34.5537889546
 10
-20.676072735
 20
-34.5498539738
 10
-20.6518932995
 20
-34.5448462487
 10
-20.6286787781
 20
-34.5388038912
 10
-20.6066058472
 20
-34.5317728873
 10
-20.5858424952
 20
-34.5238067472
 10
-20.5665467438
 20
-34.5149660979
  0
LINE
  5
268
100
AcDbEntity
  8
RACCORDO
100
AcDbLine
 62
7
  6
CONTINUOUS
 10
-8.0507567168
 20
-42.7205521981
 11
-7.2022285794
 21
-43.1448162668
  0
LINE
  5
269
100
AcDbEntity
  8
RACCORDO
100
AcDbLine
 62
253
  6
CONTINUOUS
 10
-13.2126362195
 20
-38.4040533944
 11
-13.4954789319
 21
-38.2626320382
  0
LINE
  5
26A
100
AcDbEntity
  8
RACCORDO
100
AcDbLine
 62
253
  6
CONTINUOUS
 10
-14.4854284256
 20
-37.7676572913
 11
-14.6268497818
 21
-37.6969466132
  0
LINE
  5
26B
100
AcDbEntity
  8
RACCORDO
100
AcDbLine
 62
253
  6
CONTINUOUS
 10
-19.8594399626
 20
-35.0806515228
 11
-20.0008613189
 21
-35.0099408447
  0
LINE
  5
26C
100
AcDbEntity
  8
RACCORDO
100
AcDbLine
 62
253
  6
CONTINUOUS
 10
-20.9908108125
 20
-34.5149660979
 11
-21.273653525
 21
-34.3735447416
  0
LINE
  5
26D
100
AcDbEntity
  8
0
100
AcDbLine
 62
7
  6
CONTINUOUS
 10
-17.8497472817
 20
-34.742171073
 11
-15.5870055819
 21
-35.8735419229
  0
LINE
  5
26E
100
AcDbEntity
  8
RACCORDO
100
AcDbLine
 62
253
  6
CONTINUOUS
 10
-12.4269620182
 20
-37.1505533279
 11
-12.7098047306
 21
-37.0091319717
  0
LINE
  5
26F
100
AcDbEntity
  8
RACCORDO
100
AcDbLine
 62
253
  6
CONTINUOUS
 10
-13.6997542243
 20
-36.5141572249
 11
-13.8411755805
 21
-36.4434465467
  0
LINE
  5
270
100
AcDbEntity
  8
RACCORDO
100
AcDbLine
 62
253
  6
CONTINUOUS
 10
-19.0737657613
 20
-33.8271514563
 11
-19.2151871175
 21
-33.7564407782
  0
LINE
  5
271
100
AcDbEntity
  8
RACCORDO
100
AcDbLine
 62
253
  6
CONTINUOUS
 10
-20.2051366112
 20
-33.2614660314
 11
-20.4879793237
 21
-33.1200446752
  0
LWPOLYLINE
  5
272
100
AcDbEntity
  8
RACCORDO
100
AcDbPolyline
 62
253
  6
CONTINUOUS
 90
10
 70
0
 10
-20.0008613189
 20
-35.0099408447
 10
-20.0185426174
 20
-35.000292969
 10
-20.0344748978
 20
-34.989911293
 10
-20.0485369056
 20
-34.9788748275
 10
-20.0606216206
 20
-34.9672675668
 10
-20.0706370707
 20
-34.955177849
 10
-20.0785070324
 20
-34.9426976843
 10
-20.0841716104
 20
-34.9299220542
 10
-20.0875876939
 20
-34.9169481889
 10
-20.0887292845
 20
-34.9038748275
  0
LWPOLYLINE
  5
273
100
AcDbEntity
  8
RACCORDO
100
AcDbPolyline
 62
253
  6
CONTINUOUS
 90
10
 70
0
 10
-14.6268497818
 20
-37.6969466132
 10
-14.6445310804
 20
-37.6872987375
 10
-14.6604633608
 20
-37.6769170615
 10
-14.6745253686
 20
-37.665880596
 10
-14.6866100836
 20
-37.6542733353
 10
-14.6966255337
 20
-37.6421836175
 10
-14.7044954954
 20
-37.6297034528
 10
-14.7101600734
 20
-37.6169278227
 10
-14.7135761569
 20
-37.6039539575
 10
-14.7147177475
 20
-37.590880596
  0
LWPOLYLINE
  5
274
100
AcDbEntity
  8
RACCORDO
100
AcDbPolyline
 62
253
  6
CONTINUOUS
 90
10
 70
0
 10
-13.4954789319
 20
-38.2626320382
 10
-13.5131602305
 20
-38.2529841624
 10
-13.5290925109
 20
-38.2426024864
 10
-13.5431545187
 20
-38.231566021
 10
-13.5552392337
 20
-38.2199587603
 10
-13.5652546838
 20
-38.2078690425
 10
-13.5731246455
 20
-38.1953888778
 10
-13.5787892235
 20
-38.1826132476
 10
-13.582205307
 20
-38.1696393824
 10
-13.5833468976
 20
-38.156566021
  0
LWPOLYLINE
  5
275
100
AcDbEntity
  8
RACCORDO
100
AcDbPolyline
 62
7
  6
CONTINUOUS
 90
10
 70
0
 10
-14.6268497818
 20
-40.2467608829
 10
-14.6447089174
 20
-40.2369734468
 10
-14.6606007797
 20
-40.2266181077
 10
-14.6745253686
 20
-40.2156948658
 10
-14.6865583292
 20
-40.2041124093
 10
-14.6966240164
 20
-40.19196205
 10
-14.7044954954
 20
-40.1795177225
 10
-14.7101229221
 20
-40.166772749
 10
-14.7135561406
 20
-40.1537338074
 10
-14.7147177475
 20
-40.1406948658
  0
LWPOLYLINE
  5
276
100
AcDbEntity
  8
RACCORDO
100
AcDbPolyline
 62
7
  6
CONTINUOUS
 90
10
 70
0
 10
-13.4954789319
 20
-40.8124463079
 10
-13.5133380675
 20
-40.8026588717
 10
-13.5292299298
 20
-40.7923035327
 10
-13.5431545187
 20
-40.7813802907
 10
-13.5551874793
 20
-40.7697978343
 10
-13.5652531665
 20
-40.757647475
 10
-13.5731246455
 20
-40.7452031475
 10
-13.5787520722
 20
-40.732458174
 10
-13.5821852907
 20
-40.7194192323
 10
-13.5833468976
 20
-40.7063802907
  0
LWPOLYLINE
  5
277
100
AcDbEntity
  8
RACCORDO
100
AcDbPolyline
 62
253
  6
CONTINUOUS
 90
19
 70
0
 10
-20.2051366112
 20
-33.2614660314
 10
-20.186737778
 20
-33.2717376646
 10
-20.1686583547
 20
-33.2839858657
 10
-20.1510359366
 20
-33.2981174185
 10
-20.134004641
 20
-33.3140247734
 10
-20.1176940862
 20
-33.3315868659
 10
-20.1022284055
 20
-33.3506700378
 10
-20.0877253021
 20
-33.3711290545
 10
-20.0742951533
 20
-33.3928082108
 10
-20.0620401706
 20
-33.415542515
 10
-20.0510536219
 20
-33.4391589454
 10
-20.0414191214
 20
-33.4634777668
 10
-20.0332099935
 20
-33.4883138981
 10
-20.0264887147
 20
-33.5134783215
 10
-20.0213064378
 20
-33.5387795205
 10
-20.0177026033
 20
-33.5640249377
 10
-20.0157046384
 20
-33.5890224401
 10
-20.0153277488
 20
-33.6135817818
 10
-20.0165748029
 20
-33.6375160513
  0
LWPOLYLINE
  5
278
100
AcDbEntity
  8
RACCORDO
100
AcDbPolyline
 62
253
  6
CONTINUOUS
 90
19
 70
0
 10
-19.0737657613
 20
-33.8271514564
 10
-19.0553669281
 20
-33.8374230895
 10
-19.0372875048
 20
-33.8496712906
 10
-19.0196650867
 20
-33.8638028434
 10
-19.0026337911
 20
-33.8797101984
 10
-18.9863232363
 20
-33.8972722908
 10
-18.9708575556
 20
-33.9163554627
 10
-18.9563544522
 20
-33.9368144795
 10
-18.9429243034
 20
-33.9584936357
 10
-18.9306693207
 20
-33.98122794
 10
-18.919682772
 20
-34.0048443704
 10
-18.9100482715
 20
-34.0291631918
 10
-18.9018391436
 20
-34.0539993231
 10
-18.8951178648
 20
-34.0791637465
 10
-18.8899355879
 20
-34.1044649455
 10
-18.8863317534
 20
-34.1297103626
 10
-18.8843337885
 20
-34.1547078651
 10
-18.8839568989
 20
-34.1792672068
 10
-18.885203953
 20
-34.2032014763
  0
LWPOLYLINE
  5
279
100
AcDbEntity
  8
RACCORDO
100
AcDbPolyline
 62
253
  6
CONTINUOUS
 90
19
 70
0
 10
-13.6997542243
 20
-36.5141572249
 10
-13.6813553911
 20
-36.524428858
 10
-13.6632759678
 20
-36.5366770591
 10
-13.6456535497
 20
-36.550808612
 10
-13.6286222541
 20
-36.5667159669
 10
-13.6123116993
 20
-36.5842780594
 10
-13.5968460186
 20
-36.6033612312
 10
-13.5823429152
 20
-36.623820248
 10
-13.5689127663
 20
-36.6454994042
 10
-13.5566577837
 20
-36.6682337085
 10
-13.5456712349
 20
-36.6918501389
 10
-13.5360367345
 20
-36.7161689603
 10
-13.5278276066
 20
-36.7410050916
 10
-13.5211063278
 20
-36.766169515
 10
-13.5159240509
 20
-36.791470714
 10
-13.5123202164
 20
-36.8167161311
 10
-13.5103222514
 20
-36.8417136336
 10
-13.5099453619
 20
-36.8662729753
 10
-13.511192416
 20
-36.8902072448
  0
LINE
  5
27A
100
AcDbEntity
  8
0
100
AcDbLine
 62
7
  6
CONTINUOUS
 10
-21.4604749788
 20
31.7508223132
 11
-18.5544643573
 21
34.0961392316
  0
LWPOLYLINE
  5
27B
100
AcDbEntity
  8
RACCORDO
100
AcDbPolyline
 62
253
  6
CONTINUOUS
 90
22
 70
0
 10
-12.8582094396
 20
37.3959786667
 10
-12.9073157352
 20
37.3633196115
 10
-12.9558379648
 20
37.3267605975
 10
-13.0035378628
 20
37.2864811448
 10
-13.0501812026
 20
37.2426790411
 10
-13.0955389411
 20
37.1955693764
 10
-13.1393883447
 20
37.1453834871
 10
-13.1815140903
 20
37.092367813
 10
-13.2217093238
 20
37.0367826833
 10
-13.2597766703
 20
36.9789010438
 10
-13.2955292016
 20
36.9190071202
 10
-13.3287913559
 20
36.8573950196
 10
-13.3593998021
 20
36.7943672831
 10
-13.3872042393
 20
36.7302334024
 10
-13.4120681328
 20
36.6653083082
 10
-13.4338693862
 20
36.5999108203
 10
-13.4525009453
 20
36.5343620741
 10
-13.467871322
 20
36.4689839414
 10
-13.4799050416
 20
36.4040974578
 10
-13.4885430133
 20
36.3400212454
 10
-13.4937428211
 20
36.2770699487
 10
-13.4954789319
 20
36.2155526873
  0
LWPOLYLINE
  5
27C
100
AcDbEntity
  8
RACCORDO
100
AcDbPolyline
 62
253
  6
CONTINUOUS
 90
10
 70
0
 10
-6.1415684076
 20
36.5879113118
 10
-6.1241429304
 20
36.5974069545
 10
-6.1083581913
 20
36.6076535488
 10
-6.0943506167
 20
36.6185822559
 10
-6.0822377802
 20
36.6301258935
 10
-6.0721430055
 20
36.6421955513
 10
-6.0641796819
 20
36.6546780621
 10
-6.0584184601
 20
36.6674794461
 10
-6.0549132478
 20
36.6805031628
 10
-6.053700442
 20
36.6939775814
  0
LINE
  5
27D
100
AcDbEntity
  8
0
100
AcDbLine
 62
7
  6
CONTINUOUS
 10
-22.1928923405
 20
31.3846136323
 11
-21.4604749788
 21
31.7508223132
  0
LINE
  5
27E
100
AcDbEntity
  8
0
100
AcDbLine
 62
7
  6
CONTINUOUS
 10
-29.1225387962
 20
27.7978345527
 11
-28.7689854056
 21
27.974611248
  0
LINE
  5
27F
100
AcDbEntity
  8
0
100
AcDbLine
 62
7
  6
CONTINUOUS
 10
-22.8999991217
 20
30.503221379
 11
-22.1928923405
 21
30.8567747696
  0
LINE
  5
280
100
AcDbEntity
  8
0
100
AcDbLine
 62
7
  6
CONTINUOUS
 10
-28.2032999806
 20
27.338215145
 11
-27.84974659
 21
27.5149918403
  0
LINE
  5
281
100
AcDbEntity
  8
RACCORDO
100
AcDbLine
 62
7
  6
CONTINUOUS
 10
-13.5833468976
 20
34.3996218941
 11
-14.0611643569
 21
34.1607131644
  0
LINE
  5
282
100
AcDbEntity
  8
0
100
AcDbLine
 62
7
  6
CONTINUOUS
 10
-24.3142126841
 20
28.4970764922
 11
-22.8999991217
 21
29.2041832734
  0
LINE
  5
283
100
AcDbEntity
  8
0
100
AcDbLine
 62
7
  6
CONTINUOUS
 10
-27.2840611651
 20
26.8785957372
 11
-26.9305077745
 21
27.0553724325
  0
LINE
  5
284
100
AcDbEntity
  8
RACCORDO
100
AcDbLine
 62
253
  6
CONTINUOUS
 10
-6.353700442
 20
36.9537849501
 11
-7.543943535
 21
36.3586634036
  0
LINE
  5
285
100
AcDbEntity
  8
RACCORDO
100
AcDbLine
 62
7
  6
CONTINUOUS
 10
-20.8493894563
 20
29.4779165463
 11
-13.0171967119
 21
33.3940129185
  0
LINE
  5
286
100
AcDbEntity
  8
RACCORDO
100
AcDbLine
 62
253
  6
CONTINUOUS
 10
-6.1415684076
 20
36.5879113118
 11
-7.4507294149
 21
35.9333308081
  0
LINE
  5
287
100
AcDbEntity
  8
0
100
AcDbLine
 62
7
  6
CONTINUOUS
 10
-26.3648223495
 20
26.4189763294
 11
-26.011268959
 21
26.5957530247
  0
LWPOLYLINE
  5
288
100
AcDbEntity
  8
RACCORDO
100
AcDbPolyline
 62
253
  6
CONTINUOUS
 90
14
 70
0
 10
-6.1962697925
 20
36.9490274533
 10
-0.6466091495
 20
39.7224345775
 10
0.050857821
 20
40.0670264046
 10
0.724465144
 20
40.3971574006
 10
1.3738040934
 20
40.7128215032
 10
2.00057785
 20
41.0150373021
 10
2.6084611845
 20
41.3057392112
 10
3.1985742129
 20
41.5856005965
 10
3.7706991276
 20
41.854653943
 10
4.3263179261
 20
42.1137276915
 10
4.8668221306
 20
42.3635881008
 10
5.3915687387
 20
42.6040538567
 10
5.8990073563
 20
42.8345465672
 10
6.3889544137
 20
43.0551281614
  0
LWPOLYLINE
  5
289
100
AcDbEntity
  8
RACCORDO
100
AcDbPolyline
 62
253
  6
CONTINUOUS
 90
14
 70
0
 10
-6.053700442
 20
36.5483724731
 10
-0.4362369563
 20
39.3553796204
 10
0.2607629472
 20
39.6998044974
 10
0.9345341103
 20
40.0302645249
 10
1.5834874405
 20
40.3458297669
 10
2.2092120302
 20
40.6474301595
 10
2.8164751569
 20
40.9378555105
 10
3.4060892696
 20
41.2175386058
 10
3.9772419193
 20
41.4860466594
 10
4.5322630357
 20
41.744871122
 10
5.0721727213
 20
41.9944892172
 10
5.5959508737
 20
42.2344237214
 10
6.102867115
 20
42.4647344133
 10
6.5922790112
 20
42.6851267163
  0
LWPOLYLINE
  5
28A
100
AcDbEntity
  8
RACCORDO
100
AcDbPolyline
 62
253
  6
CONTINUOUS
 90
14
 70
0
 10
-6.053700442
 20
35.7689496097
 10
-0.4241812415
 20
38.5819164304
 10
0.2842640439
 20
38.9319093932
 10
0.9688702558
 20
39.267545919
 10
1.627939198
 20
39.5878379714
 10
2.2631690667
 20
39.8937735867
 10
2.8796544511
 20
40.1883168741
 10
3.4782169614
 20
40.4719104134
 10
4.0580349873
 20
40.7441116246
 10
4.6217382874
 20
41.006556877
 10
5.1705081517
 20
41.2597979537
 10
5.7031632902
 20
41.5032830715
 10
6.2187895909
 20
41.7369932493
 10
6.7167492513
 20
41.9606329763
  0
LWPOLYLINE
  5
28B
100
AcDbEntity
  8
RACCORDO
100
AcDbPolyline
 62
7
  6
CONTINUOUS
 90
36
 70
0
 10
-1.2344333877
 20
38.0553049897
 10
1.2650737966
 20
39.2873739623
 10
3.6468217137
 20
40.425571101
 10
5.8536347981
 20
41.4446197105
 10
7.8979266364
 20
42.3537481191
 10
9.7667007621
 20
43.1512220523
 10
11.4217155179
 20
43.8268017406
 10
12.8167997283
 20
44.3707726804
 10
13.9987545972
 20
44.8110130005
 10
15.0687131701
 20
45.191245155
 10
16.0446393266
 20
45.5211445899
 10
16.908933565
 20
45.7983150754
 10
17.7087334015
 20
46.0408766116
 10
18.4524011795
 20
46.2531092127
 10
19.1317863461
 20
46.434591814
 10
19.7688299084
 20
46.5928554337
 10
20.3668440116
 20
46.7298387132
 10
20.9226462275
 20
46.8460578121
 10
21.4481528978
 20
46.9450968544
 10
21.944909696
 20
47.0280077093
 10
22.411410048
 20
47.0953780445
 10
22.8547681611
 20
47.1489637174
 10
23.2757763955
 20
47.1893759133
 10
23.6735835486
 20
47.2171064702
 10
24.0526450383
 20
47.2329580957
 10
24.4133292955
 20
47.2372872598
 10
24.7550907318
 20
47.2304703061
 10
25.0808390611
 20
47.2127662813
 10
25.3907258105
 20
47.1843802912
 10
25.6843240429
 20
47.1456426923
 10
25.9635004341
 20
47.0965411789
 10
26.2282790416
 20
47.0371931095
 10
26.4782038248
 20
46.9678499217
 10
26.7142578671
 20
46.88834146
 10
26.9361853045
 20
46.7988247175
 10
27.0957926322
 20
46.723992503
  0
LWPOLYLINE
  5
28C
100
AcDbEntity
  8
RACCORDO
100
AcDbPolyline
 62
253
  6
CONTINUOUS
 90
19
 70
0
 10
-12.7883721508
 20
36.0741313311
 10
-12.8076679022
 20
36.0652906818
 10
-12.8284312542
 20
36.0573245416
 10
-12.8505041851
 20
36.0502935377
 10
-12.8737187066
 20
36.0442511802
 10
-12.8978981421
 20
36.0392434551
 10
-12.9228584716
 20
36.0353084743
 10
-12.9484097318
 20
36.0324761853
 10
-12.9743574623
 20
36.0307681435
 10
-13.0005041851
 20
36.0301973482
 10
-13.0266509079
 20
36.0307681435
 10
-13.0525986384
 20
36.0324761853
 10
-13.0781498987
 20
36.0353084743
 10
-13.1031102281
 20
36.0392434551
 10
-13.1272896636
 20
36.0442511802
 10
-13.1505041851
 20
36.0502935377
 10
-13.172577116
 20
36.0573245416
 10
-13.193340468
 20
36.0652906818
 10
-13.2126362195
 20
36.0741313311
  0
LWPOLYLINE
  5
28D
100
AcDbEntity
  8
RACCORDO
100
AcDbPolyline
 62
7
  6
CONTINUOUS
 90
19
 70
0
 10
-14.0611643569
 20
34.1607131644
 10
-14.0807392292
 20
34.1517835966
 10
-14.1014499073
 20
34.1438376655
 10
-14.1232963913
 20
34.136875371
 10
-14.1464613041
 20
34.1308588907
 10
-14.1707620227
 20
34.1258260471
 10
-14.1956506777
 20
34.1218903076
 10
-14.2211406247
 20
34.1190765943
 10
-14.247218508
 20
34.117359985
 10
-14.2732963913
 20
34.1167791816
 10
-14.2993742745
 20
34.117359985
 10
-14.3254521578
 20
34.1190765943
 10
-14.3509421048
 20
34.1218903076
 10
-14.3758307598
 20
34.1258260471
 10
-14.4001314784
 20
34.1308588907
 10
-14.4232963913
 20
34.136875371
 10
-14.4451428752
 20
34.1438376655
 10
-14.4658535533
 20
34.1517835966
 10
-14.4854284256
 20
34.1607131644
  0
LINE
  5
28E
100
AcDbEntity
  8
RACCORDO
100
AcDbLine
 62
253
  6
CONTINUOUS
 10
6.5922790112
 20
42.6851267163
 11
7.5217139947
 21
43.0979833954
  0
LINE
  5
28F
100
AcDbEntity
  8
RACCORDO
100
AcDbLine
 62
253
  6
CONTINUOUS
 10
6.3889544137
 20
43.0551281614
 11
7.319921882
 21
43.4687181746
  0
LWPOLYLINE
  5
290
100
AcDbEntity
  8
RACCORDO
100
AcDbPolyline
 62
253
  6
CONTINUOUS
 90
3
 70
0
 10
6.7167492513
 20
41.9606329763
 10
7.6625813545
 20
42.3794551625
 10
8.1092705889
 20
42.5746106312
  0
LINE
  5
291
100
AcDbEntity
  8
RACCORDO
100
AcDbLine
 62
253
  6
CONTINUOUS
 10
7.319921882
 20
43.4687181746
 11
8.1834000428
 21
43.8454947515
  0
LINE
  5
292
100
AcDbEntity
  8
RACCORDO
100
AcDbLine
 62
253
  6
CONTINUOUS
 10
7.5217139947
 20
43.0979833954
 11
8.3839473241
 21
43.47425272
  0
LINE
  5
293
100
AcDbEntity
  8
RACCORDO
100
AcDbLine
 62
253
  6
CONTINUOUS
 10
8.1092705889
 20
42.5746106312
 11
8.9621072383
 21
42.9417505833
  0
LINE
  5
294
100
AcDbEntity
  8
RACCORDO
100
AcDbLine
 62
253
  6
CONTINUOUS
 10
8.3839473241
 20
43.47425272
 11
9.2076856885
 21
43.8272100152
  0
LINE
  5
295
100
AcDbEntity
  8
RACCORDO
100
AcDbLine
 62
253
  6
CONTINUOUS
 10
8.1834000428
 20
43.8454947515
 11
9.0084267843
 21
44.1989751585
  0
LINE
  5
296
100
AcDbEntity
  8
RACCORDO
100
AcDbLine
 62
253
  6
CONTINUOUS
 10
8.9621072383
 20
42.9417505833
 11
9.7808467049
 21
43.2876426038
  0
LINE
  5
297
100
AcDbEntity
  8
RACCORDO
100
AcDbLine
 62
253
  6
CONTINUOUS
 10
9.0084267843
 20
44.1989751585
 11
9.8108824128
 21
44.5363037111
  0
LINE
  5
298
100
AcDbEntity
  8
RACCORDO
100
AcDbLine
 62
253
  6
CONTINUOUS
 10
9.2076856885
 20
43.8272100152
 11
10.0085384733
 21
44.1637977303
  0
LWPOLYLINE
  5
299
100
AcDbEntity
  8
RACCORDO
100
AcDbPolyline
 62
253
  6
CONTINUOUS
 90
184
 70
0
 10
9.7808467049
 20
43.2876426038
 10
10.5922166929
 20
43.6233349392
 10
10.9984583152
 20
43.788759369
 10
11.402290698
 20
43.9512961493
 10
11.8046728654
 20
44.1112705324
 10
12.2046457935
 20
44.268357266
 10
12.5976097349
 20
44.4207633332
 10
12.981829647
 20
44.5677780849
 10
13.3590405724
 20
44.7101121701
 10
13.7298478928
 20
44.8481045202
 10
14.0938171574
 20
44.9816186077
 10
14.451382817
 20
45.1107909601
 10
14.8044536047
 20
45.2363700897
 10
15.1537774792
 20
45.3586358783
 10
15.4986064817
 20
45.4773084442
 10
15.8386054695
 20
45.5922966555
 10
16.1739981652
 20
45.7036570695
 10
16.5045608462
 20
45.8113331289
 10
16.8292872018
 20
45.9150640295
 10
17.1476576622
 20
46.0146765055
 10
17.4601917971
 20
46.1103438227
 10
17.7674420053
 20
46.2023249736
 10
18.0692832251
 20
46.2906004883
 10
18.3658405182
 20
46.3751898368
 10
18.6580414686
 20
46.4564104218
 10
18.946273285
 20
46.534376225
 10
19.2301487586
 20
46.6089732647
 10
19.5094338468
 20
46.6801769985
 10
19.7842710741
 20
46.7480035708
 10
20.0545179159
 20
46.8124368372
 10
20.3195127563
 20
46.8734038217
 10
20.5788965427
 20
46.9308139036
 10
20.8330283276
 20
46.9847577037
 10
21.0823236531
 20
47.035434108
 10
21.3266597287
 20
47.0828372686
 10
21.5661593447
 20
47.1269730334
 10
21.8016064135
 20
47.168057833
 10
22.0332861923
 20
47.2061515568
 10
22.260913424
 20
47.2411943154
 10
22.4844162496
 20
47.2732228705
 10
22.7039591997
 20
47.3022424102
 10
22.9193777438
 20
47.3282477465
 10
23.1301064317
 20
47.3512600773
 10
23.3358675929
 20
47.3712384964
 10
23.5369388979
 20
47.38822391
 10
23.7335879091
 20
47.4023602336
 10
23.9256606272
 20
47.4136585316
 10
24.1133110514
 20
47.4221077396
 10
24.2972687419
 20
47.4278185803
 10
24.4777484935
 20
47.4308165668
 10
24.6545355114
 20
47.431076186
 10
24.8277149715
 20
47.4286316216
 10
24.9974930349
 20
47.4234575814
 10
25.1636635405
 20
47.4155793576
 10
25.3256931803
 20
47.4051070103
 10
25.4833633455
 20
47.392029912
 10
25.636892645
 20
47.3763586902
 10
25.7864035974
 20
47.3582352867
 10
25.931690748
 20
47.3377139822
 10
26.0729595516
 20
47.3147404961
 10
26.2109488913
 20
47.2892939278
 10
26.3458205844
 20
47.2613855989
 10
26.4774128136
 20
47.2310041878
 10
26.6059790107
 20
47.1980948293
 10
26.7317875851
 20
47.1625667591
 10
26.8545701272
 20
47.1245107415
 10
26.9737748408
 20
47.0841442047
 10
27.0892380779
 20
47.0414743917
 10
27.2011234864
 20
46.9964940595
 10
27.3093702131
 20
46.9493989074
 10
27.413714827
 20
46.9003448978
 10
27.514420759
 20
46.8491760683
 10
27.6122174485
 20
46.7956202316
 10
27.7072233357
 20
46.7397067985
 10
27.7993199804
 20
46.6814063583
 10
27.8888815017
 20
46.6203584907
 10
27.9762044702
 20
46.5563591221
 10
28.0609923153
 20
46.4896123261
 10
28.1427294448
 20
46.4203699048
 10
28.2213284071
 20
46.348620196
 10
28.2968766539
 20
46.2743748618
 10
28.3691209478
 20
46.1979206897
 10
28.4378603084
 20
46.1194860007
 10
28.5032957161
 20
46.0388424739
 10
28.5657768746
 20
45.9555919341
 10
28.625367111
 20
45.8697662342
 10
28.6820030982
 20
45.7813335213
 10
28.7358445584
 20
45.6898000618
 10
28.7870206362
 20
45.5950007371
 10
28.8354021869
 20
45.4971006656
 10
28.8807614987
 20
45.3961014699
 10
28.923107505
 20
45.2919300682
 10
28.9624312724
 20
45.1846595422
 10
28.9984782886
 20
45.0745107587
 10
29.0312019732
 20
44.9613864387
 10
29.0606489066
 20
44.8453838612
 10
29.0867043182
 20
44.7270157297
 10
29.109292512
 20
44.6063505292
 10
29.128489184
 20
44.4833197747
 10
29.1444066517
 20
44.3582307148
 10
29.1570354496
 20
44.2311706865
 10
29.1663850432
 20
44.1020523527
 10
29.1725961471
 20
43.970920951
 10
29.1756470642
 20
43.8374147163
 10
29.1755594917
 20
43.7018954137
 10
29.1725392355
 20
43.565493575
 10
29.1664896284
 20
43.4280649793
 10
29.1575073376
 20
43.2897538476
 10
29.1460881713
 20
43.1521233743
 10
29.1323100572
 20
43.0159976377
 10
29.1160950675
 20
42.8805525595
 10
29.0977052268
 20
42.7448790988
 10
29.0773021067
 20
42.6093452883
 10
29.0547241355
 20
42.4735830952
 10
29.0297486233
 20
42.3355793812
 10
29.002492853
 20
42.1953385632
 10
28.9728395416
 20
42.0528562241
 10
28.9402141508
 20
41.906105975
 10
28.9046403099
 20
41.754836257
 10
28.8660943896
 20
41.5992986288
 10
28.8239309634
 20
41.4382213772
 10
28.7777205645
 20
41.2702034099
 10
28.7278926598
 20
41.0966458192
 10
28.6750902238
 20
40.9204801686
 10
28.6190813075
 20
40.7414768735
 10
28.56009786
 20
40.5598655184
 10
28.4994787028
 20
40.3792664207
 10
28.4375436374
 20
40.2008170493
 10
28.3739728623
 20
40.0233799353
 10
28.3091457942
 20
39.8471629898
 10
28.2432488413
 20
39.6725768198
 10
28.1760955955
 20
39.4992108183
 10
28.1075062488
 20
39.3260410756
 10
28.0376720802
 20
39.1533963028
 10
27.9664018109
 20
38.9809477887
 10
27.8929417961
 20
38.8066854896
 10
27.8173725572
 20
38.6306407401
 10
27.7396135728
 20
38.4527822056
 10
27.6586696339
 20
38.2710058384
 10
27.5745887553
 20
38.085281569
 10
27.4873229222
 20
37.8956394668
 10
27.395732881
 20
37.7000656929
 10
27.2997421078
 20
37.4983036541
 10
27.1994271265
 20
37.2906099436
 10
27.0938782546
 20
37.0757405018
 10
26.9829102291
 20
36.8532970727
 10
26.866708313
 20
36.6236779122
 10
26.7449186135
 20
36.386833729
 10
26.6175159469
 20
36.1427287365
 10
26.4845254969
 20
35.8913987212
 10
26.345668922
 20
35.6329017507
 10
26.2009851835
 20
35.3673178439
 10
26.0504353201
 20
35.0945669818
 10
25.8936241072
 20
34.814467175
 10
25.7306549009
 20
34.5271890024
 10
25.561424345
 20
34.2325618851
 10
25.3852271458
 20
33.9298920968
 10
25.2020902898
 20
33.6192025084
 10
25.0119867905
 20
33.300470249
 10
24.8141303954
 20
32.9729329795
 10
24.6085998832
 20
32.6366947815
 10
24.3953164752
 20
32.2916515733
 10
24.1732575822
 20
31.9367287718
 10
23.9424922619
 20
31.5719967056
 10
23.7029514566
 20
31.1973850461
 10
23.4534054046
 20
30.8116082238
 10
23.1939638211
 20
30.4147849189
 10
22.924516991
 20
30.0067964512
 10
22.6435060068
 20
29.5860012117
 10
22.3510197731
 20
29.1524887172
 10
22.0469693853
 20
28.7061694507
 10
21.7295292224
 20
28.245133252
 10
21.3982452013
 20
27.7687746904
 10
21.0535714049
 20
27.2776991967
 10
20.6950444616
 20
26.7718129027
 10
20.322612311
 20
26.2511424956
 10
19.9363270134
 20
25.7156612883
 10
19.5358813771
 20
25.1651953521
 10
19.1220597087
 20
24.6009085555
 10
18.6940777016
 20
24.0216370299
 10
18.2492752445
 20
23.4237152415
 10
17.7843494607
 20
22.8029786909
 10
17.3026032269
 20
22.1635918774
 10
16.811285063
 20
21.5143827653
  0
LWPOLYLINE
  5
29A
100
AcDbEntity
  8
RACCORDO
100
AcDbPolyline
 62
253
  6
CONTINUOUS
 90
72
 70
0
 10
9.8108824128
 20
44.5363037111
 10
10.6197307019
 20
44.8694518539
 10
11.0216401717
 20
45.0322912936
 10
11.4218710763
 20
45.1925932318
 10
11.8195201153
 20
45.3499648404
 10
12.2101713776
 20
45.5026647204
 10
12.5922404401
 20
45.6501245116
 10
12.9675518577
 20
45.7930993391
 10
13.336944194
 20
45.9319412174
 10
13.7001533431
 20
46.066580357
 10
14.0575830248
 20
46.1971959996
 10
14.4109750333
 20
46.3244381628
 10
14.7610925008
 20
46.448575175
 10
15.107145331
 20
46.5693204956
 10
15.4485040506
 20
46.6864600951
 10
15.7853359825
 20
46.800061358
 10
16.1175171453
 20
46.9100925756
 10
16.4440512969
 20
47.016244778
 10
16.7644658538
 20
47.1184001645
 10
17.0793822552
 20
47.2167928283
 10
17.3894622377
 20
47.3116545847
 10
17.6946704771
 20
47.4029946851
 10
17.9951231851
 20
47.4908681373
 10
18.2916477021
 20
47.575528274
 10
18.5846853973
 20
47.6570995345
 10
18.8737898311
 20
47.7354561628
 10
19.1584456858
 20
47.8104678433
 10
19.4387561331
 20
47.8821763822
 10
19.7146725622
 20
47.9505841503
 10
19.985510221
 20
48.0155453348
 10
20.2509239792
 20
48.0770127448
 10
20.5113965889
 20
48.1351334469
 10
20.7674942445
 20
48.1900575384
 10
21.0191837035
 20
48.241796171
 10
21.2665737302
 20
48.2903902455
 10
21.5103844262
 20
48.3359893501
 10
21.7509836882
 20
48.3786554293
 10
21.9879962623
 20
48.4183151328
 10
22.2210149608
 20
48.454905495
 10
22.450153236
 20
48.4884547494
 10
22.6753430376
 20
48.5189635962
 10
22.8959612012
 20
48.5463710164
 10
23.1117051906
 20
48.5706806346
 10
23.3230072178
 20
48.5919827706
 10
23.5303564814
 20
48.6103543484
 10
23.7336936662
 20
48.6258117755
 10
23.9331482618
 20
48.6383869187
 10
24.1294299129
 20
48.6481313936
 10
24.3228590091
 20
48.6550474414
 10
24.5130925094
 20
48.6591091273
 10
24.6998247337
 20
48.6603101569
 10
24.8831869478
 20
48.6586559818
 10
25.063070615
 20
48.6541524495
 10
25.2388676032
 20
48.6468383893
 10
25.4102967695
 20
48.6367740085
 10
25.5777566377
 20
48.6239820153
 10
25.7416714102
 20
48.608452541
 10
25.9019444301
 20
48.590210255
 10
26.0587260412
 20
48.5692540569
 10
26.2127389267
 20
48.5454783345
 10
26.3642580177
 20
48.5187994807
 10
26.5129491117
 20
48.4892345292
 10
26.6585888622
 20
48.4568029985
 10
26.8013125926
 20
48.4214516817
 10
26.9409636745
 20
48.3831961255
 10
27.0769417649
 20
48.3422078583
 10
27.2089870951
 20
48.2986111233
 10
27.3374507581
 20
48.2523352814
 10
27.4626638969
 20
48.2032727718
 10
27.5845030341
 20
48.151474296
 10
27.703106241
 20
48.0968837894
 10
27.7682699443
 20
48.0650125342
  0
LWPOLYLINE
  5
29B
100
AcDbEntity
  8
RACCORDO
100
AcDbPolyline
 62
253
  6
CONTINUOUS
 90
172
 70
0
 10
10.0085384733
 20
44.1637977303
 10
10.8158580734
 20
44.4963088474
 10
11.2170005401
 20
44.6588451258
 10
11.6163037033
 20
44.8187323889
 10
12.013117334
 20
44.9757692985
 10
12.4030568134
 20
45.1282393399
 10
12.784327466
 20
45.2754105391
 10
13.1587239674
 20
45.4180148701
 10
13.5272457247
 20
45.5565317403
 10
13.8896262457
 20
45.6908878446
 10
14.2461320228
 20
45.821156488
 10
14.5985619401
 20
45.948036993
 10
14.9477185264
 20
46.0718273624
 10
15.292799253
 20
46.1922295934
 10
15.6331954181
 20
46.3090489997
 10
15.9690054915
 20
46.4222992839
 10
16.3001310033
 20
46.5319667435
 10
16.6256678415
 20
46.6378155841
 10
16.9450597835
 20
46.7396620167
 10
17.2588630519
 20
46.8376898305
 10
17.5678422024
 20
46.9322145988
 10
17.8719634056
 20
47.0232450977
 10
18.171260491
 20
47.1107725512
 10
18.466599503
 20
47.1950862049
 10
18.7584300492
 20
47.2763162289
 10
19.0463025221
 20
47.3543324532
 10
19.3297341433
 20
47.4290336128
 10
19.6087619454
 20
47.500411307
 10
19.8833488958
 20
47.5684739365
 10
20.1529011191
 20
47.6331454386
 10
20.4170005583
 20
47.6943265328
 10
20.6760652703
 20
47.7521164995
 10
20.9307555503
 20
47.8067371175
 10
21.1810405574
 20
47.8582037615
 10
21.4269511326
 20
47.9065010567
 10
21.6692400941
 20
47.9518046572
 10
21.9082851435
 20
47.9941879794
 10
22.1437085792
 20
48.0335776068
 10
22.3751301147
 20
48.0699289445
 10
22.6026021431
 20
48.1032268345
 10
22.8260722712
 20
48.1334864348
 10
23.0450030327
 20
48.1607086242
 10
23.259023307
 20
48.1848451049
 10
23.4685042145
 20
48.2059441748
 10
23.6740216506
 20
48.2241516069
 10
23.8755244381
 20
48.2394916747
 10
24.073063754
 20
48.2519401045
 10
24.2673690254
 20
48.2615698486
 10
24.4587819532
 20
48.2684047088
 10
24.6469608364
 20
48.2724208832
 10
24.8316099989
 20
48.2736199177
 10
25.0128100243
 20
48.2719724812
 10
25.190480329
 20
48.2675079049
 10
25.3640834868
 20
48.2603157285
 10
25.5332766235
 20
48.2504102997
 10
25.6984026132
 20
48.2377772707
 10
25.8599526517
 20
48.2224631385
 10
26.0178527246
 20
48.2045197037
 10
26.1721768463
 20
48.1838951656
 10
26.3236382559
 20
48.1604806195
 10
26.4725572813
 20
48.1342426265
 10
26.6186135947
 20
48.1052146254
 10
26.7615594512
 20
48.0733880271
 10
26.9014969329
 20
48.0386969611
 10
27.0383239578
 20
48.0012072978
 10
27.1714865351
 20
47.9611080603
 10
27.3006768557
 20
47.9184854975
 10
27.4262027287
 20
47.8732533605
 10
27.5484335908
 20
47.8253419256
 10
27.6672970817
 20
47.7748480427
 10
27.7828655619
 20
47.7216748619
 10
27.8957255492
 20
47.6654621095
 10
28.0061638633
 20
47.6060965372
 10
28.1138936847
 20
47.5436913934
 10
28.2186410722
 20
47.47822615
 10
28.3204812267
 20
47.4095862672
 10
28.4193389474
 20
47.3378862848
 10
28.5147146909
 20
47.2634492933
 10
28.6063688096
 20
47.1864383658
 10
28.694540951
 20
47.1066904293
 10
28.7794505146
 20
47.0240393551
 10
28.8610782539
 20
46.938600611
 10
28.9394434154
 20
46.8502587292
 10
29.0148231384
 20
46.7585011787
 10
29.0874050503
 20
46.6631472622
 10
29.1570015237
 20
46.5643776769
 10
29.223326816
 20
46.4622219827
 10
29.2863921384
 20
46.3565730787
 10
29.3461862797
 20
46.2475380657
 10
29.402389864
 20
46.1354678063
 10
29.4549133762
 20
46.0203907083
 10
29.5038463313
 20
45.9022783639
 10
29.5491378988
 20
45.7813964127
 10
29.5907581657
 20
45.6577650564
 10
29.6287370449
 20
45.5313640933
 10
29.6631134445
 20
45.4023985575
 10
29.6938815815
 20
45.2709179877
 10
29.7210472387
 20
45.1368728452
 10
29.7446666728
 20
45.0003195487
 10
29.7647456947
 20
44.8611917776
 10
29.7812784933
 20
44.7195558524
 10
29.7943038918
 20
44.5756671539
 10
29.8037844604
 20
44.4293790548
 10
29.8097576287
 20
44.2808381822
 10
29.812374509
 20
44.130739798
 10
29.8116080853
 20
43.9792311239
 10
29.8074853735
 20
43.8261649381
 10
29.8002385332
 20
43.6717948367
 10
29.7898937899
 20
43.5162832545
 10
29.776424918
 20
43.3594677567
 10
29.7599854001
 20
43.2011146353
 10
29.7405523605
 20
43.0409771085
 10
29.7181486749
 20
42.8793019581
 10
29.6929964527
 20
42.7165958224
 10
29.6650507096
 20
42.5527648783
 10
29.6343564298
 20
42.387902949
 10
29.6012706753
 20
42.2227981422
 10
29.5659671442
 20
42.0581710503
 10
29.5282721384
 20
41.893301081
 10
29.488021625
 20
41.7268145655
 10
29.4453983151
 20
41.5590523931
 10
29.4002194976
 20
41.3896736744
 10
29.3517730064
 20
41.2162820723
 10
29.3001653495
 20
41.0388605779
 10
29.2452900189
 20
40.8574262
 10
29.1861153253
 20
40.6696336283
 10
29.1226535812
 20
40.4752612905
 10
29.054892474
 20
40.2745307588
 10
28.9817633768
 20
40.0657614396
 10
28.9031067433
 20
39.848434292
 10
28.8190821197
 20
39.6230683569
 10
28.7290995174
 20
39.3895401638
 10
28.633102695
 20
39.1477484029
 10
28.5311478939
 20
38.8977943841
 10
28.4228138499
 20
38.6398585669
 10
28.3081302869
 20
38.3740512919
 10
28.1870674811
 20
38.1002622185
 10
28.059114996
 20
37.8183407847
 10
27.9243854673
 20
37.5285240742
 10
27.7827662594
 20
37.2305750034
 10
27.6334090292
 20
36.9236317589
 10
27.4763355867
 20
36.607690153
 10
27.3115241219
 20
36.2827543735
 10
27.138060862
 20
35.94797517
 10
26.9559404254
 20
35.6033173818
 10
26.7651681936
 20
35.2488161695
 10
26.5648465384
 20
34.883727765
 10
26.3549783503
 20
34.5080468077
 10
26.1355607387
 20
34.1217786582
 10
25.9056874037
 20
33.724195629
 10
25.6654182664
 20
33.3153782907
 10
25.4146934057
 20
32.8952460728
 10
25.1524267577
 20
32.4628295766
 10
24.8786626634
 20
32.0181616907
 10
24.5933567818
 20
31.5612095264
 10
24.2952900268
 20
31.0909050197
 10
23.9845003012
 20
30.6072765552
 10
23.6609497021
 20
30.1102957482
 10
23.323305434
 20
29.5988093804
 10
22.9716537256
 20
29.0729311019
 10
22.6059083481
 20
28.5325472626
 10
22.2244778201
 20
27.9761636942
 10
21.8273013063
 20
27.4037693141
 10
21.4144396419
 20
26.8153752048
 10
20.984483851
 20
26.209520446
 10
20.5361512802
 20
25.5846231529
 10
20.0707245829
 20
24.9422652104
 10
19.5906427438
 20
24.2857313523
 10
19.0909180768
 20
23.6087932624
 10
18.5765382679
 20
22.917679257
 10
18.06490536
 20
22.2343590185
 10
17.557187087
 20
21.5607953098
  0
LWPOLYLINE
  5
29C
100
AcDbEntity
  8
RACCORDO
100
AcDbPolyline
 62
7
  6
CONTINUOUS
 90
10
 70
0
 10
-20.7819680645
 20
-37.1086410918
 10
-20.8047566615
 20
-37.108133547
 10
-20.8308345448
 20
-37.1064169377
 10
-20.8563244917
 20
-37.1036032244
 10
-20.8812131467
 20
-37.0996674849
 10
-20.9055138653
 20
-37.0946346413
 10
-20.9286787782
 20
-37.088618161
 10
-20.9505252621
 20
-37.0816558665
 10
-20.9712359402
 20
-37.0737099354
 10
-20.9908108125
 20
-37.0647803676
  0
LWPOLYLINE
  5
29D
100
AcDbEntity
  8
RACCORDO
100
AcDbPolyline
 62
253
  6
CONTINUOUS
 90
14
 70
0
 10
-9.1014004354
 20
-37.0483671047
 10
-9.3258764543
 20
-36.972025647
 10
-9.5561569136
 20
-36.9092748771
 10
-9.7918710114
 20
-36.8602214046
 10
-10.0323850782
 20
-36.8249734424
 10
-10.2764202918
 20
-36.8035903449
 10
-10.524476193
 20
-36.7959030257
 10
-10.7786834745
 20
-36.8020037407
 10
-11.0394002776
 20
-36.8223118779
 10
-11.3057008245
 20
-36.8571641564
 10
-11.5778973181
 20
-36.9070086377
 10
-11.8558662115
 20
-36.9722961251
 10
-12.1390226198
 20
-37.0533633609
 10
-12.4269620182
 20
-37.1505533279
  0
LWPOLYLINE
  5
29E
100
AcDbEntity
  8
RACCORDO
100
AcDbPolyline
 62
253
  6
CONTINUOUS
 90
3
 70
0
 10
-16.8801366016
 20
-33.1590691435
 10
-16.689516113
 20
-33.236545857
 10
-16.5188069791
 20
-33.3165948228
  0
LINE
  5
29F
100
AcDbEntity
  8
RACCORDO
100
AcDbLine
 62
253
  6
CONTINUOUS
 10
-8.8830286742
 20
-37.1381915767
 11
-9.1014004354
 21
-37.0483671047
  0
LWPOLYLINE
  5
2A0
100
AcDbEntity
  8
RACCORDO
100
AcDbPolyline
 62
253
  6
CONTINUOUS
 90
9
 70
0
 10
-6.2195807808
 20
-37.5158570427
 10
-6.2325573339
 20
-37.5103601499
 10
-6.2482393288
 20
-37.5060507314
 10
-6.2647035014
 20
-37.5038714465
 10
-6.2818205465
 20
-37.5038294792
 10
-6.2994206024
 20
-37.5059090635
 10
-6.3173530968
 20
-37.5100682853
 10
-6.3354920607
 20
-37.5162544425
 10
-6.353700442
 20
-37.5243997754
  0
LWPOLYLINE
  5
2A1
100
AcDbEntity
  8
RACCORDO
100
AcDbPolyline
 62
253
  6
CONTINUOUS
 90
15
 70
0
 10
-8.7454808629
 20
-37.5400443069
 10
-8.9599273552
 20
-37.4477642672
 10
-9.1802836809
 20
-37.3691303649
 10
-9.4066639518
 20
-37.3042458041
 10
-9.6389540561
 20
-37.2530073808
 10
-9.8757089975
 20
-37.2156551756
 10
-10.1159716913
 20
-37.1921340954
 10
-10.3606992222
 20
-37.1824992334
 10
-10.6113178471
 20
-37.1871559494
 10
-10.8684213138
 20
-37.2058477618
 10
-11.1314158746
 20
-37.2388311522
 10
-11.3999465432
 20
-37.2872809256
 10
-11.6738949909
 20
-37.3515886835
 10
-11.9533795464
 20
-37.4313628242
 10
-12.2384002098
 20
-37.5266033479
  0
LWPOLYLINE
  5
2A2
100
AcDbEntity
  8
RACCORDO
100
AcDbPolyline
 62
7
  6
CONTINUOUS
 90
8
 70
0
 10
-14.2805536688
 20
-33.4853705864
 10
-14.3073956077
 20
-33.4735527276
 10
-14.3356785111
 20
-33.464298175
 10
-14.3651013644
 20
-33.4578301673
 10
-14.3953856292
 20
-33.4543222904
 10
-14.4260871494
 20
-33.4539142681
 10
-14.4566654015
 20
-33.456645896
 10
-14.4868541082
 20
-33.4625006475
  0
LWPOLYLINE
  5
2A3
100
AcDbEntity
  8
RACCORDO
100
AcDbPolyline
 62
7
  6
CONTINUOUS
 90
16
 70
0
 10
-9.023342977
 20
-37.0643268206
 10
-9.2418442475
 20
-36.9632990117
 10
-9.4669326711
 20
-36.8754612509
 10
-9.6982683512
 20
-36.8010183459
 10
-9.9354428529
 20
-36.7401640123
 10
-10.1781515751
 20
-36.6930348388
 10
-10.426214434
 20
-36.6597427884
 10
-10.6793661943
 20
-36.6404217244
 10
-10.9371569876
 20
-36.6352019714
 10
-11.1991415676
 20
-36.6441727623
 10
-11.4650099348
 20
-36.6674012634
 10
-11.7343328998
 20
-36.7049278226
 10
-12.0064788337
 20
-36.7567187048
 10
-12.2809792241
 20
-36.8227144553
 10
-12.55753405
 20
-36.9028744695
 10
-12.8357566471
 20
-36.9971266316
  0
LWPOLYLINE
  5
2A4
100
AcDbEntity
  8
RACCORDO
100
AcDbPolyline
 62
7
  6
CONTINUOUS
 90
16
 70
0
 10
-10.1547138268
 20
-36.4986413956
 10
-10.3732150974
 20
-36.3976135867
 10
-10.598303521
 20
-36.309775826
 10
-10.8296392011
 20
-36.235332921
 10
-11.0668137028
 20
-36.1744785874
 10
-11.309522425
 20
-36.1273494139
 10
-11.5575852839
 20
-36.0940573635
 10
-11.8107370442
 20
-36.0747362994
 10
-12.0685278375
 20
-36.0695165465
 10
-12.3305124175
 20
-36.0784873374
 10
-12.5963807847
 20
-36.1017158385
 10
-12.8657037497
 20
-36.1392423977
 10
-13.1378496836
 20
-36.1910332799
 10
-13.412350074
 20
-36.2570290304
 10
-13.6889048999
 20
-36.3371890446
 10
-13.967127497
 20
-36.4314412067
  0
LWPOLYLINE
  5
2A5
100
AcDbEntity
  8
RACCORDO
100
AcDbPolyline
 62
7
  6
CONTINUOUS
 90
16
 70
0
 10
-15.5287253639
 20
-33.8116356271
 10
-15.7472266345
 20
-33.7106078182
 10
-15.972315058
 20
-33.6227700574
 10
-16.2036507381
 20
-33.5483271525
 10
-16.4408252398
 20
-33.4874728189
 10
-16.683533962
 20
-33.4403436454
 10
-16.9315968209
 20
-33.407051595
 10
-17.1847485812
 20
-33.3877305309
 10
-17.4425393745
 20
-33.382510778
 10
-17.7045239545
 20
-33.3914815689
 10
-17.9703923217
 20
-33.41471007
 10
-18.2397152867
 20
-33.4522366292
 10
-18.5118612206
 20
-33.5040275113
 10
-18.786361611
 20
-33.5700232619
 10
-19.0629164369
 20
-33.6501832761
 10
-19.341139034
 20
-33.7444354382
  0
LWPOLYLINE
  5
2A6
100
AcDbEntity
  8
RACCORDO
100
AcDbPolyline
 62
7
  6
CONTINUOUS
 90
16
 70
0
 10
-16.80151757
 20
-33.1752395241
 10
-17.0200188406
 20
-33.0742117152
 10
-17.2451072642
 20
-32.9863739544
 10
-17.4764429442
 20
-32.9119310494
 10
-17.7136174459
 20
-32.8510767158
 10
-17.9563261681
 20
-32.8039475423
 10
-18.204389027
 20
-32.7706554919
 10
-18.4575407873
 20
-32.7513344278
 10
-18.7153315807
 20
-32.7461146749
 10
-18.9773161607
 20
-32.7550854658
 10
-19.2431845279
 20
-32.7783139669
 10
-19.5125074929
 20
-32.8158405261
 10
-19.7846534268
 20
-32.8676314083
 10
-20.0591538172
 20
-32.9336271588
 10
-20.335708643
 20
-33.013787173
 10
-20.6139312401
 20
-33.1080393351
  0
LINE
  5
2A7
100
AcDbEntity
  8
RACCORDO
100
AcDbLine
 62
253
  6
CONTINUOUS
 10
-10.1841337261
 20
-36.4892370505
 11
-10.0134245922
 21
-36.5692860162
  0
LINE
  5
2A8
100
AcDbEntity
  8
RACCORDO
100
AcDbLine
 62
253
  6
CONTINUOUS
 10
-15.5581452631
 20
-33.802231282
 11
-15.3874361292
 21
-33.8822802477
  0
LINE
  5
2A9
100
AcDbEntity
  8
RACCORDO
100
AcDbLine
 62
253
  6
CONTINUOUS
 10
-8.7405002645
 20
-37.2057481768
 11
-8.8830286742
 21
-37.1381915767
  0
LWPOLYLINE
  5
2AA
100
AcDbEntity
  8
RACCORDO
100
AcDbPolyline
 62
253
  6
CONTINUOUS
 90
16
 70
0
 10
-9.023342977
 20
-37.0643268206
 10
-9.1585047855
 20
-37.0000836692
 10
-9.3752287917
 20
-36.9103412254
 10
-9.5980310917
 20
-36.8338904139
 10
-9.8267082095
 20
-36.7708234648
 10
-10.0608161571
 20
-36.7212846857
 10
-10.2994967588
 20
-36.6854185251
 10
-10.5409724871
 20
-36.6632874567
 10
-10.7862182815
 20
-36.6546021747
 10
-11.0386514979
 20
-36.6594708554
 10
-11.2988889532
 20
-36.6785063252
 10
-11.5658545106
 20
-36.7122305795
 10
-11.8406084934
 20
-36.7614185183
 10
-12.1233131923
 20
-36.8268851147
 10
-12.4131772285
 20
-36.9092392734
 10
-12.7098047306
 20
-37.0091319717
  0
LWPOLYLINE
  5
2AB
100
AcDbEntity
  8
RACCORDO
100
AcDbPolyline
 62
253
  6
CONTINUOUS
 90
16
 70
0
 10
-10.1547138268
 20
-36.4986413956
 10
-10.2898756354
 20
-36.4343982442
 10
-10.5065996416
 20
-36.3446558005
 10
-10.7294019416
 20
-36.268204989
 10
-10.9580790594
 20
-36.2051380398
 10
-11.192187007
 20
-36.1555992607
 10
-11.4308676087
 20
-36.1197331001
 10
-11.672343337
 20
-36.0976020318
 10
-11.9175891314
 20
-36.0889167498
 10
-12.1700223478
 20
-36.0937854304
 10
-12.4302598031
 20
-36.1128209003
 10
-12.6972253605
 20
-36.1465451545
 10
-12.9719793433
 20
-36.1957330933
 10
-13.2546840422
 20
-36.2611996897
 10
-13.5445480784
 20
-36.3435538485
 10
-13.8411755805
 20
-36.4434465467
  0
LWPOLYLINE
  5
2AC
100
AcDbEntity
  8
RACCORDO
100
AcDbPolyline
 62
253
  6
CONTINUOUS
 90
16
 70
0
 10
-15.5287253639
 20
-33.8116356271
 10
-15.6638871724
 20
-33.7473924757
 10
-15.8806111787
 20
-33.657650032
 10
-16.1034134786
 20
-33.5811992205
 10
-16.3320905964
 20
-33.5181322713
 10
-16.566198544
 20
-33.4685934922
 10
-16.8048791457
 20
-33.4327273316
 10
-17.046354874
 20
-33.4105962633
 10
-17.2916006685
 20
-33.4019109813
 10
-17.5440338849
 20
-33.4067796619
 10
-17.8042713401
 20
-33.4258151318
 10
-18.0712368976
 20
-33.459539386
 10
-18.3459908803
 20
-33.5087273248
 10
-18.6286955793
 20
-33.5741939212
 10
-18.9185596155
 20
-33.65654808
 10
-19.2151871175
 20
-33.7564407782
  0
LINE
  5
2AD
100
AcDbEntity
  8
RACCORDO
100
AcDbLine
 62
253
  6
CONTINUOUS
 10
-6.2195402115
 20
-37.5158773152
 11
-6.2195807808
 21
-37.5158570427
  0
LINE
  5
2AE
100
AcDbEntity
  8
RACCORDO
100
AcDbLine
 62
253
  6
CONTINUOUS
 10
-10.0134245922
 20
-36.5692860162
 11
-10.0132924706
 21
-36.5693520738
  0
LINE
  5
2AF
100
AcDbEntity
  8
RACCORDO
100
AcDbLine
 62
253
  6
CONTINUOUS
 10
-15.3874361292
 20
-33.8822802477
 11
-15.3873040076
 21
-33.8823463052
  0
LINE
  5
2B0
100
AcDbEntity
  8
RACCORDO
100
AcDbLine
 62
253
  6
CONTINUOUS
 10
-16.5188069791
 20
-33.3165948228
 11
-16.5186748575
 21
-33.3166608803
  0
LINE
  5
2B1
100
AcDbEntity
  8
ASSI
100
AcDbLine
 62
7
  6
CONTINUOUS
 10
-16.80151757
 20
-33.1752395241
 11
-16.5186748575
 21
-33.3166608803
  0
LINE
  5
2B2
100
AcDbEntity
  8
ASSI
100
AcDbLine
 62
7
  6
CONTINUOUS
 10
-15.5287253639
 20
-33.8116356271
 11
-15.3873040076
 21
-33.8823463052
  0
LINE
  5
2B3
100
AcDbEntity
  8
ASSI
100
AcDbLine
 62
7
  6
CONTINUOUS
 10
-10.1547138268
 20
-36.4986413956
 11
-10.0132924706
 21
-36.5693520738
  0
LINE
  5
2B4
100
AcDbEntity
  8
ASSI
100
AcDbLine
 62
7
  6
CONTINUOUS
 10
-9.023342977
 20
-37.0643268206
 11
-8.7405002645
 21
-37.2057481768
  0
LINE
  5
2B5
100
AcDbEntity
  8
RACCORDO
100
AcDbLine
 62
253
  6
CONTINUOUS
 10
-6.353700442
 20
-37.5243997754
 11
-14.4147177475
 21
-33.4938911226
  0
LINE
  5
2B6
100
AcDbEntity
  8
RACCORDO
100
AcDbLine
 62
7
  6
CONTINUOUS
 10
-6.2195363633
 20
-37.5158792392
 11
-14.2805536688
 21
-33.4853705864
  0
LWPOLYLINE
  5
2B7
100
AcDbEntity
  8
RACCORDO
100
AcDbPolyline
 62
253
  6
CONTINUOUS
 90
7
 70
0
 10
-15.3526780501
 20
-34.2354279719
 10
-15.1573063018
 20
-34.3369543212
 10
-14.9682008094
 20
-34.4504094217
 10
-14.7838638635
 20
-34.5774608923
 10
-14.6037962277
 20
-34.7186646059
 10
-14.4284971384
 20
-34.8734646896
 10
-14.2579665956
 20
-35.0418611434
  0
LWPOLYLINE
  5
2B8
100
AcDbEntity
  8
RACCORDO
100
AcDbPolyline
 62
7
  6
CONTINUOUS
 90
14
 70
0
 10
-6.2195807808
 20
-37.5158570427
 10
-6.2060261977
 20
-37.5230708085
 10
-6.1840939622
 20
-37.5367530769
 10
-6.1633924801
 20
-37.5522960349
 10
-6.1440512536
 20
-37.5696212417
 10
-6.1262239861
 20
-37.588619918
 10
-6.110067872
 20
-37.6091554876
 10
-6.0957131656
 20
-37.6310977455
 10
-6.0832874815
 20
-37.6542965394
 10
-6.0729113602
 20
-37.6785783701
 10
-6.0646875288
 20
-37.7037615388
 10
-6.0587001087
 20
-37.7296656388
 10
-6.0550219023
 20
-37.7560804017
 10
-6.0537004421
 20
-37.7842035536
  0
LWPOLYLINE
  5
2B9
100
AcDbEntity
  8
RACCORDO
100
AcDbPolyline
 62
253
  6
CONTINUOUS
 90
19
 70
0
 10
-6.353700442
 20
-37.5243997754
 10
-6.335211917
 20
-37.5346326843
 10
-6.3168641008
 20
-37.5467650075
 10
-6.2987966314
 20
-37.5607044107
 10
-6.2811470132
 20
-37.5763448065
 10
-6.2640495703
 20
-37.5935671621
 10
-6.2476344248
 20
-37.6122404051
 10
-6.2320265057
 20
-37.6322224207
 10
-6.2173445987
 20
-37.6533611337
 10
-6.203700442
 20
-37.6754956658
 10
-6.1911978758
 20
-37.6984575598
 10
-6.1799320524
 20
-37.7220720618
 10
-6.1699887113
 20
-37.7461594513
 10
-6.1614435273
 20
-37.7705364086
 10
-6.1543615346
 20
-37.7950174103
 10
-6.1487966314
 20
-37.8194161414
 10
-6.1447911699
 20
-37.8435469126
 10
-6.142375634
 20
-37.8672260743
 10
-6.1415684076
 20
-37.8902734137
  0
LWPOLYLINE
  5
2BA
100
AcDbEntity
  8
RACCORDO
100
AcDbPolyline
 62
7
  6
CONTINUOUS
 90
5
 70
0
 10
-16.0389356261
 20
-33.6013318227
 10
-16.0717788566
 20
-33.578070212
 10
-16.217281886
 20
-33.4842212716
 10
-16.3662918027
 20
-33.3970657811
 10
-16.5186748575
 20
-33.3166608803
  0
LWPOLYLINE
  5
2BB
100
AcDbEntity
  8
RACCORDO
100
AcDbPolyline
 62
7
  6
CONTINUOUS
 90
5
 70
0
 10
-9.5335532392
 20
-36.8540230161
 10
-9.5663964697
 20
-36.8307614055
 10
-9.711899499
 20
-36.7369124651
 10
-9.8609094158
 20
-36.6497569745
 10
-10.0132924706
 20
-36.5693520738
  0
LWPOLYLINE
  5
2BC
100
AcDbEntity
  8
RACCORDO
100
AcDbPolyline
 62
7
  6
CONTINUOUS
 90
10
 70
0
 10
-13.0171967119
 20
28.35062149
 10
-12.9863045197
 20
28.3693301215
 10
-12.956745917
 20
28.3906047461
 10
-12.928537716
 20
28.4141410394
 10
-12.9015891857
 20
28.4396148112
 10
-12.8759225045
 20
28.4667358463
 10
-12.8517524076
 20
28.4953297198
 10
-12.8291672583
 20
28.5252245698
 10
-12.8080545748
 20
28.5561760068
 10
-12.7883721508
 20
28.5879722598
  0
LINE
  5
2BD
100
AcDbEntity
  8
RACCORDO
100
AcDbLine
 62
7
  6
CONTINUOUS
 10
-21.5638727956
 20
24.07697626
 11
-21.5564962375
 21
24.0809717272
  0
LINE
  5
2BE
100
AcDbEntity
  8
RACCORDO
100
AcDbLine
 62
253
  6
CONTINUOUS
 10
-6.216993782
 20
31.7504239542
 11
-6.2195377115
 21
31.7491113172
  0
LWPOLYLINE
  5
2BF
100
AcDbEntity
  8
RACCORDO
100
AcDbPolyline
 62
7
  6
CONTINUOUS
 90
12
 70
0
 10
-9.189370987
 20
30.2642275821
 10
-9.187168668
 20
30.265356009
 10
-9.1735489229
 20
30.2738041773
 10
-9.1610907847
 20
30.2842558212
 10
-9.1497684523
 20
30.2966664402
 10
-9.1398371922
 20
30.3107562321
 10
-9.1313286042
 20
30.3265633411
 10
-9.1242110885
 20
30.3440496229
 10
-9.1186451124
 20
30.3628208423
 10
-9.1146841649
 20
30.3827455876
 10
-9.112274757
 20
30.4039552704
 10
-9.1114168886
 20
30.4264498909
  0
LWPOLYLINE
  5
2C0
100
AcDbEntity
  8
RACCORDO
100
AcDbPolyline
 62
7
  6
CONTINUOUS
 90
12
 70
0
 10
-7.0680506435
 20
31.3248877539
 10
-7.0658483245
 20
31.3260161808
 10
-7.0522285794
 20
31.3344643491
 10
-7.0397704412
 20
31.344915993
 10
-7.0284481088
 20
31.357326612
 10
-7.0185168487
 20
31.3714164039
 10
-7.0100082607
 20
31.3872235129
 10
-7.002890745
 20
31.4047097947
 10
-6.9973247688
 20
31.4234810141
 10
-6.9933638213
 20
31.4434057594
 10
-6.9909544134
 20
31.4646154422
 10
-6.990096545
 20
31.4871100626
  0
LINE
  5
2C1
100
AcDbEntity
  8
0
100
AcDbLine
 62
7
  6
CONTINUOUS
 10
-25.445583534
 20
25.9593569217
 11
-25.0920301434
 21
26.136133617
  0
LINE
  5
2C2
100
AcDbEntity
  8
RACCORDO
100
AcDbLine
 62
7
  6
CONTINUOUS
 10
-6.053700442
 20
35.6456714474
 11
-1.2344335559
 21
38.0553048904
  0
LINE
  5
2C3
100
AcDbEntity
  8
0
100
AcDbLine
 62
7
  6
CONTINUOUS
 10
-21.5564962375
 20
27.8253250501
 11
-20.8493894563
 21
28.1788784406
  0
LINE
  5
2C4
100
AcDbEntity
  8
0
100
AcDbLine
 62
7
  6
CONTINUOUS
 10
-24.5263447185
 20
25.4997375139
 11
-24.1727913279
 21
25.6765142092
  0
LINE
  5
2C5
100
AcDbEntity
  8
0
100
AcDbLine
 62
7
  6
CONTINUOUS
 10
-6.990096545
 20
33.392365951
 11
-8.0507567168
 21
32.8620358651
  0
LINE
  5
2C6
100
AcDbEntity
  8
0
100
AcDbLine
 62
7
  6
CONTINUOUS
 10
-9.1114168886
 20
32.3317057792
 11
-10.1720770604
 21
31.8013756933
  0
LINE
  5
2C7
100
AcDbEntity
  8
0
100
AcDbLine
 62
7
  6
CONTINUOUS
 10
-23.6071059029
 20
25.0401181061
 11
-23.2535525123
 21
25.2168948014
  0
LINE
  5
2C8
100
AcDbEntity
  8
0
100
AcDbLine
 62
7
  6
CONTINUOUS
 10
-22.6878670874
 20
24.5804986983
 11
-22.3343136968
 21
24.7572753936
  0
LINE
  5
2C9
100
AcDbEntity
  8
RACCORDO
100
AcDbLine
 62
253
  6
CONTINUOUS
 10
-12.7883721508
 20
28.5879722598
 11
-10.1720770604
 21
29.896119805
  0
LINE
  5
2CA
100
AcDbEntity
  8
RACCORDO
100
AcDbLine
 62
253
  6
CONTINUOUS
 10
-9.1114168886
 20
30.4264498909
 11
-8.0507567168
 21
30.9567799767
  0
LINE
  5
2CB
100
AcDbEntity
  8
RACCORDO
100
AcDbLine
 62
253
  6
CONTINUOUS
 10
-6.990096545
 20
31.4871100626
 11
-6.1415684076
 21
31.9113741313
  0
LINE
  5
2CC
100
AcDbEntity
  8
RACCORDO
100
AcDbLine
 62
7
  6
CONTINUOUS
 10
-21.5637535151
 20
24.0770034154
 11
-10.2500450161
 21
29.7338576648
  0
LINE
  5
2CD
100
AcDbEntity
  8
RACCORDO
100
AcDbLine
 62
7
  6
CONTINUOUS
 10
-9.1893848443
 20
30.2641877507
 11
-8.1287246725
 21
30.7945178366
  0
LINE
  5
2CE
100
AcDbEntity
  8
RACCORDO
100
AcDbLine
 62
7
  6
CONTINUOUS
 10
-7.0680645007
 20
31.3248479225
 11
-6.2195363633
 21
31.7491119912
  0
LWPOLYLINE
  5
2CF
100
AcDbEntity
  8
RACCORDO
100
AcDbPolyline
 62
253
  6
CONTINUOUS
 90
8
 70
0
 10
-4.8334208624
 20
-33.3829095793
 10
-4.855594698
 20
-33.3732459149
 10
-4.8775255924
 20
-33.3665346342
 10
-4.8989732661
 20
-33.3628492676
 10
-4.919702734
 20
-33.3622301925
 10
-4.9394868796
 20
-33.3646841919
 10
-4.9581089437
 20
-33.370184379
 10
-4.9675834607
 20
-33.374388303
  0
LINE
  5
2D0
100
AcDbEntity
  8
RACCORDO
100
AcDbLine
 62
253
  6
CONTINUOUS
 10
-4.8334120768
 20
-33.3829051865
 11
-1.3685891824
 21
-35.1153169671
  0
LWPOLYLINE
  5
2D1
100
AcDbEntity
  8
RACCORDO
100
AcDbPolyline
 62
7
  6
CONTINUOUS
 90
9
 70
0
 10
-7.5609001603
 20
-38.1006778921
 10
-7.6930905555
 20
-37.9630395661
 10
-7.8299071987
 20
-37.832622653
 10
-7.9711725764
 20
-37.7095426668
 10
-8.1167678279
 20
-37.5938506757
 10
-8.2666411356
 20
-37.4855509965
 10
-8.4206758931
 20
-37.3847053817
 10
-8.5786824928
 20
-37.2914150453
 10
-8.7405002645
 20
-37.2057481768
  0
LWPOLYLINE
  5
2D2
100
AcDbEntity
  8
RACCORDO
100
AcDbPolyline
 62
7
  6
CONTINUOUS
 90
10
 70
0
 10
-14.1518009807
 20
-34.8392428418
 10
-14.2695263144
 20
-34.7114021273
 10
-14.395850886
 20
-34.5848911999
 10
-14.5262251113
 20
-34.4648011569
 10
-14.6604981099
 20
-34.3512280758
 10
-14.7985718161
 20
-34.2442128147
 10
-14.9404080067
 20
-34.143755637
 10
-15.0859110361
 20
-34.0499066966
 10
-15.2349209528
 20
-33.962751206
 10
-15.3873040076
 20
-33.8823463052
  0
LINE
  5
2D3
100
AcDbEntity
  8
RACCORDO
100
AcDbLine
 62
7
  6
CONTINUOUS
 10
-7.4975980968
 20
-38.1710237286
 11
-7.5609001603
 21
-38.1006778921
  0
LWPOLYLINE
  5
2D4
100
AcDbEntity
  8
RACCORDO
100
AcDbPolyline
 62
253
  6
CONTINUOUS
 90
8
 70
0
 10
-7.4507294149
 20
-38.5448539173
 10
-7.6122458574
 20
-38.3640827682
 10
-7.7816435529
 20
-38.1956578703
 10
-7.9589225015
 20
-38.0395792237
 10
-8.1443722892
 20
-37.8955967638
 10
-8.3377033299
 20
-37.7639605552
 10
-8.5380468653
 20
-37.6454207916
 10
-8.7454808629
 20
-37.5400443069
  0
LWPOLYLINE
  5
2D5
100
AcDbEntity
  8
RACCORDO
100
AcDbPolyline
 62
7
  6
CONTINUOUS
 90
16
 70
0
 10
-14.1519104921
 20
-34.8392668702
 10
-14.1493878699
 20
-34.8422323588
 10
-14.1404990849
 20
-34.8546289246
 10
-14.133981228
 20
-34.8675773373
 10
-14.1299496288
 20
-34.8810314288
 10
-14.1282889576
 20
-34.8950373672
 10
-14.1292047326
 20
-34.9093814654
 10
-14.1327074362
 20
-34.9240820915
 10
-14.1387865859
 20
-34.9391208773
 10
-14.1476162524
 20
-34.9542290324
 10
-14.1592817426
 20
-34.9694627374
 10
-14.1736977496
 20
-34.9847658117
 10
-14.1907824234
 20
-34.9997009227
 10
-14.2105084807
 20
-35.0141222928
 10
-14.2329032047
 20
-35.0281756998
 10
-14.2579665956
 20
-35.0418611434
  0
LINE
  5
2D6
100
AcDbEntity
  8
RACCORDO
100
AcDbLine
 62
7
  6
CONTINUOUS
 10
-29.9003562555
 20
31.9972550591
 11
-29.9003562555
 21
28.2529017362
  0
LINE
  5
2D7
100
AcDbEntity
  8
RACCORDO
100
AcDbLine
 62
7
  6
CONTINUOUS
 10
-29.9003562555
 20
-42.4809296664
 11
-29.9003562555
 21
-46.2252829892
  0
LINE
  5
2D8
100
AcDbEntity
  8
0
100
AcDbLine
 62
7
  6
CONTINUOUS
 10
-29.1932494743
 20
33.6498465553
 11
-29.1932494743
 21
32.3508084496
  0
LINE
  5
2D9
100
AcDbEntity
  8
0
100
AcDbLine
 62
7
  6
CONTINUOUS
 10
-29.1932494743
 20
-42.1273762758
 11
-29.1932494743
 21
-40.8283381701
  0
LINE
  5
2DA
100
AcDbEntity
  8
0
100
AcDbLine
 62
7
  6
CONTINUOUS
 10
-29.1225387962
 20
-46.6803501727
 11
-29.1225387962
 21
-44.9482993651
  0
LINE
  5
2DB
100
AcDbEntity
  8
0
100
AcDbLine
 62
7
  6
CONTINUOUS
 10
-29.1225387962
 20
27.7978345527
 11
-29.1225387962
 21
29.5298853603
  0
LINE
  5
2DC
100
AcDbEntity
  8
0
100
AcDbLine
 62
7
  6
CONTINUOUS
 10
-28.7689854056
 20
-46.857126868
 11
-28.7689854056
 21
-45.1250760604
  0
LINE
  5
2DD
100
AcDbEntity
  8
0
100
AcDbLine
 62
7
  6
CONTINUOUS
 10
-28.7689854056
 20
27.6210578575
 11
-28.7689854056
 21
29.353108665
  0
LINE
  5
2DE
100
AcDbEntity
  8
0
100
AcDbLine
 62
7
  6
CONTINUOUS
 10
-28.5568533712
 20
33.2164730471
 11
-28.5568533712
 21
30.6183968357
  0
LINE
  5
2DF
100
AcDbEntity
  8
0
100
AcDbLine
 62
7
  6
CONTINUOUS
 10
-28.5568533712
 20
-41.2617116784
 11
-28.5568533712
 21
-43.8597878897
  0
LINE
  5
2E0
100
AcDbEntity
  8
0
100
AcDbLine
 62
7
  6
CONTINUOUS
 10
-28.2032999806
 20
-47.1399695805
 11
-28.2032999806
 21
-45.4079187729
  0
LINE
  5
2E1
100
AcDbEntity
  8
0
100
AcDbLine
 62
7
  6
CONTINUOUS
 10
-28.2032999806
 20
27.338215145
 11
-28.2032999806
 21
29.0702659525
  0
LINE
  5
2E2
100
AcDbEntity
  8
0
100
AcDbLine
 62
7
  6
CONTINUOUS
 10
-27.84974659
 20
-47.3167462758
 11
-27.84974659
 21
-45.5846954682
  0
LINE
  5
2E3
100
AcDbEntity
  8
0
100
AcDbLine
 62
7
  6
CONTINUOUS
 10
-27.84974659
 20
27.1614384497
 11
-27.84974659
 21
28.8934892572
  0
LINE
  5
2E4
100
AcDbEntity
  8
0
100
AcDbLine
 62
7
  6
CONTINUOUS
 10
-27.2840611651
 20
-47.5995889883
 11
-27.2840611651
 21
-45.8675381807
  0
LINE
  5
2E5
100
AcDbEntity
  8
0
100
AcDbLine
 62
7
  6
CONTINUOUS
 10
-27.2840611651
 20
26.8785957372
 11
-27.2840611651
 21
28.6106465448
  0
LINE
  5
2E6
100
AcDbEntity
  8
0
100
AcDbLine
 62
7
  6
CONTINUOUS
 10
-26.9305077745
 20
-47.7763656836
 11
-26.9305077745
 21
-46.044314876
  0
LINE
  5
2E7
100
AcDbEntity
  8
0
100
AcDbLine
 62
7
  6
CONTINUOUS
 10
-26.9305077745
 20
26.7018190419
 11
-26.9305077745
 21
28.4338698495
  0
LWPOLYLINE
  5
2E8
100
AcDbEntity
  8
RACCORDO
100
AcDbPolyline
 62
7
  6
CONTINUOUS
 90
16
 70
0
 10
-7.4975843939
 20
-38.1710192
 10
-7.4858916052
 20
-38.18543115
 10
-7.47224546
 20
-38.2057561258
 10
-7.4602133036
 20
-38.2277470293
 10
-7.4499142069
 20
-38.2512066052
 10
-7.4414355313
 20
-38.2759317117
 10
-7.4346680639
 20
-38.301650485
 10
-7.4296846943
 20
-38.3281681589
 10
-7.426538957
 20
-38.3552940042
 10
-7.4250780925
 20
-38.3827717093
 10
-7.4253343076
 20
-38.4104212632
 10
-7.4273302544
 20
-38.4380734941
 10
-7.4308884899
 20
-38.4655000468
 10
-7.435950003
 20
-38.4925239932
 10
-7.4425696563
 20
-38.5190208226
 10
-7.4507294149
 20
-38.5448539173
  0
LINE
  5
2E9
100
AcDbEntity
  8
0
100
AcDbLine
 62
7
  6
CONTINUOUS
 10
-18.5544643573
 20
-40.3820454939
 11
-18.7123325659
 21
-39.6897803552
  0
LWPOLYLINE
  5
2EA
100
AcDbEntity
  8
RACCORDO
100
AcDbPolyline
 62
253
  6
CONTINUOUS
 90
10
 70
0
 10
-21.3615214906
 20
-34.2674787245
 10
-21.3603799001
 20
-34.2805520857
 10
-21.3569638166
 20
-34.293525951
 10
-21.3512992386
 20
-34.3063015811
 10
-21.343429277
 20
-34.3187817458
 10
-21.3334138268
 20
-34.3308714636
 10
-21.3213291118
 20
-34.3424787244
 10
-21.307267104
 20
-34.3535151901
 10
-21.2913348236
 20
-34.3638968663
 10
-21.273653525
 20
-34.3735447424
  0
LINE
  5
2EB
100
AcDbEntity
  8
0
100
AcDbLine
 62
7
  6
CONTINUOUS
 10
-26.3648223495
 20
-48.059208396
 11
-26.3648223495
 21
-46.3271575885
  0
LINE
  5
2EC
100
AcDbEntity
  8
0
100
AcDbLine
 62
7
  6
CONTINUOUS
 10
-26.3648223495
 20
26.4189763294
 11
-26.3648223495
 21
28.151027137
  0
LINE
  5
2ED
100
AcDbEntity
  8
0
100
AcDbLine
 62
7
  6
CONTINUOUS
 10
-26.011268959
 20
-48.2359850913
 11
-26.011268959
 21
-46.5039342838
  0
LINE
  5
2EE
100
AcDbEntity
  8
0
100
AcDbLine
 62
7
  6
CONTINUOUS
 10
-26.011268959
 20
26.2421996341
 11
-26.011268959
 21
27.9742504417
  0
LINE
  5
2EF
100
AcDbEntity
  8
0
100
AcDbLine
 62
7
  6
CONTINUOUS
 10
-25.445583534
 20
-48.5188278038
 11
-25.445583534
 21
-46.7867769962
  0
LINE
  5
2F0
100
AcDbEntity
  8
0
100
AcDbLine
 62
7
  6
CONTINUOUS
 10
-25.445583534
 20
25.9593569217
 11
-25.445583534
 21
27.6914077292
  0
LINE
  5
2F1
100
AcDbEntity
  8
0
100
AcDbLine
 62
7
  6
CONTINUOUS
 10
-25.0920301434
 20
-48.6956044991
 11
-25.0920301434
 21
-46.9635536915
  0
LINE
  5
2F2
100
AcDbEntity
  8
0
100
AcDbLine
 62
7
  6
CONTINUOUS
 10
-25.0920301434
 20
25.7825802264
 11
-25.0920301434
 21
27.5146310339
  0
LINE
  5
2F3
100
AcDbEntity
  8
0
100
AcDbLine
 62
7
  6
CONTINUOUS
 10
-24.5263447185
 20
-48.9784472116
 11
-24.5263447185
 21
-47.246396404
  0
LINE
  5
2F4
100
AcDbEntity
  8
0
100
AcDbLine
 62
7
  6
CONTINUOUS
 10
-24.5263447185
 20
25.4997375139
 11
-24.5263447185
 21
27.2317883215
  0
LINE
  5
2F5
100
AcDbEntity
  8
0
100
AcDbLine
 62
7
  6
CONTINUOUS
 10
-24.3142126841
 20
31.0951527035
 11
-24.3142126841
 21
28.4970764922
  0
LINE
  5
2F6
100
AcDbEntity
  8
0
100
AcDbLine
 62
7
  6
CONTINUOUS
 10
-24.3142126841
 20
-43.3830320219
 11
-24.3142126841
 21
-45.9811082333
  0
LINE
  5
2F7
100
AcDbEntity
  8
0
100
AcDbLine
 62
7
  6
CONTINUOUS
 10
-24.1727913279
 20
-49.1552239069
 11
-24.1727913279
 21
-47.4231730993
  0
LINE
  5
2F8
100
AcDbEntity
  8
0
100
AcDbLine
 62
7
  6
CONTINUOUS
 10
-24.1727913279
 20
25.3229608186
 11
-24.1727913279
 21
27.0550116262
  0
LINE
  5
2F9
100
AcDbEntity
  8
0
100
AcDbLine
 62
7
  6
CONTINUOUS
 10
-23.6071059029
 20
-49.4380666193
 11
-23.6071059029
 21
-47.7060158118
  0
LINE
  5
2FA
100
AcDbEntity
  8
0
100
AcDbLine
 62
7
  6
CONTINUOUS
 10
-23.6071059029
 20
25.0401181061
 11
-23.6071059029
 21
26.7721689137
  0
LINE
  5
2FB
100
AcDbEntity
  8
0
100
AcDbLine
 62
7
  6
CONTINUOUS
 10
-23.2535525123
 20
-49.6148433146
 11
-23.2535525123
 21
-47.8827925071
  0
LINE
  5
2FC
100
AcDbEntity
  8
0
100
AcDbLine
 62
7
  6
CONTINUOUS
 10
-23.2535525123
 20
24.8633414108
 11
-23.2535525123
 21
26.5953922184
  0
LWPOLYLINE
  5
2FD
100
AcDbEntity
  8
RACCORDO
100
AcDbPolyline
 62
7
  6
CONTINUOUS
 90
6
 70
0
 10
-6.1236358051
 20
31.8249037565
 10
-6.1414350953
 20
31.8054415103
 10
-6.1608511449
 20
31.7876377399
 10
-6.1817336975
 20
31.7716202174
 10
-6.2038951465
 20
31.7575202119
 10
-6.21957126
 20
31.7490945504
  0
LINE
  5
2FE
100
AcDbEntity
  8
0
100
AcDbLine
 62
7
  6
CONTINUOUS
 10
-15.4291373734
 20
-36.5658070616
 11
-15.5870055819
 21
-35.8735419229
  0
LINE
  5
2FF
100
AcDbEntity
  8
0
100
AcDbLine
 62
7
  6
CONTINUOUS
 10
-22.8999991217
 20
-45.2740014521
 11
-22.8999991217
 21
-43.9749633464
  0
LINE
  5
300
100
AcDbEntity
  8
0
100
AcDbLine
 62
7
  6
CONTINUOUS
 10
-22.8999991217
 20
29.2041832734
 11
-22.8999991217
 21
30.503221379
  0
LINE
  5
301
100
AcDbEntity
  8
0
100
AcDbLine
 62
7
  6
CONTINUOUS
 10
-22.6878670874
 20
-49.8976860271
 11
-22.6878670874
 21
-48.1656352195
  0
LINE
  5
302
100
AcDbEntity
  8
0
100
AcDbLine
 62
7
  6
CONTINUOUS
 10
-22.6878670874
 20
24.5804986983
 11
-22.6878670874
 21
26.3125495059
  0
LINE
  5
303
100
AcDbEntity
  8
0
100
AcDbLine
 62
7
  6
CONTINUOUS
 10
-22.3343136968
 20
-50.0744627224
 11
-22.3343136968
 21
-48.3424119148
  0
LINE
  5
304
100
AcDbEntity
  8
0
100
AcDbLine
 62
7
  6
CONTINUOUS
 10
-22.3343136968
 20
24.4037220031
 11
-22.3343136968
 21
26.1357728106
  0
LINE
  5
305
100
AcDbEntity
  8
0
100
AcDbLine
 62
7
  6
CONTINUOUS
 10
-22.1928923405
 20
-43.6214099558
 11
-22.1928923405
 21
-43.0935710931
  0
LINE
  5
306
100
AcDbEntity
  8
0
100
AcDbLine
 62
7
  6
CONTINUOUS
 10
-22.1928923405
 20
30.8567747696
 11
-22.1928923405
 21
31.3846136323
  0
LINE
  5
307
100
AcDbEntity
  8
RACCORDO
100
AcDbLine
 62
7
  6
CONTINUOUS
 10
-21.5564962375
 20
27.8253250501
 11
-21.5564962375
 21
24.0809717272
  0
LINE
  5
308
100
AcDbEntity
  8
RACCORDO
100
AcDbLine
 62
7
  6
CONTINUOUS
 10
-21.5564962375
 20
-46.6528596754
 11
-21.5564962375
 21
-50.3972129982
  0
LINE
  5
309
100
AcDbEntity
  8
RACCORDO
100
AcDbLine
 62
7
  6
CONTINUOUS
 10
-21.3615214906
 20
-36.9122417979
 11
-21.3615214906
 21
-34.2674787245
  0
LINE
  5
30A
100
AcDbEntity
  8
RACCORDO
100
AcDbLine
 62
7
  6
CONTINUOUS
 10
-21.3615214906
 20
37.5659429275
 11
-21.3615214906
 21
40.210706001
  0
LINE
  5
30B
100
AcDbEntity
  8
RACCORDO
100
AcDbLine
 62
253
  6
CONTINUOUS
 10
-21.273653525
 20
-37.0099615517
 11
-21.273653525
 21
-34.3735447416
  0
LINE
  5
30C
100
AcDbEntity
  8
RACCORDO
100
AcDbLine
 62
253
  6
CONTINUOUS
 10
-21.273653525
 20
37.4682231737
 11
-21.273653525
 21
40.1046399838
  0
LINE
  5
30D
100
AcDbEntity
  8
RACCORDO
100
AcDbLine
 62
253
  6
CONTINUOUS
 10
-20.9908108125
 20
-37.0647803676
 11
-20.9908108125
 21
-34.5149660979
  0
LINE
  5
30E
100
AcDbEntity
  8
RACCORDO
100
AcDbLine
 62
253
  6
CONTINUOUS
 10
-20.9908108125
 20
37.4134043579
 11
-20.9908108125
 21
39.9632186276
  0
LINE
  5
30F
100
AcDbEntity
  8
0
100
AcDbLine
 62
7
  6
CONTINUOUS
 10
-20.8493894563
 20
29.4779165463
 11
-20.8493894563
 21
28.1788784406
  0
LINE
  5
310
100
AcDbEntity
  8
0
100
AcDbLine
 62
7
  6
CONTINUOUS
 10
-20.8493894563
 20
-46.2993062848
 11
-20.8493894563
 21
-45.0002681791
  0
LINE
  5
311
100
AcDbEntity
  8
RACCORDO
100
AcDbLine
 62
253
  6
CONTINUOUS
 10
-20.5665467438
 20
-36.9347837549
 11
-20.5665467438
 21
-34.5149660979
  0
LINE
  5
312
100
AcDbEntity
  8
RACCORDO
100
AcDbLine
 62
253
  6
CONTINUOUS
 10
-20.5665467438
 20
37.5434009706
 11
-20.5665467438
 21
39.9632186276
  0
LINE
  5
313
100
AcDbEntity
  8
RACCORDO
100
AcDbLine
 62
7
  6
CONTINUOUS
 10
-20.0887292845
 20
39.5743098979
 11
-20.0887292845
 21
37.9290270116
  0
LINE
  5
314
100
AcDbEntity
  8
RACCORDO
100
AcDbLine
 62
7
  6
CONTINUOUS
 10
-20.0887292845
 20
-34.9038748275
 11
-20.0887292845
 21
-36.5491577138
  0
LINE
  5
315
100
AcDbEntity
  8
RACCORDO
100
AcDbLine
 62
253
  6
CONTINUOUS
 10
-20.0008613189
 20
39.4682438807
 11
-20.0008613189
 21
37.9999414897
  0
LINE
  5
316
100
AcDbEntity
  8
RACCORDO
100
AcDbLine
 62
253
  6
CONTINUOUS
 10
-20.0008613189
 20
-35.0099408447
 11
-20.0008613189
 21
-36.4782432358
  0
LINE
  5
317
100
AcDbEntity
  8
RACCORDO
100
AcDbLine
 62
253
  6
CONTINUOUS
 10
-19.8594399626
 20
-36.364108106
 11
-19.8594399626
 21
-35.0806515228
  0
LINE
  5
318
100
AcDbEntity
  8
RACCORDO
100
AcDbLine
 62
253
  6
CONTINUOUS
 10
-19.8594399626
 20
38.1140766195
 11
-19.8594399626
 21
39.3975332026
  0
LINE
  5
319
100
AcDbEntity
  8
RACCORDO
100
AcDbLine
 62
253
  6
CONTINUOUS
 10
-19.4351758939
 20
-36.0217027167
 11
-19.4351758939
 21
-35.0806515228
  0
LINE
  5
31A
100
AcDbEntity
  8
RACCORDO
100
AcDbLine
 62
253
  6
CONTINUOUS
 10
-19.4351758939
 20
38.4564820088
 11
-19.4351758939
 21
39.3975332026
  0
LWPOLYLINE
  5
31B
100
AcDbEntity
  8
RACCORDO
100
AcDbPolyline
 62
253
  6
CONTINUOUS
 90
22
 70
0
 10
-21.273653525
 20
40.1046399838
 10
-21.2719174143
 20
40.166157242
 10
-21.266717607
 20
40.2291085359
 10
-21.258079636
 20
40.2931847457
 10
-21.2460459174
 20
40.358071227
 10
-21.2306755417
 20
40.4234493579
 10
-21.2120439835
 20
40.4889981033
 10
-21.1902427303
 20
40.5543955921
 10
-21.1653788367
 20
40.6193206884
 10
-21.1375743995
 20
40.6834545701
 10
-21.1069659544
 20
40.7464823055
 10
-21.0737038017
 20
40.8080944043
 10
-21.0379512717
 20
40.867988327
 10
-20.9998839251
 20
40.9258699678
 10
-20.9596886909
 20
40.9814550996
 10
-20.9175629453
 20
41.0344707746
 10
-20.8737135435
 20
41.0846566628
 10
-20.8283558078
 20
41.1317663256
 10
-20.7817124697
 20
41.175568429
 10
-20.7340125713
 20
41.2158478833
 10
-20.68549034
 20
41.2524068998
 10
-20.6363840421
 20
41.2850659573
  0
LWPOLYLINE
  5
31C
100
AcDbEntity
  8
RACCORDO
100
AcDbPolyline
 62
253
  6
CONTINUOUS
 90
25
 70
0
 10
-20.9908108125
 20
39.9632186276
 10
-20.9890747017
 20
40.0247358889
 10
-20.9838748939
 20
40.0876871857
 10
-20.9752369221
 20
40.1517633981
 10
-20.9632032026
 20
40.2166498817
 10
-20.9478328259
 20
40.2820280144
 10
-20.9292012668
 20
40.3475767606
 10
-20.9074000133
 20
40.4129742484
 10
-20.8825361199
 20
40.4778993427
 10
-20.8547316827
 20
40.5420332234
 10
-20.8241232365
 20
40.6050609599
 10
-20.7908610822
 20
40.6666730605
 10
-20.7551085509
 20
40.7265669841
 10
-20.7170412044
 20
40.7844486236
 10
-20.6768459709
 20
40.8400337533
 10
-20.6347202253
 20
40.8930494274
 10
-20.5908708217
 20
40.9432353167
 10
-20.5455130832
 20
40.9903449814
 10
-20.4988697434
 20
41.0341470851
 10
-20.4511698453
 20
41.0744265378
 10
-20.4026476157
 20
41.1109855518
 10
-20.3535413202
 20
41.143644607
 10
-20.304092093
 20
41.1722433329
 10
-20.2545427533
 20
41.1966412968
 10
-20.2051366112
 20
41.2167186941
  0
LWPOLYLINE
  5
31D
100
AcDbEntity
  8
RACCORDO
100
AcDbPolyline
 62
253
  6
CONTINUOUS
 90
25
 70
0
 10
-19.8594399626
 20
39.3975332026
 10
-19.8577038518
 20
39.459050464
 10
-19.852504044
 20
39.5220017608
 10
-19.8438660722
 20
39.5860779731
 10
-19.8318323527
 20
39.6509644568
 10
-19.816461976
 20
39.7163425895
 10
-19.7978304169
 20
39.7818913357
 10
-19.7760291634
 20
39.8472888235
 10
-19.75116527
 20
39.9122139177
 10
-19.7233608328
 20
39.9763477984
 10
-19.6927523866
 20
40.039375535
 10
-19.6594902323
 20
40.1009876356
 10
-19.623737701
 20
40.1608815592
 10
-19.5856703545
 20
40.2187631986
 10
-19.545475121
 20
40.2743483284
 10
-19.5033493754
 20
40.3273640024
 10
-19.4594999718
 20
40.3775498918
 10
-19.4141422333
 20
40.4246595564
 10
-19.3674988935
 20
40.4684616601
 10
-19.3197989954
 20
40.5087411129
 10
-19.2712767658
 20
40.5453001269
 10
-19.2221704703
 20
40.577959182
 10
-19.1727212431
 20
40.6065579079
 10
-19.1231719034
 20
40.6309558718
 10
-19.0737657613
 20
40.6510332691
  0
LWPOLYLINE
  5
31E
100
AcDbEntity
  8
RACCORDO
100
AcDbPolyline
 62
253
  6
CONTINUOUS
 90
22
 70
0
 10
-21.273653525
 20
-34.3735447416
 10
-21.2719174143
 20
-34.3120274835
 10
-21.266717607
 20
-34.2490761896
 10
-21.258079636
 20
-34.1849999798
 10
-21.2460459174
 20
-34.1201134984
 10
-21.2306755417
 20
-34.0547353676
 10
-21.2120439835
 20
-33.9891866222
 10
-21.1902427303
 20
-33.9237891333
 10
-21.1653788367
 20
-33.8588640371
 10
-21.1375743995
 20
-33.7947301554
 10
-21.1069659544
 20
-33.7317024199
 10
-21.0737038017
 20
-33.6700903212
 10
-21.0379512717
 20
-33.6101963984
 10
-20.9998839251
 20
-33.5523147577
 10
-20.9596886909
 20
-33.4967296259
 10
-20.9175629453
 20
-33.4437139508
 10
-20.8737135435
 20
-33.3935280627
 10
-20.8283558078
 20
-33.3464183998
 10
-20.7817124697
 20
-33.3026162965
 10
-20.7340125713
 20
-33.2623368421
 10
-20.68549034
 20
-33.2257778257
 10
-20.6363840421
 20
-33.1931187681
  0
LWPOLYLINE
  5
31F
100
AcDbEntity
  8
RACCORDO
100
AcDbPolyline
 62
253
  6
CONTINUOUS
 90
25
 70
0
 10
-20.9908108125
 20
-34.5149660979
 10
-20.9890747017
 20
-34.4534488365
 10
-20.9838748939
 20
-34.3904975397
 10
-20.9752369221
 20
-34.3264213274
 10
-20.9632032026
 20
-34.2615348438
 10
-20.9478328259
 20
-34.1961567111
 10
-20.9292012668
 20
-34.1306079649
 10
-20.9074000133
 20
-34.065210477
 10
-20.8825361199
 20
-34.0002853828
 10
-20.8547316827
 20
-33.9361515021
 10
-20.8241232365
 20
-33.8731237656
 10
-20.7908610822
 20
-33.811511665
 10
-20.7551085509
 20
-33.7516177413
 10
-20.7170412044
 20
-33.6937361019
 10
-20.6768459709
 20
-33.6381509722
 10
-20.6347202253
 20
-33.5851352981
 10
-20.5908708217
 20
-33.5349494087
 10
-20.5455130832
 20
-33.4878397441
 10
-20.4988697434
 20
-33.4440376404
 10
-20.4511698453
 20
-33.4037581876
 10
-20.4026476157
 20
-33.3671991736
 10
-20.3535413202
 20
-33.3345401185
 10
-20.304092093
 20
-33.3059413926
 10
-20.2545427533
 20
-33.2815434287
 10
-20.2051366112
 20
-33.2614660314
  0
LWPOLYLINE
  5
320
100
AcDbEntity
  8
RACCORDO
100
AcDbPolyline
 62
7
  6
CONTINUOUS
 90
22
 70
0
 10
-21.3615214906
 20
40.210706001
 10
-21.3592920837
 20
40.2796339835
 10
-21.3527190306
 20
40.3489745372
 10
-21.3419676708
 20
40.4184503461
 10
-21.3271720748
 20
40.4878831573
 10
-21.3084786188
 20
40.5569603173
 10
-21.2861022521
 20
40.625188699
 10
-21.2602514097
 20
40.6922044149
 10
-21.2310495509
 20
40.7578645745
 10
-21.198618189
 20
40.8219718841
 10
-21.163084272
 20
40.8842887861
 10
-21.124591885
 20
40.944537856
 10
-21.083269613
 20
41.0024631331
 10
-21.0391741745
 20
41.057885933
 10
-20.9924823626
 20
41.1104567818
 10
-20.9434898633
 20
41.1597331421
 10
-20.8921734469
 20
41.2056065932
 10
-20.8387827236
 20
41.2476921626
 10
-20.7840494338
 20
41.2853367752
 10
-20.7283260304
 20
41.318311508
 10
-20.6715655469
 20
41.3466298371
 10
-20.6139312401
 20
41.3701453904
  0
LWPOLYLINE
  5
321
100
AcDbEntity
  8
RACCORDO
100
AcDbPolyline
 62
7
  6
CONTINUOUS
 90
22
 70
0
 10
-20.0887292845
 20
39.5743098979
 10
-20.0864998775
 20
39.6432378806
 10
-20.0799268244
 20
39.7125784344
 10
-20.0691754646
 20
39.7820542432
 10
-20.0543798686
 20
39.8514870545
 10
-20.0356864126
 20
39.9205642145
 10
-20.0133100458
 20
39.9887925963
 10
-19.9874592034
 20
40.0558083122
 10
-19.9582573446
 20
40.1214684718
 10
-19.9258259826
 20
40.1855757814
 10
-19.8902920656
 20
40.2478926834
 10
-19.8517996786
 20
40.3081417533
 10
-19.8104774066
 20
40.3660670304
 10
-19.766381968
 20
40.4214898304
 10
-19.7196901561
 20
40.4740606791
 10
-19.6706976567
 20
40.5233370394
 10
-19.6193812403
 20
40.5692104905
 10
-19.565990517
 20
40.6112960599
 10
-19.5112572272
 20
40.6489406724
 10
-19.4555338236
 20
40.6819154052
 10
-19.3987733401
 20
40.7102337343
 10
-19.341139034
 20
40.7337492873
  0
LWPOLYLINE
  5
322
100
AcDbEntity
  8
RACCORDO
100
AcDbPolyline
 62
7
  6
CONTINUOUS
 90
22
 70
0
 10
-21.3615214906
 20
-34.2674787245
 10
-21.3592920837
 20
-34.1985507419
 10
-21.3527190306
 20
-34.1292101882
 10
-21.3419676708
 20
-34.0597343794
 10
-21.3271720748
 20
-33.9903015681
 10
-21.3084786188
 20
-33.9212244082
 10
-21.2861022521
 20
-33.8529960265
 10
-21.2602514097
 20
-33.7859803105
 10
-21.2310495509
 20
-33.720320151
 10
-21.198618189
 20
-33.6562128414
 10
-21.163084272
 20
-33.5938959394
 10
-21.124591885
 20
-33.5336468695
 10
-21.083269613
 20
-33.4757215924
 10
-21.0391741745
 20
-33.4202987925
 10
-20.9924823626
 20
-33.3677279437
 10
-20.9434898633
 20
-33.3184515834
 10
-20.8921734469
 20
-33.2725781323
 10
-20.8387827236
 20
-33.2304925629
 10
-20.7840494338
 20
-33.1928479503
 10
-20.7283260304
 20
-33.1598732175
 10
-20.6715655469
 20
-33.1315548884
 10
-20.6139312401
 20
-33.1080393351
  0
LWPOLYLINE
  5
323
100
AcDbEntity
  8
RACCORDO
100
AcDbPolyline
 62
253
  6
CONTINUOUS
 90
22
 70
0
 10
-20.5665467438
 20
39.9632186276
 10
-20.5649263171
 20
40.0127556653
 10
-20.5602233464
 20
40.0630099152
 10
-20.5524378316
 20
40.1139813773
 10
-20.5414784726
 20
40.1660419635
 10
-20.5274365696
 20
40.2188197619
 10
-20.5105860232
 20
40.2711990363
 10
-20.4908761969
 20
40.3231311184
 10
-20.4683577273
 20
40.3746646766
 10
-20.4434564247
 20
40.4248299799
 10
-20.4161240255
 20
40.4736072331
 10
-20.3864087933
 20
40.5210162314
 10
-20.3548813297
 20
40.5661466303
 10
-20.3215113346
 20
40.6089499555
 10
-20.2863291081
 20
40.6494746813
 10
-20.2499961521
 20
40.6869558861
 10
-20.2124582006
 20
40.7213508427
 10
-20.1737695196
 20
40.7527022783
 10
-20.1347544093
 20
40.7803734532
 10
-20.0956876364
 20
40.8041521208
 10
-20.0562944343
 20
40.8242505278
 10
-20.0165748029
 20
40.8406686741
  0
LWPOLYLINE
  5
324
100
AcDbEntity
  8
RACCORDO
100
AcDbPolyline
 62
253
  6
CONTINUOUS
 90
22
 70
0
 10
-19.4351758939
 20
39.3975332026
 10
-19.4335554672
 20
39.4470702404
 10
-19.4288524965
 20
39.4973244903
 10
-19.4210669817
 20
39.5482959523
 10
-19.4101076227
 20
39.6003565386
 10
-19.3960657197
 20
39.6531343369
 10
-19.3792151733
 20
39.7055136114
 10
-19.359505347
 20
39.7574456935
 10
-19.3369868774
 20
39.8089792516
 10
-19.3120855748
 20
39.859144555
 10
-19.2847531756
 20
39.9079218081
 10
-19.2550379434
 20
39.9553308064
 10
-19.2235104798
 20
40.0004612053
 10
-19.1901404847
 20
40.0432645305
 10
-19.1549582582
 20
40.0837892564
 10
-19.1186253022
 20
40.1212704612
 10
-19.0810873507
 20
40.1556654177
 10
-19.0423986697
 20
40.1870168533
 10
-19.0033835594
 20
40.2146880282
 10
-18.9643167865
 20
40.2384666959
 10
-18.9249235844
 20
40.2585651029
 10
-18.885203953
 20
40.2749832492
  0
LWPOLYLINE
  5
325
100
AcDbEntity
  8
RACCORDO
100
AcDbPolyline
 62
253
  6
CONTINUOUS
 90
22
 70
0
 10
-20.5665467438
 20
-34.5149660979
 10
-20.5649263171
 20
-34.4654290601
 10
-20.5602233464
 20
-34.4151748102
 10
-20.5524378316
 20
-34.3642033482
 10
-20.5414784726
 20
-34.312142762
 10
-20.5274365696
 20
-34.2593649636
 10
-20.5105860232
 20
-34.2069856891
 10
-20.4908761969
 20
-34.155053607
 10
-20.4683577273
 20
-34.1035200489
 10
-20.4434564247
 20
-34.0533547455
 10
-20.4161240255
 20
-34.0045774924
 10
-20.3864087933
 20
-33.9571684941
 10
-20.3548813297
 20
-33.9120380952
 10
-20.3215113346
 20
-33.86923477
 10
-20.2863291081
 20
-33.8287100442
 10
-20.2499961521
 20
-33.7912288393
 10
-20.2124582006
 20
-33.7568338828
 10
-20.1737695196
 20
-33.7254824472
 10
-20.1347544093
 20
-33.6978112723
 10
-20.0956876364
 20
-33.6740326046
 10
-20.0562944343
 20
-33.6539341977
 10
-20.0165748029
 20
-33.6375160513
  0
LWPOLYLINE
  5
326
100
AcDbEntity
  8
RACCORDO
100
AcDbPolyline
 62
253
  6
CONTINUOUS
 90
10
 70
0
 10
-21.3615214906
 20
40.210706001
 10
-21.3603799001
 20
40.1976326397
 10
-21.3569638166
 20
40.1846587745
 10
-21.3512992386
 20
40.1718831444
 10
-21.343429277
 20
40.1594029796
 10
-21.3334138268
 20
40.1473132619
 10
-21.3213291118
 20
40.135706001
 10
-21.307267104
 20
40.1246695354
 10
-21.2913348236
 20
40.1142878591
 10
-21.273653525
 20
40.1046399831
  0
LWPOLYLINE
  5
327
100
AcDbEntity
  8
RACCORDO
100
AcDbPolyline
 62
253
  6
CONTINUOUS
 90
25
 70
0
 10
-19.8594399626
 20
-35.0806515228
 10
-19.8577038518
 20
-35.0191342615
 10
-19.852504044
 20
-34.9561829647
 10
-19.8438660722
 20
-34.8921067523
 10
-19.8318323527
 20
-34.8272202687
 10
-19.816461976
 20
-34.761842136
 10
-19.7978304169
 20
-34.6962933898
 10
-19.7760291634
 20
-34.630895902
 10
-19.75116527
 20
-34.5659708077
 10
-19.7233608328
 20
-34.5018369271
 10
-19.6927523866
 20
-34.4388091905
 10
-19.6594902323
 20
-34.3771970899
 10
-19.623737701
 20
-34.3173031663
 10
-19.5856703545
 20
-34.2594215268
 10
-19.545475121
 20
-34.2038363971
 10
-19.5033493754
 20
-34.150820723
 10
-19.4594999718
 20
-34.1006348337
 10
-19.4141422333
 20
-34.053525169
 10
-19.3674988935
 20
-34.0097230653
 10
-19.3197989954
 20
-33.9694436126
 10
-19.2712767658
 20
-33.9328845986
 10
-19.2221704703
 20
-33.9002255434
 10
-19.1727212431
 20
-33.8716268176
 10
-19.1231719034
 20
-33.8472288536
 10
-19.0737657613
 20
-33.8271514563
  0
LWPOLYLINE
  5
328
100
AcDbEntity
  8
RACCORDO
100
AcDbPolyline
 62
253
  6
CONTINUOUS
 90
25
 70
0
 10
-14.4854284256
 20
36.7105274341
 10
-14.4836923147
 20
36.7720446955
 10
-14.4784925069
 20
36.8349959923
 10
-14.4698545352
 20
36.8990722046
 10
-14.4578208157
 20
36.9639586882
 10
-14.442450439
 20
37.0293368209
 10
-14.4238188799
 20
37.0948855671
 10
-14.4020176264
 20
37.160283055
 10
-14.377153733
 20
37.2252081492
 10
-14.3493492957
 20
37.2893420299
 10
-14.3187408496
 20
37.3523697664
 10
-14.2854786953
 20
37.413981867
 10
-14.249726164
 20
37.4738757907
 10
-14.2116588175
 20
37.5317574301
 10
-14.171463584
 20
37.5873425598
 10
-14.1293378384
 20
37.6403582339
 10
-14.0854884347
 20
37.6905441233
 10
-14.0401306963
 20
37.7376537879
 10
-13.9934873564
 20
37.7814558916
 10
-13.9457874584
 20
37.8217353444
 10
-13.8972652288
 20
37.8582943584
 10
-13.8481589333
 20
37.8909534135
 10
-13.7987097061
 20
37.9195521394
 10
-13.7491603663
 20
37.9439501033
 10
-13.6997542243
 20
37.9640275006
  0
LWPOLYLINE
  5
329
100
AcDbEntity
  8
RACCORDO
100
AcDbPolyline
 62
7
  6
CONTINUOUS
 90
22
 70
0
 10
-20.0887292845
 20
-34.9038748275
 10
-20.0864998775
 20
-34.8349468448
 10
-20.0799268244
 20
-34.7656062911
 10
-20.0691754646
 20
-34.6961304822
 10
-20.0543798686
 20
-34.6266976709
 10
-20.0356864126
 20
-34.5576205109
 10
-20.0133100458
 20
-34.4893921292
 10
-19.9874592034
 20
-34.4223764132
 10
-19.9582573446
 20
-34.3567162537
 10
-19.9258259826
 20
-34.2926089441
 10
-19.8902920656
 20
-34.2302920421
 10
-19.8517996786
 20
-34.1700429722
 10
-19.8104774066
 20
-34.1121176951
 10
-19.766381968
 20
-34.0566948951
 10
-19.7196901561
 20
-34.0041240464
 10
-19.6706976567
 20
-33.954847686
 10
-19.6193812403
 20
-33.908974235
 10
-19.565990517
 20
-33.8668886656
 10
-19.5112572272
 20
-33.829244053
 10
-19.4555338236
 20
-33.7962693203
 10
-19.3987733401
 20
-33.7679509912
 10
-19.341139034
 20
-33.7444354382
  0
LWPOLYLINE
  5
32A
100
AcDbEntity
  8
RACCORDO
100
AcDbPolyline
 62
7
  6
CONTINUOUS
 90
22
 70
0
 10
-14.7147177475
 20
36.8873041294
 10
-14.7124883405
 20
36.9562321121
 10
-14.7059152874
 20
37.0255726659
 10
-14.6951639276
 20
37.0950484747
 10
-14.6803683316
 20
37.164481286
 10
-14.6616748756
 20
37.233558446
 10
-14.6392985088
 20
37.3017868277
 10
-14.6134476664
 20
37.3688025437
 10
-14.5842458076
 20
37.4344627033
 10
-14.5518144456
 20
37.4985700129
 10
-14.5162805286
 20
37.5608869149
 10
-14.4777881416
 20
37.6211359848
 10
-14.4364658696
 20
37.6790612619
 10
-14.392370431
 20
37.7344840618
 10
-14.345678619
 20
37.7870549106
 10
-14.2966861197
 20
37.8363312709
 10
-14.2453697033
 20
37.882204722
 10
-14.19197898
 20
37.9242902914
 10
-14.1372456901
 20
37.9619349039
 10
-14.0815222866
 20
37.9949096367
 10
-14.0247618031
 20
38.0232279658
 10
-13.967127497
 20
38.0467435188
  0
LWPOLYLINE
  5
32B
100
AcDbEntity
  8
RACCORDO
100
AcDbPolyline
 62
253
  6
CONTINUOUS
 90
22
 70
0
 10
-19.4351758939
 20
-35.0806515228
 10
-19.4335554672
 20
-35.0311144851
 10
-19.4288524965
 20
-34.9808602352
 10
-19.4210669817
 20
-34.9298887731
 10
-19.4101076227
 20
-34.8778281869
 10
-19.3960657197
 20
-34.8250503885
 10
-19.3792151733
 20
-34.7726711141
 10
-19.359505347
 20
-34.720739032
 10
-19.3369868774
 20
-34.6692054738
 10
-19.3120855748
 20
-34.6190401705
 10
-19.2847531756
 20
-34.5702629174
 10
-19.2550379434
 20
-34.5228539191
 10
-19.2235104798
 20
-34.4777235201
 10
-19.1901404847
 20
-34.4349201949
 10
-19.1549582582
 20
-34.3943954691
 10
-19.1186253022
 20
-34.3569142643
 10
-19.0810873507
 20
-34.3225193077
 10
-19.0423986697
 20
-34.2911678722
 10
-19.0033835594
 20
-34.2634966973
 10
-18.9643167865
 20
-34.2397180296
 10
-18.9249235844
 20
-34.2196196226
 10
-18.885203953
 20
-34.2032014763
  0
LWPOLYLINE
  5
32C
100
AcDbEntity
  8
RACCORDO
100
AcDbPolyline
 62
253
  6
CONTINUOUS
 90
22
 70
0
 10
-14.0611643569
 20
36.7105274341
 10
-14.0595439302
 20
36.7600644719
 10
-14.0548409594
 20
36.8103187218
 10
-14.0470554447
 20
36.8612901838
 10
-14.0360960857
 20
36.9133507701
 10
-14.0220541827
 20
36.9661285684
 10
-14.0052036363
 20
37.0185078429
 10
-13.98549381
 20
37.070439925
 10
-13.9629753404
 20
37.1219734831
 10
-13.9380740378
 20
37.1721387865
 10
-13.9107416386
 20
37.2209160396
 10
-13.8810264064
 20
37.2683250379
 10
-13.8494989428
 20
37.3134554368
 10
-13.8161289477
 20
37.356258762
 10
-13.7809467212
 20
37.3967834878
 10
-13.7446137652
 20
37.4342646927
 10
-13.7070758137
 20
37.4686596492
 10
-13.6683871326
 20
37.5000110848
 10
-13.6293720223
 20
37.5276822597
 10
-13.5903052495
 20
37.5514609274
 10
-13.5509120474
 20
37.5715593343
 10
-13.511192416
 20
37.5879774807
  0
LINE
  5
32D
100
AcDbEntity
  8
RACCORDO
100
AcDbLine
 62
7
  6
CONTINUOUS
 10
-14.7147177475
 20
36.8873041294
 11
-14.7147177475
 21
34.3374898597
  0
LINE
  5
32E
100
AcDbEntity
  8
RACCORDO
100
AcDbLine
 62
7
  6
CONTINUOUS
 10
-14.7147177475
 20
-37.590880596
 11
-14.7147177475
 21
-40.1406948658
  0
LINE
  5
32F
100
AcDbEntity
  8
RACCORDO
100
AcDbLine
 62
253
  6
CONTINUOUS
 10
-14.6268497818
 20
36.7812381122
 11
-14.6268497818
 21
34.2314238425
  0
LINE
  5
330
100
AcDbEntity
  8
RACCORDO
100
AcDbLine
 62
253
  6
CONTINUOUS
 10
-14.6268497818
 20
-37.6969466132
 11
-14.6268497818
 21
-40.2467608829
  0
LINE
  5
331
100
AcDbEntity
  8
RACCORDO
100
AcDbLine
 62
253
  6
CONTINUOUS
 10
-14.4854284256
 20
-40.317471561
 11
-14.4854284256
 21
-37.7676572913
  0
LINE
  5
332
100
AcDbEntity
  8
RACCORDO
100
AcDbLine
 62
253
  6
CONTINUOUS
 10
-14.4854284256
 20
34.1607131644
 11
-14.4854284256
 21
36.7105274341
  0
LINE
  5
333
100
AcDbEntity
  8
RACCORDO
100
AcDbLine
 62
253
  6
CONTINUOUS
 10
-14.0611643569
 20
-40.317471561
 11
-14.0611643569
 21
-37.7676572913
  0
LINE
  5
334
100
AcDbEntity
  8
RACCORDO
100
AcDbLine
 62
253
  6
CONTINUOUS
 10
-14.0611643569
 20
34.1607131644
 11
-14.0611643569
 21
36.7105274341
  0
LINE
  5
335
100
AcDbEntity
  8
RACCORDO
100
AcDbLine
 62
7
  6
CONTINUOUS
 10
-13.5833468976
 20
36.3216187045
 11
-13.5833468976
 21
33.7718044348
  0
LINE
  5
336
100
AcDbEntity
  8
RACCORDO
100
AcDbLine
 62
7
  6
CONTINUOUS
 10
-13.5833468976
 20
-38.156566021
 11
-13.5833468976
 21
-40.7063802907
  0
LINE
  5
337
100
AcDbEntity
  8
RACCORDO
100
AcDbLine
 62
253
  6
CONTINUOUS
 10
-13.4954789319
 20
36.2155526873
 11
-13.4954789319
 21
33.6657384176
  0
LINE
  5
338
100
AcDbEntity
  8
RACCORDO
100
AcDbLine
 62
253
  6
CONTINUOUS
 10
-13.4954789319
 20
-38.2626320382
 11
-13.4954789319
 21
-40.8124463079
  0
LINE
  5
339
100
AcDbEntity
  8
RACCORDO
100
AcDbLine
 62
253
  6
CONTINUOUS
 10
-13.2126362195
 20
36.0741313311
 11
-13.2126362195
 21
33.437714521
  0
LINE
  5
33A
100
AcDbEntity
  8
RACCORDO
100
AcDbLine
 62
253
  6
CONTINUOUS
 10
-13.2126362195
 20
-38.4040533944
 11
-13.2126362195
 21
-41.0404702045
  0
LINE
  5
33B
100
AcDbEntity
  8
RACCORDO
100
AcDbLine
 62
7
  6
CONTINUOUS
 10
-13.0171967119
 20
-46.1275632354
 11
-13.0171967119
 21
-41.0841718069
  0
LINE
  5
33C
100
AcDbEntity
  8
RACCORDO
100
AcDbLine
 62
7
  6
CONTINUOUS
 10
-13.0171967119
 20
28.35062149
 11
-13.0171967119
 21
33.3940129185
  0
LINE
  5
33D
100
AcDbEntity
  8
RACCORDO
100
AcDbLine
 62
253
  6
CONTINUOUS
 10
-12.7883721508
 20
36.0741313311
 11
-12.7883721508
 21
28.5879722598
  0
LINE
  5
33E
100
AcDbEntity
  8
RACCORDO
100
AcDbLine
 62
253
  6
CONTINUOUS
 10
-12.7883721508
 20
-38.4040533944
 11
-12.7883721508
 21
-45.8902124657
  0
LWPOLYLINE
  5
33F
100
AcDbEntity
  8
RACCORDO
100
AcDbPolyline
 62
253
  6
CONTINUOUS
 90
25
 70
0
 10
-14.4854284256
 20
-37.7676572913
 10
-14.4836923147
 20
-37.70614003
 10
-14.4784925069
 20
-37.6431887332
 10
-14.4698545352
 20
-37.5791125208
 10
-14.4578208157
 20
-37.5142260372
 10
-14.442450439
 20
-37.4488479045
 10
-14.4238188799
 20
-37.3832991583
 10
-14.4020176264
 20
-37.3179016705
 10
-14.377153733
 20
-37.2529765762
 10
-14.3493492957
 20
-37.1888426956
 10
-14.3187408496
 20
-37.125814959
 10
-14.2854786953
 20
-37.0642028584
 10
-14.249726164
 20
-37.0043089348
 10
-14.2116588175
 20
-36.9464272953
 10
-14.171463584
 20
-36.8908421656
 10
-14.1293378384
 20
-36.8378264915
 10
-14.0854884347
 20
-36.7876406022
 10
-14.0401306963
 20
-36.7405309375
 10
-13.9934873564
 20
-36.6967288339
 10
-13.9457874584
 20
-36.6564493811
 10
-13.8972652288
 20
-36.6198903671
 10
-13.8481589333
 20
-36.587231312
 10
-13.7987097061
 20
-36.5586325861
 10
-13.7491603663
 20
-36.5342346221
 10
-13.6997542243
 20
-36.5141572249
  0
LWPOLYLINE
  5
340
100
AcDbEntity
  8
RACCORDO
100
AcDbPolyline
 62
7
  6
CONTINUOUS
 90
22
 70
0
 10
-13.5833468976
 20
36.3216187045
 10
-13.5811174906
 20
36.3905466872
 10
-13.5745444375
 20
36.4598872409
 10
-13.5637930777
 20
36.5293630498
 10
-13.5489974817
 20
36.5987958611
 10
-13.5303040257
 20
36.6678730211
 10
-13.5079276589
 20
36.7361014028
 10
-13.4820768165
 20
36.8031171188
 10
-13.4528749577
 20
36.8687772783
 10
-13.4204435957
 20
36.9328845879
 10
-13.3849096787
 20
36.9952014899
 10
-13.3464172917
 20
37.0554505598
 10
-13.3050950197
 20
37.1133758369
 10
-13.2609995811
 20
37.1687986369
 10
-13.2143077691
 20
37.2213694856
 10
-13.1653152698
 20
37.270645846
 10
-13.1139988534
 20
37.316519297
 10
-13.0606081301
 20
37.3586048664
 10
-13.0058748402
 20
37.396249479
 10
-12.9501514367
 20
37.4292242117
 10
-12.8933909532
 20
37.4575425408
 10
-12.8357566471
 20
37.4810580938
  0
LWPOLYLINE
  5
341
100
AcDbEntity
  8
RACCORDO
100
AcDbPolyline
 62
7
  6
CONTINUOUS
 90
22
 70
0
 10
-14.7147177475
 20
-37.590880596
 10
-14.7124883405
 20
-37.5219526133
 10
-14.7059152874
 20
-37.4526120596
 10
-14.6951639276
 20
-37.3831362507
 10
-14.6803683316
 20
-37.3137034394
 10
-14.6616748756
 20
-37.2446262795
 10
-14.6392985088
 20
-37.1763978977
 10
-14.6134476664
 20
-37.1093821818
 10
-14.5842458076
 20
-37.0437220222
 10
-14.5518144456
 20
-36.9796147126
 10
-14.5162805286
 20
-36.9172978106
 10
-14.4777881416
 20
-36.8570487407
 10
-14.4364658696
 20
-36.7991234636
 10
-14.392370431
 20
-36.7437006636
 10
-14.345678619
 20
-36.6911298149
 10
-14.2966861197
 20
-36.6418534546
 10
-14.2453697033
 20
-36.5959800035
 10
-14.19197898
 20
-36.5538944341
 10
-14.1372456901
 20
-36.5162498215
 10
-14.0815222866
 20
-36.4832750888
 10
-14.0247618031
 20
-36.4549567597
 10
-13.967127497
 20
-36.4314412067
  0
LWPOLYLINE
  5
342
100
AcDbEntity
  8
RACCORDO
100
AcDbPolyline
 62
7
  6
CONTINUOUS
 90
22
 70
0
 10
-13.5833468976
 20
-38.156566021
 10
-13.5811174906
 20
-38.0876380383
 10
-13.5745444375
 20
-38.0182974845
 10
-13.5637930777
 20
-37.9488216757
 10
-13.5489974817
 20
-37.8793888644
 10
-13.5303040257
 20
-37.8103117044
 10
-13.5079276589
 20
-37.7420833227
 10
-13.4820768165
 20
-37.6750676067
 10
-13.4528749577
 20
-37.6094074471
 10
-13.4204435957
 20
-37.5453001376
 10
-13.3849096787
 20
-37.4829832355
 10
-13.3464172917
 20
-37.4227341656
 10
-13.3050950197
 20
-37.3648088885
 10
-13.2609995811
 20
-37.3093860886
 10
-13.2143077691
 20
-37.2568152398
 10
-13.1653152698
 20
-37.2075388795
 10
-13.1139988534
 20
-37.1616654284
 10
-13.0606081301
 20
-37.119579859
 10
-13.0058748402
 20
-37.0819352465
 10
-12.9501514367
 20
-37.0489605137
 10
-12.8933909532
 20
-37.0206421846
 10
-12.8357566471
 20
-36.9971266316
  0
LWPOLYLINE
  5
343
100
AcDbEntity
  8
RACCORDO
100
AcDbPolyline
 62
253
  6
CONTINUOUS
 90
22
 70
0
 10
-14.0611643569
 20
-37.7676572913
 10
-14.0595439302
 20
-37.7181202536
 10
-14.0548409594
 20
-37.6678660037
 10
-14.0470554447
 20
-37.6168945416
 10
-14.0360960857
 20
-37.5648339554
 10
-14.0220541827
 20
-37.512056157
 10
-14.0052036363
 20
-37.4596768826
 10
-13.98549381
 20
-37.4077448005
 10
-13.9629753404
 20
-37.3562112423
 10
-13.9380740378
 20
-37.306045939
 10
-13.9107416386
 20
-37.2572686859
 10
-13.8810264064
 20
-37.2098596876
 10
-13.8494989428
 20
-37.1647292886
 10
-13.8161289477
 20
-37.1219259634
 10
-13.7809467212
 20
-37.0814012376
 10
-13.7446137652
 20
-37.0439200328
 10
-13.7070758137
 20
-37.0095250762
 10
-13.6683871326
 20
-36.9781736407
 10
-13.6293720223
 20
-36.9505024658
 10
-13.5903052495
 20
-36.9267237981
 10
-13.5509120474
 20
-36.9066253911
 10
-13.511192416
 20
-36.8902072448
  0
LWPOLYLINE
  5
344
100
AcDbEntity
  8
RACCORDO
100
AcDbPolyline
 62
7
  6
CONTINUOUS
 90
12
 70
0
 10
-10.1720770604
 20
29.896119805
 10
-10.1729349287
 20
29.8736251845
 10
-10.1753443367
 20
29.8524155017
 10
-10.1793052842
 20
29.8324907564
 10
-10.1848712603
 20
29.813719537
 10
-10.191988776
 20
29.7962332552
 10
-10.200497364
 20
29.7804261462
 10
-10.2104286241
 20
29.7663363543
 10
-10.2217509565
 20
29.7539257353
 10
-10.2342090947
 20
29.7434740914
 10
-10.2478288398
 20
29.7350259231
 10
-10.2500311588
 20
29.7338974962
  0
LWPOLYLINE
  5
345
100
AcDbEntity
  8
RACCORDO
100
AcDbPolyline
 62
253
  6
CONTINUOUS
 90
19
 70
0
 10
-12.2384002098
 20
36.9515813776
 10
-12.2371531557
 20
36.9755156471
 10
-12.2375300453
 20
37.0000749887
 10
-12.2395280102
 20
37.0250724911
 10
-12.2431318448
 20
37.0503179082
 10
-12.2483141216
 20
37.0756191071
 10
-12.2550354004
 20
37.1007835305
 10
-12.2632445282
 20
37.1256196618
 10
-12.2728790287
 20
37.1499384831
 10
-12.2838655773
 20
37.1735549136
 10
-12.29612056
 20
37.1962892178
 10
-12.3095507089
 20
37.2179683741
 10
-12.3240538123
 20
37.2384273909
 10
-12.339519493
 20
37.2575105629
 10
-12.3558300478
 20
37.2750726554
 10
-12.3728613435
 20
37.2909800104
 10
-12.3904837616
 20
37.3051115632
 10
-12.408563185
 20
37.3173597644
 10
-12.4269620182
 20
37.3276313975
  0
LINE
  5
346
100
AcDbEntity
  8
RACCORDO
100
AcDbLine
 62
7
  6
CONTINUOUS
 10
-10.1720770604
 20
31.8013756933
 11
-10.1720770604
 21
29.896119805
  0
LINE
  5
347
100
AcDbEntity
  8
RACCORDO
100
AcDbLine
 62
7
  6
CONTINUOUS
 10
-10.1720770604
 20
-44.5820649205
 11
-10.1720770604
 21
-42.6768090322
  0
LINE
  5
348
100
AcDbEntity
  8
RACCORDO
100
AcDbLine
 62
7
  6
CONTINUOUS
 10
-9.1114168886
 20
-44.0517348346
 11
-9.1114168886
 21
-42.1464789463
  0
LINE
  5
349
100
AcDbEntity
  8
RACCORDO
100
AcDbLine
 62
7
  6
CONTINUOUS
 10
-9.1114168886
 20
30.4264498909
 11
-9.1114168886
 21
32.3317057792
  0
LINE
  5
34A
100
AcDbEntity
  8
RACCORDO
100
AcDbLine
 62
7
  6
CONTINUOUS
 10
-8.0507567168
 20
32.8620358651
 11
-8.0507567168
 21
30.9567799767
  0
LINE
  5
34B
100
AcDbEntity
  8
RACCORDO
100
AcDbLine
 62
7
  6
CONTINUOUS
 10
-8.0507567168
 20
-43.5214047487
 11
-8.0507567168
 21
-41.6161488604
  0
LWPOLYLINE
  5
34C
100
AcDbEntity
  8
RACCORDO
100
AcDbPolyline
 62
7
  6
CONTINUOUS
 90
12
 70
0
 10
-8.0507567168
 20
30.9567799767
 10
-8.0516145852
 20
30.9342853563
 10
-8.0540239931
 20
30.9130756735
 10
-8.0579849406
 20
30.8931509282
 10
-8.0635509167
 20
30.8743797088
 10
-8.0706684324
 20
30.856893427
 10
-8.0791770205
 20
30.841086318
 10
-8.0891082806
 20
30.8269965261
 10
-8.100430613
 20
30.8145859071
 10
-8.1128887512
 20
30.8041342632
 10
-8.1265084963
 20
30.7956860949
 10
-8.1287108152
 20
30.794557668
  0
LWPOLYLINE
  5
34D
100
AcDbEntity
  8
RACCORDO
100
AcDbPolyline
 62
7
  6
CONTINUOUS
 90
12
 70
0
 10
-10.1720770604
 20
-44.5820649205
 10
-10.1729349287
 20
-44.6045595409
 10
-10.1753443367
 20
-44.6257692238
 10
-10.1793052842
 20
-44.645693969
 10
-10.1848712603
 20
-44.6644651884
 10
-10.191988776
 20
-44.6819514702
 10
-10.200497364
 20
-44.6977585792
 10
-10.2104286241
 20
-44.7118483711
 10
-10.2217509565
 20
-44.7242589902
 10
-10.2342090947
 20
-44.734710634
 10
-10.2478288398
 20
-44.7431588024
 10
-10.2500311588
 20
-44.7442872292
  0
LINE
  5
34E
100
AcDbEntity
  8
RACCORDO
100
AcDbLine
 62
7
  6
CONTINUOUS
 10
-6.053700442
 20
32.0174401485
 11
-6.0547982236
 21
31.9917997436
  0
LWPOLYLINE
  5
34F
100
AcDbEntity
  8
RACCORDO
100
AcDbPolyline
 62
253
  6
CONTINUOUS
 90
19
 70
0
 10
-12.2384002098
 20
-37.5266033479
 10
-12.2371531557
 20
-37.5026690784
 10
-12.2375300453
 20
-37.4781097368
 10
-12.2395280102
 20
-37.4531122343
 10
-12.2431318448
 20
-37.4278668172
 10
-12.2483141216
 20
-37.4025656183
 10
-12.2550354004
 20
-37.377401195
 10
-12.2632445282
 20
-37.3525650637
 10
-12.2728790287
 20
-37.3282462423
 10
-12.2838655773
 20
-37.3046298119
 10
-12.29612056
 20
-37.2818955076
 10
-12.3095507089
 20
-37.2602163514
 10
-12.3240538123
 20
-37.2397573345
 10
-12.339519493
 20
-37.2206741626
 10
-12.3558300478
 20
-37.2031120701
 10
-12.3728613435
 20
-37.1872047151
 10
-12.3904837616
 20
-37.1730731622
 10
-12.408563185
 20
-37.1608249611
 10
-12.4269620182
 20
-37.1505533279
  0
LWPOLYLINE
  5
350
100
AcDbEntity
  8
RACCORDO
100
AcDbPolyline
 62
253
  6
CONTINUOUS
 90
10
 70
0
 10
-6.053700442
 20
32.0174401485
 10
-6.0548420325
 20
32.0043667871
 10
-6.0582581161
 20
31.9913929219
 10
-6.0639226941
 20
31.9786172918
 10
-6.0717926557
 20
31.966137127
 10
-6.0818081059
 20
31.9540474093
 10
-6.0938928208
 20
31.9424401485
 10
-6.1079548287
 20
31.9314036831
 10
-6.123887109
 20
31.9210220071
 10
-6.1415684076
 20
31.9113741313
  0
LWPOLYLINE
  5
351
100
AcDbEntity
  8
RACCORDO
100
AcDbPolyline
 62
7
  6
CONTINUOUS
 90
8
 70
0
 10
-6.0547982236
 20
31.9917997436
 10
-6.0581161911
 20
31.9661573153
 10
-6.0636701849
 20
31.9407430171
 10
-6.071444852
 20
31.9157947815
 10
-6.0813976465
 20
31.8915386548
 10
-6.0934690793
 20
31.8681764963
 10
-6.1075904127
 20
31.8458888399
 10
-6.1236358051
 20
31.8249037565
  0
LWPOLYLINE
  5
352
100
AcDbEntity
  8
RACCORDO
100
AcDbPolyline
 62
7
  6
CONTINUOUS
 90
10
 70
0
 10
-29.9003562555
 20
28.2529017362
 10
-29.8869233766
 20
28.23267756
 10
-29.8728417049
 20
28.2136313974
 10
-29.8581112405
 20
28.1957632485
 10
-29.8426271281
 20
28.1789716331
 10
-29.8264942228
 20
28.1633580314
 10
-29.8100270908
 20
28.1492268836
 10
-29.7933305871
 20
28.1366796699
 10
-29.7762998566
 20
28.1256149101
 10
-29.7589348992
 20
28.1160326043
  0
LINE
  5
353
100
AcDbEntity
  8
0
100
AcDbLine
 62
7
  6
CONTINUOUS
 10
-18.5544643573
 20
34.0961392316
 11
-18.7123325659
 21
34.7884043703
  0
LINE
  5
354
100
AcDbEntity
  8
RACCORDO
100
AcDbLine
 62
7
  6
CONTINUOUS
 10
-6.990096545
 20
-42.9910746628
 11
-6.990096545
 21
-41.0858187745
  0
LINE
  5
355
100
AcDbEntity
  8
RACCORDO
100
AcDbLine
 62
7
  6
CONTINUOUS
 10
-6.990096545
 20
31.4871100626
 11
-6.990096545
 21
33.392365951
  0
LINE
  5
356
100
AcDbEntity
  8
RACCORDO
100
AcDbLine
 62
253
  6
CONTINUOUS
 10
-6.1415684076
 20
-42.5668105941
 11
-6.1415684076
 21
-37.8902734137
  0
LINE
  5
357
100
AcDbEntity
  8
RACCORDO
100
AcDbLine
 62
253
  6
CONTINUOUS
 10
-6.1415684076
 20
31.9113741313
 11
-6.1415684076
 21
36.5879113118
  0
LINE
  5
358
100
AcDbEntity
  8
RACCORDO
100
AcDbLine
 62
7
  6
CONTINUOUS
 10
-6.053700442
 20
-42.4607445769
 11
-6.053700442
 21
-37.7842073965
  0
LINE
  5
359
100
AcDbEntity
  8
RACCORDO
100
AcDbLine
 62
7
  6
CONTINUOUS
 10
-6.053700442
 20
32.0174401485
 11
-6.053700442
 21
36.693977329
  0
LWPOLYLINE
  5
35A
100
AcDbEntity
  8
RACCORDO
100
AcDbPolyline
 62
253
  6
CONTINUOUS
 90
11
 70
0
 10
-6.1415684076
 20
31.9113741313
 10
-6.1423513117
 20
31.8894649618
 10
-6.1447055365
 20
31.8684264712
 10
-6.1486304563
 20
31.8484262006
 10
-6.1541176756
 20
31.829614232
 10
-6.1611399461
 20
31.8121613541
 10
-6.1696407951
 20
31.7962473676
 10
-6.1795615682
 20
31.7820013113
 10
-6.1908326788
 20
31.7695396409
 10
-6.2033474018
 20
31.7589853019
 10
-6.2163713392
 20
31.750814457
  0
LWPOLYLINE
  5
35B
100
AcDbEntity
  8
RACCORDO
100
AcDbPolyline
 62
253
  6
CONTINUOUS
 90
11
 70
0
 10
-6.1415684076
 20
-42.5668105941
 10
-6.1423513117
 20
-42.5887197637
 10
-6.1447055365
 20
-42.6097582543
 10
-6.1486304563
 20
-42.6297585249
 10
-6.1541176756
 20
-42.6485704934
 10
-6.1611399461
 20
-42.6660233714
 10
-6.1696407951
 20
-42.6819373578
 10
-6.1795615682
 20
-42.6961834141
 10
-6.1908326788
 20
-42.7086450845
 10
-6.2033474018
 20
-42.7191994235
 10
-6.2163713392
 20
-42.7273702685
  0
LWPOLYLINE
  5
35C
100
AcDbEntity
  8
RACCORDO
100
AcDbPolyline
 62
7
  6
CONTINUOUS
 90
12
 70
0
 10
-8.0507567168
 20
-43.5214047487
 10
-8.0516145852
 20
-43.5438993691
 10
-8.0540239931
 20
-43.565109052
 10
-8.0579849406
 20
-43.5850337972
 10
-8.0635509167
 20
-43.6038050166
 10
-8.0706684324
 20
-43.6212912985
 10
-8.0791770205
 20
-43.6370984075
 10
-8.0891082806
 20
-43.6511881993
 10
-8.100430613
 20
-43.6635988184
 10
-8.1128887512
 20
-43.6740504622
 10
-8.1265084963
 20
-43.6824986306
 10
-8.1287108152
 20
-43.6836270574
  0
LINE
  5
35D
100
AcDbEntity
  8
RACCORDO
100
AcDbLine
 62
7
  6
CONTINUOUS
 10
-6.053700442
 20
-42.4607445769
 11
-6.0547982236
 21
-42.4863849818
  0
LWPOLYLINE
  5
35E
100
AcDbEntity
  8
RACCORDO
100
AcDbPolyline
 62
253
  6
CONTINUOUS
 90
102
 70
0
 10
6.9266682793
 20
15.5044258532
 10
6.6041571442
 20
15.0677279681
 10
6.2939925304
 20
14.6446616573
 10
5.9961768721
 20
14.2352217434
 10
5.7093716668
 20
13.8375715155
 10
5.4333607836
 20
13.4514171335
 10
5.1681253444
 20
13.0767561875
 10
4.9126962868
 20
12.7122507544
 10
4.6668943642
 20
12.357678605
 10
4.4306501788
 20
12.0129936796
 10
4.203219091
 20
11.6771688641
 10
3.9843859701
 20
11.3499448625
 10
3.7741212404
 20
11.0313525379
 10
3.5719979317
 20
10.7208300075
 10
3.3778496989
 20
10.4182115898
 10
3.1915816794
 20
10.1234490965
 10
3.0128954947
 20
9.836159487
 10
2.8416561583
 20
9.5562199815
 10
2.6777251459
 20
9.2835153204
 10
2.5208123996
 20
9.0176842233
 10
2.3707899011
 20
8.7586409107
 10
2.2274989952
 20
8.5062582171
 10
2.0906214405
 20
8.2601278386
 10
1.9599737426
 20
8.0200747552
 10
1.8354577446
 20
7.7860880423
 10
1.7168945541
 20
7.5580160585
 10
1.6040419961
 20
7.3355829608
 10
1.4968508035
 20
7.1188938375
 10
1.3954144012
 20
6.9083601102
 10
1.2995593618
 20
6.7038694694
 10
1.2091250096
 20
6.5053463491
 10
1.1241745506
 20
6.3132408945
 10
1.044623112
 20
6.1277296935
 10
0.9701462783
 20
5.948445593
 10
0.9004332578
 20
5.7750233616
 10
0.8354686319
 20
5.6078243467
 10
0.774892626
 20
5.4463313959
 10
0.7179655099
 20
5.2888947062
 10
0.6646190192
 20
5.1355862684
 10
0.6146985542
 20
4.9862409388
 10
0.567493648
 20
4.8389053605
 10
0.5229858923
 20
4.6935849574
 10
0.4811412496
 20
4.5502396577
 10
0.4414095419
 20
4.4069150263
 10
0.4037528363
 20
4.2632047631
 10
0.3683782199
 20
4.119605627
 10
0.3352347827
 20
3.9755741704
 10
0.304367774
 20
3.8308340337
 10
0.2759746761
 20
3.6857823052
 10
0.2502445715
 20
3.5408904941
 10
0.2272191749
 20
3.3958339088
 10
0.207071197
 20
3.251054072
 10
0.1900686164
 20
3.1081305891
 10
0.1762125182
 20
2.9670464586
 10
0.1655097485
 20
2.8278631517
 10
0.1580195361
 20
2.6922127847
 10
0.153622578
 20
2.560379645
 10
0.1521735883
 20
2.432061367
 10
0.1535308729
 20
2.3079483083
 10
0.157513994
 20
2.1881754206
 10
0.1639517329
 20
2.0725215313
 10
0.1726590856
 20
1.9611099413
 10
0.1834200951
 20
1.8542136495
 10
0.1960811938
 20
1.7514346062
 10
0.2105951308
 20
1.6519052797
 10
0.2268279875
 20
1.5556590494
 10
0.2446677956
 20
1.4625790057
 10
0.264199375
 20
1.3716321804
 10
0.2853121576
 20
1.2829160418
 10
0.3079454575
 20
1.1963151573
 10
0.3323934773
 20
1.1105579406
 10
0.35865051
 20
1.0256918201
 10
0.3867165627
 20
0.9417446919
 10
0.4170507456
 20
0.857516429
 10
0.4497972138
 20
0.7728942498
 10
0.4849461181
 20
0.6881159356
 10
0.5228424969
 20
0.6025854744
 10
0.5637197415
 20
0.516084717
 10
0.6075424297
 20
0.428974771
 10
0.6542745232
 20
0.3415444042
 10
0.7040351679
 20
0.2537635908
 10
0.7568644605
 20
0.1657668129
 10
0.8125551171
 20
0.0780518635
 10
0.8712230785
 20
-0.0094521394
 10
0.9328569923
 20
-0.0966260123
 10
0.9969690811
 20
-0.1827500947
 10
1.0635196643
 20
-0.2678033336
 10
1.1325299678
 20
-0.3518468088
 10
1.2035055923
 20
-0.4343507849
 10
1.2762948534
 20
-0.515255664
 10
1.3509406844
 20
-0.5947216201
 10
1.4271859475
 20
-0.6725821224
 10
1.5048559913
 20
-0.7487695199
 10
1.5840073091
 20
-0.8234442989
 10
1.6647297618
 20
-0.8967781865
 10
1.7467594996
 20
-0.9686187748
 10
1.8302632445
 20
-1.0391963508
 10
1.9160368657
 20
-1.1092194305
 10
2.0040823424
 20
-1.1786908562
 10
2.0944080202
 20
-1.2476202899
 10
2.1879163694
 20
-1.3166683609
 10
2.2846906913
 20
-1.3858384948
  0
LINE
  5
35F
100
AcDbEntity
  8
RACCORDO
100
AcDbLine
 62
253
  6
CONTINUOUS
 10
7.6111078338
 20
16.4220987413
 11
6.9266682793
 21
15.5044258532
  0
LINE
  5
360
100
AcDbEntity
  8
RACCORDO
100
AcDbLine
 62
253
  6
CONTINUOUS
 10
8.3526604366
 20
17.4054382137
 11
7.6111078338
 21
16.4220987413
  0
LWPOLYLINE
  5
361
100
AcDbEntity
  8
RACCORDO
100
AcDbPolyline
 62
7
  6
CONTINUOUS
 90
65
 70
0
 10
8.8525383489
 20
18.2468942675
 10
8.2701710169
 20
17.4806879145
 10
7.733936086
 20
16.7709362164
 10
7.2292265704
 20
16.0980536394
 10
6.7540567447
 20
15.4591585803
 10
6.3105494487
 20
14.8570857594
 10
5.8904138371
 20
14.2806272668
 10
5.4926661534
 20
13.7284144746
 10
5.1183099437
 20
13.2019640628
 10
4.7622333421
 20
12.6941694107
 10
4.4238955958
 20
12.2043128682
 10
4.1038629249
 20
11.7333147868
 10
3.7987877296
 20
11.276379775
 10
3.508381473
 20
10.8331054836
 10
3.2329780773
 20
10.4041350809
 10
2.9703829234
 20
9.9860723737
 10
2.7204732038
 20
9.5786971582
 10
2.4835277822
 20
9.1824518857
 10
2.2580566303
 20
8.7948227886
 10
2.0440587582
 20
8.415708193
 10
1.8417718044
 20
8.0455104693
 10
1.6502323833
 20
7.6824163297
 10
1.4694839489
 20
7.3264166215
 10
1.2997961841
 20
6.9779245553
 10
1.1406377148
 20
6.6357048913
 10
0.9922533131
 20
6.3000382662
 10
0.8548415291
 20
5.9712239629
 10
0.7279866397
 20
5.6480729976
 10
0.6119493492
 20
5.3309266827
 10
0.5069947698
 20
5.0202450216
 10
0.4128813952
 20
4.7150458767
 10
0.329727616
 20
4.4153634669
 10
0.2578779185
 20
4.1222579085
 10
0.1974506691
 20
3.8363104357
 10
0.148462176
 20
3.5580013102
 10
0.110892823
 20
3.288085501
 10
0.0846203952
 20
3.0275471355
 10
0.069351221
 20
2.7790454586
 10
0.0643058584
 20
2.5408366639
 10
0.0690874655
 20
2.3074343337
 10
0.0837692535
 20
2.0789570421
 10
0.1083343865
 20
1.8564241258
 10
0.1434637934
 20
1.6363201853
 10
0.1896131462
 20
1.418892346
 10
0.2467745707
 20
1.2056019313
 10
0.3155753236
 20
0.9952172816
 10
0.3963620421
 20
0.7881367083
 10
0.4887815232
 20
0.585546687
 10
0.5925485042
 20
0.387651417
 10
0.7073361624
 20
0.1946361482
 10
0.8328058648
 20
0.0067572038
 10
0.9685917677
 20
-0.1758343915
 10
1.1141086752
 20
-0.3528884789
 10
1.2691159257
 20
-0.5247107844
 10
1.4338206539
 20
-0.6919842131
 10
1.6078584601
 20
-0.85469345
 10
1.7910483514
 20
-1.0129816023
 10
1.9840164265
 20
-1.1676431095
 10
2.186501916
 20
-1.3186927735
 10
2.3983608915
 20
-1.4662739555
 10
2.6205379402
 20
-1.6112009951
 10
2.8528144074
 20
-1.7534282543
 10
3.0951692144
 20
-1.8930707255
 10
3.3489618795
 20
-2.0309967556
 10
3.5943420451
 20
-2.1573032053
  0
LINE
  5
362
100
AcDbEntity
  8
RACCORDO
100
AcDbLine
 62
253
  6
CONTINUOUS
 10
9.1593448724
 20
18.4661520169
 11
8.3526604366
 21
17.4054382137
  0
LINE
  5
363
100
AcDbEntity
  8
RACCORDO
100
AcDbLine
 62
253
  6
CONTINUOUS
 10
13.0183871158
 20
23.5124742165
 11
12.0016255039
 21
22.1778416675
  0
LWPOLYLINE
  5
364
100
AcDbEntity
  8
RACCORDO
100
AcDbPolyline
 62
253
  6
CONTINUOUS
 90
3
 70
0
 10
12.0016255039
 20
22.1778416675
 10
10.9973540435
 20
20.8663341069
 10
9.1593448724
 20
18.4661520169
  0
LINE
  5
365
100
AcDbEntity
  8
RACCORDO
100
AcDbLine
 62
7
  6
CONTINUOUS
 10
11.7391405186
 20
22.0172038003
 11
8.8525383489
 21
18.2468942675
  0
LINE
  5
366
100
AcDbEntity
  8
0
100
AcDbLine
 62
7
  6
CONTINUOUS
 10
-15.4291373734
 20
37.9123776639
 11
-15.5870055819
 21
38.6046428025
  0
LWPOLYLINE
  5
367
100
AcDbEntity
  8
RACCORDO
100
AcDbPolyline
 62
253
  6
CONTINUOUS
 90
16
 70
0
 10
-1.1564656002
 20
-35.4811948315
 10
-1.1576276817
 20
-35.4534564994
 10
-1.1611011942
 20
-35.4248599928
 10
-1.166848081
 20
-35.395718621
 10
-1.1748053782
 20
-35.3663516629
 10
-1.1848859039
 20
-35.3370808692
 10
-1.1969792138
 20
-35.3082269367
 10
-1.210952811
 20
-35.2801059951
 10
-1.2266535978
 20
-35.2530261435
 10
-1.2439095533
 20
-35.2272840743
 10
-1.2625316174
 20
-35.203161823
 10
-1.2823157631
 20
-35.180923678
 10
-1.3030452309
 20
-35.1608132851
 10
-1.3244929047
 20
-35.1430509781
 10
-1.346423799
 20
-35.1278313643
 10
-1.3685976346
 20
-35.1153211932
  0
LWPOLYLINE
  5
368
100
AcDbEntity
  8
RACCORDO
100
AcDbPolyline
 62
253
  6
CONTINUOUS
 90
10
 70
0
 10
-1.1564656002
 20
38.2175670305
 10
-1.1576276816
 20
38.1909907807
 10
-1.1611011938
 20
38.1658677872
 10
-1.1668480804
 20
38.1424733026
 10
-1.1748053772
 20
38.1210636419
 10
-1.1848859026
 20
38.1018733738
 10
-1.1969792122
 20
38.085112751
 10
-1.2109528092
 20
38.0709654063
 10
-1.2266535959
 20
38.0595863412
 10
-1.2344333816
 20
38.0553049776
  0
LWPOLYLINE
  5
369
100
AcDbEntity
  8
RACCORDO
100
AcDbPolyline
 62
253
  6
CONTINUOUS
 90
10
 70
0
 10
-6.053700442
 20
-42.4607445769
 10
-6.0548420325
 20
-42.4738179383
 10
-6.0582581161
 20
-42.4867918036
 10
-6.0639226941
 20
-42.4995674337
 10
-6.0717926557
 20
-42.5120475984
 10
-6.0818081059
 20
-42.5241373162
 10
-6.0938928208
 20
-42.5357445769
 10
-6.1079548287
 20
-42.5467810424
 10
-6.123887109
 20
-42.5571627184
 10
-6.1415684076
 20
-42.5668105941
  0
LWPOLYLINE
  5
36A
100
AcDbEntity
  8
RACCORDO
100
AcDbPolyline
 62
7
  6
CONTINUOUS
 90
8
 70
0
 10
-6.0547982236
 20
-42.4863849818
 10
-6.0581161911
 20
-42.5120274102
 10
-6.0636701849
 20
-42.5374417084
 10
-6.071444852
 20
-42.562389944
 10
-6.0813976465
 20
-42.5866460706
 10
-6.0934690793
 20
-42.6100082292
 10
-6.1075904127
 20
-42.6322958856
 10
-6.1236358051
 20
-42.653280969
  0
LWPOLYLINE
  5
36B
100
AcDbEntity
  8
RACCORDO
100
AcDbPolyline
 62
253
  6
CONTINUOUS
 90
113
 70
0
 10
10.3912380889
 20
13.7716722768
 10
10.0688326442
 20
13.3351156036
 10
9.7587657903
 20
12.9121816221
 10
9.461041088
 20
12.5028667148
 10
9.1743221934
 20
12.1053371846
 10
8.8983935311
 20
11.7193000394
 10
8.6332356756
 20
11.3447521649
 10
8.3778799451
 20
10.9803562286
 10
8.1321472075
 20
10.6258902052
 10
7.8959680022
 20
10.2813079649
 10
7.6685977741
 20
9.9455825462
 10
7.4498214508
 20
9.6184547471
 10
7.2396094879
 20
9.2999554612
 10
7.0375349496
 20
8.9895228519
 10
6.8434315535
 20
8.6869913036
 10
6.6572044957
 20
8.3923127354
 10
6.4785554296
 20
8.1051042028
 10
6.3073495306
 20
7.8252431402
 10
6.1434482727
 20
7.5526142229
 10
5.9865614157
 20
7.2868558026
 10
5.8365608763
 20
7.0278818644
 10
5.6932883064
 20
6.7755656376
 10
5.5564258343
 20
6.5294993876
 10
5.4257901148
 20
6.2895082635
 10
5.3012830385
 20
6.0555812893
 10
5.1827258969
 20
5.8275670454
 10
5.0698765199
 20
5.6051895932
 10
4.9626858067
 20
5.3885542353
 10
4.8612475352
 20
5.1780730849
 10
4.7653887383
 20
4.9736346963
 10
4.674948433
 20
4.7751627165
 10
4.5899892124
 20
4.583105498
 10
4.5104262772
 20
4.3976392808
 10
4.4359355659
 20
4.2183974062
 10
4.3662062002
 20
4.0450141416
 10
4.3012231871
 20
3.8778514885
 10
4.2406266061
 20
3.7163916974
 10
4.1836757269
 20
3.5589825508
 10
4.1303023603
 20
3.4056954038
 10
4.0803524474
 20
3.2563659355
 10
4.0331152545
 20
3.1090405808
 10
3.9885724049
 20
2.9637240482
 10
3.9466903766
 20
2.8203771158
 10
3.9069191734
 20
2.677047083
 10
3.869220689
 20
2.5333269795
 10
3.8338024377
 20
2.3897141842
 10
3.8006143172
 20
2.2456690237
 10
3.7697013567
 20
2.1009148175
 10
3.7412611423
 20
1.9558489156
 10
3.7154835862
 20
1.8109473192
 10
3.6924110722
 20
1.665892745
 10
3.6722146437
 20
1.5211189296
 10
3.6551605196
 20
1.3781875248
 10
3.6412505592
 20
1.2370812397
 10
3.6304926567
 20
1.097862373
 10
3.6229470666
 20
0.9621475686
 10
3.6184963753
 20
0.8302154937
 10
3.6169974977
 20
0.7017712591
 10
3.6183107481
 20
0.5775100483
 10
3.6222572818
 20
0.4575668429
 10
3.6286672512
 20
0.3417221101
 10
3.6373565341
 20
0.2301060893
 10
3.6481100867
 20
0.1229930501
 10
3.6607751222
 20
0.0199848597
 10
3.6753044081
 20
-0.0797814163
 10
3.691564587
 20
-0.176271685
 10
3.7094442948
 20
-0.269602649
 10
3.7290280635
 20
-0.3608035529
 10
3.7502051457
 20
-0.4497749237
 10
3.7729153685
 20
-0.5366333276
 10
3.7974537691
 20
-0.6226511339
 10
3.8238154958
 20
-0.7077813777
 10
3.8520007161
 20
-0.7919942838
 10
3.8824687457
 20
-0.8764869513
 10
3.9153664163
 20
-0.9613778328
 10
3.9506820908
 20
-1.0464232353
 10
3.9887530756
 20
-1.1322001564
 10
4.0298116875
 20
-1.2189262129
 10
4.0738219065
 20
-1.306241968
 10
4.1207384252
 20
-1.3938445315
 10
4.1706774612
 20
-1.4817628135
 10
4.2236788493
 20
-1.5698661774
 10
4.2795283551
 20
-1.6576513202
 10
4.3383355289
 20
-1.7451849133
 10
4.4000902994
 20
-1.8323556427
 10
4.4643096824
 20
-1.918456252
 10
4.5309510489
 20
-2.0034651062
 10
4.6000354179
 20
-2.0874460292
 10
4.6710793174
 20
-2.1698852699
 10
4.7439342076
 20
-2.2507273113
 10
4.8186395324
 20
-2.3301284366
 10
4.8949407723
 20
-2.4079248889
 10
4.9726606042
 20
-2.4840464965
 10
5.0518580731
 20
-2.5586562649
 10
5.1326343224
 20
-2.6319358288
 10
5.21472786
 20
-2.7037340455
 10
5.2983044654
 20
-2.7742790458
 10
5.3841673774
 20
-2.8442834962
 10
5.4723219717
 20
-2.9137515887
 10
5.5627751511
 20
-2.9826904913
 10
5.6564297366
 20
-3.0517591078
 10
5.7533705059
 20
-3.1209608544
 10
5.8536156284
 20
-3.1902531963
 10
5.9580584043
 20
-3.2601704815
 10
6.0669383596
 20
-3.3307610211
 10
6.1802012964
 20
-3.4018831084
 10
6.2983612354
 20
-3.4737507009
 10
6.4216973479
 20
-3.5464137393
 10
6.5501429787
 20
-3.6197200133
 10
6.6837054342
 20
-3.6935752662
 10
6.8224748129
 20
-3.7679407986
 10
6.9665367964
 20
-3.8427810771
 10
7.0575304126
 20
-3.888892935
  0
LINE
  5
36C
100
AcDbEntity
  8
RACCORDO
100
AcDbLine
 62
253
  6
CONTINUOUS
 10
11.0754464242
 20
14.6890411388
 11
10.3912380889
 21
13.7716722768
  0
LINE
  5
36D
100
AcDbEntity
  8
RACCORDO
100
AcDbLine
 62
253
  6
CONTINUOUS
 10
11.7696503917
 20
14.9100477475
 11
11.0583498747
 21
13.9618483568
  0
LINE
  5
36E
100
AcDbEntity
  8
RACCORDO
100
AcDbLine
 62
253
  6
CONTINUOUS
 10
11.8167438957
 20
15.6720501371
 11
11.0754464242
 21
14.6890411388
  0
LINE
  5
36F
100
AcDbEntity
  8
RACCORDO
100
AcDbLine
 62
253
  6
CONTINUOUS
 10
12.5411074778
 20
15.9284020651
 11
11.7696503917
 21
14.9100477475
  0
LINE
  5
370
100
AcDbEntity
  8
RACCORDO
100
AcDbLine
 62
253
  6
CONTINUOUS
 10
12.6231519437
 20
16.7324086087
 11
11.8167438957
 21
15.6720501371
  0
LINE
  5
371
100
AcDbEntity
  8
RACCORDO
100
AcDbLine
 62
253
  6
CONTINUOUS
 10
16.481374135
 20
21.7776430599
 11
15.4647225176
 21
20.4431714542
  0
LINE
  5
372
100
AcDbEntity
  8
RACCORDO
100
AcDbLine
 62
253
  6
CONTINUOUS
 10
16.811285063
 20
21.5143827653
 11
15.7935632893
 21
20.1788452898
  0
LINE
  5
373
100
AcDbEntity
  8
RACCORDO
100
AcDbLine
 62
253
  6
CONTINUOUS
 10
13.8280896025
 20
17.6132742224
 11
12.5411074778
 21
15.9284020651
  0
LWPOLYLINE
  5
374
100
AcDbEntity
  8
RACCORDO
100
AcDbPolyline
 62
253
  6
CONTINUOUS
 90
3
 70
0
 10
15.7935632893
 20
20.1788452898
 10
14.789600982
 20
18.867108964
 10
13.8280896025
 20
17.6132742224
  0
LWPOLYLINE
  5
375
100
AcDbEntity
  8
RACCORDO
100
AcDbPolyline
 62
253
  6
CONTINUOUS
 90
3
 70
0
 10
15.4647225176
 20
20.4431714542
 10
14.4606376707
 20
19.1319144183
 10
12.6231519437
 20
16.7324086087
  0
LWPOLYLINE
  5
376
100
AcDbEntity
  8
RACCORDO
100
AcDbPolyline
 62
7
  6
CONTINUOUS
 90
11
 70
0
 10
11.9212735425
 20
-5.6905250282
 10
13.5097412453
 20
-6.1784476415
 10
14.2350862593
 20
-6.4056621449
 10
14.9279966068
 20
-6.6299596524
 10
15.570463467
 20
-6.8474740939
 10
16.1514747064
 20
-7.0549887343
 10
16.6818305829
 20
-7.2560361141
 10
17.1764901308
 20
-7.4561925171
 10
17.6372781815
 20
-7.6563407894
 10
18.0621899474
 20
-7.8554185827
 10
18.193939184
 20
-7.9204707785
  0
LINE
  5
377
100
AcDbEntity
  8
RACCORDO
100
AcDbLine
 62
253
  6
CONTINUOUS
 10
12.0283545476
 20
-5.4501103268
 11
13.8790739122
 21
-6.0191529485
  0
LINE
  5
378
100
AcDbEntity
  8
RACCORDO
100
AcDbLine
 62
253
  6
CONTINUOUS
 10
12.2810916239
 20
-4.5939733409
 11
13.9397803252
 21
-5.1038293213
  0
LINE
  5
379
100
AcDbEntity
  8
RACCORDO
100
AcDbLine
 62
253
  6
CONTINUOUS
 10
12.1860472581
 20
-4.212706166
 11
13.8445091021
 21
-4.7224487613
  0
LINE
  5
37A
100
AcDbEntity
  8
RACCORDO
100
AcDbLine
 62
253
  6
CONTINUOUS
 10
8.722091316
 20
-2.4805640193
 11
10.1030141462
 21
-2.9022991384
  0
LINE
  5
37B
100
AcDbEntity
  8
RACCORDO
100
AcDbLine
 62
253
  6
CONTINUOUS
 10
13.8445091021
 20
-4.7224487613
 11
14.46867919
 21
-4.916250704
  0
LINE
  5
37C
100
AcDbEntity
  8
RACCORDO
100
AcDbLine
 62
253
  6
CONTINUOUS
 10
10.3810773647
 20
-2.9904658743
 11
11.0054242585
 21
-3.1843307323
  0
LINE
  5
37D
100
AcDbEntity
  8
RACCORDO
100
AcDbLine
 62
253
  6
CONTINUOUS
 10
13.9397803252
 20
-5.1038293213
 11
14.5634614904
 21
-5.2974253576
  0
LINE
  5
37E
100
AcDbEntity
  8
RACCORDO
100
AcDbLine
 62
253
  6
CONTINUOUS
 10
11.4545080959
 20
-5.2706658726
 11
12.0283545476
 21
-5.4501103268
  0
LINE
  5
37F
100
AcDbEntity
  8
RACCORDO
100
AcDbLine
 62
253
  6
CONTINUOUS
 10
13.8790739122
 20
-6.0191529485
 11
14.4743723617
 21
-6.2056293418
  0
LINE
  5
380
100
AcDbEntity
  8
RACCORDO
100
AcDbLine
 62
253
  6
CONTINUOUS
 10
11.6938105624
 20
-4.0584746506
 11
12.1860472581
 21
-4.212706166
  0
LINE
  5
381
100
AcDbEntity
  8
RACCORDO
100
AcDbLine
 62
253
  6
CONTINUOUS
 10
8.2297227529
 20
-2.3262956809
 11
8.722091316
 21
-2.4805640193
  0
LINE
  5
382
100
AcDbEntity
  8
RACCORDO
100
AcDbLine
 62
253
  6
CONTINUOUS
 10
11.7883561775
 20
-4.4395274581
 11
12.2810916239
 21
-4.5939733409
  0
LWPOLYLINE
  5
383
100
AcDbEntity
  8
RACCORDO
100
AcDbPolyline
 62
253
  6
CONTINUOUS
 90
166
 70
0
 10
14.4743723617
 20
-6.2056293418
 10
14.7592644998
 20
-6.2964781529
 10
15.0335849646
 20
-6.3853518457
 10
15.2982163905
 20
-6.4724111066
 10
15.5522537364
 20
-6.5574734708
 10
15.7950067836
 20
-6.6403804403
 10
16.0271657509
 20
-6.7212905132
 10
16.2498962531
 20
-6.8004967192
 10
16.4629220798
 20
-6.8779082583
 10
16.6665194415
 20
-6.9536159305
 10
16.8626825849
 20
-7.0281851658
 10
17.0516427963
 20
-7.1016873095
 10
17.2331687895
 20
-7.1740510162
 10
17.4085609526
 20
-7.2456276796
 10
17.578144509
 20
-7.3165508461
 10
17.7415942353
 20
-7.3866869694
 10
17.8992348495
 20
-7.4559868036
 10
18.0510881034
 20
-7.5244771104
 10
18.1971322451
 20
-7.5921311282
 10
18.3376267365
 20
-7.6588193272
 10
18.4724463488
 20
-7.7244853314
 10
18.6017163108
 20
-7.7891855167
 10
18.7260717715
 20
-7.8529594818
 10
18.8453122181
 20
-7.915673998
 10
18.9596381635
 20
-7.9774622939
 10
19.0702862949
 20
-8.0387636537
 10
19.1772571893
 20
-8.0995222493
 10
19.2805502697
 20
-8.1597939088
 10
19.3814004922
 20
-8.2201854009
 10
19.4798431798
 20
-8.2806471169
 10
19.5758430096
 20
-8.3412286655
 10
19.6705289684
 20
-8.4026856405
 10
19.7642107001
 20
-8.4651660708
 10
19.8565785609
 20
-8.5285219275
 10
19.9478326067
 20
-8.5930647186
 10
20.0383037628
 20
-8.6590519207
 10
20.1276611038
 20
-8.7262260571
 10
20.2151119101
 20
-8.794126206
 10
20.3005057955
 20
-8.862685099
 10
20.3839931461
 20
-8.9319700046
 10
20.4652324004
 20
-9.0017218056
 10
20.5440803895
 20
-9.0718270155
 10
20.6206802823
 20
-9.1423991209
 10
20.6951200239
 20
-9.213519465
 10
20.7674619187
 20
-9.2852486845
 10
20.8376436623
 20
-9.3575261427
 10
20.9055662864
 20
-9.4302512723
 10
20.9712822977
 20
-9.5035178341
 10
21.0347391894
 20
-9.5772320673
 10
21.0956804734
 20
-9.6510121227
 10
21.1539508278
 20
-9.7246921654
 10
21.2097055745
 20
-9.7984380302
 10
21.2631541913
 20
-9.8723653719
 10
21.3141842238
 20
-9.9462262581
 10
21.3629081264
 20
-10.0202686211
 10
21.4098727411
 20
-10.0953519124
 10
21.4551993508
 20
-10.1715166386
 10
21.4987666725
 20
-10.2487222931
 10
21.5407576992
 20
-10.3277068073
 10
21.5813067762
 20
-10.4086876225
 10
21.6202795582
 20
-10.4914472975
 10
21.6574560028
 20
-10.5760714397
 10
21.6928341119
 20
-10.6626022073
 10
21.7264158835
 20
-10.7509974422
 10
21.7579872696
 20
-10.8412162778
 10
21.7875381293
 20
-10.9332793294
 10
21.8150786034
 20
-11.0271659817
 10
21.8404250667
 20
-11.1227735218
 10
21.8635601817
 20
-11.2201027694
 10
21.8845012857
 20
-11.3191529048
 10
21.9031167655
 20
-11.4198187549
 10
21.9193870352
 20
-11.5220897799
 10
21.9333316806
 20
-11.6259765195
 10
21.9448778453
 20
-11.7314054207
 10
21.9540096082
 20
-11.8384242062
 10
21.9607428904
 20
-11.9469851532
 10
21.9650525996
 20
-12.0568715398
 10
21.9669169665
 20
-12.1681269852
 10
21.9663577603
 20
-12.2807078702
 10
21.9634151961
 20
-12.394266616
 10
21.958084567
 20
-12.5087335543
 10
21.95037058
 20
-12.6241783533
 10
21.9403275706
 20
-12.7404624397
 10
21.9279522156
 20
-12.8575577395
 10
21.9132478382
 20
-12.9754923265
 10
21.8962787438
 20
-13.094211849
 10
21.8770040773
 20
-13.2138614114
 10
21.8554646937
 20
-13.3342959092
 10
21.831847463
 20
-13.4550256773
 10
21.8061385928
 20
-13.576002104
 10
21.7783518754
 20
-13.697273801
 10
21.7487155589
 20
-13.8184969378
 10
21.717398578
 20
-13.9391400045
 10
21.6842319979
 20
-14.059734511
 10
21.6489372623
 20
-14.1815311565
 10
21.611642544
 20
-14.3043898848
 10
21.5722196704
 20
-14.428450752
 10
21.5300055667
 20
-14.5553846264
 10
21.4850790367
 20
-14.6852253841
 10
21.4373612767
 20
-14.817939149
 10
21.3859528011
 20
-14.9550951596
 10
21.3308448106
 20
-15.0969024268
 10
21.2720461045
 20
-15.2431519397
 10
21.2086835951
 20
-15.3947859052
 10
21.1406348487
 20
-15.5521453157
 10
21.068022299
 20
-15.7148891787
 10
20.9903401592
 20
-15.8829367231
 10
20.9075475222
 20
-16.056351338
 10
20.8196852952
 20
-16.2350696344
 10
20.7263704128
 20
-16.4188206745
 10
20.6276285014
 20
-16.6075404
 10
20.5234339347
 20
-16.8012928692
 10
20.4133267676
 20
-16.9999993194
 10
20.2974028191
 20
-17.2035029297
 10
20.1755662702
 20
-17.4119605211
 10
20.0470697196
 20
-17.6257637935
 10
19.9119272253
 20
-17.8449238946
 10
19.7701247293
 20
-18.0694296768
 10
19.6208726558
 20
-18.2996393966
 10
19.4641846824
 20
-18.535575292
 10
19.3000471315
 20
-18.7772151251
 10
19.1276293944
 20
-19.0248504387
 10
18.946944678
 20
-19.2785052165
 10
18.7579797754
 20
-19.5381554748
 10
18.5598644573
 20
-19.8040208053
 10
18.3526374793
 20
-20.0760966155
 10
18.1362600858
 20
-20.3543874979
 10
17.9097457814
 20
-20.6391268214
 10
17.6731393105
 20
-20.9303009199
 10
17.4263959288
 20
-21.2279234595
 10
17.1683949074
 20
-21.5322688066
 10
16.899175354
 20
-21.8433404803
 10
16.618698161
 20
-22.1611349614
 10
16.325725277
 20
-22.4859160592
 10
16.0203077703
 20
-22.8176968766
 10
15.7023945727
 20
-23.1564643107
 10
15.3705944279
 20
-23.5024428619
 10
15.0249901037
 20
-23.8556334139
 10
14.6654988323
 20
-24.216035083
 10
14.2904810543
 20
-24.5838697185
 10
13.8999999568
 20
-24.9591761031
 10
13.4939923527
 20
-25.3419154539
 10
13.0706291219
 20
-25.7321932719
 10
12.6299547268
 20
-26.1300838225
 10
12.1719247049
 20
-26.5355128402
 10
11.6945765493
 20
-26.9483630291
 10
11.1982379881
 20
-27.3685266999
 10
10.6825812932
 20
-27.7961115419
 10
10.1446607723
 20
-28.2313233277
 10
9.5842721734
 20
-28.6745300476
 10
9.0016197485
 20
-29.1253637111
 10
8.394370562
 20
-29.5829261198
 10
7.7593026211
 20
-30.0494647754
 10
7.0996379185
 20
-30.522732176
 10
6.4227094962
 20
-30.9950876177
 10
5.7216169154
 20
-31.4700490409
 10
5.0032606149
 20
-31.9440985051
 10
4.2956749524
 20
-32.399041485
 10
3.6043299042
 20
-32.8301706809
 10
2.923755494
 20
-33.2421933924
 10
2.2655761503
 20
-33.6310369929
 10
1.6324263472
 20
-33.9948993912
 10
1.0216716107
 20
-34.3355826785
 10
0.437032947
 20
-34.6544205014
 10
-0.1202493083
 20
-34.9518574091
 10
-0.6514154907
 20
-35.2274488524
  0
LWPOLYLINE
  5
384
100
AcDbEntity
  8
RACCORDO
100
AcDbPolyline
 62
253
  6
CONTINUOUS
 90
155
 70
0
 10
14.5634614904
 20
-5.2974253576
 10
15.207584188
 20
-5.5021290572
 10
15.5273632404
 20
-5.6063766956
 10
15.8416556012
 20
-5.7111112297
 10
16.1514403877
 20
-5.8164614988
 10
16.4506968215
 20
-5.9208696492
 10
16.738218632
 20
-6.0241493987
 10
17.0152120898
 20
-6.1264870296
 10
17.279275228
 20
-6.2268835342
 10
17.5287429928
 20
-6.3247962419
 10
17.7652804379
 20
-6.4207678234
 10
17.9914807576
 20
-6.5154272839
 10
18.2073805979
 20
-6.6087347406
 10
18.4129433129
 20
-6.7007300763
 10
18.6106521585
 20
-6.7921619447
 10
18.8010061731
 20
-6.8832163708
 10
18.9835063184
 20
-6.9737073296
 10
19.1591387345
 20
-7.0638254003
 10
19.3279874037
 20
-7.1536054999
 10
19.4899683438
 20
-7.2430127115
 10
19.6458157477
 20
-7.3321328625
 10
19.7956360769
 20
-7.4210306501
 10
19.9393228699
 20
-7.5096413772
 10
20.0772909357
 20
-7.5978567797
 10
20.2095965659
 20
-7.6857332729
 10
20.336183469
 20
-7.7732144415
 10
20.4572975795
 20
-7.8600227758
 10
20.5729145529
 20
-7.94615888
 10
20.6830587337
 20
-8.0316221498
 10
20.7880490897
 20
-8.1161332631
 10
20.8877024358
 20
-8.1995309017
 10
20.982201957
 20
-8.2819763837
 10
21.0724161767
 20
-8.3636743406
 10
21.1582540642
 20
-8.4444544029
 10
21.2398066503
 20
-8.5244869402
 10
21.31821555
 20
-8.6044876927
 10
21.393528654
 20
-8.6843642982
 10
21.4656980716
 20
-8.764209119
 10
21.5357217459
 20
-8.8450149822
 10
21.6037301172
 20
-8.9267598389
 10
21.6695927453
 20
-9.009465738
 10
21.733916253
 20
-9.0941916541
 10
21.7970610772
 20
-9.1813333446
 10
21.858666781
 20
-9.270495052
 10
21.9182586764
 20
-9.3615484785
 10
21.9758546665
 20
-9.4546216465
 10
22.0314368483
 20
-9.5495865335
 10
22.0844768242
 20
-9.6459307741
 10
22.1347861903
 20
-9.7434154973
 10
22.1825533505
 20
-9.842279574
 10
22.2278151194
 20
-9.9427272521
 10
22.2705802238
 20
-10.04472494
 10
22.3108399368
 20
-10.1483062292
 10
22.348604892
 20
-10.2537761413
 10
22.3839179675
 20
-10.3612653755
 10
22.4167362852
 20
-10.4706432327
 10
22.446941845
 20
-10.5818226371
 10
22.4745161235
 20
-10.694847447
 10
22.499477644
 20
-10.8096738042
 10
22.5217639759
 20
-10.9260830575
 10
22.5413603373
 20
-11.04407972
 10
22.55828151
 20
-11.1636592787
 10
22.5725094091
 20
-11.2845895436
 10
22.584032487
 20
-11.4068329737
 10
22.5928622912
 20
-11.5304271101
 10
22.5990153793
 20
-11.6552523858
 10
22.6024913257
 20
-11.7812622076
 10
22.6032905559
 20
-11.9085031688
 10
22.6014309045
 20
-12.0369954821
 10
22.5968973382
 20
-12.166828368
 10
22.5897048903
 20
-12.2979126061
 10
22.5799164954
 20
-12.4300007472
 10
22.5675074922
 20
-12.5631530301
 10
22.5525025419
 20
-12.697309216
 10
22.5350385635
 20
-12.8320411405
 10
22.5151307624
 20
-12.9672012622
 10
22.4927639332
 20
-13.1029371225
 10
22.4680293779
 20
-13.2392631805
 10
22.4409450023
 20
-13.3761489592
 10
22.4114929008
 20
-13.5136249358
 10
22.3797106585
 20
-13.6517970006
 10
22.3455323943
 20
-13.7908943572
 10
22.3090239893
 20
-13.9306878021
 10
22.2704206727
 20
-14.0705956152
 10
22.2297352384
 20
-14.2105001232
 10
22.1869548924
 20
-14.3505189994
 10
22.1422764821
 20
-14.4904235439
 10
22.0959461595
 20
-14.6295886595
 10
22.0477177725
 20
-14.7686394434
 10
21.9970497123
 20
-14.9092224875
 10
21.9440779984
 20
-15.0512287791
 10
21.8886666113
 20
-15.1947673309
 10
21.8298658832
 20
-15.3418117722
 10
21.7677549377
 20
-15.4924142976
 10
21.7022546513
 20
-15.6465227126
 10
21.6321779865
 20
-15.8059540632
 10
21.5574545732
 20
-15.9710368189
 10
21.4781547814
 20
-16.1414425102
 10
21.3933026834
 20
-16.318002775
 10
21.3027509414
 20
-16.501061109
 10
21.2066468931
 20
-16.6902740166
 10
21.1044566241
 20
-16.885442648
 10
20.9961436411
 20
-17.0866078749
 10
20.8817444374
 20
-17.2937288257
 10
20.7608345778
 20
-17.5064840361
 10
20.6335103122
 20
-17.7247133575
 10
20.4996753908
 20
-17.9485769384
 10
20.3586166295
 20
-18.1782337609
 10
20.2104272051
 20
-18.4135784797
 10
20.0550139409
 20
-18.6547164401
 10
19.8913841223
 20
-18.902122659
 10
19.7195417452
 20
-19.1558388926
 10
19.5394828138
 20
-19.4158233848
 10
19.350202626
 20
-19.6824258848
 10
19.1517079325
 20
-19.9556756997
 10
18.9439919827
 20
-20.2355435224
 10
18.726029823
 20
-20.5222911808
 10
18.4978413479
 20
-20.8159316865
 10
18.259406663
 20
-21.1164520279
 10
18.0096411318
 20
-21.4240749981
 10
17.7486179363
 20
-21.7387780484
 10
17.4762638945
 20
-22.0605837275
 10
17.1912748238
 20
-22.3897824746
 10
16.8936996551
 20
-22.7263904126
 10
16.5834894575
 20
-23.0703914185
 10
16.2591932563
 20
-23.4220275629
 10
15.9208719457
 20
-23.7813107351
 10
15.5684646313
 20
-24.1482290458
 10
15.2003376553
 20
-24.5229888969
 10
14.8165590264
 20
-24.9056155226
 10
14.4170607359
 20
-25.2960836888
 10
14.0000050986
 20
-25.6945240943
 10
13.565500525
 20
-26.1009611857
 10
13.1134386046
 20
-26.5153705165
 10
12.6416564213
 20
-26.9378094462
 10
12.1502837137
 20
-27.3683233331
 10
11.639190743
 20
-27.8068668189
 10
11.105825377
 20
-28.2533611876
 10
10.5501740542
 20
-28.7080064545
 10
9.9722503359
 20
-29.1706026042
 10
9.3695427744
 20
-29.6404708751
 10
8.742797015
 20
-30.1173472203
 10
8.0912674122
 20
-30.6014956867
 10
7.4102055819
 20
-31.0930296539
 10
6.6916993811
 20
-31.5970932799
 10
5.9436609527
 20
-32.1085424067
 10
5.1850783421
 20
-32.6120579401
 10
4.4126931606
 20
-33.1080405296
 10
3.6297637968
 20
-33.5960895257
 10
2.865053462
 20
-34.0596838846
 10
2.1234603779
 20
-34.4945774391
 10
1.4000863228
 20
-34.9050163565
 10
0.7089998429
 20
-35.287218095
 10
0.0548904534
 20
-35.6399218072
 10
-0.566931361
 20
-35.9643883405
  0
LWPOLYLINE
  5
385
100
AcDbEntity
  8
RACCORDO
100
AcDbPolyline
 62
253
  6
CONTINUOUS
 90
17
 70
0
 10
14.46867919
 20
-4.916250704
 10
15.1136882207
 20
-5.1212626105
 10
15.4341332784
 20
-5.2257003473
 10
15.7493582091
 20
-5.3305599763
 10
16.0598167201
 20
-5.4362433868
 10
16.3598693919
 20
-5.5410134198
 10
16.6484744746
 20
-5.6445748062
 10
16.9265153606
 20
-5.7472741571
 10
17.1915253602
 20
-5.8481659908
 10
17.4420637801
 20
-5.9465584585
 10
17.6798533914
 20
-6.0429456091
 10
17.9072300816
 20
-6.138129546
 10
18.1242994658
 20
-6.2320255583
 10
18.3312157521
 20
-6.3245476115
 10
18.5302453225
 20
-6.416585005
 10
18.7219289769
 20
-6.5083128772
 10
18.859318604
 20
-6.5760825863
  0
LWPOLYLINE
  5
386
100
AcDbEntity
  8
RACCORDO
100
AcDbPolyline
 62
253
  6
CONTINUOUS
 90
4
 70
0
 10
11.0054242585
 20
-3.1843307323
 10
11.6504869601
 20
-3.3893747299
 10
11.9709181797
 20
-3.4938180369
 10
12.2861008225
 20
-3.5986750846
  0
LINE
  5
387
100
AcDbEntity
  8
RACCORDO
100
AcDbLine
 62
253
  6
CONTINUOUS
 10
11.3213937453
 20
-4.2901590847
 11
11.7883561775
 21
-4.4395274581
  0
LINE
  5
388
100
AcDbEntity
  8
RACCORDO
100
AcDbLine
 62
253
  6
CONTINUOUS
 10
11.2276633433
 20
-3.9093195586
 11
11.6938105624
 21
-4.0584746506
  0
LINE
  5
389
100
AcDbEntity
  8
RACCORDO
100
AcDbLine
 62
253
  6
CONTINUOUS
 10
7.7634409511
 20
-2.1771026074
 11
8.2297227529
 21
-2.3262956809
  0
LWPOLYLINE
  5
38A
100
AcDbEntity
  8
RACCORDO
100
AcDbPolyline
 62
7
  6
CONTINUOUS
 90
10
 70
0
 10
7.0572895032
 20
-3.8887734628
 10
7.4461607912
 20
-4.0768157546
 10
7.8748220274
 20
-4.2694566155
 10
8.3313433249
 20
-4.4607164161
 10
8.8168872373
 20
-4.6512891469
 10
9.3424258501
 20
-4.8455213228
 10
9.9054159737
 20
-5.0426014622
 10
10.508024932
 20
-5.2438163332
 10
11.1686090906
 20
-5.4559087723
 10
11.9212735425
 20
-5.6905250282
  0
LINE
  5
38B
100
AcDbEntity
  8
0
100
AcDbLine
 62
7
  6
CONTINUOUS
 10
3.6125633926
 20
-2.1664294884
 11
7.0773866204
 21
-3.8988411023
  0
LINE
  5
38C
100
AcDbEntity
  8
RACCORDO
100
AcDbLine
 62
7
  6
CONTINUOUS
 10
3.5945794926
 20
-2.1574210856
 11
3.6125633926
 21
-2.1664294884
  0
LINE
  5
38D
100
AcDbEntity
  8
RACCORDO
100
AcDbLine
 62
7
  6
CONTINUOUS
 10
7.0575304126
 20
-3.888892935
 11
7.0773866204
 21
-3.8988411023
  0
LINE
  5
38E
100
AcDbEntity
  8
RACCORDO
100
AcDbLine
 62
253
  6
CONTINUOUS
 10
3.4953855037
 20
-2.1071300712
 11
3.5945794926
 21
-2.1574210856
  0
LWPOLYLINE
  5
38F
100
AcDbEntity
  8
RACCORDO
100
AcDbPolyline
 62
253
  6
CONTINUOUS
 90
3
 70
0
 10
3.0798101031
 20
-1.8842111
 10
3.2131014453
 20
-1.9580146873
 10
3.3515984513
 20
-2.0323332048
  0
LINE
  5
390
100
AcDbEntity
  8
RACCORDO
100
AcDbLine
 62
253
  6
CONTINUOUS
 10
2.8285566548
 20
-1.7383550477
 11
2.9516323459
 21
-1.8109604915
  0
LINE
  5
391
100
AcDbEntity
  8
RACCORDO
100
AcDbLine
 62
253
  6
CONTINUOUS
 10
2.5976379535
 20
-1.595490751
 11
2.7106526233
 21
-1.6665490652
  0
LINE
  5
392
100
AcDbEntity
  8
RACCORDO
100
AcDbLine
 62
253
  6
CONTINUOUS
 10
2.3847489427
 20
-1.4550891315
 11
2.4889861835
 21
-1.5249576677
  0
LWPOLYLINE
  5
393
100
AcDbEntity
  8
RACCORDO
100
AcDbPolyline
 62
253
  6
CONTINUOUS
 90
132
 70
0
 10
8.5562761558
 20
9.5083909597
 10
8.3841213252
 20
9.2534793963
 10
8.2182408222
 20
9.0053397312
 10
8.0580894099
 20
8.7633540821
 10
7.9036540874
 20
8.5275020937
 10
7.7549478556
 20
8.2978041212
 10
7.6114644808
 20
8.0737033485
 10
7.4732000778
 20
7.8551908338
 10
7.3401585318
 20
7.6422755187
 10
7.2118452649
 20
7.4344274123
 10
7.0882128023
 20
7.2315736122
 10
6.9693086187
 20
7.0337870207
 10
6.8547805606
 20
6.8407563536
 10
6.7445645252
 20
6.6523662926
 10
6.6387246152
 20
6.468732156
 10
6.5371009853
 20
6.2898886144
 10
6.4396957303
 20
6.1158210598
 10
6.3465067554
 20
5.9465441
 10
6.2573679308
 20
5.7821362291
 10
6.1723386855
 20
5.6226972178
 10
6.0913595905
 20
5.4681272952
 10
6.0140862285
 20
5.3182056427
 10
5.9406622475
 20
5.1732424139
 10
5.8709439994
 20
5.0329274551
 10
5.8041561229
 20
4.8961094873
 10
5.7402984734
 20
4.7628698539
 10
5.6793711955
 20
4.6331272113
 10
5.6205993616
 20
4.5054862498
 10
5.5639407966
 20
4.379969861
 10
5.5094376758
 20
4.2565551531
 10
5.4564415967
 20
4.1337781411
 10
5.4048079284
 20
4.0114094653
 10
5.3546813019
 20
3.8896784854
 10
5.3058472082
 20
3.7678092951
 10
5.2580755569
 20
3.6452131696
 10
5.2115964383
 20
3.5224788338
 10
5.1668856142
 20
3.400596556
 10
5.1240266102
 20
3.2797049972
 10
5.0829359006
 20
3.1596654964
 10
5.0438386705
 20
3.0410523387
 10
5.0068619371
 20
2.9242743081
 10
4.9718786831
 20
2.8089226206
 10
4.9387330421
 20
2.6943452097
 10
4.9073704541
 20
2.5804634829
 10
4.8778454791
 20
2.4673560327
 10
4.8501659302
 20
2.3546065694
 10
4.8242701434
 20
2.2419918448
 10
4.8002197827
 20
2.1297351072
 10
4.7782076526
 20
2.018089812
 10
4.7582467585
 20
1.9070438513
 10
4.7403240951
 20
1.796609333
 10
4.724593451
 20
1.6870760364
 10
4.7110709161
 20
1.5784670179
 10
4.6997404005
 20
1.4707592211
 10
4.6907074231
 20
1.3641732557
 10
4.6839775195
 20
1.2587518697
 10
4.6795451541
 20
1.1544523151
 10
4.6774992394
 20
1.0513669578
 10
4.6778540266
 20
0.9495011585
 10
4.6805952645
 20
0.8488495565
 10
4.6857691117
 20
0.7494884356
 10
4.6934344494
 20
0.6512461474
 10
4.7035323964
 20
0.5542943403
 10
4.7159324684
 20
0.4592242437
 10
4.7306790879
 20
0.3661240516
 10
4.7477278323
 20
0.2749055699
 10
4.7668149489
 20
0.185895447
 10
4.7877672819
 20
0.0996516211
 10
4.810757987
 20
0.0156161539
 10
4.8360427789
 20
-0.0675581218
 10
4.8635016018
 20
-0.1499040368
 10
4.8932545116
 20
-0.2313887604
 10
4.9259173901
 20
-0.3132609676
 10
4.9615903793
 20
-0.395941993
 10
5.0001733374
 20
-0.4790105021
 10
5.0419817204
 20
-0.562451166
 10
5.0871807023
 20
-0.6464916305
 10
5.1356051092
 20
-0.7309042497
 10
5.1870748764
 20
-0.8149907576
 10
5.2418888474
 20
-0.8989741742
 10
5.2997481787
 20
-0.9826314794
 10
5.3595762743
 20
-1.064595347
 10
5.4213310429
 20
-1.1446030935
 10
5.4850545758
 20
-1.2229174024
 10
5.5497965514
 20
-1.298958998
 10
5.6153073294
 20
-1.3724104237
 10
5.6818365502
 20
-1.443589136
 10
5.7491828131
 20
-1.5128682285
 10
5.8171981369
 20
-1.5801638332
 10
5.8860305027
 20
-1.645559818
 10
5.9559224533
 20
-1.7096808807
 10
6.0267376679
 20
-1.7724954739
 10
6.0986124673
 20
-1.8340351449
 10
6.1721983571
 20
-1.8950192332
 10
6.2476273607
 20
-1.9556144832
 10
6.3247674547
 20
-2.0156541505
 10
6.4038740742
 20
-2.0753573414
 10
6.4851873248
 20
-2.1348950728
 10
6.5684671009
 20
-2.1940963279
 10
6.6532485209
 20
-2.2526671627
 10
6.7393718496
 20
-2.3104817729
 10
6.8269968221
 20
-2.3676659628
 10
6.9161377623
 20
-2.4243032015
 10
7.0065311986
 20
-2.4802568311
 10
7.0984406026
 20
-2.5356635095
 10
7.1926707121
 20
-2.59101668
 10
7.2891838002
 20
-2.6463401738
 10
7.3880175938
 20
-2.7016101597
 10
7.4900900118
 20
-2.7572485874
 10
7.5953917926
 20
-2.8132861906
 10
7.7039321978
 20
-2.8696922357
 10
7.8166569309
 20
-2.9267964708
 10
7.9336995079
 20
-2.9846840393
 10
8.0549264128
 20
-3.0432697979
 10
8.1808828019
 20
-3.1026280648
 10
8.3117089111
 20
-3.1628203311
 10
8.4472645046
 20
-3.2237851056
 10
8.587674031
 20
-3.2854122341
 10
8.7329467605
 20
-3.3476909722
 10
8.883073423
 20
-3.4106320643
 10
9.0381506566
 20
-3.4741575889
 10
9.198113734
 20
-3.5382288683
 10
9.3630273825
 20
-3.6028845803
 10
9.5331824224
 20
-3.668162837
 10
9.7084880474
 20
-3.7340203435
 10
9.8890350637
 20
-3.8005003949
 10
10.0753867097
 20
-3.8677709878
 10
10.2675502332
 20
-3.9358204482
 10
10.4655183865
 20
-4.0046604503
 10
10.6698326648
 20
-4.074494013
 10
10.880615246
 20
-4.1453375082
 10
11.3213937453
 20
-4.2901590847
  0
LINE
  5
394
100
AcDbEntity
  8
RACCORDO
100
AcDbLine
 62
253
  6
CONTINUOUS
 10
8.9193912729
 20
10.0385004558
 11
8.5562761558
 21
9.5083909597
  0
LINE
  5
395
100
AcDbEntity
  8
RACCORDO
100
AcDbLine
 62
253
  6
CONTINUOUS
 10
9.3092623153
 20
10.5975992245
 11
8.9193912729
 21
10.0385004558
  0
LINE
  5
396
100
AcDbEntity
  8
RACCORDO
100
AcDbLine
 62
253
  6
CONTINUOUS
 10
9.7272002294
 20
11.1872628049
 11
9.3092623153
 21
10.5975992245
  0
LINE
  5
397
100
AcDbEntity
  8
RACCORDO
100
AcDbLine
 62
253
  6
CONTINUOUS
 10
10.1753620482
 20
11.8101346976
 11
9.7272002294
 21
11.1872628049
  0
LINE
  5
398
100
AcDbEntity
  8
RACCORDO
100
AcDbLine
 62
253
  6
CONTINUOUS
 10
10.6565395347
 20
12.4698426268
 11
10.1753620482
 21
11.8101346976
  0
LINE
  5
399
100
AcDbEntity
  8
RACCORDO
100
AcDbLine
 62
253
  6
CONTINUOUS
 10
11.1727762253
 20
13.1690918166
 11
10.6565395347
 21
12.4698426268
  0
LWPOLYLINE
  5
39A
100
AcDbEntity
  8
RACCORDO
100
AcDbPolyline
 62
253
  6
CONTINUOUS
 90
75
 70
0
 10
11.0583498747
 20
13.9618483568
 10
10.7242922578
 20
13.5125899363
 10
10.4027613016
 20
13.0772312537
 10
10.0936339107
 20
12.6555634094
 10
9.7970331805
 20
12.247795303
 10
9.5113956222
 20
11.8517788469
 10
9.236605061
 20
11.4673367481
 10
8.9727776717
 20
11.0946462997
 10
8.7186984895
 20
10.732091294
 10
8.4742950818
 20
10.3795570786
 10
8.2396398813
 20
10.0371583058
 10
8.013735221
 20
9.7036227254
 10
7.7964768854
 20
9.3787854649
 10
7.58796909
 20
9.0628113967
 10
7.3875268141
 20
8.7549228886
 10
7.1951105778
 20
8.4550579264
 10
7.0107598609
 20
8.1632785243
 10
6.833908083
 20
7.8789930924
 10
6.6645601205
 20
7.6021997432
 10
6.5027110968
 20
7.3329003642
 10
6.3477798015
 20
7.0705090279
 10
6.1997779127
 20
6.8150336864
 10
6.0586937523
 20
6.5664663876
 10
5.9239110744
 20
6.3241973478
 10
5.7953857588
 20
6.0881358159
 10
5.6731619257
 20
5.8583725429
 10
5.5567556903
 20
5.6345699989
 10
5.446085646
 20
5.4165417148
 10
5.3412331993
 20
5.2044741596
 10
5.241958685
 20
4.9985892106
 10
5.1482941113
 20
4.7988893442
 10
5.0602074701
 20
4.6053720839
 10
4.9773630715
 20
4.4182518777
 10
4.8998846363
 20
4.2377862842
 10
4.8276484437
 20
4.0637177448
 10
4.7599476415
 20
3.8954880314
 10
4.6968902433
 20
3.733496645
 10
4.6383682354
 20
3.5773440846
 10
4.5833507244
 20
3.4252736193
 10
4.5317748052
 20
3.2773580796
 10
4.483703383
 20
3.1335246351
 10
4.4382942792
 20
2.9917980632
 10
4.39543233
 20
2.8521395076
 10
4.3552326992
 20
2.7145878247
 10
4.3171987004
 20
2.5772843603
 10
4.2811251012
 20
2.4397490439
 10
4.2472171339
 20
2.302461946
 10
4.21559381
 20
2.1650046243
 10
4.1861736663
 20
2.0270537773
 10
4.159038166
 20
1.8889327064
 10
4.1345507099
 20
1.751192874
 10
4.1127243458
 20
1.6135140959
 10
4.0935460259
 20
1.4762165562
 10
4.0773400076
 20
1.3408122693
 10
4.0642391819
 20
1.2073179597
 10
4.0541106579
 20
1.0757169029
 10
4.0468800205
 20
0.9474709392
 10
4.0426607164
 20
0.822875636
 10
4.0413392989
 20
0.7016354259
 10
4.0425010132
 20
0.5843254476
 10
4.0461748649
 20
0.4711357137
 10
4.0523318484
 20
0.3618762114
 10
4.0604701916
 20
0.2565520412
 10
4.0705301246
 20
0.155476526
 10
4.0825714175
 20
0.0583363429
 10
4.0962716083
 20
-0.0358033768
 10
4.1115553411
 20
-0.1268991855
 10
4.128497972
 20
-0.2149945307
 10
4.1470031074
 20
-0.3011546237
 10
4.1669696943
 20
-0.3853465713
 10
4.1884987857
 20
-0.4676032667
 10
4.211797148
 20
-0.5490885996
 10
4.236760101
 20
-0.6298306141
 10
4.2634923249
 20
-0.7098012661
 10
4.2925146259
 20
-0.7900803131
  0
LINE
  5
39B
100
AcDbEntity
  8
RACCORDO
100
AcDbLine
 62
253
  6
CONTINUOUS
 10
11.7273532668
 20
13.9122687503
 11
11.1727762253
 21
13.1690918166
  0
LINE
  5
39C
100
AcDbEntity
  8
RACCORDO
100
AcDbLine
 62
7
  6
CONTINUOUS
 10
11.2098021848
 20
13.1074869616
 11
11.8959992374
 21
14.0259216746
  0
LINE
  5
39D
100
AcDbEntity
  8
RACCORDO
100
AcDbLine
 62
253
  6
CONTINUOUS
 10
12.3246204624
 20
14.7054434343
 11
11.7273532668
 21
13.9122687503
  0
LINE
  5
39E
100
AcDbEntity
  8
RACCORDO
100
AcDbLine
 62
7
  6
CONTINUOUS
 10
11.8959992374
 20
14.0259216746
 11
12.6485084659
 21
15.0223941859
  0
LINE
  5
39F
100
AcDbEntity
  8
RACCORDO
100
AcDbLine
 62
253
  6
CONTINUOUS
 10
17.557187087
 20
21.5607953098
 11
16.5638900846
 21
20.2531305881
  0
LWPOLYLINE
  5
3A0
100
AcDbEntity
  8
RACCORDO
100
AcDbPolyline
 62
7
  6
CONTINUOUS
 90
60
 70
0
 10
16.5975848962
 20
20.1868237412
 10
17.2553584288
 20
21.0517015229
 10
17.9576802673
 20
21.9808774669
 10
18.7067709951
 20
22.98036507
 10
19.5363047286
 20
24.0999744064
 10
20.4084374108
 20
25.295002393
 10
21.2199425027
 20
26.4271031593
 10
21.9351525505
 20
27.4441369632
 10
22.5911923797
 20
28.395693546
 10
23.1968882985
 20
29.2924751065
 10
23.7510643455
 20
30.1304000896
 10
24.2565280933
 20
30.9111773795
 10
24.7275493493
 20
31.6548349501
 10
25.1664270323
 20
32.3636394001
 10
25.5718289283
 20
33.0338772742
 10
25.9516975082
 20
33.6773990863
 10
26.3072255369
 20
34.2952707989
 10
26.6378055945
 20
34.8854114698
 10
26.9482134943
 20
35.4553884464
 10
27.2390818666
 20
36.0056973825
 10
27.5101526827
 20
36.5350099513
 10
27.764398459
 20
37.0484173521
 10
28.0021711052
 20
37.546112076
 10
28.2232960164
 20
38.0271806609
 10
28.4296489762
 20
38.495214134
 10
28.6214257258
 20
38.950324749
 10
28.7984414364
 20
39.3916632822
 10
28.9617485523
 20
39.8214666257
 10
29.1112645391
 20
40.2392910088
 10
29.2469973994
 20
40.6447430841
 10
29.3698361869
 20
41.0401513426
 10
29.4797421647
 20
41.4252277988
 10
29.5765978999
 20
41.7993093726
 10
29.6608703
 20
42.1641555448
 10
29.732642577
 20
42.520469539
 10
29.7915240365
 20
42.866363504
 10
29.8373530555
 20
43.1997163013
 10
29.8703384372
 20
43.5190563122
 10
29.8910215328
 20
43.8248250643
 10
29.8999168679
 20
44.1178492654
 10
29.8975311081
 20
44.3961727407
 10
29.8845131441
 20
44.6610651
 10
29.8608851741
 20
44.9178982412
 10
29.8266148675
 20
45.1672410197
 10
29.7820123639
 20
45.4074805795
 10
29.726847844
 20
45.6402883771
 10
29.6612564762
 20
45.8649179983
 10
29.5853113935
 20
46.0811034242
 10
29.4981413561
 20
46.2907503395
 10
29.39971452
 20
46.493042243
 10
29.29010028
 20
46.6873940626
 10
29.1680659741
 20
46.8753942466
 10
29.033259009
 20
47.056633488
 10
28.8860214034
 20
47.2298978811
 10
28.7258627821
 20
47.3951500117
 10
28.5526319015
 20
47.5519052347
 10
28.3667780404
 20
47.6992710848
 10
28.1687775642
 20
47.8366217977
 10
27.9595342363
 20
47.963323923
 10
27.7682538244
 20
48.0650207155
  0
LINE
  5
3A1
100
AcDbEntity
  8
RACCORDO
100
AcDbLine
 62
253
  6
CONTINUOUS
 10
13.3071578436
 20
15.9985451798
 11
12.3246204624
 21
14.7054434343
  0
LINE
  5
3A2
100
AcDbEntity
  8
RACCORDO
100
AcDbLine
 62
7
  6
CONTINUOUS
 10
12.6485084659
 20
15.0223941859
 11
13.4762609369
 21
16.1096130373
  0
LINE
  5
3A3
100
AcDbEntity
  8
RACCORDO
100
AcDbLine
 62
253
  6
CONTINUOUS
 10
16.5638900846
 20
20.2531305881
 11
15.6453646614
 21
19.0514472911
  0
LWPOLYLINE
  5
3A4
100
AcDbEntity
  8
RACCORDO
100
AcDbPolyline
 62
7
  6
CONTINUOUS
 90
3
 70
0
 10
13.4762609369
 20
16.1096130373
 10
14.8957832949
 20
17.9631751001
 10
16.5975848962
 20
20.1868237412
  0
LINE
  5
3A5
100
AcDbEntity
  8
RACCORDO
100
AcDbLine
 62
253
  6
CONTINUOUS
 10
15.6453646614
 20
19.0514472911
 11
13.3071578436
 21
15.9985451798
  0
LINE
  5
3A6
100
AcDbEntity
  8
RACCORDO
100
AcDbLine
 62
253
  6
CONTINUOUS
 10
12.8964544818
 20
-3.8091002273
 11
13.1849472673
 21
-3.9126349595
  0
LWPOLYLINE
  5
3A7
100
AcDbEntity
  8
RACCORDO
100
AcDbPolyline
 62
253
  6
CONTINUOUS
 90
8
 70
0
 10
6.3038231311
 20
-1.6773404612
 10
6.3345539514
 20
-1.6886544797
 10
6.5202944417
 20
-1.7557020589
 10
6.7118745125
 20
-1.8235517097
 10
6.9093087539
 20
-1.892207713
 10
7.1131326928
 20
-1.9618599389
 10
7.323443881
 20
-2.0325500592
 10
7.7634409511
 20
-2.1771026074
  0
LINE
  5
3A8
100
AcDbEntity
  8
RACCORDO
100
AcDbLine
 62
253
  6
CONTINUOUS
 10
13.4628568973
 20
-4.0152993129
 11
13.7277309178
 21
-4.1161522045
  0
LINE
  5
3A9
100
AcDbEntity
  8
RACCORDO
100
AcDbLine
 62
253
  6
CONTINUOUS
 10
13.9781280536
 20
-4.2145009673
 11
14.2157727147
 21
-4.3108398802
  0
LINE
  5
3AA
100
AcDbEntity
  8
RACCORDO
100
AcDbLine
 62
253
  6
CONTINUOUS
 10
14.4430172488
 20
-4.4059776879
 11
14.6599730248
 21
-4.4998324442
  0
LINE
  5
3AB
100
AcDbEntity
  8
RACCORDO
100
AcDbLine
 62
253
  6
CONTINUOUS
 10
14.8667878529
 20
-4.5923157624
 11
15.0657257849
 21
-4.6843162485
  0
LWPOLYLINE
  5
3AC
100
AcDbEntity
  8
RACCORDO
100
AcDbPolyline
 62
7
  6
CONTINUOUS
 90
16
 70
0
 10
15.3946874847
 20
-4.8437651681
 10
14.9664812749
 20
-4.6379322686
 10
14.5008574609
 20
-4.4303558534
 10
14.0035195863
 20
-4.2239602587
 10
13.4728499336
 20
-4.017960941
 10
12.895418557
 20
-3.8072282629
 10
12.2625639542
 20
-3.5888433683
 10
11.5832946522
 20
-3.365445114
 10
10.8708795358
 20
-3.1397158458
 10
10.1030141462
 20
-2.9022991384
 10
9.3042554473
 20
-2.6575271391
 10
8.5586476256
 20
-2.4271182942
 10
7.8996324809
 20
-2.2187662764
 10
7.2952068826
 20
-2.0211551242
 10
6.7307239652
 20
-1.8285629863
 10
6.2989264469
 20
-1.6735995678
  0
LINE
  5
3AD
100
AcDbEntity
  8
RACCORDO
100
AcDbLine
 62
253
  6
CONTINUOUS
 10
15.2573283104
 20
-4.7760096375
 11
15.3947263915
 21
-4.8437864233
  0
LWPOLYLINE
  5
3AE
100
AcDbEntity
  8
RACCORDO
100
AcDbPolyline
 62
253
  6
CONTINUOUS
 90
21
 70
0
 10
7.7461861381
 20
-2.5561538714
 10
7.8547986409
 20
-2.6098462738
 10
7.9751167859
 20
-2.6679512855
 10
8.1001024355
 20
-2.726876128
 10
8.2299691433
 20
-2.7866533587
 10
8.3646566506
 20
-2.8471911917
 10
8.5041606396
 20
-2.9084313085
 10
8.6485343937
 20
-2.9703464495
 10
8.7978427519
 20
-3.0329184335
 10
8.9520868442
 20
-3.0961072085
 10
9.1112298391
 20
-3.1598640043
 10
9.2753884982
 20
-3.224207128
 10
9.4447896756
 20
-3.2891989996
 10
9.6193623927
 20
-3.3547905544
 10
9.7992284616
 20
-3.4210118813
 10
9.984913297
 20
-3.4880406051
 10
10.1764337712
 20
-3.5558706962
 10
10.3738051973
 20
-3.6245066882
 10
10.5775639085
 20
-3.6941387096
 10
10.7878068244
 20
-3.7648081789
 10
11.2276633433
 20
-3.9093195586
  0
LINE
  5
3AF
100
AcDbEntity
  8
RACCORDO
100
AcDbLine
 62
7
  6
CONTINUOUS
 10
18.859318604
 20
-6.5760825863
 11
18.8619842441
 21
-6.5774150637
  0
LINE
  5
3B0
100
AcDbEntity
  8
RACCORDO
100
AcDbLine
 62
7
  6
CONTINUOUS
 10
15.3947263915
 20
-4.8437864233
 11
15.3971610163
 21
-4.8450034498
  0
LINE
  5
3B1
100
AcDbEntity
  8
RACCORDO
100
AcDbLine
 62
7
  6
CONTINUOUS
 10
18.1908540269
 20
-7.9189290179
 11
18.193946947
 21
-7.9204759574
  0
LINE
  5
3B2
100
AcDbEntity
  8
0
100
AcDbLine
 62
7
  6
CONTINUOUS
 10
18.8619842441
 20
-6.5774150637
 11
15.3971610163
 21
-4.8450034498
  0
LINE
  5
3B3
100
AcDbEntity
  8
RACCORDO
100
AcDbLine
 62
7
  6
CONTINUOUS
 10
7.7461861381
 20
-2.5561538714
 11
7.718806657
 21
-2.5424234205
  0
LWPOLYLINE
  5
3B4
100
AcDbEntity
  8
RACCORDO
100
AcDbPolyline
 62
253
  6
CONTINUOUS
 90
147
 70
0
 10
18.193946947
 20
-7.9204759574
 10
18.2549193477
 20
-7.951169536
 10
18.3782031035
 20
-8.0144198718
 10
18.4963418586
 20
-8.0766057356
 10
18.6096594048
 20
-8.1377986184
 10
18.7192377991
 20
-8.1985058765
 10
18.8250807733
 20
-8.258669455
 10
18.9273012238
 20
-8.3182903314
 10
19.0270550466
 20
-8.3780032164
 10
19.1243234688
 20
-8.4377805269
 10
19.2191503253
 20
-8.4976314875
 10
19.3126807865
 20
-8.5582902924
 10
19.4051227639
 20
-8.6199405606
 10
19.4961733719
 20
-8.6824307112
 10
19.5861349803
 20
-8.7460238209
 10
19.6752743495
 20
-8.8109881209
 10
19.7631818248
 20
-8.8771024162
 10
19.8491652353
 20
-8.9438852786
 10
19.9330977579
 20
-9.0112503236
 10
20.015064434
 20
-9.0792782579
 10
20.0947525662
 20
-9.1477139385
 10
20.1720334501
 20
-9.2164322776
 10
20.2470401125
 20
-9.2855363262
 10
20.319866753
 20
-9.3551080045
 10
20.3905666074
 20
-9.4252012756
 10
20.4590693336
 20
-9.4957494427
 10
20.5252845142
 20
-9.5666535643
 10
20.5892870165
 20
-9.6379869703
 10
20.6510019325
 20
-9.7096588159
 10
20.7101512702
 20
-9.7813116313
 10
20.7666350945
 20
-9.8527550063
 10
20.820629482
 20
-9.9241379834
 10
20.8722912964
 20
-9.9956036503
 10
20.9215006959
 20
-10.0669114215
 10
20.9684471967
 20
-10.1382585979
 10
21.0136749414
 20
-10.210468597
 10
21.0571846568
 20
-10.2836074882
 10
21.0988978535
 20
-10.35761226
 10
21.1391203538
 20
-10.4331483889
 10
21.1778733528
 20
-10.5104609256
 10
21.2149702412
 20
-10.5893576075
 10
21.250355143
 20
-10.6698653067
 10
21.2839984871
 20
-10.7520723986
 10
21.3158312809
 20
-10.8359730719
 10
21.3457537451
 20
-10.9214507152
 10
21.3737372363
 20
-11.0085582208
 10
21.3997442623
 20
-11.0973235869
 10
21.4236814313
 20
-11.1875787164
 10
21.4455142271
 20
-11.2793335101
 10
21.4652172378
 20
-11.3726328536
 10
21.4827339607
 20
-11.4673493863
 10
21.4980434537
 20
-11.5634875236
 10
21.511131977
 20
-11.6610914488
 10
21.5219726751
 20
-11.7600867435
 10
21.5305583646
 20
-11.860531973
 10
21.5368753112
 20
-11.9624146209
 10
21.5409085598
 20
-12.0655450096
 10
21.5426638037
 20
-12.1699860088
 10
21.5421444685
 20
-12.2757099604
 10
21.5393691527
 20
-12.3823749069
 10
21.5343595644
 20
-12.4899135776
 10
21.5271201952
 20
-12.5984143639
 10
21.5176690884
 20
-12.7077556142
 10
21.5060237014
 20
-12.8179098823
 10
21.4921946087
 20
-12.9289210391
 10
21.4761993648
 20
-13.0407692578
 10
21.4580305129
 20
-13.1535934723
 10
21.4377202632
 20
-13.2672715733
 10
21.4153718708
 20
-13.3813780121
 10
21.3910372434
 20
-13.4958491009
 10
21.3647450355
 20
-13.6107335764
 10
21.3366026116
 20
-13.7257527937
 10
21.3067985306
 20
-13.8403797805
 10
21.2752694817
 20
-13.9550714908
 10
21.2416943847
 20
-14.0710517729
 10
21.206090876
 20
-14.1882243524
 10
21.1684220568
 20
-14.3066766202
 10
21.1281408553
 20
-14.4279857075
 10
21.0851274573
 20
-14.5522692708
 10
21.0393138366
 20
-14.6794877942
 10
20.9900784465
 20
-14.8110614613
 10
20.9371590186
 20
-14.9472999928
 10
20.8804660605
 20
-15.0880487073
 10
20.8195224403
 20
-15.2340874134
 10
20.7539618823
 20
-15.3858396013
 10
20.6836895093
 20
-15.5430771294
 10
20.608612999
 20
-15.7056035572
 10
20.5285031763
 20
-15.8735310113
 10
20.4431679981
 20
-16.0468827128
 10
20.3526085333
 20
-16.2253028846
 10
20.2566755197
 20
-16.4087585825
 10
20.155134743
 20
-16.5973742054
 10
20.0478918499
 20
-16.7910089326
 10
19.9348556945
 20
-16.9895286173
 10
19.8157484894
 20
-17.1931249692
 10
19.6901906844
 20
-17.4021442173
 10
19.5579776096
 20
-17.6166295207
 10
19.4189205005
 20
-17.8365939617
 10
19.2726336235
 20
-18.0623471627
 10
19.118894801
 20
-18.2939229034
 10
18.9574988324
 20
-18.5313233262
 10
18.7880527733
 20
-18.7748126327
 10
18.6103234358
 20
-19.0244042901
 10
18.4240886562
 20
-19.2800895674
 10
18.2289430051
 20
-19.5420970698
 10
18.0246675448
 20
-19.8103857353
 10
17.8110046085
 20
-20.0849585332
 10
17.5874583594
 20
-20.3661049467
 10
17.3538011807
 20
-20.6537527529
 10
17.109755805
 20
-20.9478842302
 10
16.8547123426
 20
-21.2488748497
 10
16.5884174405
 20
-21.5566603667
 10
16.3105956745
 20
-21.8711952636
 10
16.0205560813
 20
-22.1928814838
 10
15.7180402808
 20
-22.5216095572
 10
15.4027474075
 20
-22.857307825
 10
15.0738667572
 20
-23.2004198051
 10
14.7311517861
 20
-23.5507636854
 10
14.3742599993
 20
-23.9082457267
 10
14.002168409
 20
-24.2734173787
 10
13.6145866408
 20
-24.646062335
 10
13.2111775466
 20
-25.0259955287
 10
12.7907661875
 20
-25.4137840055
 10
12.3530235343
 20
-25.8091646595
 10
11.8976083837
 20
-26.2118692727
 10
11.4232422666
 20
-26.6224132123
 10
10.9298607954
 20
-27.0402046866
 10
10.4168550237
 20
-27.465096614
 10
9.8820085673
 20
-27.8981849217
 10
9.3246980813
 20
-28.3391548207
 10
8.744790398
 20
-28.7872674028
 10
8.1406853742
 20
-29.2428623042
 10
7.5090410716
 20
-29.7074204092
 10
6.8524109168
 20
-30.1779881553
 10
6.1783692469
 20
-30.6483299622
 10
5.4809610217
 20
-31.1218196353
 10
4.7661535999
 20
-31.5936000096
 10
4.060803219
 20
-32.0460344386
 10
3.3721397729
 20
-32.475462059
 10
2.695121567
 20
-32.8859858656
 10
2.0393538712
 20
-33.272782127
 10
1.4084277133
 20
-33.6349790897
 10
0.8007777901
 20
-33.9746838399
 10
0.2184011179
 20
-34.2919186575
 10
-0.3375405574
 20
-34.5871836481
 10
-0.8667410176
 20
-34.8614080019
 10
-1.3685891824
 20
-35.1153169671
  0
LWPOLYLINE
  5
3B5
100
AcDbEntity
  8
RACCORDO
100
AcDbPolyline
 62
7
  6
CONTINUOUS
 90
72
 70
0
 10
7.718806657
 20
-2.5424234205
 10
7.529160572
 20
-2.4449913214
 10
7.3457894305
 20
-2.3465900889
 10
7.1686653245
 20
-2.2471581428
 10
6.9978993984
 20
-2.1467232977
 10
6.8330868721
 20
-2.0449940334
 10
6.674284327
 20
-1.9419333499
 10
6.521563688
 20
-1.8375091359
 10
6.3745715108
 20
-1.7313897185
 10
6.2333880202
 20
-1.6235305302
 10
6.0980998631
 20
-1.5138861015
 10
5.9684038292
 20
-1.402059639
 10
5.8444331585
 20
-1.287960661
 10
5.7263471871
 20
-1.1714813913
 10
5.6139364213
 20
-1.0521149863
 10
5.5072644433
 20
-0.9295729935
 10
5.4066617419
 20
-0.803856385
 10
5.3123568491
 20
-0.6748560477
 10
5.2245936673
 20
-0.5423867507
 10
5.1437037162
 20
-0.4063565923
 10
5.070106943
 20
-0.2668022159
 10
5.0041966952
 20
-0.1238374392
 10
4.9461933469
 20
0.0227216311
 10
4.8962477805
 20
0.1731941527
 10
4.854635063
 20
0.326970651
 10
4.821184765
 20
0.4840395955
 10
4.7955383339
 20
0.6455251712
 10
4.7777716784
 20
0.8105407186
 10
4.7677656433
 20
0.9788410333
 10
4.765338969
 20
1.1527420988
 10
4.770517505
 20
1.3314750477
 10
4.7831789738
 20
1.5147030958
 10
4.8036346715
 20
1.7057773897
 10
4.8323168419
 20
1.9054969175
 10
4.8692628094
 20
2.1121757414
 10
4.9145783395
 20
2.3256090634
 10
4.9683495957
 20
2.5457276813
 10
5.0303954352
 20
2.7716529157
 10
5.1002475846
 20
3.0019849276
 10
5.17756676
 20
3.2361483002
 10
5.2621237219
 20
3.4739644671
 10
5.3534840765
 20
3.714707122
 10
5.4511984862
 20
3.9577202743
 10
5.5551405431
 20
4.2032143751
 10
5.665403238
 20
4.4518273851
 10
5.7817470515
 20
4.703349638
 10
5.9040059564
 20
4.9577086466
 10
6.0324860888
 20
5.2157599943
 10
6.1670825155
 20
5.4774736284
 10
6.3076255996
 20
5.7427130839
 10
6.4543951557
 20
6.012177146
 10
6.6073038971
 20
6.2858200268
 10
6.7662425336
 20
6.5635663005
 10
6.9315361097
 20
6.8460653027
 10
7.1030535308
 20
7.1331649111
 10
7.2807942849
 20
7.4249232063
 10
7.4653082829
 20
7.7222838831
 10
7.6565081957
 20
8.0251121154
 10
7.8544062108
 20
8.3334600911
 10
8.0597637085
 20
8.64853138
 10
8.2724706282
 20
8.9701817305
 10
8.4925712518
 20
9.2984990576
 10
8.7210820832
 20
9.6350089964
 10
8.9578968189
 20
9.9795465065
 10
9.2030862655
 20
10.3322199999
 10
9.4579734655
 20
10.6949283124
 10
9.7223978321
 20
11.0674146538
 10
9.9964992325
 20
11.4498862937
 10
10.2821141403
 20
11.8448892185
 10
10.5790023806
 20
12.2520842609
 10
10.8873785844
 20
12.6717877183
 10
11.2098021848
 20
13.1074869616
  0
LWPOLYLINE
  5
3B6
100
AcDbEntity
  8
RACCORDO
100
AcDbPolyline
 62
253
  6
CONTINUOUS
 90
132
 70
0
 10
16.2070302363
 20
-7.0760487324
 10
16.2947426174
 20
-7.1419292266
 10
16.380794244
 20
-7.2086746945
 10
16.4648082883
 20
-7.2760119489
 10
16.5468657335
 20
-7.344019154
 10
16.6266458361
 20
-7.412435256
 10
16.7040139599
 20
-7.4811300852
 10
16.7791091631
 20
-7.5502117164
 10
16.852035281
 20
-7.619771401
 10
16.9228437458
 20
-7.6898623709
 10
16.991464312
 20
-7.7604192471
 10
17.0578172085
 20
-7.8313561379
 10
17.1219795849
 20
-7.9027517507
 10
17.183869972
 20
-7.974511273
 10
17.2432068125
 20
-8.0462765695
 10
17.2998919946
 20
-8.1178629003
 10
17.3540956126
 20
-8.189414936
 10
17.4059607132
 20
-8.2610595448
 10
17.4553646305
 20
-8.3325530875
 10
17.5024988735
 20
-8.4040959897
 10
17.5479029254
 20
-8.4765040116
 10
17.5915760746
 20
-8.5498407771
 10
17.6334412048
 20
-8.6240455685
 10
17.67380401
 20
-8.6997832268
 10
17.7126870803
 20
-8.7773020971
 10
17.7499015789
 20
-8.8564065154
 10
17.7853871403
 20
-8.9371125925
 10
17.8191151377
 20
-9.0195083207
 10
17.8510177246
 20
-9.103587978
 10
17.8809926793
 20
-9.1892243388
 10
17.9090119777
 20
-9.2764656988
 10
17.935041437
 20
-9.3653435384
 10
17.9589899283
 20
-9.4556909487
 10
17.9808242193
 20
-9.5475154849
 10
18.0005210517
 20
-9.6408631504
 10
18.0180268657
 20
-9.7356131956
 10
18.033321592
 20
-9.8317677203
 10
18.0463929871
 20
-9.9293722915
 10
18.0572166238
 20
-10.0283652136
 10
18.0657857028
 20
-10.1288074521
 10
18.0720864047
 20
-10.2306839554
 10
18.0761041743
 20
-10.3338109174
 10
18.0778445214
 20
-10.4382545105
 10
18.0773105281
 20
-10.5439840055
 10
18.0745207697
 20
-10.6506538302
 10
18.0694969546
 20
-10.7581956587
 10
18.0622435709
 20
-10.8666989081
 10
18.052778777
 20
-10.9760413395
 10
18.0411202263
 20
-11.0861944739
 10
18.0272784915
 20
-11.197203111
 10
18.0112708336
 20
-11.3090498349
 10
17.9930896101
 20
-11.4218742211
 10
17.9727670592
 20
-11.5355535929
 10
17.950406278
 20
-11.6496630943
 10
17.9260588148
 20
-11.7641402636
 10
17.8997534293
 20
-11.8790327428
 10
17.8715981434
 20
-11.9940590302
 10
17.8417816183
 20
-12.1086920372
 10
17.8102405521
 20
-12.22338863
 10
17.7766547018
 20
-12.3393695971
 10
17.7410422157
 20
-12.4565376103
 10
17.7033661386
 20
-12.5749808716
 10
17.6630795725
 20
-12.6962761441
 10
17.6200630903
 20
-12.8205405437
 10
17.5742487957
 20
-12.9477348292
 10
17.5250149372
 20
-13.0792800358
 10
17.4720996815
 20
-13.2154852387
 10
17.4154136157
 20
-13.3561961505
 10
17.3544787267
 20
-13.5021950642
 10
17.2889287506
 20
-13.653905666
 10
17.2186690932
 20
-13.8110994792
 10
17.143606712
 20
-13.9735818858
 10
17.0635121674
 20
-14.1414656114
 10
16.9781936995
 20
-14.3147733127
 10
16.8876523214
 20
-14.4931493882
 10
16.7917385623
 20
-14.6765613117
 10
16.6902183932
 20
-14.8651331269
 10
16.5829980334
 20
-15.058723015
 10
16.4699864663
 20
-15.2571967042
 10
16.3509058799
 20
-15.4607460495
 10
16.2253771646
 20
-15.6697166498
 10
16.0931959256
 20
-15.8841513576
 10
15.9541733015
 20
-16.1040635597
 10
15.807923464
 20
-16.3297631584
 10
15.654224281
 20
-16.5612839814
 10
15.4928706369
 20
-16.7986281592
 10
15.32346953
 20
-17.0420600979
 10
15.1457878057
 20
-17.2915933243
 10
14.9596033702
 20
-17.5472191167
 10
14.7645107774
 20
-17.8091662197
 10
14.5602910356
 20
-18.0773937437
 10
14.3466866091
 20
-18.3519045893
 10
14.1232019347
 20
-18.6329880218
 10
13.8896094931
 20
-18.920571826
 10
13.6456320232
 20
-19.2146383903
 10
13.3906597903
 20
-19.5155630976
 10
13.1244394892
 20
-19.823281768
 10
12.8466957437
 20
-20.137748956
 10
12.5567377716
 20
-20.4593665661
 10
12.2543072442
 20
-20.7880252122
 10
11.9391033354
 20
-21.1236533392
 10
11.6103155188
 20
-21.4666944707
 10
11.2676971157
 20
-21.8169670884
 10
10.9109058349
 20
-22.1743774104
 10
10.5389194182
 20
-22.5394764071
 10
10.1514477855
 20
-22.9120477108
 10
9.7481536232
 20
-23.2919066492
 10
9.327862084
 20
-23.6796204512
 10
8.8902443483
 20
-24.0749260497
 10
8.4349590879
 20
-24.4775555925
 10
7.9607273765
 20
-24.8880251788
 10
7.4674827274
 20
-25.3057449945
 10
6.9546181676
 20
-25.7305665045
 10
6.4199232148
 20
-26.1635813463
 10
5.8627827426
 20
-26.6044689427
 10
5.2830560546
 20
-27.0524972036
 10
4.679124692
 20
-27.5080201984
 10
4.0476632032
 20
-27.9725068203
 10
3.3912076064
 20
-28.4430161889
 10
2.7172590847
 20
-28.91336196
 10
2.0198325035
 20
-29.3869342091
 10
1.3049174481
 20
-29.8588545092
 10
0.5993734816
 20
-30.3114768504
 10
-0.0895933003
 20
-30.7411503479
 10
-0.7670047912
 20
-31.15196161
 10
-1.4231833282
 20
-31.5390404989
 10
-2.0545243252
 20
-31.9015075993
 10
-2.6626044236
 20
-32.241477169
 10
-3.2453884444
 20
-32.5589511813
 10
-3.8017006537
 20
-32.8544242301
 10
-4.33124592
 20
-33.1288334361
 10
-4.8334120768
 20
-33.3829051865
  0
LWPOLYLINE
  5
3B7
100
AcDbEntity
  8
RACCORDO
100
AcDbPolyline
 62
7
  6
CONTINUOUS
 90
77
 70
0
 10
16.1955557914
 20
-7.0716989982
 10
16.3353359886
 20
-7.1777943228
 10
16.4990318349
 20
-7.3105221011
 10
16.6544447784
 20
-7.4455208877
 10
16.802043631
 20
-7.5833434212
 10
16.9416805654
 20
-7.7240825074
 10
17.0731425829
 20
-7.8677928627
 10
17.1966737323
 20
-8.0151229717
 10
17.3120701226
 20
-8.1663446817
 10
17.4189623583
 20
-8.3215009069
 10
17.5172078492
 20
-8.4809470968
 10
17.6064115409
 20
-8.6447416104
 10
17.6862744214
 20
-8.8130198995
 10
17.7568043951
 20
-8.9861084954
 10
17.8178575944
 20
-9.1636318112
 10
17.8694137771
 20
-9.345169609
 10
17.9116312136
 20
-9.5307842517
 10
17.9444920369
 20
-9.7194926813
 10
17.9682429932
 20
-9.9109489919
 10
17.9832689462
 20
-10.1062638068
 10
17.9897233269
 20
-10.3030608744
 10
17.9880362372
 20
-10.5022306727
 10
17.9780690982
 20
-10.710340627
 10
17.9590928987
 20
-10.9292907612
 10
17.9307298709
 20
-11.1565163746
 10
17.8925380661
 20
-11.392292775
 10
17.8441184486
 20
-11.6367023722
 10
17.7854203182
 20
-11.8885404278
 10
17.716730375
 20
-12.1461005689
 10
17.6383496259
 20
-12.4082637388
 10
17.5503362939
 20
-12.6749494457
 10
17.4527483909
 20
-12.9460546374
 10
17.3459130654
 20
-13.2207975102
 10
17.2299563773
 20
-13.4990192358
 10
17.1045353798
 20
-13.7816000714
 10
16.9698009908
 20
-14.0682085155
 10
16.8259647599
 20
-14.3584402131
 10
16.6726301493
 20
-14.6530842284
 10
16.5098971462
 20
-14.9518471788
 10
16.3379111645
 20
-15.2543849997
 10
16.1562056212
 20
-15.5614078595
 10
15.9649653906
 20
-15.872495102
 10
15.7642027984
 20
-16.187537935
 10
15.5531215528
 20
-16.507659941
 10
15.3318658577
 20
-16.8324492314
 10
15.1003949339
 20
-17.1617844946
 10
14.8575116562
 20
-17.4971215035
 10
14.6033359308
 20
-17.8379777265
 10
14.3377580827
 20
-18.1842264182
 10
14.0590630287
 20
-18.5377072292
 10
13.7674122627
 20
-18.897791058
 10
13.4625701681
 20
-19.2643601966
 10
13.1421304885
 20
-19.6398209859
 10
12.8063506539
 20
-20.0233317825
 10
12.4548345202
 20
-20.4148161145
 10
12.0840857644
 20
-20.817543356
 10
11.6945129604
 20
-21.2303126746
 10
11.2854821651
 20
-21.6530817068
 10
10.8517193931
 20
-22.0903929943
 10
10.3940435908
 20
-22.540353539
 10
9.9113162338
 20
-23.0030751664
 10
9.3950314573
 20
-23.485348126
 10
8.8468810624
 20
-23.9840450616
 10
8.2647243909
 20
-24.4995751311
 10
7.6339709647
 20
-25.0427399109
 10
6.9621956456
 20
-25.6046800872
 10
6.2412189238
 20
-26.1898434278
 10
5.4321475877
 20
-26.8256496581
 10
4.5160952246
 20
-27.5203208058
 10
3.5105099763
 20
-28.2537358221
 10
2.4307843933
 20
-29.0089394636
 10
1.2622670891
 20
-29.7903438878
 10
0.0196377153
 20
-30.5819819036
 10
-1.2366931388
 20
-31.3425566654
 10
-2.4858595538
 20
-32.060185442
 10
-3.7470781331
 20
-32.7464451557
 10
-4.9675834563
 20
-33.3743883119
  0
LWPOLYLINE
  5
3B8
100
AcDbEntity
  8
RACCORDO
100
AcDbPolyline
 62
253
  6
CONTINUOUS
 90
57
 70
0
 10
4.3238316836
 20
-0.8708719082
 10
4.3574388185
 20
-0.9519718983
 10
4.3938427981
 20
-1.0338475815
 10
4.4331655592
 20
-1.1167902235
 10
4.475285165
 20
-1.2005085586
 10
4.5203425724
 20
-1.2845960878
 10
4.5684072043
 20
-1.369105552
 10
4.6194096378
 20
-1.4539842102
 10
4.6732825612
 20
-1.5386673403
 10
4.7301403304
 20
-1.6231983308
 10
4.7898685894
 20
-1.7075337932
 10
4.8520569587
 20
-1.7909788402
 10
4.9167418669
 20
-1.8734530495
 10
4.9838868853
 20
-1.9550368433
 10
5.0529723493
 20
-2.0352766009
 10
5.1239448674
 20
-2.114054207
 10
5.196857831
 20
-2.1914877768
 10
5.2713517491
 20
-2.2674780351
 10
5.3473071247
 20
-2.3419123161
 10
5.4248434548
 20
-2.4149032855
 10
5.5039597388
 20
-2.4866896653
 10
5.5844045137
 20
-2.5571079581
 10
5.6664292424
 20
-2.6263216613
 10
5.7507873133
 20
-2.6950599887
 10
5.8374132689
 20
-2.7633565443
 10
5.9263725666
 20
-2.8311777242
 10
6.0186149674
 20
-2.89915193
 10
6.114115078
 20
-2.9673357247
 10
6.2128982916
 20
-3.0356725452
 10
6.3159905483
 20
-3.1046211042
 10
6.4234968735
 20
-3.1742952537
 10
6.5353122418
 20
-3.2445811415
 10
6.6521475172
 20
-3.3155959237
 10
6.7741705388
 20
-3.3874390077
 10
6.9012134676
 20
-3.4600109861
 10
7.0334836504
 20
-3.5331307924
 10
7.1710019665
 20
-3.6067904093
 10
7.3137475366
 20
-3.6809978541
 10
7.4618650703
 20
-3.7555961123
 10
7.6153126162
 20
-3.8305477464
 10
7.7741321257
 20
-3.9058901938
 10
7.9385941623
 20
-3.9815787526
 10
8.108615727
 20
-4.0575641842
 10
8.2842798188
 20
-4.1338957272
 10
8.466105998
 20
-4.2106763947
 10
8.6540867873
 20
-4.2878919456
 10
8.8482296641
 20
-4.365556621
 10
9.0490766204
 20
-4.4438161572
 10
9.2566290287
 20
-4.5226530963
 10
9.4708855167
 20
-4.6020848963
 10
9.6923839593
 20
-4.6823096677
 10
9.9211329886
 20
-4.7633061478
 10
10.1571239727
 20
-4.8450955993
 10
10.4008688913
 20
-4.9279399207
 10
10.6524954576
 20
-5.0118364699
 10
10.9118759584
 20
-5.096787889
 10
11.4545080959
 20
-5.2706658726
  0
LINE
  5
3B9
100
AcDbEntity
  8
RACCORDO
100
AcDbLine
 62
253
  6
CONTINUOUS
 10
4.2925146259
 20
-0.7900803131
 11
4.3238316836
 21
-0.8708719082
  0
LINE
  5
3BA
100
AcDbEntity
  8
RACCORDO
100
AcDbLine
 62
7
  6
CONTINUOUS
 10
-29.7589348992
 20
28.1160326043
 11
-29.1225387962
 21
27.7978345527
  0
LINE
  5
3BB
100
AcDbEntity
  8
0
100
AcDbLine
 62
7
  6
CONTINUOUS
 10
-28.7689854056
 20
27.6210578575
 11
-28.2032999806
 21
27.338215145
  0
LINE
  5
3BC
100
AcDbEntity
  8
0
100
AcDbLine
 62
7
  6
CONTINUOUS
 10
-27.84974659
 20
27.1614384497
 11
-27.2840611651
 21
26.8785957372
  0
LINE
  5
3BD
100
AcDbEntity
  8
0
100
AcDbLine
 62
7
  6
CONTINUOUS
 10
-26.9305077745
 20
26.7018190419
 11
-26.3648223495
 21
26.4189763294
  0
LINE
  5
3BE
100
AcDbEntity
  8
0
100
AcDbLine
 62
7
  6
CONTINUOUS
 10
-26.011268959
 20
26.2421996341
 11
-25.445583534
 21
25.9593569217
  0
LINE
  5
3BF
100
AcDbEntity
  8
0
100
AcDbLine
 62
7
  6
CONTINUOUS
 10
-25.0920301434
 20
25.7825802264
 11
-24.5263447185
 21
25.4997375139
  0
LINE
  5
3C0
100
AcDbEntity
  8
0
100
AcDbLine
 62
7
  6
CONTINUOUS
 10
-24.1727913279
 20
25.3229608186
 11
-23.6071059029
 21
25.0401181061
  0
LINE
  5
3C1
100
AcDbEntity
  8
0
100
AcDbLine
 62
7
  6
CONTINUOUS
 10
-23.2535525123
 20
24.8633414108
 11
-22.6878670874
 21
24.5804986983
  0
LINE
  5
3C2
100
AcDbEntity
  8
RACCORDO
100
AcDbLine
 62
7
  6
CONTINUOUS
 10
-22.3343136968
 20
24.4037220031
 11
-21.6979175937
 21
24.0855239515
  0
LINE
  5
3C3
100
AcDbEntity
  8
0
100
AcDbLine
 62
7
  6
CONTINUOUS
 10
-22.954973253
 20
-37.5684600116
 11
-25.8609838745
 21
-39.91377693
  0
LINE
  5
3C4
100
AcDbEntity
  8
0
100
AcDbLine
 62
7
  6
CONTINUOUS
 10
-17.8497472817
 20
-34.742171073
 11
-21.9650237593
 21
-38.0634347585
  0
LWPOLYLINE
  5
3C5
100
AcDbEntity
  8
RACCORDO
100
AcDbPolyline
 62
7
  6
CONTINUOUS
 90
10
 70
0
 10
-21.6979175937
 20
24.0855239515
 10
-21.6805526363
 20
24.0777413
 10
-21.6635219058
 20
24.0717753293
 10
-21.6468254022
 20
24.0676260393
 10
-21.6303582701
 20
24.065290055
 10
-21.6142253649
 20
24.0647707516
 10
-21.5987412524
 20
24.0660782545
 10
-21.584010788
 20
24.069215939
 10
-21.5699291164
 20
24.0741804299
 10
-21.5638727956
 20
24.07697626
  0
LINE
  5
3C6
100
AcDbEntity
  8
0
100
AcDbLine
 62
7
  6
CONTINUOUS
 10
-22.3343136968
 20
26.1357728106
 11
-22.6878670874
 21
26.3125495059
  0
LINE
  5
3C7
100
AcDbEntity
  8
0
100
AcDbLine
 62
7
  6
CONTINUOUS
 10
-23.2535525123
 20
26.5953922184
 11
-23.6071059029
 21
26.7721689137
  0
LINE
  5
3C8
100
AcDbEntity
  8
0
100
AcDbLine
 62
7
  6
CONTINUOUS
 10
-24.1727913279
 20
27.0550116262
 11
-24.5263447185
 21
27.2317883215
  0
LINE
  5
3C9
100
AcDbEntity
  8
0
100
AcDbLine
 62
7
  6
CONTINUOUS
 10
-25.0920301434
 20
27.5146310339
 11
-25.445583534
 21
27.6914077292
  0
LINE
  5
3CA
100
AcDbEntity
  8
0
100
AcDbLine
 62
7
  6
CONTINUOUS
 10
-26.011268959
 20
27.9742504417
 11
-26.3648223495
 21
28.151027137
  0
LINE
  5
3CB
100
AcDbEntity
  8
0
100
AcDbLine
 62
7
  6
CONTINUOUS
 10
-26.9305077745
 20
28.4338698495
 11
-27.2840611651
 21
28.6106465448
  0
LINE
  5
3CC
100
AcDbEntity
  8
0
100
AcDbLine
 62
7
  6
CONTINUOUS
 10
-27.84974659
 20
28.8934892572
 11
-28.2032999806
 21
29.0702659525
  0
LINE
  5
3CD
100
AcDbEntity
  8
0
100
AcDbLine
 62
7
  6
CONTINUOUS
 10
-28.7689854056
 20
29.353108665
 11
-29.1225387962
 21
29.5298853603
  0
LINE
  5
3CE
100
AcDbEntity
  8
0
100
AcDbLine
 62
7
  6
CONTINUOUS
 10
-28.5568533712
 20
30.6183968357
 11
-24.3142126841
 21
28.4970764922
  0
LINE
  5
3CF
100
AcDbEntity
  8
0
100
AcDbLine
 62
7
  6
CONTINUOUS
 10
-29.9003562555
 20
31.9972550591
 11
-28.5568533712
 21
31.3255036169
  0
LINE
  5
3D0
100
AcDbEntity
  8
0
100
AcDbLine
 62
7
  6
CONTINUOUS
 10
-21.5564962375
 20
27.8253250501
 11
-23.6071059029
 21
28.8506298828
  0
LINE
  5
3D1
100
AcDbEntity
  8
0
100
AcDbLine
 62
7
  6
CONTINUOUS
 10
-29.1932494743
 20
32.3508084496
 11
-28.5568533712
 21
32.0326103981
  0
LINE
  5
3D2
100
AcDbEntity
  8
0
100
AcDbLine
 62
7
  6
CONTINUOUS
 10
-20.8493894563
 20
28.1788784406
 11
-22.8999991217
 21
29.2041832734
  0
LWPOLYLINE
  5
3D3
100
AcDbEntity
  8
RACCORDO
100
AcDbPolyline
 62
7
  6
CONTINUOUS
 90
16
 70
0
 10
-14.1519104921
 20
39.6389178553
 10
-14.1493878699
 20
39.6359523667
 10
-14.1404990849
 20
39.6235558009
 10
-14.133981228
 20
39.6106073882
 10
-14.1299496288
 20
39.5971532967
 10
-14.1282889576
 20
39.5831473583
 10
-14.1292047326
 20
39.56880326
 10
-14.1327074362
 20
39.554102634
 10
-14.1387865859
 20
39.5390638481
 10
-14.1476162524
 20
39.523955693
 10
-14.1592817426
 20
39.508721988
 10
-14.1736977496
 20
39.4934189138
 10
-14.1907824234
 20
39.4784838028
 10
-14.2105084807
 20
39.4640624326
 10
-14.2329032047
 20
39.4500090257
 10
-14.2579665956
 20
39.4363235821
  0
LINE
  5
3D4
100
AcDbEntity
  8
0
100
AcDbLine
 62
7
  6
CONTINUOUS
 10
-15.5870055819
 20
-35.8735419229
 11
-19.7022820595
 21
-39.1948056084
  0
LINE
  5
3D5
100
AcDbEntity
  8
0
100
AcDbLine
 62
7
  6
CONTINUOUS
 10
-15.4291373734
 20
-36.5658070616
 11
-19.0751681175
 21
-39.5083625794
  0
LINE
  5
3D6
100
AcDbEntity
  8
0
100
AcDbLine
 62
7
  6
CONTINUOUS
 10
-18.7123325659
 20
-39.6897803552
 11
-21.6183431874
 21
-42.0350972736
  0
LINE
  5
3D7
100
AcDbEntity
  8
0
100
AcDbLine
 62
7
  6
CONTINUOUS
 10
-21.4604749788
 20
-42.7273624122
 11
-18.5544643573
 21
-40.3820454939
  0
LWPOLYLINE
  5
3D8
100
AcDbEntity
  8
RACCORDO
100
AcDbPolyline
 62
253
  6
CONTINUOUS
 90
22
 70
0
 10
-19.3635918265
 20
-33.8295148653
 10
-19.4126981221
 20
-33.8621739205
 10
-19.4612203517
 20
-33.8987329345
 10
-19.5089202497
 20
-33.9390123872
 10
-19.5555635895
 20
-33.9828144909
 10
-19.600921328
 20
-34.0299241556
 10
-19.6447707317
 20
-34.0801100449
 10
-19.6868964772
 20
-34.133125719
 10
-19.7270917107
 20
-34.1887108487
 10
-19.7651590572
 20
-34.2465924882
 10
-19.8009115885
 20
-34.3064864118
 10
-19.8341737429
 20
-34.3680985124
 10
-19.864782189
 20
-34.4311262489
 10
-19.8925866262
 20
-34.4952601296
 10
-19.9174505197
 20
-34.5601852239
 10
-19.9392517732
 20
-34.6255827117
 10
-19.9578833322
 20
-34.6911314579
 10
-19.9732537089
 20
-34.7565095906
 10
-19.9852874285
 20
-34.8213960742
 10
-19.9939254002
 20
-34.8854722866
 10
-19.999125208
 20
-34.9484235834
 10
-20.0008613189
 20
-35.0099408447
  0
LWPOLYLINE
  5
3D9
100
AcDbEntity
  8
RACCORDO
100
AcDbPolyline
 62
253
  6
CONTINUOUS
 90
4
 70
0
 10
-20.6363840421
 20
-33.1931187681
 10
-20.5869348123
 20
-33.16452004
 10
-20.5373854694
 20
-33.1401220741
 10
-20.4879793237
 20
-33.1200446752
  0
LINE
  5
3DA
100
AcDbEntity
  8
0
100
AcDbLine
 62
7
  6
CONTINUOUS
 10
-28.5568533712
 20
33.2164730471
 11
-24.3142126841
 21
31.0951527035
  0
LINE
  5
3DB
100
AcDbEntity
  8
0
100
AcDbLine
 62
7
  6
CONTINUOUS
 10
-29.1932494743
 20
33.6498465553
 11
-28.4416779145
 21
33.2740607754
  0
LINE
  5
3DC
100
AcDbEntity
  8
0
100
AcDbLine
 62
7
  6
CONTINUOUS
 10
-20.8493894563
 20
29.4779165463
 11
-22.8999991217
 21
30.503221379
  0
LINE
  5
3DD
100
AcDbEntity
  8
0
100
AcDbLine
 62
7
  6
CONTINUOUS
 10
-25.8609838745
 20
34.5644077955
 11
-21.6183431874
 21
32.4430874519
  0
LWPOLYLINE
  5
3DE
100
AcDbEntity
  8
RACCORDO
100
AcDbPolyline
 62
7
  6
CONTINUOUS
 90
9
 70
0
 10
-7.5609001603
 20
36.3775068334
 10
-7.6930905555
 20
36.5151451594
 10
-7.8299071987
 20
36.6455620725
 10
-7.9711725764
 20
36.7686420586
 10
-8.1167678279
 20
36.8843340497
 10
-8.2666411356
 20
36.9926337289
 10
-8.4206758931
 20
37.0934793438
 10
-8.5786824928
 20
37.1867696802
 10
-8.7405002645
 20
37.2724365486
  0
LWPOLYLINE
  5
3DF
100
AcDbEntity
  8
RACCORDO
100
AcDbPolyline
 62
7
  6
CONTINUOUS
 90
10
 70
0
 10
-14.1518009807
 20
39.6389418836
 10
-14.2695263144
 20
39.7667825981
 10
-14.395850886
 20
39.8932935255
 10
-14.5262251113
 20
40.0133835685
 10
-14.6604981099
 20
40.1269566496
 10
-14.7985718161
 20
40.2339719107
 10
-14.9404080067
 20
40.3344290885
 10
-15.0859110361
 20
40.4282780289
 10
-15.2349209528
 20
40.5154335194
 10
-15.3873040076
 20
40.5958384202
  0
LINE
  5
3E0
100
AcDbEntity
  8
RACCORDO
100
AcDbLine
 62
7
  6
CONTINUOUS
 10
-7.4975980968
 20
36.3071609968
 11
-7.5609001603
 21
36.3775068334
  0
LWPOLYLINE
  5
3E1
100
AcDbEntity
  8
RACCORDO
100
AcDbPolyline
 62
253
  6
CONTINUOUS
 90
8
 70
0
 10
-7.4507294149
 20
35.9333308081
 10
-7.6122458574
 20
36.1141019573
 10
-7.7816435529
 20
36.2825268552
 10
-7.9589225015
 20
36.4386055017
 10
-8.1443722892
 20
36.5825879617
 10
-8.3377033299
 20
36.7142241703
 10
-8.5380468653
 20
36.8327639339
 10
-8.7454808629
 20
36.9381404186
  0
LWPOLYLINE
  5
3E2
100
AcDbEntity
  8
RACCORDO
100
AcDbPolyline
 62
7
  6
CONTINUOUS
 90
16
 70
0
 10
-7.4975843939
 20
36.3071655254
 10
-7.4858916052
 20
36.2927535755
 10
-7.47224546
 20
36.2724285997
 10
-7.4602133036
 20
36.2504376962
 10
-7.4499142069
 20
36.2269781203
 10
-7.4414355313
 20
36.2022530138
 10
-7.4346680639
 20
36.1765342404
 10
-7.4296846943
 20
36.1500165665
 10
-7.426538957
 20
36.1228907212
 10
-7.4250780925
 20
36.0954130161
 10
-7.4253343076
 20
36.0677634623
 10
-7.4273302544
 20
36.0401112314
 10
-7.4308884899
 20
36.0126846787
 10
-7.435950003
 20
35.9856607322
 10
-7.4425696563
 20
35.9591639029
 10
-7.4507294149
 20
35.9333308081
  0
LWPOLYLINE
  5
3E3
100
AcDbEntity
  8
RACCORDO
100
AcDbPolyline
 62
253
  6
CONTINUOUS
 90
22
 70
0
 10
-13.9895802895
 20
-36.5165206338
 10
-14.0386865851
 20
-36.549179689
 10
-14.0872088147
 20
-36.585738703
 10
-14.1349087127
 20
-36.6260181557
 10
-14.1815520525
 20
-36.6698202594
 10
-14.226909791
 20
-36.7169299241
 10
-14.2707591946
 20
-36.7671158134
 10
-14.3128849402
 20
-36.8201314875
 10
-14.3530801737
 20
-36.8757166172
 10
-14.3911475202
 20
-36.9335982567
 10
-14.4269000515
 20
-36.9934921803
 10
-14.4601622058
 20
-37.0551042809
 10
-14.490770652
 20
-37.1181320174
 10
-14.5185750892
 20
-37.1822658981
 10
-14.5434389827
 20
-37.2471909924
 10
-14.5652402361
 20
-37.3125884802
 10
-14.5838717952
 20
-37.3781372264
 10
-14.5992421719
 20
-37.4435153591
 10
-14.6112758915
 20
-37.5084018427
 10
-14.6199138632
 20
-37.5724780551
 10
-14.625113671
 20
-37.6354293519
 10
-14.6268497818
 20
-37.6969466132
  0
LWPOLYLINE
  5
3E4
100
AcDbEntity
  8
RACCORDO
100
AcDbPolyline
 62
253
  6
CONTINUOUS
 90
22
 70
0
 10
-12.8582094396
 20
-37.0822060588
 10
-12.9073157352
 20
-37.1148651139
 10
-12.9558379648
 20
-37.1514241279
 10
-13.0035378628
 20
-37.1917035807
 10
-13.0501812026
 20
-37.2355056844
 10
-13.0955389411
 20
-37.282615349
 10
-13.1393883447
 20
-37.3328012384
 10
-13.1815140903
 20
-37.3858169124
 10
-13.2217093238
 20
-37.4414020422
 10
-13.2597766703
 20
-37.4992836816
 10
-13.2955292016
 20
-37.5591776052
 10
-13.3287913559
 20
-37.6207897058
 10
-13.3593998021
 20
-37.6838174424
 10
-13.3872042393
 20
-37.7479513231
 10
-13.4120681328
 20
-37.8128764173
 10
-13.4338693862
 20
-37.8782739051
 10
-13.4525009453
 20
-37.9438226513
 10
-13.467871322
 20
-38.009200784
 10
-13.4799050416
 20
-38.0740872677
 10
-13.4885430133
 20
-38.13816348
 10
-13.4937428211
 20
-38.2011147768
 10
-13.4954789319
 20
-38.2626320382
  0
LINE
  5
3E5
100
AcDbEntity
  8
RACCORDO
100
AcDbLine
 62
7
  6
CONTINUOUS
 10
-15.3656668992
 20
-33.893763123
 11
-14.5488818261
 21
-33.4853705864
  0
LINE
  5
3E6
100
AcDbEntity
  8
RACCORDO
100
AcDbLine
 62
7
  6
CONTINUOUS
 10
-29.1932494743
 20
-40.8283381701
 11
-23.4133244281
 21
-37.9383756471
  0
LINE
  5
3E7
100
AcDbEntity
  8
RACCORDO
100
AcDbLine
 62
7
  6
CONTINUOUS
 10
-22.8142332051
 20
-37.6388300356
 11
-21.3610567299
 21
-36.9122417979
  0
LINE
  5
3E8
100
AcDbEntity
  8
RACCORDO
100
AcDbLine
 62
253
  6
CONTINUOUS
 10
-15.2920984817
 20
-33.9325814897
 11
-14.4147177475
 21
-33.4938911226
  0
LWPOLYLINE
  5
3E9
100
AcDbEntity
  8
RACCORDO
100
AcDbPolyline
 62
7
  6
CONTINUOUS
 90
9
 70
0
 10
-9.3235489229
 20
30.2727082869
 10
-9.304831919
 20
30.2644004548
 10
-9.2865306488
 20
30.2582007297
 10
-9.2686451124
 20
30.2541091116
 10
-9.2510461757
 20
30.252126544
 10
-9.2338629727
 20
30.2522520834
 10
-9.2174829058
 20
30.2544828994
 10
-9.2019242189
 20
30.2588668159
 10
-9.189370987
 20
30.2642275821
  0
LINE
  5
3EA
100
AcDbEntity
  8
0
100
AcDbLine
 62
7
  6
CONTINUOUS
 10
-22.954973253
 20
36.9097247138
 11
-21.9650237593
 21
36.414749967
  0
LINE
  5
3EB
100
AcDbEntity
  8
0
100
AcDbLine
 62
7
  6
CONTINUOUS
 10
-18.7123325659
 20
34.7884043703
 11
-19.7022820595
 21
35.2833791171
  0
LINE
  5
3EC
100
AcDbEntity
  8
RACCORDO
100
AcDbLine
 62
7
  6
CONTINUOUS
 10
-10.1720770604
 20
30.6969723556
 11
-9.3235489229
 21
30.2727082869
  0
LWPOLYLINE
  5
3ED
100
AcDbEntity
  8
RACCORDO
100
AcDbPolyline
 62
7
  6
CONTINUOUS
 90
10
 70
0
 10
-21.273653525
 20
37.4682231737
 10
-21.2902837766
 20
37.4772730053
 10
-21.3052329352
 20
37.4868291565
 10
-21.3185010008
 20
37.4968916274
 10
-21.3301527775
 20
37.5075328711
 10
-21.3401234613
 20
37.5186804344
 10
-21.3482186397
 20
37.5301169577
 10
-21.3543735085
 20
37.5417699877
 10
-21.3586528719
 20
37.5537119776
 10
-21.3610567299
 20
37.5659429275
  0
LWPOLYLINE
  5
3EE
100
AcDbEntity
  8
RACCORDO
100
AcDbPolyline
 62
7
  6
CONTINUOUS
 90
10
 70
0
 10
-14.6268497818
 20
34.2314238425
 10
-14.6447089174
 20
34.2412112787
 10
-14.6606007797
 20
34.2515666178
 10
-14.6745253686
 20
34.2624898597
 10
-14.6865583292
 20
34.2740723161
 10
-14.6966240164
 20
34.2862226755
 10
-14.7044954954
 20
34.2986670029
 10
-14.7101229221
 20
34.3114119764
 10
-14.7135561406
 20
34.3244509181
 10
-14.7147177475
 20
34.3374898597
  0
LWPOLYLINE
  5
3EF
100
AcDbEntity
  8
RACCORDO
100
AcDbPolyline
 62
7
  6
CONTINUOUS
 90
10
 70
0
 10
-13.4954789319
 20
33.6657384176
 10
-13.5133380675
 20
33.6755258537
 10
-13.5292299298
 20
33.6858811928
 10
-13.5431545187
 20
33.6968044348
 10
-13.5551874793
 20
33.7083868912
 10
-13.5652531665
 20
33.7205372505
 10
-13.5731246455
 20
33.732981578
 10
-13.5787520722
 20
33.7457265515
 10
-13.5821852907
 20
33.7587654931
 10
-13.5833468976
 20
33.7718044348
  0
LWPOLYLINE
  5
3F0
100
AcDbEntity
  8
RACCORDO
100
AcDbPolyline
 62
7
  6
CONTINUOUS
 90
6
 70
0
 10
-6.1236358051
 20
-42.653280969
 10
-6.1414350953
 20
-42.6727432151
 10
-6.1608511449
 20
-42.6905469856
 10
-6.1817336975
 20
-42.7065645081
 10
-6.2038951465
 20
-42.7206645135
 10
-6.21957126
 20
-42.729090175
  0
LINE
  5
3F1
100
AcDbEntity
  8
0
100
AcDbLine
 62
7
  6
CONTINUOUS
 10
-28.5568533712
 20
-41.2617116784
 11
-25.8609838745
 21
-39.91377693
  0
LINE
  5
3F2
100
AcDbEntity
  8
0
100
AcDbLine
 62
7
  6
CONTINUOUS
 10
-29.9003562555
 20
-42.4809296664
 11
-29.1932494743
 21
-42.1273762758
  0
LINE
  5
3F3
100
AcDbEntity
  8
RACCORDO
100
AcDbLine
 62
7
  6
CONTINUOUS
 10
-14.2579665956
 20
-35.0418611434
 11
-15.7541668683
 21
-35.7899612797
  0
LINE
  5
3F4
100
AcDbEntity
  8
RACCORDO
100
AcDbLine
 62
7
  6
CONTINUOUS
 10
-4.9675849411
 20
-33.3743890432
 11
-9.7350508482
 21
-35.7581219967
  0
LINE
  5
3F5
100
AcDbEntity
  8
RACCORDO
100
AcDbLine
 62
253
  6
CONTINUOUS
 10
-4.8334120768
 20
-33.3829051865
 11
-9.6594482727
 21
-35.7959232845
  0
LWPOLYLINE
  5
3F6
100
AcDbEntity
  8
RACCORDO
100
AcDbPolyline
 62
253
  6
CONTINUOUS
 90
9
 70
0
 10
-14.4147177475
 20
-33.4938911226
 10
-14.3962292225
 20
-33.4856355065
 10
-14.3778814063
 20
-33.4794200136
 10
-14.3598139369
 20
-33.4752919473
 10
-14.3421643187
 20
-33.4732827249
 10
-14.3250668759
 20
-33.4734076378
 10
-14.3086517303
 20
-33.4756657351
 10
-14.2930438112
 20
-33.4800398316
 10
-14.2805536688
 20
-33.4853705864
  0
LWPOLYLINE
  5
3F7
100
AcDbEntity
  8
RACCORDO
100
AcDbPolyline
 62
253
  6
CONTINUOUS
 90
9
 70
0
 10
-14.5488779779
 20
-33.4853686624
 10
-14.5358608556
 20
-33.4798514971
 10
-14.5201788606
 20
-33.4755420786
 10
-14.503714688
 20
-33.4733627937
 10
-14.4865976429
 20
-33.4733208265
 10
-14.4689975871
 20
-33.4754004107
 10
-14.4510650927
 20
-33.4795596326
 10
-14.4329261288
 20
-33.4857457898
 10
-14.4147177475
 20
-33.4938911226
  0
LWPOLYLINE
  5
3F8
100
AcDbEntity
  8
RACCORDO
100
AcDbPolyline
 62
253
  6
CONTINUOUS
 90
4
 70
0
 10
-19.2151871175
 20
-33.7564407782
 10
-19.2645932596
 20
-33.7765181755
 10
-19.3141425993
 20
-33.8009161394
 10
-19.3635918265
 20
-33.8295148653
  0
LWPOLYLINE
  5
3F9
100
AcDbEntity
  8
RACCORDO
100
AcDbPolyline
 62
253
  6
CONTINUOUS
 90
16
 70
0
 10
-20.2051366112
 20
-33.2614660314
 10
-19.9560704861
 20
-33.176534631
 10
-19.7115223333
 20
-33.1039455683
 10
-19.4717365789
 20
-33.0433450583
 10
-19.2379395985
 20
-32.9945529784
 10
-19.0093028064
 20
-32.9569099336
 10
-18.783035601
 20
-32.9297374279
 10
-18.5585167181
 20
-32.9130013044
 10
-18.3368850643
 20
-32.906827387
 10
-18.118079665
 20
-32.911216243
 10
-17.9021720075
 20
-32.9262048299
 10
-17.6896033744
 20
-32.9518015251
 10
-17.4808632055
 20
-32.9879538196
 10
-17.2762111521
 20
-33.0346015418
 10
-17.0758461529
 20
-33.0916838551
 10
-16.8801366016
 20
-33.1590691435
  0
LWPOLYLINE
  5
3FA
100
AcDbEntity
  8
RACCORDO
100
AcDbPolyline
 62
253
  6
CONTINUOUS
 90
17
 70
0
 10
-19.0737657613
 20
-33.8271514563
 10
-18.8246996362
 20
-33.742220056
 10
-18.5801514834
 20
-33.6696309932
 10
-18.340365729
 20
-33.6090304832
 10
-18.1065687486
 20
-33.5602384034
 10
-17.8779319565
 20
-33.5225953586
 10
-17.6516647511
 20
-33.4954228528
 10
-17.4271458682
 20
-33.4786867293
 10
-17.2055142144
 20
-33.4725128119
 10
-16.9867088151
 20
-33.4769016679
 10
-16.7708011576
 20
-33.4918902549
 10
-16.5582325245
 20
-33.51748695
 10
-16.3494923556
 20
-33.5536392445
 10
-16.1448403022
 20
-33.6002869667
 10
-15.944475303
 20
-33.65736928
 10
-15.7487657517
 20
-33.7247545685
 10
-15.5581452631
 20
-33.802231282
  0
LWPOLYLINE
  5
3FB
100
AcDbEntity
  8
RACCORDO
100
AcDbPolyline
 62
253
  6
CONTINUOUS
 90
16
 70
0
 10
-20.4879793237
 20
-33.1200446752
 10
-20.2075754507
 20
-33.0252098551
 10
-19.9313047777
 20
-32.9455639974
 10
-19.659551616
 20
-32.8808525344
 10
-19.3935631255
 20
-32.830940009
 10
-19.1327643617
 20
-32.795286483
 10
-18.8748595279
 20
-32.7734168813
 10
-18.619294888
 20
-32.7654042886
 10
-18.3674391048
 20
-32.7714136213
 10
-18.1199527575
 20
-32.7914510026
 10
-17.8772366529
 20
-32.8254798927
 10
-17.6396233787
 20
-32.8734494945
 10
-17.4076352257
 20
-32.935236618
 10
-17.1816056458
 20
-33.0107177664
 10
-16.9618604208
 20
-33.0997485998
 10
-16.80151757
 20
-33.1752395241
  0
LWPOLYLINE
  5
3FC
100
AcDbEntity
  8
RACCORDO
100
AcDbPolyline
 62
253
  6
CONTINUOUS
 90
13
 70
0
 10
-20.0165748029
 20
-33.6375160513
 10
-19.7481190492
 20
-33.5475371426
 10
-19.4854119585
 20
-33.4713024705
 10
-19.228453531
 20
-33.4088120351
 10
-18.9781919607
 20
-33.3604400106
 10
-18.7336790535
 20
-33.3258122227
 10
-18.492070227
 20
-33.3038061488
 10
-18.2519896727
 20
-33.2940295506
 10
-18.014813199
 20
-33.2968746665
 10
-17.7818236495
 20
-33.3123956889
 10
-17.5530904364
 20
-33.340687782
 10
-17.3285441474
 20
-33.3816557817
 10
-17.3143803724
 20
-33.3851057439
  0
LWPOLYLINE
  5
3FD
100
AcDbEntity
  8
RACCORDO
100
AcDbPolyline
 62
253
  6
CONTINUOUS
 90
16
 70
0
 10
-18.885203953
 20
-34.2032014763
 10
-18.6167481993
 20
-34.1132225676
 10
-18.3540411086
 20
-34.0369878955
 10
-18.0970826811
 20
-33.9744974601
 10
-17.8468211108
 20
-33.9261254355
 10
-17.6023082036
 20
-33.8914976476
 10
-17.3606993771
 20
-33.8694915738
 10
-17.1206188228
 20
-33.8597149756
 10
-16.8834423491
 20
-33.8625600914
 10
-16.6504527996
 20
-33.8780811138
 10
-16.4217195865
 20
-33.9063732069
 10
-16.1971732975
 20
-33.9473412066
 10
-15.9778885387
 20
-34.0007538129
 10
-15.7638886038
 20
-34.0667058777
 10
-15.555150199
 20
-34.1451025492
 10
-15.3526780501
 20
-34.2354279719
  0
LWPOLYLINE
  5
3FE
100
AcDbEntity
  8
RACCORDO
100
AcDbPolyline
 62
7
  6
CONTINUOUS
 90
4
 70
0
 10
-14.4868541082
 20
-33.4625006475
 10
-14.5162567005
 20
-33.4714048527
 10
-14.5443291716
 20
-33.4831421346
 10
-14.5489064467
 20
-33.4853829005
  0
LWPOLYLINE
  5
3FF
100
AcDbEntity
  8
RACCORDO
100
AcDbPolyline
 62
253
  6
CONTINUOUS
 90
8
 70
0
 10
-20.6139312401
 20
-33.1080393351
 10
-20.5972031524
 20
-33.1031826643
 10
-20.5798385419
 20
-33.100514638
 10
-20.561954211
 20
-33.1000499884
 10
-20.5436862702
 20
-33.1017922517
 10
-20.5251737496
 20
-33.1057281682
 10
-20.5065575405
 20
-33.1118277833
 10
-20.4879793237
 20
-33.1200446752
  0
LWPOLYLINE
  5
400
100
AcDbEntity
  8
RACCORDO
100
AcDbPolyline
 62
7
  6
CONTINUOUS
 90
9
 70
0
 10
-7.2022285794
 20
31.3333684587
 10
-7.1835115754
 20
31.3250606266
 10
-7.1652103052
 20
31.3188609015
 10
-7.1473247688
 20
31.3147692834
 10
-7.1297258321
 20
31.3127867158
 10
-7.1125426292
 20
31.3129122552
 10
-7.0961625622
 20
31.3151430712
 10
-7.0806038754
 20
31.3195269877
 10
-7.0680506435
 20
31.3248877539
  0
LWPOLYLINE
  5
401
100
AcDbEntity
  8
RACCORDO
100
AcDbPolyline
 62
253
  6
CONTINUOUS
 90
19
 70
0
 10
-14.4854284256
 20
36.7105274341
 10
-14.4661326741
 20
36.7016867848
 10
-14.4453693221
 20
36.6937206446
 10
-14.4232963911
 20
36.6866896407
 10
-14.4000818696
 20
36.6806472832
 10
-14.375902434
 20
36.6756395581
 10
-14.3509421045
 20
36.6717045773
 10
-14.3253908443
 20
36.6688722883
 10
-14.2994431138
 20
36.6671642466
 10
-14.2732963909
 20
36.6665934513
 10
-14.2471496681
 20
36.6671642466
 10
-14.2212019376
 20
36.6688722884
 10
-14.1956506775
 20
36.6717045774
 10
-14.170690348
 20
36.6756395582
 10
-14.1465109126
 20
36.6806472833
 10
-14.1232963911
 20
36.6866896408
 10
-14.1012234603
 20
36.6937206447
 10
-14.0804601083
 20
36.7016867848
 10
-14.0611643569
 20
36.7105274341
  0
LWPOLYLINE
  5
402
100
AcDbEntity
  8
RACCORDO
100
AcDbPolyline
 62
253
  6
CONTINUOUS
 90
19
 70
0
 10
-19.8594399626
 20
39.3975332026
 10
-19.8401442111
 20
39.3886925533
 10
-19.8193808591
 20
39.3807264131
 10
-19.7973079282
 20
39.3736954092
 10
-19.7740934066
 20
39.3676530517
 10
-19.7499139711
 20
39.3626453267
 10
-19.7249536415
 20
39.3587103458
 10
-19.6994023813
 20
39.3558780568
 10
-19.6734546508
 20
39.3541700151
 10
-19.6473079279
 20
39.3535992198
 10
-19.6211612051
 20
39.3541700151
 10
-19.5952134747
 20
39.3558780569
 10
-19.5696622145
 20
39.3587103459
 10
-19.5447018851
 20
39.3626453267
 10
-19.5205224496
 20
39.3676530518
 10
-19.4973079282
 20
39.3736954093
 10
-19.4752349973
 20
39.3807264132
 10
-19.4544716453
 20
39.3886925534
 10
-19.4351758939
 20
39.3975332026
  0
LWPOLYLINE
  5
403
100
AcDbEntity
  8
RACCORDO
100
AcDbPolyline
 62
253
  6
CONTINUOUS
 90
19
 70
0
 10
-20.9908108125
 20
39.9632186276
 10
-20.971515061
 20
39.9543779783
 10
-20.950751709
 20
39.9464118381
 10
-20.9286787781
 20
39.9393808342
 10
-20.9054642565
 20
39.9333384767
 10
-20.881284821
 20
39.9283307516
 10
-20.8563244914
 20
39.9243957708
 10
-20.8307732312
 20
39.9215634818
 10
-20.8048255007
 20
39.91985544
 10
-20.7786787778
 20
39.9192846448
 10
-20.752532055
 20
39.9198554401
 10
-20.7265843246
 20
39.9215634818
 10
-20.7010330644
 20
39.9243957708
 10
-20.676072735
 20
39.9283307517
 10
-20.6518932995
 20
39.9333384767
 10
-20.6286787781
 20
39.9393808342
 10
-20.6066058472
 20
39.9464118381
 10
-20.5858424952
 20
39.9543779783
 10
-20.5665467438
 20
39.9632186276
  0
LINE
  5
404
100
AcDbEntity
  8
RACCORDO
100
AcDbLine
 62
7
  6
CONTINUOUS
 10
-21.273653525
 20
37.4682231737
 11
-20.8945593003
 21
37.2786760614
  0
LINE
  5
405
100
AcDbEntity
  8
RACCORDO
100
AcDbLine
 62
7
  6
CONTINUOUS
 10
-18.0047036584
 20
35.8337482404
 11
-13.2126362195
 21
33.437714521
  0
LINE
  5
406
100
AcDbEntity
  8
RACCORDO
100
AcDbLine
 62
7
  6
CONTINUOUS
 10
-13.4954789319
 20
33.6657384176
 11
-14.4854284256
 21
34.1607131644
  0
LINE
  5
407
100
AcDbEntity
  8
RACCORDO
100
AcDbLine
 62
7
  6
CONTINUOUS
 10
-14.6268497818
 20
34.2314238425
 11
-17.9384460091
 21
35.8872219562
  0
LINE
  5
408
100
AcDbEntity
  8
RACCORDO
100
AcDbLine
 62
7
  6
CONTINUOUS
 10
-20.828301651
 20
37.3321497771
 11
-20.9908108125
 21
37.4134043579
  0
LINE
  5
409
100
AcDbEntity
  8
RACCORDO
100
AcDbLine
 62
7
  6
CONTINUOUS
 10
-8.0507567168
 20
31.7576325274
 11
-7.2022285794
 21
31.3333684587
  0
LINE
  5
40A
100
AcDbEntity
  8
RACCORDO
100
AcDbLine
 62
253
  6
CONTINUOUS
 10
-13.2126362195
 20
36.0741313311
 11
-13.4954789319
 21
36.2155526873
  0
LINE
  5
40B
100
AcDbEntity
  8
RACCORDO
100
AcDbLine
 62
253
  6
CONTINUOUS
 10
-14.4854284256
 20
36.7105274341
 11
-14.6268497818
 21
36.7812381122
  0
LINE
  5
40C
100
AcDbEntity
  8
RACCORDO
100
AcDbLine
 62
253
  6
CONTINUOUS
 10
-19.8594399626
 20
39.3975332026
 11
-20.0008613189
 21
39.4682438807
  0
LINE
  5
40D
100
AcDbEntity
  8
RACCORDO
100
AcDbLine
 62
253
  6
CONTINUOUS
 10
-20.9908108125
 20
39.9632186276
 11
-21.273653525
 21
40.1046399838
  0
LINE
  5
40E
100
AcDbEntity
  8
0
100
AcDbLine
 62
7
  6
CONTINUOUS
 10
-17.8497472817
 20
39.7360136524
 11
-15.5870055819
 21
38.6046428025
  0
LINE
  5
40F
100
AcDbEntity
  8
RACCORDO
100
AcDbLine
 62
253
  6
CONTINUOUS
 10
-12.4269620182
 20
37.3276313975
 11
-12.7098047306
 21
37.4690527538
  0
LINE
  5
410
100
AcDbEntity
  8
RACCORDO
100
AcDbLine
 62
253
  6
CONTINUOUS
 10
-13.6997542243
 20
37.9640275006
 11
-13.8411755805
 21
38.0347381787
  0
LINE
  5
411
100
AcDbEntity
  8
RACCORDO
100
AcDbLine
 62
253
  6
CONTINUOUS
 10
-19.0737657613
 20
40.6510332691
 11
-19.2151871175
 21
40.7217439472
  0
LINE
  5
412
100
AcDbEntity
  8
RACCORDO
100
AcDbLine
 62
253
  6
CONTINUOUS
 10
-20.2051366112
 20
41.2167186941
 11
-20.4879793237
 21
41.3581400503
  0
LWPOLYLINE
  5
413
100
AcDbEntity
  8
RACCORDO
100
AcDbPolyline
 62
253
  6
CONTINUOUS
 90
10
 70
0
 10
-20.0008613189
 20
39.4682438807
 10
-20.0185426174
 20
39.4778917565
 10
-20.0344748978
 20
39.4882734325
 10
-20.0485369056
 20
39.4993098979
 10
-20.0606216206
 20
39.5109171587
 10
-20.0706370707
 20
39.5230068764
 10
-20.0785070324
 20
39.5354870412
 10
-20.0841716104
 20
39.5482626713
 10
-20.0875876939
 20
39.5612365365
 10
-20.0887292845
 20
39.5743098979
  0
LWPOLYLINE
  5
414
100
AcDbEntity
  8
RACCORDO
100
AcDbPolyline
 62
253
  6
CONTINUOUS
 90
10
 70
0
 10
-14.6268497818
 20
36.7812381122
 10
-14.6445310804
 20
36.790885988
 10
-14.6604633608
 20
36.801267664
 10
-14.6745253686
 20
36.8123041294
 10
-14.6866100836
 20
36.8239113902
 10
-14.6966255337
 20
36.8360011079
 10
-14.7044954954
 20
36.8484812727
 10
-14.7101600734
 20
36.8612569028
 10
-14.7135761569
 20
36.874230768
 10
-14.7147177475
 20
36.8873041294
  0
LWPOLYLINE
  5
415
100
AcDbEntity
  8
RACCORDO
100
AcDbPolyline
 62
253
  6
CONTINUOUS
 90
10
 70
0
 10
-13.4954789319
 20
36.2155526873
 10
-13.5131602305
 20
36.225200563
 10
-13.5290925109
 20
36.235582239
 10
-13.5431545187
 20
36.2466187045
 10
-13.5552392337
 20
36.2582259652
 10
-13.5652546838
 20
36.270315683
 10
-13.5731246455
 20
36.2827958477
 10
-13.5787892235
 20
36.2955714778
 10
-13.582205307
 20
36.3085453431
 10
-13.5833468976
 20
36.3216187045
  0
LWPOLYLINE
  5
416
100
AcDbEntity
  8
RACCORDO
100
AcDbPolyline
 62
253
  6
CONTINUOUS
 90
19
 70
0
 10
-20.2051366112
 20
41.2167186941
 10
-20.186737778
 20
41.2064470609
 10
-20.1686583547
 20
41.1941988598
 10
-20.1510359366
 20
41.180067307
 10
-20.134004641
 20
41.164159952
 10
-20.1176940862
 20
41.1465978596
 10
-20.1022284055
 20
41.1275146877
 10
-20.0877253021
 20
41.1070556709
 10
-20.0742951533
 20
41.0853765147
 10
-20.0620401706
 20
41.0626422105
 10
-20.0510536219
 20
41.03902578
 10
-20.0414191214
 20
41.0147069587
 10
-20.0332099935
 20
40.9898708273
 10
-20.0264887147
 20
40.9647064039
 10
-20.0213064378
 20
40.939405205
 10
-20.0177026033
 20
40.9141597878
 10
-20.0157046384
 20
40.8891622853
 10
-20.0153277488
 20
40.8646029436
 10
-20.0165748029
 20
40.8406686741
  0
LWPOLYLINE
  5
417
100
AcDbEntity
  8
RACCORDO
100
AcDbPolyline
 62
253
  6
CONTINUOUS
 90
19
 70
0
 10
-19.0737657613
 20
40.6510332691
 10
-19.0553669281
 20
40.640761636
 10
-19.0372875048
 20
40.6285134349
 10
-19.0196650867
 20
40.614381882
 10
-19.0026337911
 20
40.5984745271
 10
-18.9863232363
 20
40.5809124346
 10
-18.9708575556
 20
40.5618292628
 10
-18.9563544522
 20
40.541370246
 10
-18.9429243034
 20
40.5196910897
 10
-18.9306693207
 20
40.4969567855
 10
-18.919682772
 20
40.4733403551
 10
-18.9100482715
 20
40.4490215337
 10
-18.9018391436
 20
40.4241854024
 10
-18.8951178648
 20
40.399020979
 10
-18.8899355879
 20
40.37371978
 10
-18.8863317534
 20
40.3484743628
 10
-18.8843337885
 20
40.3234768604
 10
-18.8839568989
 20
40.2989175187
 10
-18.885203953
 20
40.2749832492
  0
LWPOLYLINE
  5
418
100
AcDbEntity
  8
RACCORDO
100
AcDbPolyline
 62
253
  6
CONTINUOUS
 90
19
 70
0
 10
-13.6997542243
 20
37.9640275006
 10
-13.6813553911
 20
37.9537558675
 10
-13.6632759678
 20
37.9415076664
 10
-13.6456535497
 20
37.9273761135
 10
-13.6286222541
 20
37.9114687586
 10
-13.6123116993
 20
37.8939066661
 10
-13.5968460186
 20
37.8748234943
 10
-13.5823429152
 20
37.8543644775
 10
-13.5689127663
 20
37.8326853212
 10
-13.5566577837
 20
37.809951017
 10
-13.5456712349
 20
37.7863345866
 10
-13.5360367345
 20
37.7620157652
 10
-13.5278276066
 20
37.7371796339
 10
-13.5211063278
 20
37.7120152105
 10
-13.5159240509
 20
37.6867140115
 10
-13.5123202164
 20
37.6614685943
 10
-13.5103222514
 20
37.6364710919
 10
-13.5099453619
 20
37.6119117502
 10
-13.511192416
 20
37.5879774807
  0
LWPOLYLINE
  5
419
100
AcDbEntity
  8
RACCORDO
100
AcDbPolyline
 62
7
  6
CONTINUOUS
 90
5
 70
0
 10
-16.0389356261
 20
40.8768529028
 10
-16.0717788566
 20
40.9001145134
 10
-16.217281886
 20
40.9939634538
 10
-16.3662918027
 20
41.0811189444
 10
-16.5186748575
 20
41.1615238452
  0
LWPOLYLINE
  5
41A
100
AcDbEntity
  8
RACCORDO
100
AcDbPolyline
 62
7
  6
CONTINUOUS
 90
5
 70
0
 10
-9.5335532392
 20
37.6241617093
 10
-9.5663964697
 20
37.64742332
 10
-9.711899499
 20
37.7412722604
 10
-9.8609094158
 20
37.8284277509
 10
-10.0132924706
 20
37.9088326517
  0
LWPOLYLINE
  5
41B
100
AcDbEntity
  8
RACCORDO
100
AcDbPolyline
 62
253
  6
CONTINUOUS
 90
10
 70
0
 10
-1.234433556
 20
-36.4228798351
 10
-1.2266535978
 20
-36.4185983854
 10
-1.210952811
 20
-36.4072193207
 10
-1.1969792138
 20
-36.3930719763
 10
-1.1848859039
 20
-36.3763113537
 10
-1.1748053782
 20
-36.3571210856
 10
-1.166848081
 20
-36.3357114248
 10
-1.1611011942
 20
-36.3123169398
 10
-1.1576276817
 20
-36.2871939456
 10
-1.1564656002
 20
-36.260617695
  0
LWPOLYLINE
  5
41C
100
AcDbEntity
  8
RACCORDO
100
AcDbPolyline
 62
253
  6
CONTINUOUS
 90
10
 70
0
 10
-6.1415684076
 20
-37.8902734137
 10
-6.1241429304
 20
-37.880777771
 10
-6.1083581913
 20
-37.8705311766
 10
-6.0943506167
 20
-37.8596024695
 10
-6.0822377802
 20
-37.848058832
 10
-6.0721430055
 20
-37.8359891742
 10
-6.0641796819
 20
-37.8235066634
 10
-6.0584184601
 20
-37.8107052794
 10
-6.0549132478
 20
-37.7976815626
 10
-6.053700442
 20
-37.7842071441
  0
LINE
  5
41D
100
AcDbEntity
  8
0
100
AcDbLine
 62
7
  6
CONTINUOUS
 10
-21.6183431874
 20
-42.0350972736
 11
-24.3142126841
 21
-43.3830320219
  0
LINE
  5
41E
100
AcDbEntity
  8
0
100
AcDbLine
 62
7
  6
CONTINUOUS
 10
-22.1928923405
 20
-43.0935710931
 11
-21.4604749788
 21
-42.7273624122
  0
LINE
  5
41F
100
AcDbEntity
  8
0
100
AcDbLine
 62
7
  6
CONTINUOUS
 10
-29.1225387962
 20
-46.6803501727
 11
-28.7689854056
 21
-46.5035734774
  0
LINE
  5
420
100
AcDbEntity
  8
0
100
AcDbLine
 62
7
  6
CONTINUOUS
 10
-22.8999991217
 20
-43.9749633464
 11
-22.1928923405
 21
-43.6214099558
  0
LINE
  5
421
100
AcDbEntity
  8
0
100
AcDbLine
 62
7
  6
CONTINUOUS
 10
-28.2032999806
 20
-47.1399695805
 11
-27.84974659
 21
-46.9631928852
  0
LINE
  5
422
100
AcDbEntity
  8
RACCORDO
100
AcDbLine
 62
7
  6
CONTINUOUS
 10
-13.5833468976
 20
-40.0785628314
 11
-14.0611643569
 21
-40.317471561
  0
LINE
  5
423
100
AcDbEntity
  8
0
100
AcDbLine
 62
7
  6
CONTINUOUS
 10
-24.3142126841
 20
-45.9811082333
 11
-22.8999991217
 21
-45.2740014521
  0
LINE
  5
424
100
AcDbEntity
  8
0
100
AcDbLine
 62
7
  6
CONTINUOUS
 10
-27.2840611651
 20
-47.5995889883
 11
-26.9305077745
 21
-47.422812293
  0
LINE
  5
425
100
AcDbEntity
  8
RACCORDO
100
AcDbLine
 62
253
  6
CONTINUOUS
 10
-6.353700442
 20
-37.5243997754
 11
-7.543943535
 21
-38.1195213219
  0
LINE
  5
426
100
AcDbEntity
  8
RACCORDO
100
AcDbLine
 62
253
  6
CONTINUOUS
 10
-1.3685891824
 20
-35.1153169671
 11
-6.1962697925
 21
-37.5291572722
  0
LINE
  5
427
100
AcDbEntity
  8
RACCORDO
100
AcDbLine
 62
7
  6
CONTINUOUS
 10
-13.0171967119
 20
-41.0841718069
 11
-20.8493894563
 21
-45.0002681791
  0
LINE
  5
428
100
AcDbEntity
  8
RACCORDO
100
AcDbLine
 62
253
  6
CONTINUOUS
 10
-6.1415684076
 20
-37.8902734137
 11
-7.4507294149
 21
-38.5448539173
  0
LINE
  5
429
100
AcDbEntity
  8
0
100
AcDbLine
 62
7
  6
CONTINUOUS
 10
-26.3648223495
 20
-48.059208396
 11
-26.011268959
 21
-47.8824317007
  0
LINE
  5
42A
100
AcDbEntity
  8
RACCORDO
100
AcDbLine
 62
253
  6
CONTINUOUS
 10
-0.6514154907
 20
-35.2274488524
 11
-6.053700442
 21
-37.9298122524
  0
LWPOLYLINE
  5
42B
100
AcDbEntity
  8
RACCORDO
100
AcDbPolyline
 62
253
  6
CONTINUOUS
 90
19
 70
0
 10
-12.7883721508
 20
-38.4040533944
 10
-12.8076679022
 20
-38.4128940437
 10
-12.8284312542
 20
-38.4208601839
 10
-12.8505041851
 20
-38.4278911878
 10
-12.8737187066
 20
-38.4339335453
 10
-12.8978981421
 20
-38.4389412703
 10
-12.9228584716
 20
-38.4428762512
 10
-12.9484097318
 20
-38.4457085402
 10
-12.9743574623
 20
-38.4474165819
 10
-13.0005041851
 20
-38.4479873772
 10
-13.0266509079
 20
-38.4474165819
 10
-13.0525986384
 20
-38.4457085402
 10
-13.0781498987
 20
-38.4428762512
 10
-13.1031102281
 20
-38.4389412703
 10
-13.1272896636
 20
-38.4339335453
 10
-13.1505041851
 20
-38.4278911878
 10
-13.172577116
 20
-38.4208601839
 10
-13.193340468
 20
-38.4128940437
 10
-13.2126362195
 20
-38.4040533944
  0
LWPOLYLINE
  5
42C
100
AcDbEntity
  8
RACCORDO
100
AcDbPolyline
 62
7
  6
CONTINUOUS
 90
19
 70
0
 10
-14.0611643569
 20
-40.317471561
 10
-14.0807392292
 20
-40.3264011288
 10
-14.1014499073
 20
-40.33434706
 10
-14.1232963913
 20
-40.3413093544
 10
-14.1464613041
 20
-40.3473258347
 10
-14.1707620227
 20
-40.3523586783
 10
-14.1956506777
 20
-40.3562944178
 10
-14.2211406247
 20
-40.3591081312
 10
-14.247218508
 20
-40.3608247404
 10
-14.2732963913
 20
-40.3614055439
 10
-14.2993742745
 20
-40.3608247404
 10
-14.3254521578
 20
-40.3591081312
 10
-14.3509421048
 20
-40.3562944178
 10
-14.3758307598
 20
-40.3523586783
 10
-14.4001314784
 20
-40.3473258347
 10
-14.4232963913
 20
-40.3413093544
 10
-14.4451428752
 20
-40.33434706
 10
-14.4658535533
 20
-40.3264011288
 10
-14.4854284256
 20
-40.317471561
  0
LWPOLYLINE
  5
42D
100
AcDbEntity
  8
RACCORDO
100
AcDbPolyline
 62
253
  6
CONTINUOUS
 90
22
 70
0
 10
-12.2384002098
 20
-37.5266033479
 10
-12.2781171055
 20
-37.5430196906
 10
-12.3175086748
 20
-37.5631170238
 10
-12.3565749176
 20
-37.5868953474
 10
-12.395591137
 20
-37.6145672496
 10
-12.43428203
 20
-37.6459201423
 10
-12.4718216876
 20
-37.6803162609
 10
-12.5081551542
 20
-37.7177979023
 10
-12.5433373854
 20
-37.7583227697
 10
-12.5767073388
 20
-37.8011262075
 10
-12.6082348918
 20
-37.8462568697
 10
-12.6379501669
 20
-37.8936661023
 10
-12.6652824894
 20
-37.942443288
 10
-12.6901834967
 20
-37.9926080013
 10
-12.7127015513
 20
-38.0441406677
 10
-12.7324110657
 20
-38.0960719462
 10
-12.7492614914
 20
-38.1484505154
 10
-12.7633033769
 20
-38.2012276967
 10
-12.7742627798
 20
-38.253288113
 10
-12.7820483861
 20
-38.3042599718
 10
-12.7867515097
 20
-38.3545150656
 10
-12.7883721508
 20
-38.4040533944
  0
LWPOLYLINE
  5
42E
100
AcDbEntity
  8
RACCORDO
100
AcDbPolyline
 62
253
  6
CONTINUOUS
 90
4
 70
0
 10
-13.8411755805
 20
-36.4434465467
 10
-13.8905817226
 20
-36.463523944
 10
-13.9401310623
 20
-36.4879219079
 10
-13.9895802895
 20
-36.5165206338
  0
LWPOLYLINE
  5
42F
100
AcDbEntity
  8
RACCORDO
100
AcDbPolyline
 62
253
  6
CONTINUOUS
 90
4
 70
0
 10
-12.7098047306
 20
-37.0091319717
 10
-12.7592108727
 20
-37.029209369
 10
-12.8087602124
 20
-37.0536073329
 10
-12.8582094396
 20
-37.0822060588
  0
LWPOLYLINE
  5
430
100
AcDbEntity
  8
RACCORDO
100
AcDbPolyline
 62
253
  6
CONTINUOUS
 90
25
 70
0
 10
-12.4269620182
 20
-37.1505533279
 10
-12.4763681638
 20
-37.1706307268
 10
-12.5259175067
 20
-37.1950286928
 10
-12.5753667365
 20
-37.2236274209
 10
-12.6244730344
 20
-37.2562864785
 10
-12.6729952657
 20
-37.2928454949
 10
-12.7206951641
 20
-37.3331249492
 10
-12.7673385023
 20
-37.3769270526
 10
-12.8126962379
 20
-37.4240367154
 10
-12.8565456397
 20
-37.4742226036
 10
-12.8986713854
 20
-37.5272382786
 10
-12.9388666196
 20
-37.5828234104
 10
-12.9769339662
 20
-37.6407050512
 10
-13.0126864962
 20
-37.700598974
 10
-13.0459486489
 20
-37.7622110727
 10
-13.076557094
 20
-37.8252388082
 10
-13.1043615312
 20
-37.8893726899
 10
-13.1292254248
 20
-37.9542977861
 10
-13.1510266779
 20
-38.0196952749
 10
-13.1696582361
 20
-38.0852440203
 10
-13.1850286118
 20
-38.1506221512
 10
-13.1970623305
 20
-38.2155086325
 10
-13.2057003015
 20
-38.2795848424
 10
-13.2109001088
 20
-38.3425361362
 10
-13.2126362195
 20
-38.4040533944
  0
LWPOLYLINE
  5
431
100
AcDbEntity
  8
RACCORDO
100
AcDbPolyline
 62
253
  6
CONTINUOUS
 90
17
 70
0
 10
-13.6997542243
 20
-36.5141572249
 10
-13.4506880992
 20
-36.4292258245
 10
-13.2061399464
 20
-36.3566367617
 10
-12.966354192
 20
-36.2960362517
 10
-12.7325572116
 20
-36.2472441719
 10
-12.5039204195
 20
-36.2096011271
 10
-12.2776532141
 20
-36.1824286213
 10
-12.0531343312
 20
-36.1656924979
 10
-11.8315026774
 20
-36.1595185804
 10
-11.6126972781
 20
-36.1639074364
 10
-11.3967896206
 20
-36.1788960234
 10
-11.1842209875
 20
-36.2044927185
 10
-10.9754808186
 20
-36.240645013
 10
-10.7708287652
 20
-36.2872927352
 10
-10.570463766
 20
-36.3443750485
 10
-10.3747542147
 20
-36.411760337
 10
-10.1841337261
 20
-36.4892370505
  0
LWPOLYLINE
  5
432
100
AcDbEntity
  8
RACCORDO
100
AcDbPolyline
 62
253
  6
CONTINUOUS
 90
13
 70
0
 10
-13.511192416
 20
-36.8902072448
 10
-13.2427366622
 20
-36.8002283361
 10
-12.9800295716
 20
-36.723993664
 10
-12.7230711441
 20
-36.6615032286
 10
-12.4728095738
 20
-36.613131204
 10
-12.2282966666
 20
-36.5785034161
 10
-11.9866878401
 20
-36.5564973423
 10
-11.7466072858
 20
-36.5467207441
 10
-11.5094308121
 20
-36.5495658599
 10
-11.2764412626
 20
-36.5650868824
 10
-11.0477080495
 20
-36.5933789755
 10
-10.8231617605
 20
-36.6343469751
 10
-10.8089979855
 20
-36.6377969374
  0
LINE
  5
433
100
AcDbEntity
  8
RACCORDO
100
AcDbLine
 62
253
  6
CONTINUOUS
 10
-8.8830286742
 20
37.3399931488
 11
-9.1014004354
 21
37.4298176208
  0
LWPOLYLINE
  5
434
100
AcDbEntity
  8
RACCORDO
100
AcDbPolyline
 62
253
  6
CONTINUOUS
 90
9
 70
0
 10
-6.2195807808
 20
36.9623276827
 10
-6.2325573339
 20
36.9678245756
 10
-6.2482393288
 20
36.9721339941
 10
-6.2647035014
 20
36.974313279
 10
-6.2818205465
 20
36.9743552462
 10
-6.2994206024
 20
36.972275662
 10
-6.3173530968
 20
36.9681164401
 10
-6.3354920607
 20
36.9619302829
 10
-6.353700442
 20
36.9537849501
  0
LWPOLYLINE
  5
435
100
AcDbEntity
  8
RACCORDO
100
AcDbPolyline
 62
253
  6
CONTINUOUS
 90
15
 70
0
 10
-8.7454808629
 20
36.9381404186
 10
-8.9599273552
 20
37.0304204583
 10
-9.1802836809
 20
37.1090543605
 10
-9.4066639518
 20
37.1739389213
 10
-9.6389540561
 20
37.2251773446
 10
-9.8757089975
 20
37.2625295499
 10
-10.1159716913
 20
37.28605063
 10
-10.3606992222
 20
37.2956854921
 10
-10.6113178471
 20
37.2910287761
 10
-10.8684213138
 20
37.2723369637
 10
-11.1314158746
 20
37.2393535732
 10
-11.3999465432
 20
37.1909037999
 10
-11.6738949909
 20
37.126596042
 10
-11.9533795464
 20
37.0468219012
 10
-12.2384002098
 20
36.9515813776
  0
LWPOLYLINE
  5
436
100
AcDbEntity
  8
RACCORDO
100
AcDbPolyline
 62
7
  6
CONTINUOUS
 90
8
 70
0
 10
-14.2805536688
 20
40.992814139
 10
-14.3073956077
 20
41.0046319979
 10
-14.3356785111
 20
41.0138865504
 10
-14.3651013644
 20
41.0203545582
 10
-14.3953856292
 20
41.0238624351
 10
-14.4260871494
 20
41.0242704574
 10
-14.4566654015
 20
41.0215388294
 10
-14.4868541082
 20
41.015684078
  0
LWPOLYLINE
  5
437
100
AcDbEntity
  8
RACCORDO
100
AcDbPolyline
 62
253
  6
CONTINUOUS
 90
8
 70
0
 10
-12.7098047301
 20
37.469052754
 10
-12.7283829472
 20
37.4772696458
 10
-12.7469991565
 20
37.4833692608
 10
-12.7655116773
 20
37.4873051773
 10
-12.7837796181
 20
37.4890474405
 10
-12.801663949
 20
37.4885827909
 10
-12.8190285595
 20
37.4859147646
 10
-12.8357566471
 20
37.4810580938
  0
LWPOLYLINE
  5
438
100
AcDbEntity
  8
RACCORDO
100
AcDbPolyline
 62
253
  6
CONTINUOUS
 90
8
 70
0
 10
-13.84117558
 20
38.0347381789
 10
-13.8597537971
 20
38.0429550707
 10
-13.8783700063
 20
38.0490546857
 10
-13.8968825272
 20
38.0529906022
 10
-13.915150468
 20
38.0547328655
 10
-13.9330347989
 20
38.0542682158
 10
-13.9503994094
 20
38.0516001895
 10
-13.967127497
 20
38.0467435188
  0
LWPOLYLINE
  5
439
100
AcDbEntity
  8
RACCORDO
100
AcDbPolyline
 62
253
  6
CONTINUOUS
 90
8
 70
0
 10
-19.215187117
 20
40.7217439474
 10
-19.2337653341
 20
40.7299608392
 10
-19.2523815434
 20
40.7360604542
 10
-19.2708940642
 20
40.7399963707
 10
-19.2891620051
 20
40.741738634
 10
-19.307046336
 20
40.7412739843
 10
-19.3244109464
 20
40.738605958
 10
-19.341139034
 20
40.7337492873
  0
LWPOLYLINE
  5
43A
100
AcDbEntity
  8
RACCORDO
100
AcDbPolyline
 62
7
  6
CONTINUOUS
 90
16
 70
0
 10
-9.023342977
 20
37.4138579049
 10
-9.2418442475
 20
37.5148857138
 10
-9.4669326711
 20
37.6027234746
 10
-9.6982683512
 20
37.6771663795
 10
-9.9354428529
 20
37.7380207131
 10
-10.1781515751
 20
37.7851498867
 10
-10.426214434
 20
37.8184419371
 10
-10.6793661943
 20
37.8377630011
 10
-10.9371569876
 20
37.842982754
 10
-11.1991415676
 20
37.8340119631
 10
-11.4650099348
 20
37.810783462
 10
-11.7343328998
 20
37.7732569028
 10
-12.0064788337
 20
37.7214660207
 10
-12.2809792241
 20
37.6554702701
 10
-12.55753405
 20
37.5753102559
 10
-12.8357566471
 20
37.4810580938
  0
LWPOLYLINE
  5
43B
100
AcDbEntity
  8
RACCORDO
100
AcDbPolyline
 62
7
  6
CONTINUOUS
 90
16
 70
0
 10
-10.1547138268
 20
37.9795433298
 10
-10.3732150974
 20
38.0805711387
 10
-10.598303521
 20
38.1684088995
 10
-10.8296392011
 20
38.2428518045
 10
-11.0668137028
 20
38.3037061381
 10
-11.309522425
 20
38.3508353116
 10
-11.5575852839
 20
38.384127362
 10
-11.8107370442
 20
38.4034484261
 10
-12.0685278375
 20
38.408668179
 10
-12.3305124175
 20
38.3996973881
 10
-12.5963807847
 20
38.376468887
 10
-12.8657037497
 20
38.3389423278
 10
-13.1378496836
 20
38.2871514456
 10
-13.412350074
 20
38.2211556951
 10
-13.6889048999
 20
38.1409956809
 10
-13.967127497
 20
38.0467435188
  0
LWPOLYLINE
  5
43C
100
AcDbEntity
  8
RACCORDO
100
AcDbPolyline
 62
7
  6
CONTINUOUS
 90
16
 70
0
 10
-15.5287253639
 20
40.6665490983
 10
-15.7472266345
 20
40.7675769072
 10
-15.972315058
 20
40.855414668
 10
-16.2036507381
 20
40.929857573
 10
-16.4408252398
 20
40.9907119066
 10
-16.683533962
 20
41.0378410801
 10
-16.9315968209
 20
41.0711331305
 10
-17.1847485812
 20
41.0904541946
 10
-17.4425393745
 20
41.0956739475
 10
-17.7045239545
 20
41.0867031566
 10
-17.9703923217
 20
41.0634746555
 10
-18.2397152867
 20
41.0259480963
 10
-18.5118612206
 20
40.9741572141
 10
-18.786361611
 20
40.9081614636
 10
-19.0629164369
 20
40.8280014494
 10
-19.341139034
 20
40.7337492873
  0
LWPOLYLINE
  5
43D
100
AcDbEntity
  8
RACCORDO
100
AcDbPolyline
 62
7
  6
CONTINUOUS
 90
16
 70
0
 10
-16.80151757
 20
41.3029452014
 10
-17.0200188406
 20
41.4039730103
 10
-17.2451072642
 20
41.4918107711
 10
-17.4764429442
 20
41.5662536761
 10
-17.7136174459
 20
41.6271080096
 10
-17.9563261681
 20
41.6742371832
 10
-18.204389027
 20
41.7075292336
 10
-18.4575407873
 20
41.7268502976
 10
-18.7153315807
 20
41.7320700506
 10
-18.9773161607
 20
41.7230992597
 10
-19.2431845279
 20
41.6998707586
 10
-19.5125074929
 20
41.6623441994
 10
-19.7846534268
 20
41.6105533172
 10
-20.0591538172
 20
41.5445575667
 10
-20.335708643
 20
41.4643975524
 10
-20.6139312401
 20
41.3701453904
  0
LINE
  5
43E
100
AcDbEntity
  8
RACCORDO
100
AcDbLine
 62
253
  6
CONTINUOUS
 10
-10.1841337261
 20
37.988947675
 11
-10.0134245922
 21
37.9088987092
  0
LINE
  5
43F
100
AcDbEntity
  8
RACCORDO
100
AcDbLine
 62
253
  6
CONTINUOUS
 10
-15.5581452631
 20
40.6759534435
 11
-15.3874361292
 21
40.5959044778
  0
LINE
  5
440
100
AcDbEntity
  8
RACCORDO
100
AcDbLine
 62
253
  6
CONTINUOUS
 10
-8.7405002645
 20
37.2724365486
 11
-8.8830286742
 21
37.3399931488
  0
LWPOLYLINE
  5
441
100
AcDbEntity
  8
RACCORDO
100
AcDbPolyline
 62
253
  6
CONTINUOUS
 90
16
 70
0
 10
-9.023342977
 20
37.4138579049
 10
-9.1585047855
 20
37.4781010563
 10
-9.3752287917
 20
37.5678435
 10
-9.5980310917
 20
37.6442943115
 10
-9.8267082095
 20
37.7073612607
 10
-10.0608161571
 20
37.7569000398
 10
-10.2994967588
 20
37.7927662004
 10
-10.5409724871
 20
37.8148972688
 10
-10.7862182815
 20
37.8235825507
 10
-11.0386514979
 20
37.8187138701
 10
-11.2988889532
 20
37.7996784002
 10
-11.5658545106
 20
37.765954146
 10
-11.8406084934
 20
37.7167662072
 10
-12.1233131923
 20
37.6512996108
 10
-12.4131772285
 20
37.568945452
 10
-12.7098047306
 20
37.4690527538
  0
LWPOLYLINE
  5
442
100
AcDbEntity
  8
RACCORDO
100
AcDbPolyline
 62
253
  6
CONTINUOUS
 90
16
 70
0
 10
-10.1547138268
 20
37.9795433298
 10
-10.2898756354
 20
38.0437864812
 10
-10.5065996416
 20
38.133528925
 10
-10.7294019416
 20
38.2099797365
 10
-10.9580790594
 20
38.2730466856
 10
-11.192187007
 20
38.3225854647
 10
-11.4308676087
 20
38.3584516253
 10
-11.672343337
 20
38.3805826937
 10
-11.9175891314
 20
38.3892679757
 10
-12.1700223478
 20
38.384399295
 10
-12.4302598031
 20
38.3653638252
 10
-12.6972253605
 20
38.3316395709
 10
-12.9719793433
 20
38.2824516321
 10
-13.2546840422
 20
38.2169850358
 10
-13.5445480784
 20
38.134630877
 10
-13.8411755805
 20
38.0347381787
  0
LWPOLYLINE
  5
443
100
AcDbEntity
  8
RACCORDO
100
AcDbPolyline
 62
253
  6
CONTINUOUS
 90
16
 70
0
 10
-15.5287253639
 20
40.6665490983
 10
-15.6638871724
 20
40.7307922498
 10
-15.8806111787
 20
40.8205346935
 10
-16.1034134786
 20
40.896985505
 10
-16.3320905964
 20
40.9600524541
 10
-16.566198544
 20
41.0095912332
 10
-16.8048791457
 20
41.0454573938
 10
-17.046354874
 20
41.0675884622
 10
-17.2916006685
 20
41.0762737442
 10
-17.5440338849
 20
41.0714050635
 10
-17.8042713401
 20
41.0523695937
 10
-18.0712368976
 20
41.0186453394
 10
-18.3459908803
 20
40.9694574006
 10
-18.6286955793
 20
40.9039908043
 10
-18.9185596155
 20
40.8216366455
 10
-19.2151871175
 20
40.7217439472
  0
LINE
  5
444
100
AcDbEntity
  8
RACCORDO
100
AcDbLine
 62
253
  6
CONTINUOUS
 10
-6.2195402115
 20
36.9623074103
 11
-6.2195807808
 21
36.9623276827
  0
LINE
  5
445
100
AcDbEntity
  8
ASSI
100
AcDbLine
 62
7
  6
CONTINUOUS
 10
-16.80151757
 20
41.3029452014
 11
-16.5186748575
 21
41.1615238452
  0
LINE
  5
446
100
AcDbEntity
  8
ASSI
100
AcDbLine
 62
7
  6
CONTINUOUS
 10
-15.5287253639
 20
40.6665490983
 11
-15.3873040076
 21
40.5958384202
  0
LINE
  5
447
100
AcDbEntity
  8
ASSI
100
AcDbLine
 62
7
  6
CONTINUOUS
 10
-10.1547138268
 20
37.9795433298
 11
-10.0132924706
 21
37.9088326517
  0
LINE
  5
448
100
AcDbEntity
  8
ASSI
100
AcDbLine
 62
7
  6
CONTINUOUS
 10
-9.023342977
 20
37.4138579049
 11
-8.7405002645
 21
37.2724365486
  0
LINE
  5
449
100
AcDbEntity
  8
RACCORDO
100
AcDbLine
 62
253
  6
CONTINUOUS
 10
-10.0134245922
 20
37.9088987092
 11
-10.0132924706
 21
37.9088326517
  0
LINE
  5
44A
100
AcDbEntity
  8
RACCORDO
100
AcDbLine
 62
253
  6
CONTINUOUS
 10
-15.3874361292
 20
40.5959044778
 11
-15.3873040076
 21
40.5958384202
  0
LINE
  5
44B
100
AcDbEntity
  8
RACCORDO
100
AcDbLine
 62
253
  6
CONTINUOUS
 10
-16.5188069791
 20
41.1615899027
 11
-16.5186748575
 21
41.1615238452
  0
LINE
  5
44C
100
AcDbEntity
  8
RACCORDO
100
AcDbLine
 62
253
  6
CONTINUOUS
 10
-6.353700442
 20
36.9537849501
 11
-14.4147177475
 21
40.9842936029
  0
LINE
  5
44D
100
AcDbEntity
  8
RACCORDO
100
AcDbLine
 62
7
  6
CONTINUOUS
 10
-6.2195363633
 20
36.9623054863
 11
-14.2805536688
 21
40.992814139
  0
LWPOLYLINE
  5
44E
100
AcDbEntity
  8
RACCORDO
100
AcDbPolyline
 62
253
  6
CONTINUOUS
 90
7
 70
0
 10
-15.3526780501
 20
40.2427567535
 10
-15.1573063018
 20
40.1412304043
 10
-14.9682008094
 20
40.0277753038
 10
-14.7838638635
 20
39.9007238332
 10
-14.6037962277
 20
39.7595201196
 10
-14.4284971384
 20
39.6047200359
 10
-14.2579665956
 20
39.4363235821
  0
LWPOLYLINE
  5
44F
100
AcDbEntity
  8
RACCORDO
100
AcDbPolyline
 62
7
  6
CONTINUOUS
 90
14
 70
0
 10
-6.2195807808
 20
36.9623276827
 10
-6.2060261977
 20
36.9551139169
 10
-6.1840939622
 20
36.9414316486
 10
-6.1633924801
 20
36.9258886906
 10
-6.1440512536
 20
36.9085634838
 10
-6.1262239861
 20
36.8895648075
 10
-6.110067872
 20
36.8690292378
 10
-6.0957131656
 20
36.8470869799
 10
-6.0832874815
 20
36.8238881861
 10
-6.0729113602
 20
36.7996063553
 10
-6.0646875288
 20
36.7744231866
 10
-6.0587001087
 20
36.7485190867
 10
-6.0550219023
 20
36.7221043237
 10
-6.0537004421
 20
36.6939811718
  0
LWPOLYLINE
  5
450
100
AcDbEntity
  8
RACCORDO
100
AcDbPolyline
 62
253
  6
CONTINUOUS
 90
19
 70
0
 10
-6.353700442
 20
36.9537849501
 10
-6.335211917
 20
36.9435520412
 10
-6.3168641008
 20
36.931419718
 10
-6.2987966314
 20
36.9174803148
 10
-6.2811470132
 20
36.901839919
 10
-6.2640495703
 20
36.8846175633
 10
-6.2476344248
 20
36.8659443204
 10
-6.2320265057
 20
36.8459623048
 10
-6.2173445987
 20
36.8248235918
 10
-6.203700442
 20
36.8026890597
 10
-6.1911978758
 20
36.7797271657
 10
-6.1799320524
 20
36.7561126636
 10
-6.1699887113
 20
36.7320252742
 10
-6.1614435273
 20
36.7076483169
 10
-6.1543615346
 20
36.6831673151
 10
-6.1487966314
 20
36.6587685841
 10
-6.1447911699
 20
36.6346378129
 10
-6.142375634
 20
36.6109586512
 10
-6.1415684076
 20
36.5879113118
  0
LWPOLYLINE
  5
451
100
AcDbEntity
  8
RACCORDO
100
AcDbPolyline
 62
7
  6
CONTINUOUS
 90
10
 70
0
 10
-13.0171967119
 20
-46.1275632354
 10
-12.9863045197
 20
-46.1088546039
 10
-12.956745917
 20
-46.0875799793
 10
-12.928537716
 20
-46.0640436861
 10
-12.9015891857
 20
-46.0385699142
 10
-12.8759225045
 20
-46.0114488792
 10
-12.8517524076
 20
-45.9828550056
 10
-12.8291672583
 20
-45.9529601557
 10
-12.8080545748
 20
-45.9220087187
 10
-12.7883721508
 20
-45.8902124657
  0
LINE
  5
452
100
AcDbEntity
  8
RACCORDO
100
AcDbLine
 62
7
  6
CONTINUOUS
 10
-21.5638727956
 20
-50.4012084654
 11
-21.5564962375
 21
-50.3972129982
  0
LINE
  5
453
100
AcDbEntity
  8
RACCORDO
100
AcDbLine
 62
253
  6
CONTINUOUS
 10
-6.216993782
 20
-42.7277607713
 11
-6.2195377115
 21
-42.7290734083
  0
LWPOLYLINE
  5
454
100
AcDbEntity
  8
RACCORDO
100
AcDbPolyline
 62
7
  6
CONTINUOUS
 90
77
 70
0
 10
-1.2344349283
 20
-36.4228805233
 10
0.0021597546
 20
-35.7868246221
 10
1.2792755298
 20
-35.0924351725
 10
2.543609466
 20
-34.3669798246
 10
3.7996735469
 20
-33.6081077405
 10
5.0414724045
 20
-32.8194467808
 10
6.2526697627
 20
-32.0122063016
 10
7.4462171489
 20
-31.1784119507
 10
8.6077928416
 20
-30.3285992652
 10
9.6810705939
 20
-29.5077507647
 10
10.6415304991
 20
-28.7422652396
 10
11.5149752051
 20
-28.0189865823
 10
12.321312959
 20
-27.3266304339
 10
13.0603233456
 20
-26.6697245685
 10
13.7334034269
 20
-26.0513302793
 10
14.3622654015
 20
-25.4548541916
 10
14.9503530472
 20
-24.8792917097
 10
15.4949266946
 20
-24.3296619914
 10
16.0077101647
 20
-23.7961337854
 10
16.4903772007
 20
-23.2784543173
 10
16.9417335963
 20
-22.7794534409
 10
17.3687769133
 20
-22.2927518417
 10
17.7724120575
 20
-21.818354169
 10
18.1520495577
 20
-21.3580469793
 10
18.5121032929
 20
-20.9074122846
 10
18.8530452927
 20
-20.4665310414
 10
19.1745297158
 20
-20.0366118663
 10
19.4794370151
 20
-19.6144633234
 10
19.7680269354
 20
-19.2002526413
 10
20.0400600122
 20
-18.7949099999
 10
20.2974551682
 20
-18.3961104212
 10
20.5403318497
 20
-18.0040933023
 10
20.7685056086
 20
-17.6196339873
 10
20.9832493833
 20
-17.2410146883
 10
21.1845319464
 20
-16.8685397886
 10
21.3721738241
 20
-16.5028786089
 10
21.5469865858
 20
-16.1427617371
 10
21.7089241411
 20
-15.7885596655
 10
21.8578297167
 20
-15.4409954639
 10
21.9941891918
 20
-15.0992688096
 10
22.1179108187
 20
-14.7639081754
 10
22.2289137401
 20
-14.4355963752
 10
22.3275730193
 20
-14.1137469751
 10
22.4138852366
 20
-13.798949453
 10
22.4879117298
 20
-13.4919270896
 10
22.5500429762
 20
-13.1922576879
 10
22.6004082753
 20
-12.9008783786
 10
22.6393317469
 20
-12.6180257257
 10
22.6673013641
 20
-12.3422056312
 10
22.6844452946
 20
-12.0747227252
 10
22.6910972196
 20
-11.8153115351
 10
22.687487115
 20
-11.560277746
 10
22.6736227233
 20
-11.3104505616
 10
22.6495574277
 20
-11.066118676
 10
22.6146473424
 20
-10.8232786932
 10
22.5682610353
 20
-10.5817812036
 10
22.510155553
 20
-10.3435571337
 10
22.4396850675
 20
-10.1082407661
 10
22.3565291681
 20
-9.8764995866
 10
22.2607140308
 20
-9.6493932184
 10
22.1521993224
 20
-9.4273582525
 10
22.0312411571
 20
-9.2112092235
 10
21.898189032
 20
-9.0010932206
 10
21.7531577458
 20
-8.7965510292
 10
21.5966694207
 20
-8.59773779
 10
21.4289954916
 20
-8.4045561446
 10
21.2497563063
 20
-8.2162827733
 10
21.0593138758
 20
-8.0330552358
 10
20.8578986749
 20
-7.8547697152
 10
20.6447850646
 20
-7.6805279516
 10
20.4202967283
 20
-7.5103696295
 10
20.1845682874
 20
-7.344126257
 10
19.9363906634
 20
-7.1808452158
 10
19.6760757481
 20
-7.0206755415
 10
19.4035644347
 20
-6.8634747167
 10
19.1169304902
 20
-6.7081133569
 10
18.859283171
 20
-6.5760630656
  0
LWPOLYLINE
  5
455
100
AcDbEntity
  8
RACCORDO
100
AcDbPolyline
 62
7
  6
CONTINUOUS
 90
12
 70
0
 10
-9.189370987
 20
-44.2139571433
 10
-9.187168668
 20
-44.2128287165
 10
-9.1735489229
 20
-44.2043805481
 10
-9.1610907847
 20
-44.1939289043
 10
-9.1497684523
 20
-44.1815182852
 10
-9.1398371922
 20
-44.1674284933
 10
-9.1313286042
 20
-44.1516213844
 10
-9.1242110885
 20
-44.1341351025
 10
-9.1186451124
 20
-44.1153638831
 10
-9.1146841649
 20
-44.0954391379
 10
-9.112274757
 20
-44.074229455
 10
-9.1114168886
 20
-44.0517348346
  0
LWPOLYLINE
  5
456
100
AcDbEntity
  8
RACCORDO
100
AcDbPolyline
 62
7
  6
CONTINUOUS
 90
12
 70
0
 10
-7.0680506435
 20
-43.1532969716
 10
-7.0658483245
 20
-43.1521685447
 10
-7.0522285794
 20
-43.1437203764
 10
-7.0397704412
 20
-43.1332687325
 10
-7.0284481088
 20
-43.1208581135
 10
-7.0185168487
 20
-43.1067683216
 10
-7.0100082607
 20
-43.0909612126
 10
-7.002890745
 20
-43.0734749308
 10
-6.9973247688
 20
-43.0547037113
 10
-6.9933638213
 20
-43.0347789661
 10
-6.9909544134
 20
-43.0135692833
 10
-6.990096545
 20
-42.9910746628
  0
LINE
  5
457
100
AcDbEntity
  8
RACCORDO
100
AcDbLine
 62
253
  6
CONTINUOUS
 10
-0.566931361
 20
-35.9643883405
 11
-6.053700442
 21
-38.7092351158
  0
LINE
  5
458
100
AcDbEntity
  8
0
100
AcDbLine
 62
7
  6
CONTINUOUS
 10
-25.445583534
 20
-48.5188278038
 11
-25.0920301434
 21
-48.3420511085
  0
LINE
  5
459
100
AcDbEntity
  8
RACCORDO
100
AcDbLine
 62
7
  6
CONTINUOUS
 10
-1.234433556
 20
-36.4228798351
 11
-6.053700442
 21
-38.8325132781
  0
LINE
  5
45A
100
AcDbEntity
  8
0
100
AcDbLine
 62
7
  6
CONTINUOUS
 10
-21.5564962375
 20
-46.6528596754
 11
-20.8493894563
 21
-46.2993062848
  0
LINE
  5
45B
100
AcDbEntity
  8
0
100
AcDbLine
 62
7
  6
CONTINUOUS
 10
-24.5263447185
 20
-48.9784472116
 11
-24.1727913279
 21
-48.8016705163
  0
LINE
  5
45C
100
AcDbEntity
  8
0
100
AcDbLine
 62
7
  6
CONTINUOUS
 10
-6.990096545
 20
-41.0858187745
 11
-8.0507567168
 21
-41.6161488604
  0
LINE
  5
45D
100
AcDbEntity
  8
0
100
AcDbLine
 62
7
  6
CONTINUOUS
 10
-9.1114168886
 20
-42.1464789463
 11
-10.1720770604
 21
-42.6768090322
  0
LINE
  5
45E
100
AcDbEntity
  8
0
100
AcDbLine
 62
7
  6
CONTINUOUS
 10
-23.6071059029
 20
-49.4380666193
 11
-23.2535525123
 21
-49.261289924
  0
LINE
  5
45F
100
AcDbEntity
  8
0
100
AcDbLine
 62
7
  6
CONTINUOUS
 10
-22.6878670874
 20
-49.8976860271
 11
-22.3343136968
 21
-49.7209093318
  0
LINE
  5
460
100
AcDbEntity
  8
RACCORDO
100
AcDbLine
 62
253
  6
CONTINUOUS
 10
-12.7883721508
 20
-45.8902124657
 11
-10.1720770604
 21
-44.5820649205
  0
LINE
  5
461
100
AcDbEntity
  8
RACCORDO
100
AcDbLine
 62
253
  6
CONTINUOUS
 10
-9.1114168886
 20
-44.0517348346
 11
-8.0507567168
 21
-43.5214047487
  0
LINE
  5
462
100
AcDbEntity
  8
RACCORDO
100
AcDbLine
 62
253
  6
CONTINUOUS
 10
-6.990096545
 20
-42.9910746628
 11
-6.1415684076
 21
-42.5668105941
  0
LINE
  5
463
100
AcDbEntity
  8
RACCORDO
100
AcDbLine
 62
7
  6
CONTINUOUS
 10
-21.5637535151
 20
-50.4011813101
 11
-10.2500450161
 21
-44.7443270606
  0
LINE
  5
464
100
AcDbEntity
  8
RACCORDO
100
AcDbLine
 62
7
  6
CONTINUOUS
 10
-9.1893848443
 20
-44.2139969747
 11
-8.1287246725
 21
-43.6836668888
  0
LINE
  5
465
100
AcDbEntity
  8
RACCORDO
100
AcDbLine
 62
7
  6
CONTINUOUS
 10
-7.0680645007
 20
-43.1533368029
 11
-6.2195363633
 21
-42.7290727342
  0
LWPOLYLINE
  5
466
100
AcDbEntity
  8
RACCORDO
100
AcDbPolyline
 62
7
  6
CONTINUOUS
 90
10
 70
0
 10
-13.0171967119
 20
33.3940129185
 10
-13.0416586117
 20
33.3952148475
 10
-13.0655425916
 20
33.3973545292
 10
-13.0888486516
 20
33.4004319636
 10
-13.1117216981
 20
33.4044795528
 10
-13.1340168248
 20
33.4094648947
 10
-13.1552993122
 20
33.4152907831
 10
-13.1754242539
 20
33.4219248159
 10
-13.1945365563
 20
33.4293993952
 10
-13.2126362195
 20
33.437714521
  0
LWPOLYLINE
  5
467
100
AcDbEntity
  8
RACCORDO
100
AcDbPolyline
 62
253
  6
CONTINUOUS
 90
14
 70
0
 10
-9.1014004354
 20
37.4298176208
 10
-9.3258764543
 20
37.5061590785
 10
-9.5561569136
 20
37.5689098483
 10
-9.7918710114
 20
37.6179633209
 10
-10.0323850782
 20
37.6532112831
 10
-10.2764202918
 20
37.6745943806
 10
-10.524476193
 20
37.6822816997
 10
-10.7786834745
 20
37.6761809848
 10
-11.0394002776
 20
37.6558728476
 10
-11.3057008245
 20
37.621020569
 10
-11.5778973181
 20
37.5711760878
 10
-11.8558662115
 20
37.5058886004
 10
-12.1390226198
 20
37.4248213646
 10
-12.4269620182
 20
37.3276313975
  0
LWPOLYLINE
  5
468
100
AcDbEntity
  8
RACCORDO
100
AcDbPolyline
 62
253
  6
CONTINUOUS
 90
3
 70
0
 10
-16.8801366016
 20
41.319115582
 10
-16.689516113
 20
41.2416388684
 10
-16.5188069791
 20
41.1615899027
  0
LINE
  5
469
100
AcDbEntity
  8
RACCORDO
100
AcDbLine
 62
253
  6
CONTINUOUS
 10
-1.3685976346
 20
39.3628635322
 11
-4.8334208624
 21
41.0952751461
  0
LWPOLYLINE
  5
46A
100
AcDbEntity
  8
RACCORDO
100
AcDbPolyline
 62
253
  6
CONTINUOUS
 90
16
 70
0
 10
-1.3685976346
 20
39.3628635322
 10
-1.3464237995
 20
39.3503533614
 10
-1.3244929055
 20
39.335133748
 10
-1.3030452321
 20
39.3173714413
 10
-1.2823157645
 20
39.2972610489
 10
-1.262531619
 20
39.2750229043
 10
-1.2439095549
 20
39.2509006534
 10
-1.2266535995
 20
39.2251585845
 10
-1.2109528125
 20
39.1980787331
 10
-1.1969792151
 20
39.1699577916
 10
-1.184885905
 20
39.141103859
 10
-1.174805379
 20
39.1118330651
 10
-1.1668480815
 20
39.0824661066
 10
-1.1611011944
 20
39.0533247342
 10
-1.1576276818
 20
39.0247282269
 10
-1.1564656002
 20
38.9969898939
  0
LWPOLYLINE
  5
46B
100
AcDbEntity
  8
RACCORDO
100
AcDbPolyline
 62
7
  6
CONTINUOUS
 90
10
 70
0
 10
-20.7819680645
 20
37.3695436336
 10
-20.8047566615
 20
37.3700511785
 10
-20.8308345448
 20
37.3717677877
 10
-20.8563244917
 20
37.3745815011
 10
-20.8812131467
 20
37.3785172406
 10
-20.9055138653
 20
37.3835500842
 10
-20.9286787782
 20
37.3895665645
 10
-20.9505252621
 20
37.3965288589
 10
-20.9712359402
 20
37.4044747901
 10
-20.9908108125
 20
37.4134043579
  0
LWPOLYLINE
  5
46C
100
AcDbEntity
  8
RACCORDO
100
AcDbPolyline
 62
7
  6
CONTINUOUS
 90
55
 70
0
 10
24.8778291675
 20
47.2237996216
 10
24.910206029
 20
47.1572355408
 10
24.9775641395
 20
46.9928106698
 10
25.0351786249
 20
46.8234986548
 10
25.0837146165
 20
46.6482186863
 10
25.1230825922
 20
46.4687172298
 10
25.1537974149
 20
46.2848602624
 10
25.1767632367
 20
46.0921602915
 10
25.191766722
 20
45.8908563688
 10
25.198623528
 20
45.6816351145
 10
25.1971115514
 20
45.4598128464
 10
25.1865165879
 20
45.2238749386
 10
25.1663424273
 20
44.9758403997
 10
25.1362240799
 20
44.7160592726
 10
25.0958029669
 20
44.4442887619
 10
25.0450104775
 20
44.1617445359
 10
24.9842532905
 20
43.871029476
 10
24.9139069548
 20
43.573493923
 10
24.8339948952
 20
43.2688022036
 10
24.7446044715
 20
42.9569931985
 10
24.6461177793
 20
42.6390081656
 10
24.5386005135
 20
42.314634641
 10
24.4215331759
 20
41.9821100339
 10
24.2949565486
 20
41.6415826901
 10
24.1590185568
 20
41.2934611982
 10
24.0131325918
 20
40.9363389608
 10
23.8573473088
 20
40.5704720447
 10
23.6917074295
 20
40.1960537893
 10
23.5154813301
 20
39.811588682
 10
23.3288044659
 20
39.417592543
 10
23.131539923
 20
39.0139598326
 10
22.922394354
 20
38.5983050892
 10
22.7014646953
 20
38.171122447
 10
22.4685716177
 20
37.7323214069
 10
22.2218316374
 20
37.2787181207
 10
21.9613729559
 20
36.8109884314
 10
21.6868621078
 20
36.3289171058
 10
21.3954957904
 20
35.8281132723
 10
21.0875211114
 20
35.3095931653
 10
20.7623464839
 20
34.7729107671
 10
20.4156801605
 20
34.2116754129
 10
20.0480547207
 20
33.6275233707
 10
19.6584537144
 20
33.0195482171
 10
19.2399209455
 20
32.3778496169
 10
18.7936195763
 20
31.7053154148
 10
18.3176574076
 20
31.0001066482
 10
17.7999575047
 20
30.245761624
 10
17.2437395721
 20
29.4485107196
 10
16.6448062386
 20
28.6035290308
 10
15.9791575977
 20
27.6786880938
 10
15.2245843937
 20
26.6458388225
 10
14.4017801267
 20
25.5352957021
 10
13.551713692
 20
24.4018246796
 10
12.6581883724
 20
23.222028544
 10
11.7391405186
 20
22.0172038003
  0
LWPOLYLINE
  5
46D
100
AcDbEntity
  8
RACCORDO
100
AcDbPolyline
 62
253
  6
CONTINUOUS
 90
97
 70
0
 10
24.9208399525
 20
47.2214620379
 10
24.9210112178
 20
47.2211446733
 10
24.9666451691
 20
47.1286212359
 10
25.0094249621
 20
47.0333451637
 10
25.0493378731
 20
46.935193055
 10
25.0863076989
 20
46.8341538454
 10
25.1201776391
 20
46.7305150613
 10
25.1509522036
 20
46.6241710766
 10
25.1786079185
 20
46.5151098597
 10
25.2030292384
 20
46.4038105685
 10
25.2242407926
 20
46.290339436
 10
25.2423048088
 20
46.1745776341
 10
25.2572310677
 20
46.0567735871
 10
25.2690744115
 20
45.9370011369
 10
25.2779005901
 20
45.8151684517
 10
25.2837386979
 20
45.6913006239
 10
25.2866188964
 20
45.5651025561
 10
25.2865508141
 20
45.4368661561
 10
25.2835933668
 20
45.3075504804
 10
25.2778315791
 20
45.1771308745
 10
25.2693545166
 20
45.0457374662
 10
25.2583655743
 20
44.9146729286
 10
25.2451128438
 20
44.7848479961
 10
25.2296939082
 20
44.6556035563
 10
25.212094207
 20
44.5258952087
 10
25.1924469809
 20
44.3960729745
 10
25.1708060714
 20
44.2659421802
 10
25.1468685524
 20
44.1335030839
 10
25.1206010601
 20
43.9986661264
 10
25.0920030505
 20
43.8615161718
 10
25.0606261242
 20
43.7201573962
 10
25.0262890056
 20
43.5742092507
 10
24.9889482326
 20
43.4238989957
 10
24.9482209458
 20
43.2681318044
 10
24.9035761873
 20
43.1054768821
 10
24.8551789958
 20
42.9371115912
 10
24.8037901537
 20
42.7659328303
 10
24.7493738015
 20
42.5918599287
 10
24.6919533104
 20
42.4150034948
 10
24.632689227
 20
42.2387846182
 10
24.5721470982
 20
42.0645125702
 10
24.5100897304
 20
41.891158539
 10
24.4466203151
 20
41.7187438138
 10
24.3820149243
 20
41.5477574675
 10
24.3162668775
 20
41.3779370049
 10
24.2489988135
 20
41.2081341066
 10
24.1803978143
 20
41.0386892014
 10
24.1104351138
 20
40.8694013971
 10
24.0382893074
 20
40.698225495
 10
23.9639536649
 20
40.5251513411
 10
23.8874441481
 20
40.3502216684
 10
23.8078340931
 20
40.171377318
 10
23.725028191
 20
39.9885178358
 10
23.638998997
 20
39.8016936071
 10
23.5487948056
 20
39.6089911619
 10
23.4541615064
 20
39.4100712256
 10
23.3551102192
 20
39.2051579839
 10
23.2509935547
 20
38.993127053
 10
23.1414615736
 20
38.7735052322
 10
23.0265606757
 20
38.5466193298
 10
22.9062112084
 20
38.3125293886
 10
22.7802653209
 20
38.0711581756
 10
22.6485985313
 20
37.8224727157
 10
22.5111810729
 20
37.566613047
 10
22.36794658
 20
37.3036408473
 10
22.2187268676
 20
37.0334276035
 10
22.0633488522
 20
36.7558394112
 10
21.90181023
 20
36.4710450643
 10
21.7339053441
 20
36.1788497897
 10
21.559140954
 20
35.8785745477
 10
21.3774314516
 20
35.5702583381
 10
21.1886522791
 20
35.2538704215
 10
20.9922196832
 20
34.9286218395
 10
20.788105642
 20
34.5946548115
 10
20.576142193
 20
34.2518733244
 10
20.3554962516
 20
33.8991241826
 10
20.1261378582
 20
33.5365639723
 10
19.8879150139
 20
33.1641482976
 10
19.6397623067
 20
32.7804256569
 10
19.3817160776
 20
32.3856787092
 10
19.1135940653
 20
31.9798448326
 10
18.8339479385
 20
31.5609733123
 10
18.5428266101
 20
31.1293975561
 10
18.2401037503
 20
30.6851776685
 10
17.9240165665
 20
30.2260016817
 10
17.5940850631
 20
29.7514557914
 10
17.2506980293
 20
29.2623232958
 10
16.8933781395
 20
28.7581129465
 10
16.5221916657
 20
28.2390790207
 10
16.137140704
 20
27.705346065
 10
15.7376953235
 20
27.1562708588
 10
15.3249562376
 20
26.5934066724
 10
14.8981880175
 20
26.0157413864
 10
14.4541406675
 20
25.4188749363
 10
13.9900602105
 20
24.799112951
 10
13.5094105294
 20
24.1609959433
 10
13.0183871158
 20
23.5124742165
  0
LWPOLYLINE
  5
46E
100
AcDbEntity
  8
RACCORDO
100
AcDbPolyline
 62
7
  6
CONTINUOUS
 90
35
 70
0
 10
24.3030965873
 20
49.7975992083
 10
24.2577411513
 20
49.819937847
 10
24.0097004858
 20
49.9313465794
 10
23.7480170555
 20
50.031326414
 10
23.4728022101
 20
50.119759147
 10
23.1834247693
 20
50.1967372649
 10
22.8806102325
 20
50.2619682428
 10
22.5641220766
 20
50.3154713467
 10
22.2317369186
 20
50.3574684123
 10
21.883876915
 20
50.3876832873
 10
21.5204041392
 20
50.4059522435
 10
21.1380731194
 20
50.4121063057
 10
20.737396925
 20
50.4056965701
 10
20.3179906803
 20
50.3863479401
 10
19.8750904854
 20
50.35331442
 10
19.4095682169
 20
50.3060484868
 10
18.9205951
 20
50.2439353732
 10
18.400675684
 20
50.1652632641
 10
17.8513688552
 20
50.0693942391
 10
17.2710837744
 20
49.95528222
 10
16.6473915742
 20
49.8193654501
 10
15.9836211133
 20
49.6610940935
 10
15.276333495
 20
49.4784892527
 10
14.5026801746
 20
49.2638426321
 10
13.6711408888
 20
49.0174399875
 10
12.7730417508
 20
48.7348318041
 10
11.7594115603
 20
48.3973613893
 10
10.6467349129
 20
48.0066377886
 10
9.4182155169
 20
47.5531944835
 10
7.9743953394
 20
46.9939858006
 10
6.2674789725
 20
46.3005290183
 10
4.344826605
 20
45.4826676003
 10
2.2496601607
 20
44.5527465811
 10
-0.0033581255
 20
43.5135196842
 10
-2.4282646687
 20
42.3553112855
  0
LINE
  5
46F
100
AcDbEntity
  8
RACCORDO
100
AcDbLine
 62
7
  6
CONTINUOUS
 10
27.0957783895
 20
46.7239983584
 11
27.097069238
 21
46.7233532532
  0
LINE
  5
470
100
AcDbEntity
  8
RACCORDO
100
AcDbLine
 62
7
  6
CONTINUOUS
 10
27.7682699443
 20
48.0650125342
 11
27.7689632236
 21
48.0646659746
  0
LINE
  5
471
100
AcDbEntity
  8
RACCORDO
100
AcDbLine
 62
7
  6
CONTINUOUS
 10
24.3031113915
 20
49.7975917145
 11
24.3041399957
 21
49.7970775885
  0
LINE
  5
472
100
AcDbEntity
  8
0
100
AcDbLine
 62
7
  6
CONTINUOUS
 10
27.7689632236
 20
48.0646659746
 11
24.3041399957
 21
49.7970775885
  0
LWPOLYLINE
  5
473
100
AcDbEntity
  8
RACCORDO
100
AcDbPolyline
 62
253
  6
CONTINUOUS
 90
114
 70
0
 10
27.097069238
 20
46.7233532532
 10
27.1659280627
 20
46.6879965938
 10
27.2606912435
 20
46.6361476709
 10
27.3525600912
 20
46.5820482994
 10
27.441484938
 20
46.5257296854
 10
27.5279134218
 20
46.4668801167
 10
27.6120566601
 20
46.4052715862
 10
27.6935504545
 20
46.3410850452
 10
27.7719778563
 20
46.274616163
 10
27.8473174111
 20
46.2058822223
 10
27.9195936639
 20
46.1348610193
 10
27.9885562678
 20
46.0618284143
 10
28.0540592589
 20
45.9870268696
 10
28.1163532131
 20
45.9102628697
 10
28.1757722109
 20
45.8311521253
 10
28.2323123708
 20
45.7496841273
 10
28.2859688218
 20
45.665852826
 10
28.3369797315
 20
45.5792260204
 10
28.3853983689
 20
45.4895775349
 10
28.4310677415
 20
45.3970601558
 10
28.4738814976
 20
45.3017906121
 10
28.5138269343
 20
45.2036465378
 10
28.5508282141
 20
45.1026163217
 10
28.58472752
 20
44.9989907534
 10
28.6155293197
 20
44.8926661398
 10
28.6432110747
 20
44.7836290992
 10
28.6676578478
 20
44.6723572268
 10
28.6888943667
 20
44.5589175429
 10
28.7069832472
 20
44.4431908009
 10
28.7219348531
 20
44.3254217319
 10
28.7338040581
 20
44.2056825532
 10
28.7426565251
 20
44.0838828365
 10
28.7485213826
 20
43.9600484
 10
28.7514288601
 20
43.8338830395
 10
28.7513884458
 20
43.7056797217
 10
28.748458993
 20
43.5764018036
 10
28.7427259978
 20
43.4460281177
 10
28.7342787416
 20
43.3146858568
 10
28.7233201132
 20
43.1836723048
 10
28.7100980876
 20
43.0538992048
 10
28.6947102451
 20
42.9247063379
 10
28.6771408486
 20
42.7950400535
 10
28.6575220754
 20
42.665247076
 10
28.6359075843
 20
42.5351347168
 10
28.6119940041
 20
42.4027013463
 10
28.5857469744
 20
42.2678549671
 10
28.5571656416
 20
42.1306818297
 10
28.5258022593
 20
41.9892900097
 10
28.491474065
 20
41.8432941999
 10
28.4541379907
 20
41.6929255668
 10
28.4134156347
 20
41.5371069568
 10
28.3687770285
 20
41.3744096159
 10
28.3203869843
 20
41.2060094763
 10
28.2690104307
 20
41.0348170728
 10
28.2146153869
 20
40.8607612888
 10
28.1572238142
 20
40.6839450566
 10
28.0979926365
 20
40.5077773946
 10
28.0374880074
 20
40.3335686128
 10
27.9754730476
 20
40.1602895289
 10
27.9120456261
 20
39.9879463166
 10
27.8474803619
 20
39.8170247347
 10
27.7817715313
 20
39.6472652314
 10
27.7145392151
 20
39.4775131479
 10
27.6459695155
 20
39.3081072878
 10
27.576033787
 20
39.1388478046
 10
27.5039094629
 20
38.9676869666
 10
27.4295888578
 20
38.7946131442
 10
27.3530879702
 20
38.6196699286
 10
27.2734804066
 20
38.4407990862
 10
27.1906700277
 20
38.2578989794
 10
27.1046293591
 20
38.0710206269
 10
27.0144082762
 20
37.8782542801
 10
26.9197518705
 20
37.6792594496
 10
26.8206713767
 20
37.4742611311
 10
26.7165226492
 20
37.2621419058
 10
26.606956121
 20
37.0424294871
 10
26.4920175977
 20
36.8154496881
 10
26.3716295791
 20
36.5812668782
 10
26.2456451081
 20
36.3398054842
 10
26.1139389406
 20
36.0910309886
 10
25.9764811217
 20
35.8350830393
 10
25.8332057067
 20
35.5720240444
 10
25.6839442153
 20
35.3017248812
 10
25.5285222177
 20
35.0240492025
 10
25.3669373506
 20
34.7391657487
 10
25.1989840002
 20
34.4468798592
 10
25.0241675835
 20
34.1465102294
 10
24.8424022651
 20
33.8380956025
 10
24.6535635832
 20
33.5216055293
 10
24.4570668105
 20
33.1962495628
 10
24.2528834153
 20
32.8621692596
 10
24.0408457733
 20
32.5192693276
 10
23.8201210715
 20
32.1663971595
 10
23.5906790767
 20
31.8037090412
 10
23.3523680097
 20
31.4311610519
 10
23.1041235354
 20
31.0473034877
 10
22.845981848
 20
30.6524188409
 10
22.5777609788
 20
30.246444994
 10
22.2980144564
 20
29.8274340999
 10
22.0067897488
 20
29.3957173924
 10
21.7039623549
 20
28.9513576721
 10
21.3877765253
 20
28.4920531598
 10
21.0577554279
 20
28.0173940727
 10
20.7142852308
 20
27.5281593774
 10
20.3568868852
 20
27.0238549851
 10
19.9856296564
 20
26.5047389706
 10
19.6005133261
 20
25.9709322211
 10
19.2009980415
 20
25.4217775872
 10
18.7881736888
 20
24.8588135424
 10
18.3613159532
 20
24.2810432319
 10
17.9171980071
 20
23.6840975724
 10
17.4530709105
 20
23.0642881488
 10
16.9723945428
 20
22.4261491985
 10
16.481374135
 20
21.7776430599
  0
ENDSEC
  0
SECTION
  2
OBJECTS
  0
DICTIONARY
  5
C
100
AcDbDictionary
280
0
281
1
  3
ACAD_GROUP
350
D
  3
ACAD_MLINESTYLE
350
17
  3
ACAD_LAYOUT
350
1A
  3
ACAD_PLOTSETTINGS
350
19
  3
ACAD_PLOTSTYLENAME
350
E
  0
DICTIONARY
  5
D
102
{ACAD_REACTORS
330
C
102
}
100
AcDbDictionary
280
0
281
1
  0
ACDBDICTIONARYWDFLT
  5
E
102
{ACAD_REACTORS
330
C
102
}
100
AcDbDictionary
281
1
  3
Normal
350
F
100
AcDbDictionaryWithDefault
340
F
  0
DICTIONARY
  5
17
102
{ACAD_REACTORS
330
C
102
}
100
AcDbDictionary
280
0
281
1
  3
Standard
350
18
  0
DICTIONARY
  5
19
102
{ACAD_REACTORS
330
C
102
}
100
AcDbDictionary
281
1
  0
DICTIONARY
  5
1A
102
{ACAD_REACTORS
330
C
102
}
100
AcDbDictionary
281
1
  3
Model
350
474
  3
Layout1
350
475
  0
ACDBPLACEHOLDER
  5
F
102
{ACAD_REACTORS
330
E
102
}
  0
MLINESTYLE
  5
18
102
{ACAD_REACTORS
330
17
102
}
100
AcDbMlineStyle
  2
STANDARD
 70
0
  3

 62
256
 51
90.0
 52
90.0
 71
2
 49
0.5
 62
256
  6
BYLAYER
 49
-0.5
 62
256
  6
BYLAYER
  0
LAYOUT
  5
474
102
{ACAD_REACTORS
330
1A
102
}
100
AcDbPlotSettings
  1

  2
none_device
  4
ISO_A4_(297.00_x_210.00_MM)
  6

 40
0.0
 41
0.0
 42
0.0
 43
0.0
 44
297.0
 45
210.0
 46
0.0
 47
0.0
 48
0.0
 49
0.0
140
0.0
141
0.0
142
1.0
143
1.0
 70
1024
 72
1
 73
0
 74
0
  7

 75
0
147
1.0
148
0.0
149
0.0
100
AcDbLayout
  1
Model
 70
0
 71
0
 10
0.0
 20
0.0
 11
297.0
 21
210.0
 12
0.0
 22
0.0
 32
0.0
 14
0.0
 24
0.0
 34
0.0
 15
0.0
 25
0.0
 35
0.0
146
0.0
 13
0.0
 23
0.0
 33
0.0
 16
1.0
 26
0.0
 36
0.0
 17
0.0
 27
1.0
 37
0.0
 76
0
330
20E
345
0
346
0
  0
LAYOUT
  5
475
102
{ACAD_REACTORS
330
1A
102
}
100
AcDbPlotSettings
  1

  2
none_device
  4
ISO_A4_(297.00_x_210.00_MM)
  6

 40
0.0
 41
0.0
 42
0.0
 43
0.0
 44
297.0
 45
210.0
 46
0.0
 47
0.0
 48
0.0
 49
0.0
140
0.0
141
0.0
142
1.0
143
1.0
 70
0
 72
1
 73
0
 74
0
  7

 75
0
147
1.0
148
0.0
149
0.0
100
AcDbLayout
  1
Layout1
 70
0
 71
1
 10
0.0
 20
0.0
 11
297.0
 21
210.0
 12
0.0
 22
0.0
 32
0.0
 14
0.0
 24
0.0
 34
0.0
 15
0.0
 25
0.0
 35
0.0
146
0.0
 13
0.0
 23
0.0
 33
0.0
 16
1.0
 26
0.0
 36
0.0
 17
0.0
 27
1.0
 37
0.0
 76
0
330
20F
345
0
346
0
  0
ENDSEC
  0
EOF
