  0
SECTION
  2
HEADER
  9
$ACADVER
  1
AC1021
  9
$DWGCODEPAGE
  3
ANSI_1252
  9
$EXTMAX
 10
297.0
 20
210.0
 30
0.0
  9
$EXTMIN
 10
0.0
 20
0.0
 30
0.0
  9
$LIMMIN
 10
0.0
 20
0.0
  9
$LIMMAX
 10
297.0
 20
210.0
  9
$VIEWCTR
 10
148.5
 20
105.0
  9
$VIEWSIZE
 40
210.0
  9
$CLAYER
  8
0
  9
$LTSCALE
 40
16.335
  9
$CELTYPE
  6
BYLAYER
  9
$DIMSCALE
 40
1.0
  9
$DIMASZ
 40
3.0
  9
$DIMEXO
 40
0.5
  9
$DIMDLI
 40
11.286
  9
$DIMEXE
 40
1.5
  9
$DIMCEN
 40
2.673
  9
$DIMLFAC
 40
1.0
  9
$DIMBLK
  1
_FILLED
  9
$DIMALT
 70
0
  9
$DIMALTF
 40
0.0393700787
  9
$DIMTXT
 40
3.0
  9
$DIMTOL
 70
1
  9
$DIMLIM
 70
0
  9
$DIMTFAC
 40
1.0
  9
$DIMTP
 40
0.01
  9
$DIMTM
 40
0.01
  9
$DIMGAP
 40
0.625
  9
$DIMDSEP
 70
44
  9
$AUNITS
 70
0
  9
$PDMODE
 70
3
  9
$PDSIZE
 40
3.0
  9
$HANDSEED
  5
2FA
  9
$TILEMODE
 70
1
  9
$MEASUREMENT
 70
1
  9
$INSUNITS
 70
4
  0
ENDSEC
  0
SECTION
  2
CLASSES
  0
CLASS
  1
ACDBDICTIONARYWDFLT
  2
AcDbDictionaryWithDefault
  3
AutoCAD 2000
 90
0
 91
1
280
0
281
0
  0
CLASS
  1
ACDBPLACEHOLDER
  2
AcDbPlaceHolder
  3
AutoCAD 2000
 90
0
 91
1
280
0
281
0
  0
CLASS
  1
LAYOUT
  2
AcDbLayout
  3
AutoCAD 2000
 90
0
 91
0
280
0
281
0
  0
ENDSEC
  0
SECTION
  2
TABLES
  0
TABLE
  2
VPORT
  5
8
100
AcDbSymbolTable
 70
2
  0
VPORT
  5
1F4
100
AcDbSymbolTableRecord
100
AcDbViewportTableRecord
  2
*ACTIVE
 70
0
 10
0.0
 20
0.0
 11
1.0
 21
1.0
 12
148.5
 22
105.0
 13
0.0
 23
0.0
 14
1.0
 24
1.0
 15
0.0
 25
0.0
 16
0.0
 26
0.0
 36
1.0
 17
0.0
 27
0.0
 37
0.0
 40
210.0
 41
1.4142857143
 42
50.0
 43
0.0
 44
0.0
 50
0.0
 51
0.0
 71
0
 72
100
 73
1
 74
1
 75
0
 76
0
 77
0
 78
0
  0
ENDTAB
  0
TABLE
  2
LTYPE
  5
5
100
AcDbSymbolTable
 70
6
  0
LTYPE
  5
14
100
AcDbSymbolTableRecord
100
AcDbLinetypeTableRecord
  2
BYBLOCK
 70
0
  3

 72
65
 73
0
 40
0.0
  0
LTYPE
  5
15
100
AcDbSymbolTableRecord
100
AcDbLinetypeTableRecord
  2
BYLAYER
 70
0
  3

 72
65
 73
0
 40
0.0
  0
LTYPE
  5
16
100
AcDbSymbolTableRecord
100
AcDbLinetypeTableRecord
  2
CONTINUOUS
 70
64
  3
Solid line
 72
65
 73
0
 40
0.0
  0
LTYPE
  5
1F5
100
AcDbSymbolTableRecord
100
AcDbLinetypeTableRecord
  2
CENTER
 70
64
  3
____ _ ____ _ ____ _ ____ _ ____ _ ____ _ ____
 72
65
 73
4
 40
0.6
 49
0.375
 74
0
 49
-0.075
 74
0
 49
0.075
 74
0
 49
-0.075
 74
0
  0
LTYPE
  5
1F6
100
AcDbSymbolTableRecord
100
AcDbLinetypeTableRecord
  2
HIDDEN
 70
64
  3
- - - - - - - - - - - - - - - - - - - -
 72
65
 73
2
 40
0.2
 49
0.1
 74
0
 49
-0.1
 74
0
  0
LTYPE
  5
1F7
100
AcDbSymbolTableRecord
100
AcDbLinetypeTableRecord
  2
PHANTOM
 70
64
  3
_____ _ _ _____ _ _ _____ _ _ _____
 72
65
 73
6
 40
0.8
 49
0.45
 74
0
 49
-0.05
 74
0
 49
0.1
 74
0
 49
-0.05
 74
0
 49
0.1
 74
0
 49
-0.05
 74
0
  0
LTYPE
  5
1F8
100
AcDbSymbolTableRecord
100
AcDbLinetypeTableRecord
  2
DOT
 70
64
  3
. . . . . . . . . . . . . . . . . . . .
 72
65
 73
2
 40
0.2
 49
0.1
 74
0
 49
-0.1
 74
0
  0
LTYPE
  5
1F9
100
AcDbSymbolTableRecord
100
AcDbLinetypeTableRecord
  2
DASHED
 70
64
  3
- - - - - - - - - - - - - - - - - - - -
 72
65
 73
2
 40
0.2
 49
0.1
 74
0
 49
-0.1
 74
0
  0
ENDTAB
  0
TABLE
  2
LAYER
  5
2
100
AcDbSymbolTable
 70
36
  0
LAYER
  5
10
100
AcDbSymbolTableRecord
100
AcDbLayerTableRecord
  2
0
 70
0
 62
7
  6
CONTINUOUS
370
-3
390
F
  0
LAYER
  5
1FA
100
AcDbSymbolTableRecord
100
AcDbLayerTableRecord
  2
DEFAULT_1
 70
0
 62
7
  6
CENTER
370
-3
390
F
  0
LAYER
  5
1FB
100
AcDbSymbolTableRecord
100
AcDbLayerTableRecord
  2
DEFAULT_2
 70
0
 62
7
  6
HIDDEN
370
-3
390
F
  0
LAYER
  5
1FC
100
AcDbSymbolTableRecord
100
AcDbLayerTableRecord
  2
DEFAULT_3
 70
0
 62
7
  6
PHANTOM
370
-3
390
F
  0
LAYER
  5
1FD
100
AcDbSymbolTableRecord
100
AcDbLayerTableRecord
  2
ASSI
 70
0
 62
7
  6
CONTINUOUS
370
-3
390
F
  0
LAYER
  5
1FE
100
AcDbSymbolTableRecord
100
AcDbLayerTableRecord
  2
COORDINATE
 70
0
 62
7
  6
CONTINUOUS
370
-3
390
F
  0
LAYER
  5
1FF
100
AcDbSymbolTableRecord
100
AcDbLayerTableRecord
  2
COPY_PUBLISH
 70
0
 62
7
  6
CONTINUOUS
370
-3
390
F
  0
LAYER
  5
200
100
AcDbSymbolTableRecord
100
AcDbLayerTableRecord
  2
COSMETICI
 70
0
 62
7
  6
CONTINUOUS
370
-3
390
F
  0
LAYER
  5
201
100
AcDbSymbolTableRecord
100
AcDbLayerTableRecord
  2
CURVE
 70
0
 62
7
  6
CONTINUOUS
370
-3
390
F
  0
LAYER
  5
202
100
AcDbSymbolTableRecord
100
AcDbLayerTableRecord
  2
DRAFT
 70
0
 62
7
  6
CONTINUOUS
370
-3
390
F
  0
LAYER
  5
203
100
AcDbSymbolTableRecord
100
AcDbLayerTableRecord
  2
IMPORT_IGES
 70
0
 62
7
  6
CONTINUOUS
370
-3
390
F
  0
LAYER
  5
204
100
AcDbSymbolTableRecord
100
AcDbLayerTableRecord
  2
INTFCLR_1729
 70
0
 62
7
  6
CONTINUOUS
370
-3
390
F
  0
LAYER
  5
205
100
AcDbSymbolTableRecord
100
AcDbLayerTableRecord
  2
NONE
 70
0
 62
7
  6
CONTINUOUS
370
-3
390
F
  0
LAYER
  5
206
100
AcDbSymbolTableRecord
100
AcDbLayerTableRecord
  2
NOTE
 70
0
 62
7
  6
CONTINUOUS
370
-3
390
F
  0
LAYER
  5
207
100
AcDbSymbolTableRecord
100
AcDbLayerTableRecord
  2
PIANI
 70
0
 62
7
  6
CONTINUOUS
370
-3
390
F
  0
LAYER
  5
208
100
AcDbSymbolTableRecord
100
AcDbLayerTableRecord
  2
PUNTI
 70
0
 62
7
  6
CONTINUOUS
370
-3
390
F
  0
LAYER
  5
209
100
AcDbSymbolTableRecord
100
AcDbLayerTableRecord
  2
RACCORDO
 70
0
 62
7
  6
CONTINUOUS
370
-3
390
F
  0
LAYER
  5
20A
100
AcDbSymbolTableRecord
100
AcDbLayerTableRecord
  2
SIMBOLI
 70
0
 62
7
  6
CONTINUOUS
370
-3
390
F
  0
LAYER
  5
20B
100
AcDbSymbolTableRecord
100
AcDbLayerTableRecord
  2
SMUSSO
 70
0
 62
7
  6
CONTINUOUS
370
-3
390
F
  0
LAYER
  5
20C
100
AcDbSymbolTableRecord
100
AcDbLayerTableRecord
  2
SUPERFICI
 70
0
 62
7
  6
CONTINUOUS
370
-3
390
F
  0
LAYER
  5
20D
100
AcDbSymbolTableRecord
100
AcDbLayerTableRecord
  2
TRASH
 70
0
 62
7
  6
CONTINUOUS
370
-3
390
F
  0
LAYER
  5
20E
100
AcDbSymbolTableRecord
100
AcDbLayerTableRecord
  2
_1523
 70
0
 62
7
  6
CONTINUOUS
370
-3
390
F
  0
ENDTAB
  0
TABLE
  2
STYLE
  5
3
100
AcDbSymbolTable
 70
1
  0
STYLE
  5
11
100
AcDbSymbolTableRecord
100
AcDbTextStyleTableRecord
  2
STANDARD
 70
0
 40
0.0
 41
0.8
 50
0.0
 71
0
 42
0.2
  3
txt
  4

  0
STYLE
  5
20F
100
AcDbSymbolTableRecord
100
AcDbTextStyleTableRecord
  2
TEXTSTYLE_1
 70
0
 40
0.0
 41
0.8
 50
0.0
 71
0
 42
0.2
  3
gdt
  4

  0
ENDTAB
  0
TABLE
  2
VIEW
  5
6
100
AcDbSymbolTable
 70
0
  0
ENDTAB
  0
TABLE
  2
UCS
  5
7
100
AcDbSymbolTable
 70
0
  0
ENDTAB
  0
TABLE
  2
APPID
  5
9
100
AcDbSymbolTable
 70
1
  0
APPID
  5
210
100
AcDbSymbolTableRecord
100
AcDbRegAppTableRecord
  2
ACAD
 70
0
  0
ENDTAB
  0
TABLE
  2
BLOCK_RECORD
  5
1
100
AcDbSymbolTable
 70
0
  0
BLOCK_RECORD
  5
211
100
AcDbSymbolTableRecord
100
AcDbBlockTableRecord
  2
*Model_Space
  0
BLOCK_RECORD
  5
212
100
AcDbSymbolTableRecord
100
AcDbBlockTableRecord
  2
*Paper_Space
  0
ENDTAB
  0
TABLE
  2
DIMSTYLE
  5
A
100
AcDbSymbolTable
 70
1
100
AcDbDimStyleTable
 71
0
  0
DIMSTYLE
105
213
100
AcDbSymbolTableRecord
100
AcDbDimStyleTableRecord
  2
STANDARD
 70
0
  3

  4

 40
1.0
 41
3.0
 42
0.5
 43
0.38
 44
1.5
 45
0.0
 46
0.0
 47
0.01
 48
0.01
140
3.0
141
0.09
142
0.0
143
25.4
144
1.0
145
0.0
146
1.0
147
0.625
 71
1.0
 72
0.0
 73
0
 74
0
 75
0
 76
0
 77
1
 78
8
170
0
171
2
172
0
173
0
174
0
175
0
176
0
177
0
178
0
270
2
271
2
272
2
273
2
274
2
275
0
280
0
281
0
282
0
283
1
284
8
285
0
286
0
287
3
288
0
340
11
278
44
  0
ENDTAB
  0
ENDSEC
  0
SECTION
  2
BLOCKS
  0
BLOCK
  5
20
100
AcDbEntity
  8
0
100
AcDbBlockBegin
  2
*Model_Space
 70
0
 10
0.0
 20
0.0
 30
0.0
  3
*Model_Space
  1

  0
ENDBLK
  5
21
100
AcDbEntity
  8
0
100
AcDbBlockEnd
  0
BLOCK
  5
1C
100
AcDbEntity
  8
0
100
AcDbBlockBegin
  2
*Paper_Space
 70
0
 10
0.0
 20
0.0
 30
0.0
  3
*Paper_Space
  1

  0
ENDBLK
  5
1D
100
AcDbEntity
  8
0
100
AcDbBlockEnd
  0
ENDSEC
  0
SECTION
  2
ENTITIES
  0
LWPOLYLINE
  5
214
100
AcDbEntity
  8
IMPORT_IGES
100
AcDbPolyline
 62
253
  6
CONTINUOUS
 90
7
 70
0
 10
4.0230088433
 20
-25.5189399989
 10
4.0247487427
 20
-25.5185203089
 10
4.0328973608
 20
-25.5069692543
 10
4.0399189185
 20
-25.4790323766
 10
4.0455087364
 20
-25.4342051007
 10
4.0492787694
 20
-25.3746970639
 10
4.0511358954
 20
-25.3036706848
  0
LWPOLYLINE
  5
215
100
AcDbEntity
  8
IMPORT_IGES
100
AcDbPolyline
 62
7
  6
CONTINUOUS
 90
7
 70
0
 10
4.3123127759
 20
-25.4907695321
 10
4.5609676427
 20
-25.4513732972
 10
4.8049710908
 20
-25.3982206554
 10
5.0424684153
 20
-25.3314092452
 10
5.2710853313
 20
-25.2512135042
 10
5.4892697148
 20
-25.1576433385
 10
5.7086453354
 20
-25.0429976935
  0
LINE
  5
216
100
AcDbEntity
  8
IMPORT_IGES
100
AcDbLine
 62
7
  6
CONTINUOUS
 10
4.059932354
 20
-25.516377368
 11
4.3123127759
 21
-25.4907695321
  0
LWPOLYLINE
  5
217
100
AcDbEntity
  8
IMPORT_IGES
100
AcDbPolyline
 62
253
  6
CONTINUOUS
 90
8
 70
0
 10
4.0511358954
 20
-25.3036706848
 10
4.2721556374
 20
-25.2842861129
 10
4.4900983022
 20
-25.2551843202
 10
4.703752174
 20
-25.2165300696
 10
4.9119321961
 20
-25.1685651648
 10
5.1134754254
 20
-25.1115489797
 10
5.3072488662
 20
-25.0457587915
 10
5.4921703719
 20
-24.9715646961
  0
LINE
  5
218
100
AcDbEntity
  8
IMPORT_IGES
100
AcDbLine
 62
7
  6
CONTINUOUS
 10
4.0229904739
 20
-25.5189411432
 11
4.059932354
 21
-25.516377368
  0
LINE
  5
219
100
AcDbEntity
  8
IMPORT_IGES
100
AcDbLine
 62
7
  6
CONTINUOUS
 10
-22.6686205505
 20
-10.1773068103
 11
-23.5572265501
 21
-1.2938180425
  0
LINE
  5
21A
100
AcDbEntity
  8
IMPORT_IGES
100
AcDbLine
 62
7
  6
CONTINUOUS
 10
-22.6695533558
 20
-10.167492352
 11
-22.6686205505
 21
-10.1773068103
  0
LINE
  5
21B
100
AcDbEntity
  8
IMPORT_IGES
100
AcDbLine
 62
7
  6
CONTINUOUS
 10
-23.5620506942
 20
-1.2098119873
 11
-23.5572285268
 21
-1.2936891143
  0
LINE
  5
21C
100
AcDbEntity
  8
IMPORT_IGES
100
AcDbLine
 62
7
  6
CONTINUOUS
 10
-23.5620493568
 20
-1.2099004672
 11
-23.7920981948
 21
14.0091314789
  0
LINE
  5
21D
100
AcDbEntity
  8
IMPORT_IGES
100
AcDbLine
 62
7
  6
CONTINUOUS
 10
-5.9428223476
 20
25.0477082227
 11
-22.9135466429
 21
15.2490247078
  0
LINE
  5
21E
100
AcDbEntity
  8
IMPORT_IGES
100
AcDbLine
 62
7
  6
CONTINUOUS
 10
-21.0043017923
 20
14.391680708
 11
-4.4579546485
 21
23.9453341744
  0
LWPOLYLINE
  5
21F
100
AcDbEntity
  8
IMPORT_IGES
100
AcDbPolyline
 62
253
  6
CONTINUOUS
 90
8
 70
0
 10
-22.6622922793
 20
-10.22765771
 10
-22.621609294
 20
-10.3974325592
 10
-22.5516365289
 20
-10.5637478984
 10
-22.453053407
 20
-10.7249343074
 10
-22.3268462341
 20
-10.8792439248
 10
-22.1742608674
 20
-11.0251551952
 10
-21.996783216
 20
-11.1613853249
 10
-21.7961554477
 20
-11.2866879224
  0
LWPOLYLINE
  5
220
100
AcDbEntity
  8
IMPORT_IGES
100
AcDbPolyline
 62
7
  6
CONTINUOUS
 90
8
 70
0
 10
-23.5572285268
 20
-1.2936891143
 10
-23.5251814624
 20
-1.4639834824
 10
-23.460080572
 20
-1.6380690377
 10
-23.3634899778
 20
-1.8059843757
 10
-23.2362111421
 20
-1.9665440326
 10
-23.0793743737
 20
-2.1181346704
 10
-22.8946626115
 20
-2.258782175
 10
-22.6839924061
 20
-2.3868408549
  0
LWPOLYLINE
  5
221
100
AcDbEntity
  8
IMPORT_IGES
100
AcDbPolyline
 62
7
  6
CONTINUOUS
 90
7
 70
0
 10
-22.6687173348
 20
-10.1676999534
 10
-22.64924633
 20
-10.3015656366
 10
-22.5918428638
 20
-10.5112943028
 10
-22.500278146
 20
-10.7194674615
 10
-22.3746497954
 20
-10.9213596003
 10
-22.2179280185
 20
-11.1110061337
 10
-22.0326290518
 20
-11.2858125242
  0
LINE
  5
222
100
AcDbEntity
  8
IMPORT_IGES
100
AcDbLine
 62
253
  6
CONTINUOUS
 10
-22.6686205505
 20
-10.1773068103
 11
-22.6622922793
 21
-10.22765771
  0
LINE
  5
223
100
AcDbEntity
  8
IMPORT_IGES
100
AcDbLine
 62
253
  6
CONTINUOUS
 10
-22.686541413
 20
-2.3854046477
 11
-21.7961554477
 21
-11.2866879224
  0
LINE
  5
224
100
AcDbEntity
  8
IMPORT_IGES
100
AcDbLine
 62
7
  6
CONTINUOUS
 10
-21.631962291
 20
-2.9943054158
 11
-21.4351215401
 21
-7.2895915279
  0
LINE
  5
225
100
AcDbEntity
  8
IMPORT_IGES
100
AcDbLine
 62
253
  6
CONTINUOUS
 10
-22.9135466429
 20
12.7994704229
 11
-22.6839918638
 21
-2.3868767255
  0
LINE
  5
226
100
AcDbEntity
  8
IMPORT_IGES
100
AcDbLine
 62
253
  6
CONTINUOUS
 10
-21.0043017923
 20
14.391680708
 11
-20.99319619
 21
13.6569822934
  0
LINE
  5
227
100
AcDbEntity
  8
IMPORT_IGES
100
AcDbLine
 62
7
  6
CONTINUOUS
 10
-21.7282271984
 20
9.6870487512
 11
-21.631962291
 21
-2.9943054158
  0
LINE
  5
228
100
AcDbEntity
  8
IMPORT_IGES
100
AcDbLine
 62
7
  6
CONTINUOUS
 10
-21.1103435775
 20
-7.1020688027
 11
-21.1103435775
 21
9.3302904924
  0
LWPOLYLINE
  5
229
100
AcDbEntity
  8
IMPORT_IGES
100
AcDbPolyline
 62
253
  6
CONTINUOUS
 90
9
 70
0
 10
1.8176693142
 20
-24.9115517507
 10
2.0584078651
 20
-25.0167944146
 10
2.3155324201
 20
-25.1074445182
 10
2.5864970685
 20
-25.1824569326
 10
2.8686042083
 20
-25.2410763096
 10
3.1590287044
 20
-25.2828498321
 10
3.4548801728
 20
-25.3073857587
 10
3.7532342351
 20
-25.3143529072
 10
4.0511358954
 20
-25.3036706848
  0
LINE
  5
22A
100
AcDbEntity
  8
IMPORT_IGES
100
AcDbLine
 62
253
  6
CONTINUOUS
 10
1.5957094459
 20
-24.7928575431
 11
1.8176693142
 21
-24.9115517507
  0
LWPOLYLINE
  5
22B
100
AcDbEntity
  8
IMPORT_IGES
100
AcDbPolyline
 62
7
  6
CONTINUOUS
 90
10
 70
0
 10
1.7185076324
 20
-25.0420879187
 10
1.7999511545
 20
-25.0873786876
 10
2.0689898417
 20
-25.2149991667
 10
2.3553263433
 20
-25.3207367294
 10
2.6570070422
 20
-25.4052040644
 10
2.9707854819
 20
-25.4681444235
 10
3.2911291211
 20
-25.508932497
 10
3.6141098315
 20
-25.5274845512
 10
3.9381915905
 20
-25.5236901473
 10
4.0230088433
 20
-25.5189399989
  0
LINE
  5
22C
100
AcDbEntity
  8
IMPORT_IGES
100
AcDbLine
 62
7
  6
CONTINUOUS
 10
1.7193963998
 20
-25.0426041315
 11
-21.6724684938
 21
-11.5364345109
  0
LINE
  5
22D
100
AcDbEntity
  8
IMPORT_IGES
100
AcDbLine
 62
253
  6
CONTINUOUS
 10
1.5957094459
 20
-24.7928575431
 11
-21.7961554477
 21
-11.2866879224
  0
LINE
  5
22E
100
AcDbEntity
  8
IMPORT_IGES
100
AcDbLine
 62
7
  6
CONTINUOUS
 10
-21.8189021341
 20
-11.4455661498
 11
-21.6722290066
 21
-11.5365725672
  0
LWPOLYLINE
  5
22F
100
AcDbEntity
  8
IMPORT_IGES
100
AcDbPolyline
 62
253
  6
CONTINUOUS
 90
6
 70
0
 10
-21.6724684938
 20
-11.5364345109
 10
-21.6855853688
 20
-11.5281676749
 10
-21.7293533503
 20
-11.4877728264
 10
-21.7632594775
 20
-11.4331544296
 10
-21.7858767087
 20
-11.3655695538
 10
-21.7961554477
 20
-11.2866879224
  0
LINE
  5
230
100
AcDbEntity
  8
IMPORT_IGES
100
AcDbLine
 62
7
  6
CONTINUOUS
 10
-22.0326290518
 20
-11.2858125242
 11
-21.8189021341
 21
-11.4455661498
  0
LINE
  5
231
100
AcDbEntity
  8
0
100
AcDbLine
 62
7
  6
CONTINUOUS
 10
-19.8195922733
 20
3.0569000117
 11
-18.2729842799
 21
-3.4692225937
  0
LINE
  5
232
100
AcDbEntity
  8
0
100
AcDbLine
 62
7
  6
CONTINUOUS
 10
-16.8250431382
 20
1.3278848717
 11
-17.7833983938
 21
-1.9962317993
  0
LINE
  5
233
100
AcDbEntity
  8
IMPORT_IGES
100
AcDbLine
 62
7
  6
CONTINUOUS
 10
0.8387420673
 20
-20.1502412177
 11
-21.4351215401
 21
-7.2895915279
  0
LINE
  5
234
100
AcDbEntity
  8
IMPORT_IGES
100
AcDbLine
 62
7
  6
CONTINUOUS
 10
0.8210876646
 20
-19.7650023365
 11
-21.1103435775
 21
-7.1020688027
  0
LINE
  5
235
100
AcDbEntity
  8
0
100
AcDbLine
 62
7
  6
CONTINUOUS
 10
-17.7833983938
 20
-1.9962317993
 11
-18.7133470487
 21
2.4181678835
  0
LINE
  5
236
100
AcDbEntity
  8
0
100
AcDbLine
 62
7
  6
CONTINUOUS
 10
-17.508440331
 20
-1.0425221232
 11
-18.2890829799
 21
2.6631326395
  0
LINE
  5
237
100
AcDbEntity
  8
0
100
AcDbLine
 62
7
  6
CONTINUOUS
 10
-15.4294731533
 20
0.5224382716
 11
-15.4294731533
 21
-5.1110302807
  0
LINE
  5
238
100
AcDbEntity
  8
0
100
AcDbLine
 62
7
  6
CONTINUOUS
 10
-14.4111205944
 20
-5.6990142852
 11
-14.4111205944
 21
-0.0655457329
  0
LINE
  5
239
100
AcDbEntity
  8
0
100
AcDbLine
 62
7
  6
CONTINUOUS
 10
-13.9868565257
 20
-5.4540495292
 11
-13.9868565257
 21
0.1794190231
  0
LINE
  5
23A
100
AcDbEntity
  8
0
100
AcDbLine
 62
7
  6
CONTINUOUS
 10
-17.3755597085
 20
-3.9873842939
 11
-15.8073863725
 21
0.7403026093
  0
LINE
  5
23B
100
AcDbEntity
  8
0
100
AcDbLine
 62
7
  6
CONTINUOUS
 10
-16.9512956398
 20
-3.7424195379
 11
-15.3831223037
 21
0.9852673653
  0
LINE
  5
23C
100
AcDbEntity
  8
IMPORT_IGES
100
AcDbLine
 62
7
  6
CONTINUOUS
 10
4.6636985968
 20
19.4134721972
 11
6.3607548716
 21
20.3933312212
  0
LINE
  5
23D
100
AcDbEntity
  8
0
100
AcDbLine
 62
7
  6
CONTINUOUS
 10
-12.8886744397
 20
-6.5780556142
 11
-12.6689141374
 21
-3.0266156757
  0
LINE
  5
23E
100
AcDbEntity
  8
0
100
AcDbLine
 62
7
  6
CONTINUOUS
 10
-12.464410371
 20
-6.3330908582
 11
-12.3352917436
 21
-4.2464671818
  0
LINE
  5
23F
100
AcDbEntity
  8
0
100
AcDbLine
 62
7
  6
CONTINUOUS
 10
-13.4224007594
 20
-0.6367581927
 11
-13.862907778
 21
-6.0155454947
  0
LINE
  5
240
100
AcDbEntity
  8
0
100
AcDbLine
 62
7
  6
CONTINUOUS
 10
-19.3953282046
 20
3.3018647677
 11
-19.8195922733
 21
3.0569000117
  0
LINE
  5
241
100
AcDbEntity
  8
0
100
AcDbLine
 62
7
  6
CONTINUOUS
 10
-18.2890829799
 20
2.6631326395
 11
-18.7133470487
 21
2.4181678835
  0
LWPOLYLINE
  5
242
100
AcDbEntity
  8
IMPORT_IGES
100
AcDbPolyline
 62
7
  6
CONTINUOUS
 90
16
 70
0
 10
1.6939308892
 20
-16.4623471907
 10
1.9274919511
 20
-16.5909681009
 10
2.1816001922
 20
-16.7039288193
 10
2.4534339519
 20
-16.8000707867
 10
2.7398701153
 20
-16.8784791185
 10
3.0378591621
 20
-16.9383204502
 10
3.3445006135
 20
-16.9787778563
 10
3.6567265545
 20
-16.9993529735
 10
3.9708622481
 20
-16.9998171678
 10
4.2830327629
 20
-16.9800813883
 10
4.5893831347
 20
-16.940450826
 10
4.887053611
 20
-16.8813963548
 10
5.1736783665
 20
-16.8032988116
 10
5.446304281
 20
-16.7067485075
 10
5.7015300821
 20
-16.5927252223
 10
5.9364100295
 20
-16.4623268026
  0
LINE
  5
243
100
AcDbEntity
  8
IMPORT_IGES
100
AcDbLine
 62
7
  6
CONTINUOUS
 10
-22.6839918638
 20
-2.3868767255
 11
-21.631962291
 21
-2.9943054158
  0
LINE
  5
244
100
AcDbEntity
  8
IMPORT_IGES
100
AcDbLine
 62
7
  6
CONTINUOUS
 10
0.6419013164
 20
-15.8549551056
 11
1.6939308892
 21
-16.4623837959
  0
LINE
  5
245
100
AcDbEntity
  8
0
100
AcDbLine
 62
7
  6
CONTINUOUS
 10
-18.2729842799
 20
-3.4692225937
 11
-17.3755597085
 21
-3.9873842939
  0
LINE
  5
246
100
AcDbEntity
  8
0
100
AcDbLine
 62
7
  6
CONTINUOUS
 10
-15.4294731533
 20
-5.1110302807
 11
-14.4111205944
 21
-5.6990142852
  0
LINE
  5
247
100
AcDbEntity
  8
0
100
AcDbLine
 62
7
  6
CONTINUOUS
 10
-13.862907778
 20
-6.0155454947
 11
-12.8886744397
 21
-6.5780556142
  0
LINE
  5
248
100
AcDbEntity
  8
0
100
AcDbLine
 62
7
  6
CONTINUOUS
 10
-11.4742628874
 20
-7.3947191177
 11
-11.3314386313
 21
-7.4771840532
  0
LINE
  5
249
100
AcDbEntity
  8
0
100
AcDbLine
 62
7
  6
CONTINUOUS
 10
-9.9113928522
 20
-8.2971006887
 11
-8.9151741498
 21
-8.8723048819
  0
LINE
  5
24A
100
AcDbEntity
  8
0
100
AcDbLine
 62
7
  6
CONTINUOUS
 10
-8.7552647797
 20
-8.9646345481
 11
-7.7479600572
 21
-9.5462396704
  0
LINE
  5
24B
100
AcDbEntity
  8
0
100
AcDbLine
 62
7
  6
CONTINUOUS
 10
-5.8163239361
 20
-10.6615421576
 11
-4.7430206951
 21
-11.2812539973
  0
LINE
  5
24C
100
AcDbEntity
  8
0
100
AcDbLine
 62
7
  6
CONTINUOUS
 10
-4.4439832954
 20
-11.4539140364
 11
-3.4297276015
 21
-12.0395325625
  0
LINE
  5
24D
100
AcDbEntity
  8
0
100
AcDbLine
 62
7
  6
CONTINUOUS
 10
-1.8702600836
 20
-12.9399495626
 11
-0.8907226357
 21
-13.5055222086
  0
LINE
  5
24E
100
AcDbEntity
  8
0
100
AcDbLine
 62
7
  6
CONTINUOUS
 10
-12.6689141374
 20
-3.0266156757
 11
-11.4742628874
 21
-7.3947191177
  0
LINE
  5
24F
100
AcDbEntity
  8
0
100
AcDbLine
 62
7
  6
CONTINUOUS
 10
-11.3972907787
 20
-4.9335639832
 11
-12.4048882434
 21
-1.224257167
  0
LINE
  5
250
100
AcDbEntity
  8
0
100
AcDbLine
 62
7
  6
CONTINUOUS
 10
-11.1046933282
 20
-4.203889905
 11
-11.9806241747
 21
-0.9792924111
  0
LINE
  5
251
100
AcDbEntity
  8
0
100
AcDbLine
 62
7
  6
CONTINUOUS
 10
-8.9151741498
 20
-8.8723048819
 11
-9.3713768176
 21
-2.9757686455
  0
LINE
  5
252
100
AcDbEntity
  8
0
100
AcDbLine
 62
7
  6
CONTINUOUS
 10
-8.5210563838
 20
-8.2376914483
 11
-8.9471127489
 21
-2.7308038895
  0
LINE
  5
253
100
AcDbEntity
  8
0
100
AcDbLine
 62
7
  6
CONTINUOUS
 10
-10.1206186777
 20
-4.5133028483
 11
-9.9113928522
 21
-8.2971006887
  0
LINE
  5
254
100
AcDbEntity
  8
0
100
AcDbLine
 62
7
  6
CONTINUOUS
 10
-16.4007790695
 20
1.5728496276
 11
-16.8250431382
 21
1.3278848717
  0
LWPOLYLINE
  5
255
100
AcDbEntity
  8
0
100
AcDbPolyline
 62
7
  6
CONTINUOUS
 90
5
 70
0
 10
-2.1345547997
 20
-9.1154370195
 10
-2.1455954932
 20
-9.1136749553
 10
-2.2428014583
 20
-9.0856275563
 10
-2.3466868999
 20
-9.0424132606
 10
-2.4572518182
 20
-8.9840320682
  0
LWPOLYLINE
  5
256
100
AcDbEntity
  8
0
100
AcDbPolyline
 62
7
  6
CONTINUOUS
 90
5
 70
0
 10
-1.8258470691
 20
-10.3028112305
 10
-1.7926140103
 20
-10.309899809
 10
-1.7596832082
 20
-10.3123905373
 10
-1.727054663
 20
-10.3102834152
 10
-1.6948555363
 20
-10.3024718543
  0
LINE
  5
257
100
AcDbEntity
  8
0
100
AcDbLine
 62
7
  6
CONTINUOUS
 10
-7.4669593579
 20
-8.5839124519
 11
-6.080131334
 21
-9.3846495719
  0
LINE
  5
258
100
AcDbEntity
  8
0
100
AcDbLine
 62
7
  6
CONTINUOUS
 10
-6.2836486865
 20
-8.3969512646
 11
-7.2586499428
 21
-7.8339977588
  0
LINE
  5
259
100
AcDbEntity
  8
0
100
AcDbLine
 62
7
  6
CONTINUOUS
 10
-3.4297276015
 20
-9.8350367758
 11
-2.8837109288
 21
-10.1502999594
  0
LINE
  5
25A
100
AcDbEntity
  8
0
100
AcDbLine
 62
7
  6
CONTINUOUS
 10
-6.3933152223
 20
-7.8437016693
 11
-6.8343858741
 21
-7.5890330028
  0
LINE
  5
25B
100
AcDbEntity
  8
0
100
AcDbLine
 62
7
  6
CONTINUOUS
 10
-2.8815158869
 20
-9.2289968242
 11
-3.4634946627
 21
-8.892969573
  0
LINE
  5
25C
100
AcDbEntity
  8
0
100
AcDbLine
 62
7
  6
CONTINUOUS
 10
-2.4572518182
 20
-8.9840320682
 11
-3.039230594
 21
-8.648004817
  0
LWPOLYLINE
  5
25D
100
AcDbEntity
  8
0
100
AcDbPolyline
 62
7
  6
CONTINUOUS
 90
10
 70
0
 10
-2.8837109288
 20
-10.1502999594
 10
-2.800200758
 20
-10.20486034
 10
-2.7215315602
 20
-10.2690723492
 10
-2.6477033353
 20
-10.342935987
 10
-2.5783765834
 20
-10.4269739586
 10
-2.5138908044
 20
-10.5206635589
 10
-2.4552644983
 20
-10.6224366724
 10
-2.402837165
 20
-10.7317705941
 10
-2.3562693046
 20
-10.8491880291
 10
-2.315560917
 20
-10.9746889774
  0
LINE
  5
25E
100
AcDbEntity
  8
0
100
AcDbLine
 62
7
  6
CONTINUOUS
 10
-10.3789382199
 20
-2.3940153195
 11
-11.3972907787
 21
-4.9335639832
  0
LINE
  5
25F
100
AcDbEntity
  8
0
100
AcDbLine
 62
7
  6
CONTINUOUS
 10
-11.3314386313
 20
-7.4771840532
 11
-10.1206186777
 21
-4.5133028483
  0
LINE
  5
260
100
AcDbEntity
  8
0
100
AcDbLine
 62
7
  6
CONTINUOUS
 10
-10.9071745626
 20
-7.2322192972
 11
-10.0819697942
 21
-5.2122584467
  0
LINE
  5
261
100
AcDbEntity
  8
0
100
AcDbLine
 62
7
  6
CONTINUOUS
 10
-15.3831223037
 20
0.9852673653
 11
-15.8073863725
 21
0.7403026093
  0
LINE
  5
262
100
AcDbEntity
  8
0
100
AcDbLine
 62
7
  6
CONTINUOUS
 10
-15.0052090845
 20
0.7674030276
 11
-15.4294731533
 21
0.5224382716
  0
LINE
  5
263
100
AcDbEntity
  8
0
100
AcDbLine
 62
7
  6
CONTINUOUS
 10
-13.9868565257
 20
0.1794190231
 11
-14.4111205944
 21
-0.0655457329
  0
LINE
  5
264
100
AcDbEntity
  8
IMPORT_IGES
100
AcDbLine
 62
253
  6
CONTINUOUS
 10
6.5562042763
 20
11.5896065129
 11
4.8591480015
 21
10.6097474889
  0
LWPOLYLINE
  5
265
100
AcDbEntity
  8
0
100
AcDbPolyline
 62
7
  6
CONTINUOUS
 90
10
 70
0
 10
-3.4634946627
 20
-7.3465656456
 10
-3.3742431643
 20
-7.3809087919
 10
-3.2851338914
 20
-7.418520403
 10
-3.1961668438
 20
-7.4594004787
 10
-3.1073288591
 20
-7.5035223683
 10
-3.0186330997
 20
-7.5509127226
 10
-2.9301190538
 20
-7.6016514943
 10
-2.8417998838
 20
-7.6557653345
 10
-2.7536624273
 20
-7.7132275922
 10
-2.6657066841
 20
-7.7740382673
  0
LINE
  5
266
100
AcDbEntity
  8
0
100
AcDbLine
 62
7
  6
CONTINUOUS
 10
-6.2398943331
 20
-4.7838473854
 11
-7.2250291367
 21
-4.2150428964
  0
LINE
  5
267
100
AcDbEntity
  8
0
100
AcDbLine
 62
7
  6
CONTINUOUS
 10
-9.3713768176
 20
-2.9757686455
 11
-10.3789382199
 21
-2.3940153195
  0
LINE
  5
268
100
AcDbEntity
  8
0
100
AcDbLine
 62
7
  6
CONTINUOUS
 10
-12.4048882434
 20
-1.224257167
 11
-13.4224007594
 21
-0.6367581927
  0
LINE
  5
269
100
AcDbEntity
  8
0
100
AcDbLine
 62
7
  6
CONTINUOUS
 10
-15.8073863725
 20
0.7403026093
 11
-16.8250431382
 21
1.3278848717
  0
LINE
  5
26A
100
AcDbEntity
  8
0
100
AcDbLine
 62
7
  6
CONTINUOUS
 10
-18.7133470487
 20
2.4181678835
 11
-19.8195922733
 21
3.0569000117
  0
LINE
  5
26B
100
AcDbEntity
  8
0
100
AcDbLine
 62
7
  6
CONTINUOUS
 10
-14.4111205944
 20
-0.0655457329
 11
-15.4294731533
 21
0.5224382716
  0
LINE
  5
26C
100
AcDbEntity
  8
0
100
AcDbLine
 62
7
  6
CONTINUOUS
 10
-5.8156302644
 20
-4.5388826294
 11
-6.8007650679
 21
-3.9700781404
  0
LINE
  5
26D
100
AcDbEntity
  8
0
100
AcDbLine
 62
7
  6
CONTINUOUS
 10
-8.9471127489
 20
-2.7308038895
 11
-9.9546741512
 21
-2.1490505635
  0
LINE
  5
26E
100
AcDbEntity
  8
0
100
AcDbLine
 62
7
  6
CONTINUOUS
 10
-11.9806241747
 20
-0.9792924111
 11
-12.9981366907
 21
-0.3917934367
  0
LINE
  5
26F
100
AcDbEntity
  8
0
100
AcDbLine
 62
7
  6
CONTINUOUS
 10
-15.3831223037
 20
0.9852673653
 11
-16.4007790695
 21
1.5728496276
  0
LINE
  5
270
100
AcDbEntity
  8
0
100
AcDbLine
 62
7
  6
CONTINUOUS
 10
-18.2890829799
 20
2.6631326395
 11
-19.3953282046
 21
3.3018647677
  0
LINE
  5
271
100
AcDbEntity
  8
0
100
AcDbLine
 62
7
  6
CONTINUOUS
 10
-13.9868565257
 20
0.1794190231
 11
-15.0052090845
 21
0.7674030276
  0
LWPOLYLINE
  5
272
100
AcDbEntity
  8
0
100
AcDbPolyline
 62
7
  6
CONTINUOUS
 90
13
 70
0
 10
-2.6657066841
 20
-7.7740382673
 10
-2.5818045203
 20
-7.8409029304
 10
-2.5040242418
 20
-7.9122318666
 10
-2.4323658486
 20
-7.988025076
 10
-2.366650682
 20
-8.0685889444
 10
-2.3070574007
 20
-8.153617086
 10
-2.2541219812
 20
-8.2421903432
 10
-2.2075392728
 20
-8.3353312932
 10
-2.1676144261
 20
-8.4320173589
 10
-2.1357988697
 20
-8.5282616513
 10
-2.1125764129
 20
-8.6227352075
 10
-2.0974632464
 20
-8.7167669904
 10
-2.0904593702
 20
-8.8103570001
  0
LWPOLYLINE
  5
273
100
AcDbEntity
  8
0
100
AcDbPolyline
 62
7
  6
CONTINUOUS
 90
10
 70
0
 10
-1.93084324
 20
-7.3969616721
 10
-2.1658406007
 20
-7.1863351902
 10
-2.4124890153
 20
-6.9871639196
 10
-2.6707884835
 20
-6.7994478603
 10
-2.9415269362
 20
-6.6241911954
 10
-3.2239164427
 20
-6.4603897418
 10
-3.515593211
 20
-6.30503095
 10
-3.8157693106
 20
-6.1571106369
 10
-4.1252326721
 20
-6.0176329855
 10
-4.4439832954
 20
-5.8865979959
  0
LINE
  5
274
100
AcDbEntity
  8
0
100
AcDbLine
 62
7
  6
CONTINUOUS
 10
-1.3288310025
 20
-10.1752582617
 11
-1.3649487377
 21
-10.1334944474
  0
LINE
  5
275
100
AcDbEntity
  8
0
100
AcDbLine
 62
7
  6
CONTINUOUS
 10
-1.2605459835
 20
-10.2675780387
 11
-1.3288310025
 21
-10.1752582617
  0
LINE
  5
276
100
AcDbEntity
  8
0
100
AcDbLine
 62
7
  6
CONTINUOUS
 10
-4.7430206951
 20
-11.2812539973
 11
-6.2398943331
 21
-4.7838473854
  0
LINE
  5
277
100
AcDbEntity
  8
0
100
AcDbLine
 62
7
  6
CONTINUOUS
 10
-4.4439832954
 20
-10.4927239284
 11
-5.8156302644
 21
-4.5388826294
  0
LINE
  5
278
100
AcDbEntity
  8
0
100
AcDbLine
 62
7
  6
CONTINUOUS
 10
-6.080131334
 20
-9.3846495719
 11
-5.8163239361
 21
-10.6615421576
  0
LINE
  5
279
100
AcDbEntity
  8
0
100
AcDbLine
 62
7
  6
CONTINUOUS
 10
-6.7515949837
 20
-6.0362393324
 11
-6.2836486865
 21
-8.3969512646
  0
LINE
  5
27A
100
AcDbEntity
  8
IMPORT_IGES
100
AcDbLine
 62
253
  6
CONTINUOUS
 10
-4.4579546485
 20
4.1031609562
 11
-4.4579546485
 21
23.9453341744
  0
LINE
  5
27B
100
AcDbEntity
  8
0
100
AcDbLine
 62
7
  6
CONTINUOUS
 10
-4.4439832954
 20
-5.8865979959
 11
-4.4439832954
 21
-11.4539140364
  0
LINE
  5
27C
100
AcDbEntity
  8
0
100
AcDbLine
 62
7
  6
CONTINUOUS
 10
-7.2586499428
 20
-7.8339977588
 11
-6.7515949837
 21
-6.0362393324
  0
LINE
  5
27D
100
AcDbEntity
  8
0
100
AcDbLine
 62
7
  6
CONTINUOUS
 10
-6.8343858741
 20
-7.5890330028
 11
-6.6050045683
 21
-6.7757638139
  0
LINE
  5
27E
100
AcDbEntity
  8
0
100
AcDbLine
 62
7
  6
CONTINUOUS
 10
-7.7479600572
 20
-9.5462396704
 11
-7.4669593579
 21
-8.5839124519
  0
LINE
  5
27F
100
AcDbEntity
  8
0
100
AcDbLine
 62
7
  6
CONTINUOUS
 10
-7.3236959885
 20
-9.3012749144
 11
-7.1651155093
 21
-8.7581933071
  0
LINE
  5
280
100
AcDbEntity
  8
0
100
AcDbLine
 62
7
  6
CONTINUOUS
 10
-7.2250291367
 20
-4.2150428964
 11
-8.7552647797
 21
-8.9646345481
  0
LINE
  5
281
100
AcDbEntity
  8
0
100
AcDbLine
 62
7
  6
CONTINUOUS
 10
-12.9981366907
 20
-0.3917934367
 11
-13.4224007594
 21
-0.6367581927
  0
LINE
  5
282
100
AcDbEntity
  8
IMPORT_IGES
100
AcDbLine
 62
7
  6
CONTINUOUS
 10
13.148979971
 20
14.5141770773
 11
14.8460362459
 21
15.4940361013
  0
LINE
  5
283
100
AcDbEntity
  8
0
100
AcDbLine
 62
7
  6
CONTINUOUS
 10
-16.9512956398
 20
-3.7424195379
 11
-17.3755597085
 21
-3.9873842939
  0
LINE
  5
284
100
AcDbEntity
  8
0
100
AcDbLine
 62
7
  6
CONTINUOUS
 10
-11.9806241747
 20
-0.9792924111
 11
-12.4048882434
 21
-1.224257167
  0
LINE
  5
285
100
AcDbEntity
  8
IMPORT_IGES
100
AcDbLine
 62
253
  6
CONTINUOUS
 10
5.9102288448
 20
8.8105869317
 11
7.6072851196
 21
9.7904459557
  0
LINE
  5
286
100
AcDbEntity
  8
IMPORT_IGES
100
AcDbLine
 62
7
  6
CONTINUOUS
 10
-21.4351215401
 20
-7.2895915279
 11
-21.1103435775
 21
-7.1020688027
  0
LWPOLYLINE
  5
287
100
AcDbEntity
  8
0
100
AcDbPolyline
 62
7
  6
CONTINUOUS
 90
10
 70
0
 10
-1.5065791713
 20
-7.1519969161
 10
-1.7413662641
 20
-6.9415317288
 10
-1.9878183701
 20
-6.7424928844
 10
-2.2459354892
 20
-6.554880383
 10
-2.5164540754
 20
-6.3797136813
 10
-2.7986376748
 20
-6.2159733226
 10
-3.0902769258
 20
-6.0606009361
 10
-3.3906353745
 20
-5.9125770651
 10
-3.7004494748
 20
-5.7729211664
 10
-4.0197192267
 20
-5.64163324
  0
LWPOLYLINE
  5
288
100
AcDbEntity
  8
0
100
AcDbPolyline
 62
7
  6
CONTINUOUS
 90
6
 70
0
 10
-2.315560917
 20
-10.9746889774
 10
-2.2628923363
 20
-11.1836498621
 10
-2.211575316
 20
-11.394871862
 10
-2.1616098564
 20
-11.6083549771
 10
-2.1137344679
 20
-11.8239802267
 10
-2.0198228408
 20
-12.2623710134
  0
LINE
  5
289
100
AcDbEntity
  8
0
100
AcDbLine
 62
7
  6
CONTINUOUS
 10
-2.0198228408
 20
-12.2623710134
 11
-1.8702600836
 21
-12.9399495626
  0
LINE
  5
28A
100
AcDbEntity
  8
0
100
AcDbLine
 62
7
  6
CONTINUOUS
 10
-3.4634946627
 20
-8.892969573
 11
-3.4634946627
 21
-7.3465656456
  0
LINE
  5
28B
100
AcDbEntity
  8
0
100
AcDbLine
 62
7
  6
CONTINUOUS
 10
-3.4297276015
 20
-12.0395325625
 11
-3.4297276015
 21
-9.8350367758
  0
LINE
  5
28C
100
AcDbEntity
  8
IMPORT_IGES
100
AcDbLine
 62
253
  6
CONTINUOUS
 10
-3.1852109064
 20
23.9453341744
 11
-3.1852109064
 21
3.3682946707
  0
LINE
  5
28D
100
AcDbEntity
  8
0
100
AcDbLine
 62
7
  6
CONTINUOUS
 10
-3.039230594
 20
-8.648004817
 11
-3.039230594
 21
-7.5399074326
  0
LINE
  5
28E
100
AcDbEntity
  8
0
100
AcDbLine
 62
7
  6
CONTINUOUS
 10
-3.0054635328
 20
-11.7945678065
 11
-3.0054635328
 21
-10.0800015318
  0
LINE
  5
28F
100
AcDbEntity
  8
IMPORT_IGES
100
AcDbLine
 62
253
  6
CONTINUOUS
 10
8.6211340435
 20
9.2050622935
 11
6.9240777687
 21
8.2252032695
  0
LINE
  5
290
100
AcDbEntity
  8
0
100
AcDbLine
 62
7
  6
CONTINUOUS
 10
-9.9546741512
 20
-2.1490505635
 11
-10.3789382199
 21
-2.3940153195
  0
LINE
  5
291
100
AcDbEntity
  8
IMPORT_IGES
100
AcDbLine
 62
253
  6
CONTINUOUS
 10
7.5549201271
 20
7.1326625858
 11
9.2519764019
 21
8.1125216098
  0
LINE
  5
292
100
AcDbEntity
  8
0
100
AcDbLine
 62
7
  6
CONTINUOUS
 10
-13.9868565257
 20
-5.4540495292
 11
-14.4111205944
 21
-5.6990142852
  0
LINE
  5
293
100
AcDbEntity
  8
0
100
AcDbLine
 62
7
  6
CONTINUOUS
 10
-8.9471127489
 20
-2.7308038895
 11
-9.3713768176
 21
-2.9757686455
  0
LINE
  5
294
100
AcDbEntity
  8
IMPORT_IGES
100
AcDbLine
 62
7
  6
CONTINUOUS
 10
0.545636409
 20
-3.1736009387
 11
-21.7282271984
 21
9.6870487512
  0
LINE
  5
295
100
AcDbEntity
  8
0
100
AcDbLine
 62
7
  6
CONTINUOUS
 10
-1.1198601521
 20
-12.3635440658
 11
-1.238856281
 21
-11.7798650312
  0
LINE
  5
296
100
AcDbEntity
  8
0
100
AcDbLine
 62
7
  6
CONTINUOUS
 10
-0.6956610958
 20
-12.1182557754
 11
-0.8145922123
 21
-11.5349002752
  0
LINE
  5
297
100
AcDbEntity
  8
0
100
AcDbLine
 62
7
  6
CONTINUOUS
 10
-0.8907226357
 20
-13.5055222086
 11
-1.1198601521
 21
-12.3635440658
  0
LINE
  5
298
100
AcDbEntity
  8
0
100
AcDbLine
 62
7
  6
CONTINUOUS
 10
-0.4664585669
 20
-13.2605574526
 11
-0.6956610958
 21
-12.1182557754
  0
LWPOLYLINE
  5
299
100
AcDbEntity
  8
0
100
AcDbPolyline
 62
7
  6
CONTINUOUS
 90
11
 70
0
 10
-0.8145922123
 20
-11.5349002752
 10
-0.8421909872
 20
-11.391959972
 10
-0.8732491511
 20
-11.2517894982
 10
-0.907766704
 20
-11.1143888538
 10
-0.945402581
 20
-10.9790194725
 10
-0.986497847
 20
-10.8464199207
 10
-1.0320756967
 20
-10.7188058967
 10
-1.0824823968
 20
-10.5958461844
 10
-1.1373716806
 20
-10.4778720001
 10
-1.1967279434
 20
-10.3680926907
 10
-1.2605459835
 20
-10.2675780387
  0
LWPOLYLINE
  5
29A
100
AcDbEntity
  8
0
100
AcDbPolyline
 62
7
  6
CONTINUOUS
 90
13
 70
0
 10
-1.238856281
 20
-11.7798650312
 10
-1.2654041285
 20
-11.6407016029
 10
-1.2959780411
 20
-11.5024144364
 10
-1.3305780187
 20
-11.3650035315
 10
-1.3690760724
 20
-11.2267926935
 10
-1.4116001911
 20
-11.0894581173
 10
-1.4585343419
 20
-10.9580283871
 10
-1.5102906169
 20
-10.8329726914
 10
-1.566456924
 20
-10.7138218418
 10
-1.6261809537
 20
-10.6041968575
 10
-1.6891786029
 20
-10.505304745
 10
-1.7557339747
 20
-10.4159384977
 10
-1.8258470691
 20
-10.3360981157
  0
LINE
  5
29B
100
AcDbEntity
  8
IMPORT_IGES
100
AcDbLine
 62
7
  6
CONTINUOUS
 10
0.8387420673
 20
-20.1502412177
 11
0.6419013164
 21
-15.8549551056
  0
LINE
  5
29C
100
AcDbEntity
  8
0
100
AcDbLine
 62
7
  6
CONTINUOUS
 10
-1.8258470691
 20
-10.3360981157
 11
-1.8258470691
 21
-10.3028112305
  0
LWPOLYLINE
  5
29D
100
AcDbEntity
  8
0
100
AcDbPolyline
 62
7
  6
CONTINUOUS
 90
9
 70
0
 10
-2.0904593702
 20
-8.8103570001
 10
-2.0958643565
 20
-8.9178496277
 10
-2.1086445605
 20
-9.0143785723
 10
-2.1287999819
 20
-9.0999438339
 10
-2.1566502016
 20
-9.1749225109
 10
-2.1918756388
 20
-9.238937505
 10
-2.2335175518
 20
-9.2908575205
 10
-2.2812699885
 20
-9.3303097733
 10
-2.2961722233
 20
-9.3394053161
  0
LINE
  5
29E
100
AcDbEntity
  8
0
100
AcDbLine
 62
7
  6
CONTINUOUS
 10
-12.464410371
 20
-6.3330908582
 11
-12.8886744397
 21
-6.5780556142
  0
LINE
  5
29F
100
AcDbEntity
  8
IMPORT_IGES
100
AcDbLine
 62
7
  6
CONTINUOUS
 10
11.9859086285
 20
7.045155125
 11
10.2888523536
 21
6.0652961011
  0
LINE
  5
2A0
100
AcDbEntity
  8
0
100
AcDbLine
 62
7
  6
CONTINUOUS
 10
-6.8007650679
 20
-3.9700781404
 11
-7.2250291367
 21
-4.2150428964
  0
LINE
  5
2A1
100
AcDbEntity
  8
IMPORT_IGES
100
AcDbLine
 62
253
  6
CONTINUOUS
 10
10.7405009417
 20
6.0216483604
 11
12.4375572165
 21
7.0015073844
  0
LINE
  5
2A2
100
AcDbEntity
  8
IMPORT_IGES
100
AcDbLine
 62
7
  6
CONTINUOUS
 10
-22.9135466429
 20
12.7994704229
 11
1.6939308892
 21
-1.4085787
  0
LWPOLYLINE
  5
2A3
100
AcDbEntity
  8
IMPORT_IGES
100
AcDbPolyline
 62
253
  6
CONTINUOUS
 90
6
 70
0
 10
1.5957094459
 20
-24.7928575431
 10
1.6050023693
 20
-24.8672479935
 10
1.6256128194
 20
-24.9326585389
 10
1.6571484404
 20
-24.9871474295
 10
1.6988126545
 20
-25.0289634195
 10
1.7185169158
 20
-25.0420933423
  0
LINE
  5
2A4
100
AcDbEntity
  8
IMPORT_IGES
100
AcDbLine
 62
7
  6
CONTINUOUS
 10
0.6419013164
 20
-15.8549551056
 11
0.545636409
 21
-3.1736009387
  0
LINE
  5
2A5
100
AcDbEntity
  8
IMPORT_IGES
100
AcDbLine
 62
253
  6
CONTINUOUS
 10
1.6939308892
 20
-16.4623837959
 11
1.6939308892
 21
-1.4085787
  0
LINE
  5
2A6
100
AcDbEntity
  8
IMPORT_IGES
100
AcDbLine
 62
253
  6
CONTINUOUS
 10
1.5957094459
 20
-24.7928575431
 11
1.6964804384
 21
-16.4638558737
  0
LINE
  5
2A7
100
AcDbEntity
  8
0
100
AcDbLine
 62
7
  6
CONTINUOUS
 10
-10.9071745626
 20
-7.2322192972
 11
-11.3314386313
 21
-7.4771840532
  0
LINE
  5
2A8
100
AcDbEntity
  8
0
100
AcDbLine
 62
7
  6
CONTINUOUS
 10
-5.8156302644
 20
-4.5388826294
 11
-6.2398943331
 21
-4.7838473854
  0
LINE
  5
2A9
100
AcDbEntity
  8
IMPORT_IGES
100
AcDbLine
 62
253
  6
CONTINUOUS
 10
12.8249466771
 20
6.0544138795
 11
11.7543498656
 21
5.4362646983
  0
LINE
  5
2AA
100
AcDbEntity
  8
IMPORT_IGES
100
AcDbLine
 62
7
  6
CONTINUOUS
 10
20.9978894742
 20
9.2474488146
 11
4.4515423304
 21
-0.3062046518
  0
LINE
  5
2AB
100
AcDbEntity
  8
IMPORT_IGES
100
AcDbLine
 62
7
  6
CONTINUOUS
 10
3.1787985883
 20
-0.3062046518
 11
-21.0043017923
 21
13.6568144226
  0
LINE
  5
2AC
100
AcDbEntity
  8
0
100
AcDbLine
 62
7
  6
CONTINUOUS
 10
-4.0197192267
 20
-5.64163324
 11
-4.4439832954
 21
-5.8865979959
  0
LINE
  5
2AD
100
AcDbEntity
  8
0
100
AcDbLine
 62
7
  6
CONTINUOUS
 10
-6.8343858741
 20
-7.5890330028
 11
-7.2586499428
 21
-7.8339977588
  0
LINE
  5
2AE
100
AcDbEntity
  8
0
100
AcDbLine
 62
7
  6
CONTINUOUS
 10
-8.6821741343
 20
-8.7377735931
 11
-8.9151741498
 21
-8.8723048819
  0
LINE
  5
2AF
100
AcDbEntity
  8
IMPORT_IGES
100
AcDbLine
 62
7
  6
CONTINUOUS
 10
5.9364100295
 20
-1.4085787
 11
22.9071343248
 21
8.3901048149
  0
LINE
  5
2B0
100
AcDbEntity
  8
0
100
AcDbLine
 62
7
  6
CONTINUOUS
 10
-7.3236959885
 20
-9.3012749144
 11
-7.7479600572
 21
-9.5462396704
  0
LINE
  5
2B1
100
AcDbEntity
  8
IMPORT_IGES
100
AcDbLine
 62
7
  6
CONTINUOUS
 10
4.6636985968
 20
19.4134721972
 11
4.8591480015
 21
10.6097474889
  0
LINE
  5
2B2
100
AcDbEntity
  8
IMPORT_IGES
100
AcDbLine
 62
7
  6
CONTINUOUS
 10
6.5562042763
 20
11.5896065129
 11
6.3607548716
 21
20.3933312212
  0
LINE
  5
2B3
100
AcDbEntity
  8
IMPORT_IGES
100
AcDbLine
 62
253
  6
CONTINUOUS
 10
5.9364100295
 20
-1.4085787
 11
5.9364100295
 21
-16.4623837959
  0
LINE
  5
2B4
100
AcDbEntity
  8
IMPORT_IGES
100
AcDbLine
 62
253
  6
CONTINUOUS
 10
5.9322461076
 20
-16.4647879923
 11
5.8314020345
 21
-24.7998299783
  0
LINE
  5
2B5
100
AcDbEntity
  8
0
100
AcDbLine
 62
253
  6
CONTINUOUS
 10
-1.5065791713
 20
-7.1519969161
 11
-1.93084324
 21
-7.3969616721
  0
LINE
  5
2B6
100
AcDbEntity
  8
0
100
AcDbLine
 62
7
  6
CONTINUOUS
 10
-3.039230594
 20
-8.648004817
 11
-3.4634946627
 21
-8.892969573
  0
LINE
  5
2B7
100
AcDbEntity
  8
0
100
AcDbLine
 62
253
  6
CONTINUOUS
 10
-2.4572518182
 20
-8.9840320682
 11
-2.8815158869
 21
-9.2289968242
  0
LINE
  5
2B8
100
AcDbEntity
  8
IMPORT_IGES
100
AcDbLine
 62
7
  6
CONTINUOUS
 10
7.5549201271
 20
7.1326625858
 11
7.596874015
 21
1.5098704427
  0
LINE
  5
2B9
100
AcDbEntity
  8
IMPORT_IGES
100
AcDbLine
 62
7
  6
CONTINUOUS
 10
9.287252417
 20
3.3847190154
 11
9.2519764019
 21
8.1125216098
  0
LINE
  5
2BA
100
AcDbEntity
  8
IMPORT_IGES
100
AcDbLine
 62
7
  6
CONTINUOUS
 10
9.287252417
 20
3.3847190154
 11
9.26116597
 21
2.470811759
  0
LWPOLYLINE
  5
2BB
100
AcDbEntity
  8
0
100
AcDbPolyline
 62
7
  6
CONTINUOUS
 90
34
 70
0
 10
-1.0944954808
 20
-9.9771711416
 10
-1.073997084
 20
-9.9648783333
 10
-1.0416781306
 20
-9.9435698063
 10
-1.0099341543
 20
-9.9189446734
 10
-0.9787390041
 20
-9.8907977209
 10
-0.948118831
 20
-9.8593341625
 10
-0.918572881
 20
-9.8239414236
 10
-0.8900556734
 20
-9.7845278004
 10
-0.8626126888
 20
-9.7411849967
 10
-0.8368796147
 20
-9.6935755496
 10
-0.8128132835
 20
-9.6416894872
 10
-0.7904568629
 20
-9.5855367812
 10
-0.7705755429
 20
-9.5248098843
 10
-0.7531894743
 20
-9.4596109327
 10
-0.7382785063
 20
-9.38983779
 10
-0.7265473768
 20
-9.3148765002
 10
-0.7179274247
 20
-9.2347388177
 10
-0.7124873111
 20
-9.1494129881
 10
-0.7111377568
 20
-9.0582497926
 10
-0.7135067661
 20
-8.9612682052
 10
-0.7199663348
 20
-8.858449252
 10
-0.7325431704
 20
-8.7490867923
 10
-0.751094255
 20
-8.6325242614
 10
-0.7757626065
 20
-8.5094182239
 10
-0.8090039864
 20
-8.3810322335
 10
-0.8514494082
 20
-8.2464062616
 10
-0.9024678584
 20
-8.1065003367
 10
-0.9626220584
 20
-7.9654580978
 10
-1.0324678885
 20
-7.8228693664
 10
-1.1114494684
 20
-7.679144321
 10
-1.1984618785
 20
-7.5396571358
 10
-1.2931368125
 20
-7.4061992023
 10
-1.3958425767
 20
-7.2769791291
 10
-1.5065791713
 20
-7.1519969161
  0
LWPOLYLINE
  5
2BC
100
AcDbEntity
  8
0
100
AcDbPolyline
 62
7
  6
CONTINUOUS
 90
34
 70
0
 10
-1.5187630915
 20
-10.2221294794
 10
-1.5020361491
 20
-10.2122075002
 10
-1.4699890213
 20
-10.1914332588
 10
-1.4384394895
 20
-10.1673902483
 10
-1.4073486235
 20
-10.1398892716
 10
-1.3767553534
 20
-10.1091195259
 10
-1.3471599285
 20
-10.0743978599
 10
-1.3185095092
 20
-10.0356161585
 10
-1.290856935
 20
-9.9928825368
 10
-1.2648609742
 20
-9.9458381886
 10
-1.240479217
 20
-9.8944838845
 10
-1.217754073
 20
-9.838818854
 10
-1.1974715389
 20
-9.7784819793
 10
-1.1796441423
 20
-9.7135343023
 10
-1.1642593556
 20
-9.6439147812
 10
-1.1520655921
 20
-9.569079173
 10
-1.1430261981
 20
-9.4889378181
 10
-1.1371778273
 20
-9.4035803761
 10
-1.135378854
 20
-9.3127315836
 10
-1.1373323688
 20
-9.2164330224
 10
-1.1433352811
 20
-9.1146431107
 10
-1.1551366941
 20
-9.0069618386
 10
-1.1724312875
 20
-8.8932557058
 10
-1.1955243816
 20
-8.7736582127
 10
-1.2270810408
 20
-8.6481698508
 10
-1.267280094
 20
-8.5160760464
 10
-1.3159427124
 20
-8.3780913732
 10
-1.3751974738
 20
-8.2363600446
 10
-1.4467381621
 20
-8.0884345415
 10
-1.5288709935
 20
-7.936762383
 10
-1.6186431944
 20
-7.7908303398
 10
-1.7150705068
 20
-7.6538006687
 10
-1.8191371887
 20
-7.5225111128
 10
-1.93084324
 20
-7.3969616721
  0
LINE
  5
2BD
100
AcDbEntity
  8
0
100
AcDbLine
 62
7
  6
CONTINUOUS
 10
-4.4439832954
 20
-11.1085935506
 11
-4.7430206951
 21
-11.2812539973
  0
LINE
  5
2BE
100
AcDbEntity
  8
0
100
AcDbLine
 62
7
  6
CONTINUOUS
 10
-1.8114329607
 20
-10.3277755902
 11
-1.8258470691
 21
-10.3360981157
  0
LINE
  5
2BF
100
AcDbEntity
  8
0
100
AcDbLine
 62
7
  6
CONTINUOUS
 10
-1.3740800697
 20
-10.1387667641
 11
-1.094422948
 21
-9.9772962469
  0
LINE
  5
2C0
100
AcDbEntity
  8
0
100
AcDbLine
 62
7
  6
CONTINUOUS
 10
-3.0054635328
 20
-11.7945678065
 11
-3.4297276015
 21
-12.0395325625
  0
LINE
  5
2C1
100
AcDbEntity
  8
0
100
AcDbLine
 62
253
  6
CONTINUOUS
 10
-0.8145922123
 20
-11.5349002752
 11
-1.238856281
 21
-11.7798650312
  0
LINE
  5
2C2
100
AcDbEntity
  8
0
100
AcDbLine
 62
7
  6
CONTINUOUS
 10
-1.5341974135
 20
-10.2309637154
 11
-1.5187630915
 21
-10.2221294794
  0
LWPOLYLINE
  5
2C3
100
AcDbEntity
  8
0
100
AcDbPolyline
 62
7
  6
CONTINUOUS
 90
9
 70
0
 10
-2.2961722233
 20
-9.3394053161
 10
-2.3354389011
 20
-9.3576670475
 10
-2.395983404
 20
-9.3729164
 10
-2.4633172823
 20
-9.3753543847
 10
-2.537026751
 20
-9.3656844477
 10
-2.6158295698
 20
-9.3460039837
 10
-2.6992983254
 20
-9.3170121242
 10
-2.7878604311
 20
-9.2780097378
 10
-2.8815158869
 20
-9.2289968242
  0
LWPOLYLINE
  5
2C4
100
AcDbEntity
  8
0
100
AcDbPolyline
 62
7
  6
CONTINUOUS
 90
6
 70
0
 10
-1.6948555363
 20
-10.3024718543
 10
-1.6629586664
 20
-10.2900624431
 10
-1.6309825678
 20
-10.276374947
 10
-1.5987356233
 20
-10.2627626018
 10
-1.56640945
 20
-10.2478721717
 10
-1.5341974135
 20
-10.2309637154
  0
LINE
  5
2C5
100
AcDbEntity
  8
IMPORT_IGES
100
AcDbLine
 62
7
  6
CONTINUOUS
 10
10.0362162893
 20
2.9183160997
 11
10.0987449464
 21
5.6638900168
  0
LINE
  5
2C6
100
AcDbEntity
  8
0
100
AcDbLine
 62
7
  6
CONTINUOUS
 10
-0.4664585669
 20
-13.2605574526
 11
-0.8907226357
 21
-13.5055222086
  0
LINE
  5
2C7
100
AcDbEntity
  8
IMPORT_IGES
100
AcDbLine
 62
7
  6
CONTINUOUS
 10
5.9102288448
 20
8.8105869317
 11
6.9240777687
 21
8.2252032695
  0
LINE
  5
2C8
100
AcDbEntity
  8
IMPORT_IGES
100
AcDbLine
 62
7
  6
CONTINUOUS
 10
10.7405009417
 20
6.0216483604
 11
11.7543498656
 21
5.4362646983
  0
LINE
  5
2C9
100
AcDbEntity
  8
IMPORT_IGES
100
AcDbLine
 62
7
  6
CONTINUOUS
 10
12.8232971148
 20
6.0113476051
 11
13.148979971
 21
14.5141770773
  0
LINE
  5
2CA
100
AcDbEntity
  8
IMPORT_IGES
100
AcDbLine
 62
7
  6
CONTINUOUS
 10
12.8520561912
 20
6.7621808713
 11
12.4375572165
 21
7.0015073844
  0
LINE
  5
2CB
100
AcDbEntity
  8
IMPORT_IGES
100
AcDbLine
 62
7
  6
CONTINUOUS
 10
8.6211340435
 20
9.2050622935
 11
7.6072851196
 21
9.7904459557
  0
LINE
  5
2CC
100
AcDbEntity
  8
IMPORT_IGES
100
AcDbLine
 62
7
  6
CONTINUOUS
 10
5.9364100295
 20
-16.4623837959
 11
22.6775795457
 21
-6.7962423334
  0
LINE
  5
2CD
100
AcDbEntity
  8
IMPORT_IGES
100
AcDbLine
 62
253
  6
CONTINUOUS
 10
20.9867838719
 20
9.2476166854
 11
20.9978894742
 21
9.9823151001
  0
LINE
  5
2CE
100
AcDbEntity
  8
IMPORT_IGES
100
AcDbLine
 62
7
  6
CONTINUOUS
 10
-3.1852109064
 20
23.9453341744
 11
4.6636985968
 21
19.4134721972
  0
LINE
  5
2CF
100
AcDbEntity
  8
IMPORT_IGES
100
AcDbLine
 62
7
  6
CONTINUOUS
 10
13.148979971
 20
14.5141770773
 11
20.9978894742
 21
9.9823151001
  0
LINE
  5
2D0
100
AcDbEntity
  8
IMPORT_IGES
100
AcDbLine
 62
7
  6
CONTINUOUS
 10
22.9071343248
 20
10.8396590998
 11
14.8460362459
 21
15.4940361013
  0
LINE
  5
2D1
100
AcDbEntity
  8
IMPORT_IGES
100
AcDbLine
 62
7
  6
CONTINUOUS
 10
6.3607548716
 20
20.3933312212
 11
-1.7003432073
 21
25.0477082227
  0
LINE
  5
2D2
100
AcDbEntity
  8
IMPORT_IGES
100
AcDbLine
 62
253
  6
CONTINUOUS
 10
22.6775795457
 20
-6.7962423334
 11
22.9071343248
 21
8.3901048149
  0
LINE
  5
2D3
100
AcDbEntity
  8
IMPORT_IGES
100
AcDbLine
 62
253
  6
CONTINUOUS
 10
21.7907117811
 20
-15.5851245478
 11
22.6817434677
 21
-6.7938381371
  0
LINE
  5
2D4
100
AcDbEntity
  8
IMPORT_IGES
100
AcDbLine
 62
7
  6
CONTINUOUS
 10
23.5556361285
 20
-5.6193262897
 11
23.7856858767
 21
9.599765871
  0
LINE
  5
2D5
100
AcDbEntity
  8
IMPORT_IGES
100
AcDbLine
 62
7
  6
CONTINUOUS
 10
23.5556309468
 20
-5.6193776455
 11
23.5506371556
 21
-5.7052797497
  0
LINE
  5
2D6
100
AcDbEntity
  8
IMPORT_IGES
100
AcDbLine
 62
7
  6
CONTINUOUS
 10
22.6620264251
 20
-14.4726800087
 11
23.5506433838
 21
-5.705218299
  0
LINE
  5
2D7
100
AcDbEntity
  8
IMPORT_IGES
100
AcDbLine
 62
7
  6
CONTINUOUS
 10
22.6583871745
 20
-14.5043497327
 11
22.6617090709
 21
-14.4747329292
  0
LWPOLYLINE
  5
2D8
100
AcDbEntity
  8
IMPORT_IGES
100
AcDbPolyline
 62
253
  6
CONTINUOUS
 90
6
 70
0
 10
21.7907117811
 20
-15.5851245478
 10
21.7806395058
 20
-15.6582936067
 10
21.7594576761
 20
-15.7224807178
 10
21.7275735377
 20
-15.7758114915
 10
21.6857866726
 20
-15.8166004256
 10
21.6673476739
 20
-15.8286443959
  0
LINE
  5
2D9
100
AcDbEntity
  8
IMPORT_IGES
100
AcDbLine
 62
253
  6
CONTINUOUS
 10
22.6428365099
 20
-14.6019702244
 11
22.6617768413
 21
-14.4751131046
  0
LINE
  5
2DA
100
AcDbEntity
  8
IMPORT_IGES
100
AcDbLine
 62
7
  6
CONTINUOUS
 10
22.6428318687
 20
-14.6019939645
 11
22.6583871745
 21
-14.5043497327
  0
LWPOLYLINE
  5
2DB
100
AcDbEntity
  8
IMPORT_IGES
100
AcDbPolyline
 62
7
  6
CONTINUOUS
 90
8
 70
0
 10
23.5506371556
 20
-5.7052797497
 10
23.5190261606
 20
-5.8735964783
 10
23.4540692552
 20
-6.0484625437
 10
23.3576013378
 20
-6.2170581608
 10
23.2306270729
 20
-6.3775815808
 10
23.0744664654
 20
-6.5282956949
 10
22.8908394682
 20
-6.6675726064
 10
22.6817349938
 20
-6.793921744
  0
LINE
  5
2DC
100
AcDbEntity
  8
IMPORT_IGES
100
AcDbLine
 62
7
  6
CONTINUOUS
 10
22.6426380013
 20
-14.6029787966
 11
22.6428365099
 21
-14.6019702244
  0
LINE
  5
2DD
100
AcDbEntity
  8
IMPORT_IGES
100
AcDbLine
 62
7
  6
CONTINUOUS
 10
22.628637588
 20
-14.6664337285
 11
22.6426380013
 21
-14.6029787966
  0
LINE
  5
2DE
100
AcDbEntity
  8
IMPORT_IGES
100
AcDbLine
 62
253
  6
CONTINUOUS
 10
22.6147508294
 20
-14.6935015358
 11
22.6481652477
 21
-14.5659790123
  0
LINE
  5
2DF
100
AcDbEntity
  8
IMPORT_IGES
100
AcDbLine
 62
7
  6
CONTINUOUS
 10
21.7828537197
 20
-15.7581020508
 11
21.9661823948
 21
-15.6279306808
  0
LWPOLYLINE
  5
2E0
100
AcDbEntity
  8
IMPORT_IGES
100
AcDbPolyline
 62
253
  6
CONTINUOUS
 90
6
 70
0
 10
5.708867874
 20
-25.0428679667
 10
5.7191813562
 20
-25.0364189294
 10
5.7629938591
 20
-24.9970079934
 10
5.7971760605
 20
-24.9435702824
 10
5.8203249593
 20
-24.8773100254
 10
5.8314020345
 20
-24.7998299783
  0
LWPOLYLINE
  5
2E1
100
AcDbEntity
  8
IMPORT_IGES
100
AcDbPolyline
 62
253
  6
CONTINUOUS
 90
8
 70
0
 10
21.7907117811
 20
-15.5851245478
 10
21.9428868172
 20
-15.4920557278
 10
22.0823593852
 20
-15.3925974837
 10
22.2083602492
 20
-15.2872688996
 10
22.3201990007
 20
-15.1766024382
 10
22.4172548808
 20
-15.0612112399
 10
22.4989829994
 20
-14.9417868177
 10
22.5649334389
 20
-14.8190010432
  0
LINE
  5
2E2
100
AcDbEntity
  8
IMPORT_IGES
100
AcDbLine
 62
7
  6
CONTINUOUS
 10
21.6671298479
 20
-15.8287699833
 11
21.7828537197
 21
-15.7581020508
  0
LINE
  5
2E3
100
AcDbEntity
  8
IMPORT_IGES
100
AcDbLine
 62
253
  6
CONTINUOUS
 10
21.7907117811
 20
-15.5851245478
 11
5.8314020345
 21
-24.7998299783
  0
LINE
  5
2E4
100
AcDbEntity
  8
IMPORT_IGES
100
AcDbLine
 62
7
  6
CONTINUOUS
 10
21.6673476739
 20
-15.8286443959
 11
5.7080379273
 21
-25.0433498264
  0
LWPOLYLINE
  5
2E5
100
AcDbEntity
  8
IMPORT_IGES
100
AcDbPolyline
 62
253
  6
CONTINUOUS
 90
3
 70
0
 10
5.4921703719
 20
-24.9715646961
 10
5.6672132975
 20
-24.889425636
 10
5.8314020345
 20
-24.7998299783
  0
LINE
  5
2E6
100
AcDbEntity
  8
IMPORT_IGES
100
AcDbLine
 62
7
  6
CONTINUOUS
 10
22.5758269685
 20
-14.8362732506
 11
22.628637588
 21
-14.6664337285
  0
LINE
  5
2E7
100
AcDbEntity
  8
IMPORT_IGES
100
AcDbLine
 62
253
  6
CONTINUOUS
 10
22.5649334389
 20
-14.8190010432
 11
22.6147508294
 21
-14.6935015358
  0
LWPOLYLINE
  5
2E8
100
AcDbEntity
  8
IMPORT_IGES
100
AcDbPolyline
 62
7
  6
CONTINUOUS
 90
6
 70
0
 10
21.9661823948
 20
-15.6279306808
 10
22.1303207232
 20
-15.4868243553
 10
22.2755791447
 20
-15.3343323337
 10
22.3998126264
 20
-15.1721957671
 10
22.4999699079
 20
-15.0051415225
 10
22.5758269685
 20
-14.8362732506
  0
ELLIPSE
  5
2E9
100
AcDbEntity
  8
IMPORT_IGES
100
AcDbEllipse
 62
7
  6
CONTINUOUS
 10
7.6165413607
 20
11.0204958084
 30
0.0
 11
-0.7401253996
 21
1.3047225063
 31
0.0
 40
0.5823480847
 41
0.8246961475
 42
2.3605858893
  0
ELLIPSE
  5
2EA
100
AcDbEntity
  8
IMPORT_IGES
100
AcDbEllipse
 62
7
  6
CONTINUOUS
 10
8.6155802989
 20
8.4670323818
 30
0.0
 11
-0.4440752398
 21
0.7828335038
 31
0.0
 40
0.5823480847
 41
-2.3343497986
 42
-0.7810067643
  0
ELLIPSE
  5
2EB
100
AcDbEntity
  8
IMPORT_IGES
100
AcDbEllipse
 62
7
  6
CONTINUOUS
 10
-3.8215827775
 20
23.8227445266
 30
0.0
 11
3.0
 21
0.0
 31
0.0
 40
0.5774314382
 41
0.7854362396
 42
2.356156414
  0
ELLIPSE
  5
2EC
100
AcDbEntity
  8
IMPORT_IGES
100
AcDbEllipse
 62
7
  6
CONTINUOUS
 10
12.4320034719
 20
6.2634774728
 30
0.0
 11
-0.4440752398
 21
0.7828335038
 31
0.0
 40
0.5823480847
 41
-0.7810067643
 42
0.0044397165
  0
ELLIPSE
  5
2ED
100
AcDbEntity
  8
IMPORT_IGES
100
AcDbEllipse
 62
7
  6
CONTINUOUS
 10
3.8151704594
 20
0.0612844571
 30
0.0
 11
0.9
 21
0.0
 31
0.0
 40
0.5774314382
 41
-2.356156414
 42
-0.7854362396
  0
ELLIPSE
  5
2EE
100
AcDbEntity
  8
IMPORT_IGES
100
AcDbEllipse
 62
7
  6
CONTINUOUS
 10
3.8151704594
 20
-0.1836150039
 30
0.0
 11
3.0
 21
-0.0
 31
0.0
 40
0.5774314382
 41
-2.356156414
 42
-0.7854362396
  0
ELLIPSE
  5
2EF
100
AcDbEntity
  8
IMPORT_IGES
100
AcDbEllipse
 62
7
  6
CONTINUOUS
 10
-20.791983973
 20
14.0242475653
 30
0.0
 11
3.000228466
 21
0.0
 31
0.0
 40
0.5773434993
 41
2.3562325664
 42
3.9269527408
  0
ELLIPSE
  5
2F0
100
AcDbEntity
  8
IMPORT_IGES
100
AcDbEllipse
 62
7
  6
CONTINUOUS
 10
11.7636061067
 20
6.6663145511
 30
0.0
 11
-0.7401253996
 21
1.3047225063
 31
0.0
 40
0.5823480847
 41
-3.9225994179
 42
-2.3867096761
  0
ELLIPSE
  5
2F1
100
AcDbEntity
  8
IMPORT_IGES
100
AcDbEllipse
 62
7
  6
CONTINUOUS
 10
5.9194850859
 20
10.0406367845
 30
0.0
 11
-0.7401253996
 21
1.3047225063
 31
0.0
 40
0.5823480847
 41
0.8246961475
 42
2.3605858893
  0
ELLIPSE
  5
2F2
100
AcDbEntity
  8
IMPORT_IGES
100
AcDbEllipse
 62
7
  6
CONTINUOUS
 10
20.3614206733
 20
9.6148819574
 30
0.0
 11
0.9000685398
 21
-0.0
 31
0.0
 40
0.5773434993
 41
5.49782522
 42
7.0685453944
  0
ELLIPSE
  5
2F3
100
AcDbEntity
  8
IMPORT_IGES
100
AcDbEllipse
 62
7
  6
CONTINUOUS
 10
10.734947197
 20
5.2836184488
 30
0.0
 11
-0.4440752398
 21
0.7828335038
 31
0.0
 40
0.5823480847
 41
-0.7810067643
 42
0.77233627
  0
ELLIPSE
  5
2F4
100
AcDbEntity
  8
IMPORT_IGES
100
AcDbEllipse
 62
7
  6
CONTINUOUS
 10
-20.3678329913
 20
14.0242475653
 30
0.0
 11
0.9000685398
 21
-0.0
 31
0.0
 40
0.5773434993
 41
2.3562325664
 42
3.9269527408
  0
ELLIPSE
  5
2F5
100
AcDbEntity
  8
IMPORT_IGES
100
AcDbEllipse
 62
7
  6
CONTINUOUS
 10
-3.8215827775
 20
23.5778450656
 30
0.0
 11
0.9
 21
0.0
 31
0.0
 40
0.5774314382
 41
0.7854362396
 42
2.356156414
  0
ELLIPSE
  5
2F6
100
AcDbEntity
  8
IMPORT_IGES
100
AcDbEllipse
 62
7
  6
CONTINUOUS
 10
6.918524024
 20
7.4871733578
 30
0.0
 11
-0.4440752398
 21
0.7828335038
 31
0.0
 40
0.5823480847
 41
-2.3343497986
 42
-0.7810067643
  0
ELLIPSE
  5
2F7
100
AcDbEntity
  8
IMPORT_IGES
100
AcDbEllipse
 62
7
  6
CONTINUOUS
 10
20.7855716549
 20
9.6148819574
 30
0.0
 11
3.000228466
 21
-0.0
 31
0.0
 40
0.5773434993
 41
-0.7853600872
 42
0.7853600872
  0
ENDSEC
  0
SECTION
  2
OBJECTS
  0
DICTIONARY
  5
C
100
AcDbDictionary
280
0
281
1
  3
ACAD_GROUP
350
D
  3
ACAD_MLINESTYLE
350
17
  3
ACAD_LAYOUT
350
1A
  3
ACAD_PLOTSETTINGS
350
19
  3
ACAD_PLOTSTYLENAME
350
E
  0
DICTIONARY
  5
D
102
{ACAD_REACTORS
330
C
102
}
100
AcDbDictionary
280
0
281
1
  0
ACDBDICTIONARYWDFLT
  5
E
102
{ACAD_REACTORS
330
C
102
}
100
AcDbDictionary
281
1
  3
Normal
350
F
100
AcDbDictionaryWithDefault
340
F
  0
DICTIONARY
  5
17
102
{ACAD_REACTORS
330
C
102
}
100
AcDbDictionary
280
0
281
1
  3
Standard
350
18
  0
DICTIONARY
  5
19
102
{ACAD_REACTORS
330
C
102
}
100
AcDbDictionary
281
1
  0
DICTIONARY
  5
1A
102
{ACAD_REACTORS
330
C
102
}
100
AcDbDictionary
281
1
  3
Model
350
2F8
  3
Layout1
350
2F9
  0
ACDBPLACEHOLDER
  5
F
102
{ACAD_REACTORS
330
E
102
}
  0
MLINESTYLE
  5
18
102
{ACAD_REACTORS
330
17
102
}
100
AcDbMlineStyle
  2
STANDARD
 70
0
  3

 62
256
 51
90.0
 52
90.0
 71
2
 49
0.5
 62
256
  6
BYLAYER
 49
-0.5
 62
256
  6
BYLAYER
  0
LAYOUT
  5
2F8
102
{ACAD_REACTORS
330
1A
102
}
100
AcDbPlotSettings
  1

  2
none_device
  4
ISO_A4_(297.00_x_210.00_MM)
  6

 40
0.0
 41
0.0
 42
0.0
 43
0.0
 44
297.0
 45
210.0
 46
0.0
 47
0.0
 48
0.0
 49
0.0
140
0.0
141
0.0
142
1.0
143
1.0
 70
1024
 72
1
 73
0
 74
0
  7

 75
0
147
1.0
148
0.0
149
0.0
100
AcDbLayout
  1
Model
 70
0
 71
0
 10
0.0
 20
0.0
 11
297.0
 21
210.0
 12
0.0
 22
0.0
 32
0.0
 14
0.0
 24
0.0
 34
0.0
 15
0.0
 25
0.0
 35
0.0
146
0.0
 13
0.0
 23
0.0
 33
0.0
 16
1.0
 26
0.0
 36
0.0
 17
0.0
 27
1.0
 37
0.0
 76
0
330
211
345
0
346
0
  0
LAYOUT
  5
2F9
102
{ACAD_REACTORS
330
1A
102
}
100
AcDbPlotSettings
  1

  2
none_device
  4
ISO_A4_(297.00_x_210.00_MM)
  6

 40
0.0
 41
0.0
 42
0.0
 43
0.0
 44
297.0
 45
210.0
 46
0.0
 47
0.0
 48
0.0
 49
0.0
140
0.0
141
0.0
142
1.0
143
1.0
 70
0
 72
1
 73
0
 74
0
  7

 75
0
147
1.0
148
0.0
149
0.0
100
AcDbLayout
  1
Layout1
 70
0
 71
1
 10
0.0
 20
0.0
 11
297.0
 21
210.0
 12
0.0
 22
0.0
 32
0.0
 14
0.0
 24
0.0
 34
0.0
 15
0.0
 25
0.0
 35
0.0
146
0.0
 13
0.0
 23
0.0
 33
0.0
 16
1.0
 26
0.0
 36
0.0
 17
0.0
 27
1.0
 37
0.0
 76
0
330
212
345
0
346
0
  0
ENDSEC
  0
EOF
