  0
SECTION
  2
HEADER
  9
$ACADVER
  1
AC1021
  9
$DWGCODEPAGE
  3
ANSI_1252
  9
$EXTMAX
 10
297.0
 20
210.0
 30
0.0
  9
$EXTMIN
 10
0.0
 20
0.0
 30
0.0
  9
$LIMMIN
 10
0.0
 20
0.0
  9
$LIMMAX
 10
297.0
 20
210.0
  9
$VIEWCTR
 10
148.5
 20
105.0
  9
$VIEWSIZE
 40
210.0
  9
$CLAYER
  8
0
  9
$LTSCALE
 40
16.335
  9
$CELTYPE
  6
BYLAYER
  9
$DIMSCALE
 40
1.0
  9
$DIMASZ
 40
3.0
  9
$DIMEXO
 40
0.5
  9
$DIMDLI
 40
11.286
  9
$DIMEXE
 40
1.5
  9
$DIMCEN
 40
2.673
  9
$DIMLFAC
 40
1.0
  9
$DIMBLK
  1
_FILLED
  9
$DIMALT
 70
0
  9
$DIMALTF
 40
25.4
  9
$DIMTXT
 40
3.0
  9
$DIMTOL
 70
1
  9
$DIMLIM
 70
0
  9
$DIMTFAC
 40
1.0
  9
$DIMTP
 40
0.01
  9
$DIMTM
 40
0.01
  9
$DIMGAP
 40
0.625
  9
$DIMDSEP
 70
44
  9
$AUNITS
 70
0
  9
$PDMODE
 70
3
  9
$PDSIZE
 40
3.0
  9
$HANDSEED
  5
2D3
  9
$TILEMODE
 70
1
  9
$MEASUREMENT
 70
1
  9
$INSUNITS
 70
4
  0
ENDSEC
  0
SECTION
  2
CLASSES
  0
CLASS
  1
ACDBDICTIONARYWDFLT
  2
AcDbDictionaryWithDefault
  3
AutoCAD 2000
 90
0
 91
1
280
0
281
0
  0
CLASS
  1
ACDBPLACEHOLDER
  2
AcDbPlaceHolder
  3
AutoCAD 2000
 90
0
 91
1
280
0
281
0
  0
CLASS
  1
LAYOUT
  2
AcDbLayout
  3
AutoCAD 2000
 90
0
 91
0
280
0
281
0
  0
ENDSEC
  0
SECTION
  2
TABLES
  0
TABLE
  2
VPORT
  5
8
100
AcDbSymbolTable
 70
2
  0
VPORT
  5
1F4
100
AcDbSymbolTableRecord
100
AcDbViewportTableRecord
  2
*ACTIVE
 70
0
 10
0.0
 20
0.0
 11
1.0
 21
1.0
 12
148.5
 22
105.0
 13
0.0
 23
0.0
 14
1.0
 24
1.0
 15
0.0
 25
0.0
 16
0.0
 26
0.0
 36
1.0
 17
0.0
 27
0.0
 37
0.0
 40
210.0
 41
1.4142857143
 42
50.0
 43
0.0
 44
0.0
 50
0.0
 51
0.0
 71
0
 72
100
 73
1
 74
1
 75
0
 76
0
 77
0
 78
0
  0
ENDTAB
  0
TABLE
  2
LTYPE
  5
5
100
AcDbSymbolTable
 70
6
  0
LTYPE
  5
14
100
AcDbSymbolTableRecord
100
AcDbLinetypeTableRecord
  2
BYBLOCK
 70
0
  3

 72
65
 73
0
 40
0.0
  0
LTYPE
  5
15
100
AcDbSymbolTableRecord
100
AcDbLinetypeTableRecord
  2
BYLAYER
 70
0
  3

 72
65
 73
0
 40
0.0
  0
LTYPE
  5
16
100
AcDbSymbolTableRecord
100
AcDbLinetypeTableRecord
  2
CONTINUOUS
 70
64
  3
Solid line
 72
65
 73
0
 40
0.0
  0
LTYPE
  5
1F5
100
AcDbSymbolTableRecord
100
AcDbLinetypeTableRecord
  2
CENTER
 70
64
  3
____ _ ____ _ ____ _ ____ _ ____ _ ____ _ ____
 72
65
 73
4
 40
0.6
 49
0.375
 74
0
 49
-0.075
 74
0
 49
0.075
 74
0
 49
-0.075
 74
0
  0
LTYPE
  5
1F6
100
AcDbSymbolTableRecord
100
AcDbLinetypeTableRecord
  2
HIDDEN
 70
64
  3
- - - - - - - - - - - - - - - - - - - -
 72
65
 73
2
 40
0.2
 49
0.1
 74
0
 49
-0.1
 74
0
  0
LTYPE
  5
1F7
100
AcDbSymbolTableRecord
100
AcDbLinetypeTableRecord
  2
PHANTOM
 70
64
  3
_____ _ _ _____ _ _ _____ _ _ _____
 72
65
 73
6
 40
0.8
 49
0.45
 74
0
 49
-0.05
 74
0
 49
0.1
 74
0
 49
-0.05
 74
0
 49
0.1
 74
0
 49
-0.05
 74
0
  0
LTYPE
  5
1F8
100
AcDbSymbolTableRecord
100
AcDbLinetypeTableRecord
  2
DOT
 70
64
  3
. . . . . . . . . . . . . . . . . . . .
 72
65
 73
2
 40
0.2
 49
0.1
 74
0
 49
-0.1
 74
0
  0
LTYPE
  5
1F9
100
AcDbSymbolTableRecord
100
AcDbLinetypeTableRecord
  2
DASHED
 70
64
  3
- - - - - - - - - - - - - - - - - - - -
 72
65
 73
2
 40
0.2
 49
0.1
 74
0
 49
-0.1
 74
0
  0
ENDTAB
  0
TABLE
  2
LAYER
  5
2
100
AcDbSymbolTable
 70
36
  0
LAYER
  5
10
100
AcDbSymbolTableRecord
100
AcDbLayerTableRecord
  2
0
 70
0
 62
7
  6
CONTINUOUS
370
-3
390
F
  0
LAYER
  5
1FA
100
AcDbSymbolTableRecord
100
AcDbLayerTableRecord
  2
DEFAULT_1
 70
0
 62
7
  6
CENTER
370
-3
390
F
  0
LAYER
  5
1FB
100
AcDbSymbolTableRecord
100
AcDbLayerTableRecord
  2
DEFAULT_2
 70
0
 62
7
  6
HIDDEN
370
-3
390
F
  0
LAYER
  5
1FC
100
AcDbSymbolTableRecord
100
AcDbLayerTableRecord
  2
DEFAULT_3
 70
0
 62
7
  6
PHANTOM
370
-3
390
F
  0
LAYER
  5
1FD
100
AcDbSymbolTableRecord
100
AcDbLayerTableRecord
  2
ASSI
 70
0
 62
7
  6
CONTINUOUS
370
-3
390
F
  0
LAYER
  5
1FE
100
AcDbSymbolTableRecord
100
AcDbLayerTableRecord
  2
COORDINATE
 70
0
 62
7
  6
CONTINUOUS
370
-3
390
F
  0
LAYER
  5
1FF
100
AcDbSymbolTableRecord
100
AcDbLayerTableRecord
  2
COPY_PUBLISH
 70
0
 62
7
  6
CONTINUOUS
370
-3
390
F
  0
LAYER
  5
200
100
AcDbSymbolTableRecord
100
AcDbLayerTableRecord
  2
COSMETICI
 70
0
 62
7
  6
CONTINUOUS
370
-3
390
F
  0
LAYER
  5
201
100
AcDbSymbolTableRecord
100
AcDbLayerTableRecord
  2
CURVE
 70
0
 62
7
  6
CONTINUOUS
370
-3
390
F
  0
LAYER
  5
202
100
AcDbSymbolTableRecord
100
AcDbLayerTableRecord
  2
DRAFT
 70
0
 62
7
  6
CONTINUOUS
370
-3
390
F
  0
LAYER
  5
203
100
AcDbSymbolTableRecord
100
AcDbLayerTableRecord
  2
IMPORT_IGES
 70
0
 62
7
  6
CONTINUOUS
370
-3
390
F
  0
LAYER
  5
204
100
AcDbSymbolTableRecord
100
AcDbLayerTableRecord
  2
NOTE
 70
0
 62
7
  6
CONTINUOUS
370
-3
390
F
  0
LAYER
  5
205
100
AcDbSymbolTableRecord
100
AcDbLayerTableRecord
  2
PIANI
 70
0
 62
7
  6
CONTINUOUS
370
-3
390
F
  0
LAYER
  5
206
100
AcDbSymbolTableRecord
100
AcDbLayerTableRecord
  2
PUNTI
 70
0
 62
7
  6
CONTINUOUS
370
-3
390
F
  0
LAYER
  5
207
100
AcDbSymbolTableRecord
100
AcDbLayerTableRecord
  2
RACCORDO
 70
0
 62
7
  6
CONTINUOUS
370
-3
390
F
  0
LAYER
  5
208
100
AcDbSymbolTableRecord
100
AcDbLayerTableRecord
  2
SIMBOLI
 70
0
 62
7
  6
CONTINUOUS
370
-3
390
F
  0
LAYER
  5
209
100
AcDbSymbolTableRecord
100
AcDbLayerTableRecord
  2
SMUSSO
 70
0
 62
7
  6
CONTINUOUS
370
-3
390
F
  0
LAYER
  5
20A
100
AcDbSymbolTableRecord
100
AcDbLayerTableRecord
  2
SNAPLINE
 70
0
 62
7
  6
CONTINUOUS
370
-3
390
F
  0
LAYER
  5
20B
100
AcDbSymbolTableRecord
100
AcDbLayerTableRecord
  2
SUPERFICI
 70
0
 62
7
  6
CONTINUOUS
370
-3
390
F
  0
LAYER
  5
20C
100
AcDbSymbolTableRecord
100
AcDbLayerTableRecord
  2
TRASH
 70
0
 62
7
  6
CONTINUOUS
370
-3
390
F
  0
ENDTAB
  0
TABLE
  2
STYLE
  5
3
100
AcDbSymbolTable
 70
1
  0
STYLE
  5
11
100
AcDbSymbolTableRecord
100
AcDbTextStyleTableRecord
  2
STANDARD
 70
0
 40
0.0
 41
0.8
 50
0.0
 71
0
 42
0.2
  3
txt
  4

  0
STYLE
  5
20D
100
AcDbSymbolTableRecord
100
AcDbTextStyleTableRecord
  2
TEXTSTYLE_1
 70
0
 40
0.0
 41
0.8
 50
0.0
 71
0
 42
0.2
  3
gdt
  4

  0
ENDTAB
  0
TABLE
  2
VIEW
  5
6
100
AcDbSymbolTable
 70
0
  0
ENDTAB
  0
TABLE
  2
UCS
  5
7
100
AcDbSymbolTable
 70
0
  0
ENDTAB
  0
TABLE
  2
APPID
  5
9
100
AcDbSymbolTable
 70
1
  0
APPID
  5
20E
100
AcDbSymbolTableRecord
100
AcDbRegAppTableRecord
  2
ACAD
 70
0
  0
ENDTAB
  0
TABLE
  2
BLOCK_RECORD
  5
1
100
AcDbSymbolTable
 70
0
  0
BLOCK_RECORD
  5
20F
100
AcDbSymbolTableRecord
100
AcDbBlockTableRecord
  2
*Model_Space
  0
BLOCK_RECORD
  5
210
100
AcDbSymbolTableRecord
100
AcDbBlockTableRecord
  2
*Paper_Space
  0
ENDTAB
  0
TABLE
  2
DIMSTYLE
  5
A
100
AcDbSymbolTable
 70
1
100
AcDbDimStyleTable
 71
0
  0
DIMSTYLE
105
211
100
AcDbSymbolTableRecord
100
AcDbDimStyleTableRecord
  2
STANDARD
 70
0
  3

  4

 40
1.0
 41
3.0
 42
0.5
 43
0.38
 44
1.5
 45
0.0
 46
0.0
 47
0.01
 48
0.01
140
3.0
141
0.09
142
0.0
143
25.4
144
1.0
145
0.0
146
1.0
147
0.625
 71
1.0
 72
0.0
 73
0
 74
0
 75
0
 76
0
 77
1
 78
8
170
0
171
1
172
0
173
0
174
0
175
0
176
0
177
0
178
0
270
2
271
2
272
2
273
2
274
2
275
0
280
0
281
0
282
0
283
1
284
8
285
0
286
0
287
3
288
0
340
11
278
44
  0
ENDTAB
  0
ENDSEC
  0
SECTION
  2
BLOCKS
  0
BLOCK
  5
20
100
AcDbEntity
  8
0
100
AcDbBlockBegin
  2
*Model_Space
 70
0
 10
0.0
 20
0.0
 30
0.0
  3
*Model_Space
  1

  0
ENDBLK
  5
21
100
AcDbEntity
  8
0
100
AcDbBlockEnd
  0
BLOCK
  5
1C
100
AcDbEntity
  8
0
100
AcDbBlockBegin
  2
*Paper_Space
 70
0
 10
0.0
 20
0.0
 30
0.0
  3
*Paper_Space
  1

  0
ENDBLK
  5
1D
100
AcDbEntity
  8
0
100
AcDbBlockEnd
  0
ENDSEC
  0
SECTION
  2
ENTITIES
  0
LWPOLYLINE
  5
212
100
AcDbEntity
  8
ASSI
100
AcDbPolyline
 62
7
  6
CONTINUOUS
 90
11
 70
0
 10
-16.6171713178
 20
-5.7159362092
 10
-16.6105281218
 20
-5.5371908589
 10
-16.5916931536
 20
-5.3689546507
 10
-16.5606664134
 20
-5.2112275845
 10
-16.5170900961
 20
-5.0631268805
 10
-16.4613220067
 20
-4.9255353185
 10
-16.39443556
 20
-4.8011012377
 10
-16.3162153697
 20
-4.6900795263
 10
-16.2268768222
 20
-4.5922152962
 10
-16.1281394905
 20
-4.5093922213
 10
-16.0476324837
 20
-4.4572667142
  0
LINE
  5
213
100
AcDbEntity
  8
ASSI
100
AcDbLine
 62
7
  6
CONTINUOUS
 10
-14.8494043648
 20
-3.8507590598
 11
-14.8494043648
 21
-1.5926232191
  0
LWPOLYLINE
  5
214
100
AcDbEntity
  8
0
100
AcDbPolyline
 62
7
  6
CONTINUOUS
 90
10
 70
0
 10
-15.556511146
 20
-6.3283480992
 10
-15.5529366945
 20
-6.2403626165
 10
-15.5428974947
 20
-6.158109934
 10
-15.5263935469
 20
-6.0815900517
 10
-15.5032019796
 20
-6.010310376
 10
-15.4735456642
 20
-5.9447635006
 10
-15.4380932141
 20
-5.8864272059
 10
-15.3967129637
 20
-5.8354652884
 10
-15.3495365787
 20
-5.7917139517
 10
-15.2976578696
 20
-5.7561770228
  0
LINE
  5
215
100
AcDbEntity
  8
ASSI
100
AcDbLine
 62
7
  6
CONTINUOUS
 10
-13.9655208883
 20
-4.0279238473
 11
-13.9655208883
 21
-2.1029664608
  0
LWPOLYLINE
  5
216
100
AcDbEntity
  8
0
100
AcDbPolyline
 62
7
  6
CONTINUOUS
 90
10
 70
0
 10
-13.788744193
 20
-7.3490345825
 10
-13.7923186445
 20
-7.4370200652
 10
-13.8023578442
 20
-7.5192727477
 10
-13.8188617921
 20
-7.59579263
 10
-13.8420533594
 20
-7.6670723056
 10
-13.8717096748
 20
-7.7326191811
 10
-13.9071621249
 20
-7.7909554757
 10
-13.9485423753
 20
-7.8419173932
 10
-13.9957187603
 20
-7.88566873
 10
-14.0475974694
 20
-7.9212056588
  0
LINE
  5
217
100
AcDbEntity
  8
ASSI
100
AcDbLine
 62
7
  6
CONTINUOUS
 10
-13.4351908024
 20
1.6733367979
 11
-13.4351908024
 21
0.8568665211
  0
LWPOLYLINE
  5
218
100
AcDbEntity
  8
ASSI
100
AcDbPolyline
 62
7
  6
CONTINUOUS
 90
11
 70
0
 10
-12.7280840212
 20
-7.9614464725
 10
-12.7347272172
 20
-8.1401918227
 10
-12.7535621854
 20
-8.3084280309
 10
-12.7845889256
 20
-8.4661550972
 10
-12.8281652429
 20
-8.6142558012
 10
-12.8839333323
 20
-8.7518473632
 10
-12.950819779
 20
-8.876281444
 10
-13.0290399692
 20
-8.9873031553
 10
-13.1183785168
 20
-9.0851673855
 10
-13.2171158485
 20
-9.1679904603
 10
-13.2976228553
 20
-9.2201159674
  0
LINE
  5
219
100
AcDbEntity
  8
0
100
AcDbLine
 62
7
  6
CONTINUOUS
 10
-7.6198399062
 20
-10.9106458736
 11
-5.7984375656
 21
-11.9623007575
  0
LINE
  5
21A
100
AcDbEntity
  8
0
100
AcDbLine
 62
7
  6
CONTINUOUS
 10
-6.3287676515
 20
-11.0029185911
 11
-7.4457010294
 21
-10.3580152572
  0
LINE
  5
21B
100
AcDbEntity
  8
0
100
AcDbLine
 62
7
  6
CONTINUOUS
 10
-6.6823210421
 20
-10.145605073
 11
-6.3287676515
 21
-10.3497423696
  0
LINE
  5
21C
100
AcDbEntity
  8
ASSI
100
AcDbLine
 62
7
  6
CONTINUOUS
 10
-11.8901624855
 20
0.5363157285
 11
-11.8901624855
 21
-0.0352134653
  0
LINE
  5
21D
100
AcDbEntity
  8
SMUSSO
100
AcDbLine
 62
7
  6
CONTINUOUS
 10
-11.8795558838
 20
-6.8182775909
 11
-11.8795558838
 21
-7.2879184584
  0
LINE
  5
21E
100
AcDbEntity
  8
ASSI
100
AcDbLine
 62
7
  6
CONTINUOUS
 10
-11.1370937636
 20
-3.7360648341
 11
-11.1370937636
 21
-6.7661006213
  0
LWPOLYLINE
  5
21F
100
AcDbEntity
  8
ASSI
100
AcDbPolyline
 62
7
  6
CONTINUOUS
 90
11
 70
0
 10
-12.1623985963
 20
-8.2880661471
 10
-12.1557554003
 20
-8.1093207969
 10
-12.1369204322
 20
-7.9410845887
 10
-12.1058936919
 20
-7.7833575224
 10
-12.0623173747
 20
-7.6352568184
 10
-12.0065492853
 20
-7.4976652565
 10
-11.9396628385
 20
-7.3732311756
 10
-11.8614426483
 20
-7.2622094643
 10
-11.7721041007
 20
-7.1643452341
 10
-11.673366769
 20
-7.0815221593
 10
-11.5928597622
 20
-7.0293966522
  0
LWPOLYLINE
  5
220
100
AcDbEntity
  8
ASSI
100
AcDbPolyline
 62
7
  6
CONTINUOUS
 90
7
 70
0
 10
-11.9553022916
 20
-0.562706539
 10
-11.9355069129
 20
-0.4716431054
 10
-11.919287032
 20
-0.3818388403
 10
-11.9066426488
 20
-0.2932937438
 10
-11.8975737633
 20
-0.2060078158
 10
-11.8920803756
 20
-0.1199810563
 10
-11.8901624855
 20
-0.0352134653
  0
LWPOLYLINE
  5
221
100
AcDbEntity
  8
SMUSSO
100
AcDbPolyline
 62
7
  6
CONTINUOUS
 90
21
 70
0
 10
-13.8242874584
 20
-4.1033600718
 10
-13.6787746762
 20
-4.1936563859
 10
-13.5342625499
 20
-4.2958979755
 10
-13.3913718491
 20
-4.4096211544
 10
-13.2509017488
 20
-4.5341897889
 10
-13.1136378939
 20
-4.6689070788
 10
-12.9803483136
 20
-4.8130190978
 10
-12.8517784464
 20
-4.9657196756
 10
-12.7286472764
 20
-5.1261546718
 10
-12.6116436127
 20
-5.2934263293
 10
-12.501421663
 20
-5.4665990518
 10
-12.3985977507
 20
-5.644704174
 10
-12.3037470387
 20
-5.8267449802
 10
-12.2173996944
 20
-6.0117033895
 10
-12.1400383901
 20
-6.1985448838
 10
-12.0720957524
 20
-6.3862237274
 10
-12.0139513432
 20
-6.5736902655
 10
-11.9659298278
 20
-6.7598963418
 10
-11.9282993703
 20
-6.9438003504
 10
-11.9012698715
 20
-7.1243739656
 10
-11.8853980515
 20
-7.2962105304
  0
LINE
  5
222
100
AcDbEntity
  8
ASSI
100
AcDbLine
 62
7
  6
CONTINUOUS
 10
-10.3840250416
 20
-0.3333091553
 11
-10.3840250416
 21
-0.9048383491
  0
LINE
  5
223
100
AcDbEntity
  8
ASSI
100
AcDbLine
 62
7
  6
CONTINUOUS
 10
-9.5107481668
 20
-6.6000537853
 11
-9.5107481668
 21
-4.6750963987
  0
LWPOLYLINE
  5
224
100
AcDbEntity
  8
0
100
AcDbPolyline
 62
7
  6
CONTINUOUS
 90
10
 70
0
 10
-11.1017384245
 20
-8.9004780371
 10
-11.098163973
 20
-8.8124925545
 10
-11.0881247733
 20
-8.730239872
 10
-11.0716208254
 20
-8.6537199897
 10
-11.0484292581
 20
-8.582440314
 10
-11.0187729427
 20
-8.5168934385
 10
-10.9833204926
 20
-8.4585571439
 10
-10.9419402422
 20
-8.4075952264
 10
-10.8947638572
 20
-8.3638438897
 10
-10.8428851482
 20
-8.3283069608
  0
LWPOLYLINE
  5
225
100
AcDbEntity
  8
ASSI
100
AcDbPolyline
 62
7
  6
CONTINUOUS
 90
7
 70
0
 10
-10.4491648477
 20
-1.4323314228
 10
-10.429369469
 20
-1.3412679892
 10
-10.4131495881
 20
-1.2514637241
 10
-10.4005052049
 20
-1.1629186276
 10
-10.3914363194
 20
-1.0756326996
 10
-10.3859429316
 20
-0.9896059401
 10
-10.3840250416
 20
-0.9048383491
  0
LINE
  5
226
100
AcDbEntity
  8
SMUSSO
100
AcDbLine
 62
7
  6
CONTINUOUS
 10
-5.409528836
 20
8.8385559108
 11
-9.0864840981
 21
6.7156463903
  0
LINE
  5
227
100
AcDbEntity
  8
SMUSSO
100
AcDbLine
 62
7
  6
CONTINUOUS
 10
-8.8037746425
 20
-7.002078119
 11
-9.3695147369
 21
-6.6754900098
  0
LINE
  5
228
100
AcDbEntity
  8
SMUSSO
100
AcDbLine
 62
7
  6
CONTINUOUS
 10
-13.258547364
 20
-4.429948181
 11
-13.8242874584
 21
-4.1033600718
  0
LWPOLYLINE
  5
229
100
AcDbEntity
  8
SMUSSO
100
AcDbPolyline
 62
7
  6
CONTINUOUS
 90
21
 70
0
 10
-13.258547364
 20
-4.429948181
 10
-13.2028931722
 20
-4.4633734122
 10
-13.0922113402
 20
-4.5375968031
 10
-12.9826073352
 20
-4.6214480642
 10
-12.8747920062
 20
-4.7143833821
 10
-12.769464581
 20
-4.8158000419
 10
-12.6673081461
 20
-4.9250403304
 10
-12.5689852337
 20
-5.0413957841
 10
-12.4751335251
 20
-5.1641117773
 10
-12.3863616874
 20
-5.2923924508
 10
-12.3032454431
 20
-5.4254058561
 10
-12.2263238482
 20
-5.5622893273
 10
-12.1560957686
 20
-5.7021551213
 10
-12.0930166609
 20
-5.8440961524
 10
-12.0374956262
 20
-5.9871918511
 10
-11.989892735
 20
-6.1305141866
 10
-11.9505167058
 20
-6.2731336566
 10
-11.9196229072
 20
-6.4141252917
 10
-11.8974116877
 20
-6.5525747007
 10
-11.8840270823
 20
-6.6875840006
 10
-11.8795558838
 20
-6.8182776112
  0
LWPOLYLINE
  5
22A
100
AcDbEntity
  8
SMUSSO
100
AcDbPolyline
 62
7
  6
CONTINUOUS
 90
21
 70
0
 10
-8.8037746425
 20
-7.002078119
 10
-8.7481204507
 20
-7.0355033501
 10
-8.6374386188
 20
-7.1097267411
 10
-8.5278346137
 20
-7.1935780022
 10
-8.4200192847
 20
-7.2865133201
 10
-8.3146918596
 20
-7.3879299799
 10
-8.2125354247
 20
-7.4971702684
 10
-8.1142125122
 20
-7.6135257221
 10
-8.0203608036
 20
-7.7362417153
 10
-7.931588966
 20
-7.8645223888
 10
-7.8484727216
 20
-7.9975357941
 10
-7.7715511267
 20
-8.1344192653
 10
-7.7013230471
 20
-8.2742850593
 10
-7.6382439394
 20
-8.4162260904
 10
-7.5827229048
 20
-8.5593217891
 10
-7.5351200136
 20
-8.7026441245
 10
-7.4957439843
 20
-8.8452635946
 10
-7.4648501857
 20
-8.9862552296
 10
-7.4426389663
 20
-9.1247046386
 10
-7.4292543608
 20
-9.2597139385
 10
-7.4247831623
 20
-9.3904075491
  0
LWPOLYLINE
  5
22B
100
AcDbEntity
  8
SMUSSO
100
AcDbPolyline
 62
7
  6
CONTINUOUS
 90
22
 70
0
 10
-9.3695147369
 20
-6.6754900098
 10
-9.2240019547
 20
-6.7657863239
 10
-9.0794898285
 20
-6.8680279134
 10
-8.9365991276
 20
-6.9817510924
 10
-8.7961290273
 20
-7.1063197268
 10
-8.6588651724
 20
-7.2410370168
 10
-8.5255755921
 20
-7.3851490357
 10
-8.3970057249
 20
-7.5378496136
 10
-8.2738745549
 20
-7.6982846098
 10
-8.1568708912
 20
-7.8655562673
 10
-8.0466489415
 20
-8.0387289897
 10
-7.9438250292
 20
-8.216834112
 10
-7.8489743172
 20
-8.3988749182
 10
-7.762626973
 20
-8.5838333275
 10
-7.6852656687
 20
-8.7706748217
 10
-7.6173230309
 20
-8.9583536654
 10
-7.5591786217
 20
-9.1458202034
 10
-7.5111571063
 20
-9.3320262798
 10
-7.4735266488
 20
-9.5159302884
 10
-7.4464971501
 20
-9.6965039036
 10
-7.4302191658
 20
-9.8727378129
 10
-7.4247831623
 20
-10.0436468984
  0
LINE
  5
22C
100
AcDbEntity
  8
SMUSSO
100
AcDbLine
 62
7
  6
CONTINUOUS
 10
-9.0864840981
 20
4.1842255469
 11
-9.0864840981
 21
6.7156463903
  0
LWPOLYLINE
  5
22D
100
AcDbEntity
  8
0
100
AcDbPolyline
 62
7
  6
CONTINUOUS
 90
10
 70
0
 10
-9.3339714715
 20
-9.9211645204
 10
-9.3375459231
 20
-10.0091500031
 10
-9.3475851228
 20
-10.0914026856
 10
-9.3640890707
 20
-10.1679225679
 10
-9.3872806379
 20
-10.2392022436
 10
-9.4169369533
 20
-10.304749119
 10
-9.4523894034
 20
-10.3630854137
 10
-9.4937696538
 20
-10.4140473312
 10
-9.5409460388
 20
-10.4577986679
 10
-9.5928247479
 20
-10.4933355968
  0
LWPOLYLINE
  5
22E
100
AcDbEntity
  8
ASSI
100
AcDbPolyline
 62
7
  6
CONTINUOUS
 90
16
 70
0
 10
-13.8774862356
 20
-1.5622147346
 10
-13.793015358
 20
-1.4778490473
 10
-13.7112631839
 20
-1.3893552201
 10
-13.6322297134
 20
-1.2967332529
 10
-13.5556212197
 20
-1.199587046
 10
-13.4817314294
 20
-1.0983126991
 10
-13.4114415233
 20
-0.9940985114
 10
-13.3447829853
 20
-0.886884144
 10
-13.2817243314
 20
-0.7767299359
 10
-13.2230522899
 20
-0.6650052028
 10
-13.1688332456
 20
-0.5517064546
 10
-13.1190008137
 20
-0.4368371816
 10
-13.074142568
 20
-0.3217771706
 10
-13.0344543666
 20
-0.2069863508
 10
-12.9997403515
 20
-0.0920047931
 10
-12.9700005226
 20
0.0231675024
  0
LINE
  5
22F
100
AcDbEntity
  8
ASSI
100
AcDbLine
 62
7
  6
CONTINUOUS
 10
4.3839000835
 20
11.9618565498
 11
-3.2174978143
 21
7.5729046715
  0
LINE
  5
230
100
AcDbEntity
  8
ASSI
100
AcDbLine
 62
7
  6
CONTINUOUS
 10
-5.8337929047
 20
6.0622886762
 11
-13.4351908024
 21
1.6733367979
  0
LINE
  5
231
100
AcDbEntity
  8
ASSI
100
AcDbLine
 62
7
  6
CONTINUOUS
 10
-14.8494043648
 20
-1.5926232191
 11
-13.9655208883
 21
-2.1029664608
  0
LINE
  5
232
100
AcDbEntity
  8
ASSI
100
AcDbLine
 62
7
  6
CONTINUOUS
 10
-11.1370937636
 20
-3.7360648341
 11
-9.5107481668
 21
-4.6750963987
  0
LINE
  5
233
100
AcDbEntity
  8
ASSI
100
AcDbLine
 62
7
  6
CONTINUOUS
 10
-6.6823210421
 20
-6.308194772
 11
-5.7984375656
 21
-6.8185380137
  0
LINE
  5
234
100
AcDbEntity
  8
ASSI
100
AcDbLine
 62
7
  6
CONTINUOUS
 10
-13.8774862356
 20
-1.5622147346
 11
-13.523932845
 21
-1.7663520313
  0
LINE
  5
235
100
AcDbEntity
  8
ASSI
100
AcDbLine
 62
7
  6
CONTINUOUS
 10
-10.6955057202
 20
-3.3994504046
 11
-10.3419523297
 21
-3.6035877013
  0
LINE
  5
236
100
AcDbEntity
  8
ASSI
100
AcDbLine
 62
7
  6
CONTINUOUS
 10
-9.4227135141
 20
-4.1343446726
 11
-9.0691601235
 21
-4.3384819692
  0
LINE
  5
237
100
AcDbEntity
  8
ASSI
100
AcDbLine
 62
7
  6
CONTINUOUS
 10
-6.2407329988
 20
-5.9715803426
 11
-5.8871796082
 21
-6.1757176392
  0
LINE
  5
238
100
AcDbEntity
  8
0
100
AcDbLine
 62
7
  6
CONTINUOUS
 10
-1.7325735738
 20
-8.4716634584
 11
-2.0861269644
 21
-8.2675261617
  0
LINE
  5
239
100
AcDbEntity
  8
ASSI
100
AcDbLine
 62
7
  6
CONTINUOUS
 10
-7.4353897641
 20
-2.0358142095
 11
-7.4353897641
 21
-2.6073434033
  0
LINE
  5
23A
100
AcDbEntity
  8
SMUSSO
100
AcDbLine
 62
7
  6
CONTINUOUS
 10
-7.4247831623
 20
-9.3904075288
 11
-7.4247831623
 21
-10.0436468698
  0
LINE
  5
23B
100
AcDbEntity
  8
ASSI
100
AcDbLine
 62
7
  6
CONTINUOUS
 10
-6.6823210421
 20
-6.308194772
 11
-6.6823210421
 21
-10.145605073
  0
LWPOLYLINE
  5
23C
100
AcDbEntity
  8
SMUSSO
100
AcDbPolyline
 62
7
  6
CONTINUOUS
 90
12
 70
0
 10
-7.4247831623
 20
-10.0436468984
 10
-7.4302191653
 20
-10.2082786167
 10
-7.4464971466
 20
-10.3657151001
 10
-7.4735266374
 20
-10.515075701
 10
-7.5111570773
 20
-10.6555249599
 10
-7.5591785646
 20
-10.7862769505
 10
-7.6173229434
 20
-10.9065997581
 10
-7.6852655566
 20
-11.0158201467
 10
-7.7626268413
 20
-11.1133267583
 10
-7.8489741693
 20
-11.198573437
 10
-7.9438248691
 20
-11.2710830406
 10
-7.9942603702
 20
-11.3024232666
  0
LWPOLYLINE
  5
23D
100
AcDbEntity
  8
ASSI
100
AcDbPolyline
 62
7
  6
CONTINUOUS
 90
11
 70
0
 10
-8.2733112998
 20
-10.5335764104
 10
-8.2799544958
 20
-10.7123217607
 10
-8.2987894639
 20
-10.8805579689
 10
-8.3298162041
 20
-11.0382850352
 10
-8.3733925214
 20
-11.1863857391
 10
-8.4291606108
 20
-11.3239773011
 10
-8.4960470575
 20
-11.4484113819
 10
-8.5742672478
 20
-11.5594330933
 10
-8.6636057954
 20
-11.6572973235
 10
-8.762343127
 20
-11.7401203983
 10
-8.8428501338
 20
-11.7922459054
  0
LWPOLYLINE
  5
23E
100
AcDbEntity
  8
ASSI
100
AcDbPolyline
 62
7
  6
CONTINUOUS
 90
7
 70
0
 10
-7.5005295701
 20
-3.134836477
 10
-7.4807341915
 20
-3.0437730434
 10
-7.4645143106
 20
-2.9539687783
 10
-7.4518699274
 20
-2.8654236818
 10
-7.4428010419
 20
-2.7781377537
 10
-7.4373076541
 20
-2.6921109942
 10
-7.4353897641
 20
-2.6073434033
  0
LINE
  5
23F
100
AcDbEntity
  8
0
100
AcDbLine
 62
7
  6
CONTINUOUS
 10
-6.3287676515
 20
-10.3497423696
 11
-6.3287676515
 21
-11.0029185911
  0
LINE
  5
240
100
AcDbEntity
  8
ASSI
100
AcDbLine
 62
7
  6
CONTINUOUS
 10
-5.9292523201
 20
-2.9054390933
 11
-5.9292523201
 21
-3.476968287
  0
LINE
  5
241
100
AcDbEntity
  8
ASSI
100
AcDbLine
 62
7
  6
CONTINUOUS
 10
-5.7984375656
 20
-11.9623007575
 11
-5.7984375656
 21
-6.8185380137
  0
LWPOLYLINE
  5
242
100
AcDbEntity
  8
ASSI
100
AcDbPolyline
 62
7
  6
CONTINUOUS
 90
22
 70
0
 10
-14.8494043648
 20
-1.5926232191
 10
-14.7427536598
 20
-1.5262673061
 10
-14.6378562855
 20
-1.4520538006
 10
-14.5347122421
 20
-1.3699827025
 10
-14.4327663923
 20
-1.2795091883
 10
-14.3325738732
 20
-1.1811780816
 10
-14.2358000964
 20
-1.0766238532
 10
-14.1425022052
 20
-0.9657424853
 10
-14.0526230563
 20
-0.8486379958
 10
-13.967656631
 20
-0.7272569087
 10
-13.8876850443
 20
-0.601527742
 10
-13.8126261812
 20
-0.4715219778
 10
-13.7437276788
 20
-0.3394005866
 10
-13.6810925058
 20
-0.2051282064
 10
-13.6246176935
 20
-0.0687401994
 10
-13.5752419725
 20
0.0674963776
 10
-13.5330840024
 20
0.2035789934
 10
-13.4980251237
 20
0.3395101791
 10
-13.470648089
 20
0.4730304711
 10
-13.4511471494
 20
0.6033867149
 10
-13.4393280539
 20
0.7313320649
 10
-13.4351908024
 20
0.8568665211
  0
LWPOLYLINE
  5
243
100
AcDbEntity
  8
ASSI
100
AcDbPolyline
 62
7
  6
CONTINUOUS
 90
7
 70
0
 10
-13.9655208883
 20
-2.1029664608
 10
-13.8900326867
 20
-2.0569801298
 10
-13.8153005629
 20
-2.0069473693
 10
-13.7413245168
 20
-1.9528681792
 10
-13.6681045485
 20
-1.8947425595
 10
-13.5956406579
 20
-1.8325705102
 10
-13.523932845
 20
-1.7663520313
  0
LINE
  5
244
100
AcDbEntity
  8
ASSI
100
AcDbLine
 62
7
  6
CONTINUOUS
 10
-13.8774862356
 20
-1.5622147346
 11
-12.0508505406
 21
-0.5075381775
  0
LINE
  5
245
100
AcDbEntity
  8
ASSI
100
AcDbLine
 62
7
  6
CONTINUOUS
 10
-11.9553022916
 20
-0.562706539
 11
-10.9710125036
 21
0.0056100485
  0
LINE
  5
246
100
AcDbEntity
  8
ASSI
100
AcDbLine
 62
7
  6
CONTINUOUS
 10
-12.9700005226
 20
0.0231675024
 11
-11.9553022916
 21
-0.562706539
  0
LINE
  5
247
100
AcDbEntity
  8
ASSI
100
AcDbLine
 62
7
  6
CONTINUOUS
 10
-10.4491648477
 20
-1.4323314228
 11
-9.4344666166
 21
-2.0182054642
  0
LINE
  5
248
100
AcDbEntity
  8
ASSI
100
AcDbLine
 62
7
  6
CONTINUOUS
 10
-8.5152278011
 20
-2.5489624355
 11
-7.5005295701
 21
-3.134836477
  0
LINE
  5
249
100
AcDbEntity
  8
ASSI
100
AcDbLine
 62
7
  6
CONTINUOUS
 10
-5.9943921262
 20
-4.0044613607
 11
-4.9796938952
 21
-4.5903354022
  0
LINE
  5
24A
100
AcDbEntity
  8
0
100
AcDbLine
 62
7
  6
CONTINUOUS
 10
1.095853551
 20
-7.9816234726
 11
0.3887809365
 21
-7.5733686067
  0
LINE
  5
24B
100
AcDbEntity
  8
ASSI
100
AcDbLine
 62
253
  6
CONTINUOUS
 10
-13.4351908024
 20
0.8568665211
 11
-11.8901624855
 21
-0.0352134653
  0
LINE
  5
24C
100
AcDbEntity
  8
ASSI
100
AcDbLine
 62
253
  6
CONTINUOUS
 10
-10.3840250416
 20
-0.9048383491
 11
-7.4353897641
 21
-2.6073434033
  0
LINE
  5
24D
100
AcDbEntity
  8
ASSI
100
AcDbLine
 62
253
  6
CONTINUOUS
 10
-5.9292523201
 20
-3.476968287
 11
-4.3842240032
 21
-4.3690482735
  0
LINE
  5
24E
100
AcDbEntity
  8
ASSI
100
AcDbLine
 62
7
  6
CONTINUOUS
 10
-11.8901624855
 20
0.5363157285
 11
-10.3840250416
 21
-0.3333091553
  0
LINE
  5
24F
100
AcDbEntity
  8
ASSI
100
AcDbLine
 62
7
  6
CONTINUOUS
 10
-7.4353897641
 20
-2.0358142095
 11
-5.9292523201
 21
-2.9054390933
  0
LINE
  5
250
100
AcDbEntity
  8
0
100
AcDbLine
 62
7
  6
CONTINUOUS
 10
1.095853551
 20
-6.838565085
 11
0.7423001604
 21
-6.6344277884
  0
LINE
  5
251
100
AcDbEntity
  8
ASSI
100
AcDbLine
 62
7
  6
CONTINUOUS
 10
-4.3842240032
 20
-3.5525779967
 11
-4.3842240032
 21
-4.3690482735
  0
LWPOLYLINE
  5
252
100
AcDbEntity
  8
ASSI
100
AcDbPolyline
 62
7
  6
CONTINUOUS
 90
7
 70
0
 10
-5.9943921262
 20
-4.0044613607
 10
-5.9745967475
 20
-3.9133979272
 10
-5.9583768666
 20
-3.8235936621
 10
-5.9457324834
 20
-3.7350485656
 10
-5.9366635979
 20
-3.6477626375
 10
-5.9311702102
 20
-3.561735878
 10
-5.9292523201
 20
-3.476968287
  0
LWPOLYLINE
  5
253
100
AcDbEntity
  8
SMUSSO
100
AcDbPolyline
 62
7
  6
CONTINUOUS
 90
5
 70
0
 10
-12.15612996
 20
-8.4639722579
 10
-12.2173995628
 20
-8.5411968204
 10
-12.3037468908
 20
-8.6264434991
 10
-12.3985975906
 20
-8.6989531026
 10
-12.4490330917
 20
-8.7302933286
  0
LWPOLYLINE
  5
254
100
AcDbEntity
  8
ASSI
100
AcDbPolyline
 62
7
  6
CONTINUOUS
 90
16
 70
0
 10
-10.3419523297
 20
-3.6035877013
 10
-10.257481452
 20
-3.519222014
 10
-10.175729278
 20
-3.4307281867
 10
-10.0966958075
 20
-3.3381062195
 10
-10.0200873137
 20
-3.2409600126
 10
-9.9461975235
 20
-3.1396856657
 10
-9.8759076174
 20
-3.035471478
 10
-9.8092490794
 20
-2.9282571107
 10
-9.7461904255
 20
-2.8181029025
 10
-9.687518384
 20
-2.7063781695
 10
-9.6332993396
 20
-2.5930794213
 10
-9.5834669077
 20
-2.4782101482
 10
-9.5386086621
 20
-2.3631501373
 10
-9.4989204607
 20
-2.2483593174
 10
-9.4642064455
 20
-2.1333777598
 10
-9.4344666166
 20
-2.0182054642
  0
LINE
  5
255
100
AcDbEntity
  8
ASSI
100
AcDbLine
 62
7
  6
CONTINUOUS
 10
-13.523932845
 20
-1.7663520313
 11
-10.7130073621
 21
-0.1433588866
  0
LINE
  5
256
100
AcDbEntity
  8
ASSI
100
AcDbLine
 62
7
  6
CONTINUOUS
 10
-16.0476941099
 20
-4.457159841
 11
-15.1991659725
 21
-3.967230329
  0
LINE
  5
257
100
AcDbEntity
  8
ASSI
100
AcDbLine
 62
7
  6
CONTINUOUS
 10
8.3864722168
 20
9.650821564
 11
8.8424645879
 21
9.9141058441
  0
LWPOLYLINE
  5
258
100
AcDbEntity
  8
ASSI
100
AcDbPolyline
 62
7
  6
CONTINUOUS
 90
25
 70
0
 10
8.8425262141
 20
9.9139989709
 10
8.8703373973
 20
9.9293640042
 10
8.9880543715
 20
9.9818133892
 10
9.1129043332
 20
10.018212082
 10
9.2450254636
 20
10.0382491465
 10
9.3842795817
 20
10.0422355188
 10
9.5279863475
 20
10.0300944697
 10
9.6762320184
 20
10.0015135771
 10
9.8289303372
 20
9.9568052631
 10
9.9831421923
 20
9.8968300659
 10
10.1388969042
 20
9.8212922337
 10
10.2961651524
 20
9.7304875182
 10
10.4519198642
 20
9.6261637133
 10
10.6061317193
 20
9.5080589257
 10
10.7588300381
 20
9.3764350487
 10
10.907075709
 20
9.2338255565
 10
11.0507824749
 20
9.0800176344
 10
11.1900365929
 20
8.9152240972
 10
11.3221577233
 20
8.742616863
 10
11.4470076851
 20
8.5620445639
 10
11.5647246592
 20
8.3736585678
 10
11.6730428493
 20
8.1810848966
 10
11.7717801809
 20
7.9842424261
 10
11.8611187285
 20
7.7832122805
 10
11.9305360504
 20
7.604523524
  0
LINE
  5
259
100
AcDbEntity
  8
ASSI
100
AcDbLine
 62
7
  6
CONTINUOUS
 10
-4.3842240032
 20
-3.5525779967
 11
-13.4351908024
 21
1.6733367979
  0
LINE
  5
25A
100
AcDbEntity
  8
SMUSSO
100
AcDbLine
 62
7
  6
CONTINUOUS
 10
3.2171738945
 20
-6.7567996926
 11
5.4092049162
 21
-8.0224509319
  0
LINE
  5
25B
100
AcDbEntity
  8
0
100
AcDbLine
 62
7
  6
CONTINUOUS
 10
-3.677117222
 20
-4.2873617909
 11
-3.677117222
 21
-9.59441859
  0
LWPOLYLINE
  5
25C
100
AcDbEntity
  8
ASSI
100
AcDbPolyline
 62
7
  6
CONTINUOUS
 90
16
 70
0
 10
-9.4227135141
 20
-4.1343446726
 10
-9.3382426365
 20
-4.0499789853
 10
-9.2564904624
 20
-3.9614851581
 10
-9.177456992
 20
-3.8688631909
 10
-9.1008484982
 20
-3.7717169839
 10
-9.026958708
 20
-3.670442637
 10
-8.9566688018
 20
-3.5662284494
 10
-8.8900102638
 20
-3.459014082
 10
-8.8269516099
 20
-3.3488598738
 10
-8.7682795684
 20
-3.2371351408
 10
-8.7140605241
 20
-3.1238363926
 10
-8.6642280922
 20
-3.0089671195
 10
-8.6193698465
 20
-2.8939071086
 10
-8.5796816451
 20
-2.7791162888
 10
-8.54496763
 20
-2.6641347311
 10
-8.5152278011
 20
-2.5489624355
  0
LWPOLYLINE
  5
25D
100
AcDbEntity
  8
ASSI
100
AcDbPolyline
 62
7
  6
CONTINUOUS
 90
7
 70
0
 10
-11.1370937636
 20
-3.7360648341
 10
-11.061605562
 20
-3.6900785031
 10
-10.9868734382
 20
-3.6400457426
 10
-10.9128973921
 20
-3.5859665525
 10
-10.8396774237
 20
-3.5278409328
 10
-10.7672135331
 20
-3.4656688835
 10
-10.6955057202
 20
-3.3994504046
  0
LINE
  5
25E
100
AcDbEntity
  8
ASSI
100
AcDbLine
 62
7
  6
CONTINUOUS
 10
-13.8269687834
 20
-4.0987161799
 11
-9.8290586457
 21
-1.790372972
  0
LWPOLYLINE
  5
25F
100
AcDbEntity
  8
ASSI
100
AcDbPolyline
 62
7
  6
CONTINUOUS
 90
31
 70
0
 10
-16.0476324837
 20
-4.4572667142
 10
-16.0198213004
 20
-4.441901681
 10
-15.9021043263
 20
-4.3894522959
 10
-15.7772543646
 20
-4.3530536032
 10
-15.6451332341
 20
-4.3330165386
 10
-15.5058791161
 20
-4.3290301664
 10
-15.3621723502
 20
-4.3411712154
 10
-15.2139266793
 20
-4.3697521081
 10
-15.0612283606
 20
-4.414460422
 10
-14.9070165055
 20
-4.4744356192
 10
-14.7512617936
 20
-4.5499734515
 10
-14.5939935454
 20
-4.640778167
 10
-14.4382388335
 20
-4.7451019718
 10
-14.2840269784
 20
-4.8632067595
 10
-14.1313286597
 20
-4.9948306365
 10
-13.9830829888
 20
-5.1374401287
 10
-13.8393762229
 20
-5.2912480507
 10
-13.7001221049
 20
-5.456041588
 10
-13.5680009744
 20
-5.6286488222
 10
-13.4431510127
 20
-5.8092211213
 10
-13.3254340386
 20
-5.9976071173
 10
-13.2171158485
 20
-6.1901807885
 10
-13.1183785168
 20
-6.387023259
 10
-13.0290399692
 20
-6.5880534046
 10
-12.950819779
 20
-6.789401831
 10
-12.8839333323
 20
-6.9910747039
 10
-12.8281652429
 20
-7.1930658577
 10
-12.7845889256
 20
-7.3914874006
 10
-12.7535621854
 20
-7.5850433687
 10
-12.7347272172
 20
-7.775029726
 10
-12.7280840212
 20
-7.9614464725
  0
LWPOLYLINE
  5
260
100
AcDbEntity
  8
SMUSSO
100
AcDbPolyline
 62
7
  6
CONTINUOUS
 90
12
 70
0
 10
-15.1991659725
 20
-3.967230329
 10
-15.1467775679
 20
-3.939203885
 10
-15.0365556223
 20
-3.8933126836
 10
-14.9195519601
 20
-3.8611539016
 10
-14.7964207889
 20
-3.8429076732
 10
-14.6678509217
 20
-3.8386763364
 10
-14.534561346
 20
-3.8484837656
 10
-14.3972974978
 20
-3.8722753161
 10
-14.2568274016
 20
-3.9099180142
 10
-14.1139366988
 20
-3.9612014191
 10
-13.9694245677
 20
-4.0258387968
 10
-13.8242874584
 20
-4.1033600718
  0
LINE
  5
261
100
AcDbEntity
  8
0
100
AcDbLine
 62
7
  6
CONTINUOUS
 10
3.0403971992
 20
-5.7158099534
 11
2.6868438086
 21
-5.5116726567
  0
LINE
  5
262
100
AcDbEntity
  8
0
100
AcDbLine
 62
7
  6
CONTINUOUS
 10
-1.7325735738
 20
-9.6147218459
 11
-1.7325735738
 21
-8.4716634584
  0
LINE
  5
263
100
AcDbEntity
  8
ASSI
100
AcDbLine
 62
7
  6
CONTINUOUS
 10
-10.6955057202
 20
-3.3994504046
 11
-9.7746006209
 21
-2.8677313419
  0
LWPOLYLINE
  5
264
100
AcDbEntity
  8
0
100
AcDbPolyline
 62
7
  6
CONTINUOUS
 90
28
 70
0
 10
-15.2976578696
 20
-5.7561770228
 10
-15.2408787316
 20
-5.7289883983
 10
-15.1793972696
 20
-5.7100141817
 10
-15.1145694077
 20
-5.6996647186
 10
-15.0463191287
 20
-5.6981359299
 10
-14.9747224498
 20
-5.7052318948
 10
-14.9013935469
 20
-5.7207926319
 10
-14.8262930704
 20
-5.7450104279
 10
-14.74946037
 20
-5.7776929961
 10
-14.6726276695
 20
-5.8181034948
 10
-14.595794969
 20
-5.8664174727
 10
-14.5189622686
 20
-5.9224593812
 10
-14.4438617921
 20
-5.9849657329
 10
-14.3705328892
 20
-6.0540833749
 10
-14.2989362103
 20
-6.1296654601
 10
-14.2306859313
 20
-6.2100079602
 10
-14.1658580694
 20
-6.2952190133
 10
-14.1043766074
 20
-6.3851904812
 10
-14.0476276695
 20
-6.477893921
 10
-13.9957187603
 20
-6.5733913927
 10
-13.9485423753
 20
-6.6716208363
 10
-13.9071621249
 20
-6.7703676298
 10
-13.8717096748
 20
-6.8696435251
 10
-13.8420533594
 20
-6.9694367703
 10
-13.8188617921
 20
-7.0674974865
 10
-13.8023578442
 20
-7.1630757141
 10
-13.7923186445
 20
-7.2569214128
 10
-13.788744193
 20
-7.3490345825
  0
LWPOLYLINE
  5
265
100
AcDbEntity
  8
ASSI
100
AcDbPolyline
 62
7
  6
CONTINUOUS
 90
26
 70
0
 10
5.0556515256
 20
-4.9606676664
 10
4.9772235421
 20
-4.9108160023
 10
4.9008577915
 20
-4.8540454748
 10
4.826554274
 20
-4.7903560841
 10
4.7536812683
 20
-4.719049965
 10
4.6828704957
 20
-4.6408249826
 10
4.6160171192
 20
-4.5577747323
 10
4.553228007
 20
-4.4697689092
 10
4.4943962909
 20
-4.3769378181
 10
4.4410965294
 20
-4.2817659689
 10
4.3934781111
 20
-4.1841901502
 10
4.3513916473
 20
-4.0842735733
 10
4.3159635305
 20
-3.9846903825
 10
4.2873735671
 20
-3.8854495806
 10
4.2654419507
 20
-3.7865421648
 10
4.2507556538
 20
-3.6906152702
 10
4.2435103342
 20
-3.5977493848
 10
4.2435103342
 20
-3.5078640207
 10
4.2507556538
 20
-3.4233648488
 10
4.2654419507
 20
-3.3443973216
 10
4.2873735671
 20
-3.2708159867
 10
4.3159635305
 20
-3.204590158
 10
4.3513916473
 20
-3.1459184684
 10
4.3934781111
 20
-3.094602285
 10
4.4410965294
 20
-3.0520150221
 10
4.4806739661
 20
-3.0259008501
  0
LWPOLYLINE
  5
266
100
AcDbEntity
  8
ASSI
100
AcDbPolyline
 62
7
  6
CONTINUOUS
 90
7
 70
0
 10
-9.5107481668
 20
-4.6750963987
 10
-9.4352599653
 20
-4.6291100678
 10
-9.3605278414
 20
-4.5790773073
 10
-9.2865517954
 20
-4.5249981171
 10
-9.213331827
 20
-4.4668724974
 10
-9.1408679364
 20
-4.4047004481
 10
-9.0691601235
 20
-4.3384819692
  0
LINE
  5
267
100
AcDbEntity
  8
ASSI
100
AcDbLine
 62
7
  6
CONTINUOUS
 10
-9.4227135141
 20
-4.1343446726
 11
-7.5960778192
 21
-3.0796681154
  0
LINE
  5
268
100
AcDbEntity
  8
ASSI
100
AcDbLine
 62
7
  6
CONTINUOUS
 10
-7.5005295701
 20
-3.134836477
 11
-6.5162397821
 21
-2.5665198894
  0
LINE
  5
269
100
AcDbEntity
  8
ASSI
100
AcDbLine
 62
7
  6
CONTINUOUS
 10
-9.0691601235
 20
-4.3384819692
 11
-6.2582346406
 21
-2.7154888246
  0
LWPOLYLINE
  5
26A
100
AcDbEntity
  8
ASSI
100
AcDbPolyline
 62
7
  6
CONTINUOUS
 90
31
 70
0
 10
13.2972989355
 20
7.3418690329
 10
13.3251101188
 20
7.3572340662
 10
13.442827093
 20
7.4096834512
 10
13.5676770547
 20
7.446082144
 10
13.6997981851
 20
7.4661192085
 10
13.8390523031
 20
7.4701055808
 10
13.982759069
 20
7.4579645318
 10
14.1310047399
 20
7.4293836391
 10
14.2837030587
 20
7.3846753251
 10
14.4379149138
 20
7.324700128
 10
14.5936696256
 20
7.2491622957
 10
14.7509378739
 20
7.1583575802
 10
14.9066925857
 20
7.0540337754
 10
15.0609044408
 20
6.9359289877
 10
15.2136027596
 20
6.8043051107
 10
15.3618484305
 20
6.6616956185
 10
15.5055551963
 20
6.5078876965
 10
15.6448093144
 20
6.3430941592
 10
15.7769304448
 20
6.170486925
 10
15.9017804065
 20
5.9899146259
 10
16.0194973807
 20
5.8015286298
 10
16.1278155708
 20
5.6089549586
 10
16.2265529024
 20
5.4121124882
 10
16.31589145
 20
5.2110823426
 10
16.3941116402
 20
5.0097339162
 10
16.460998087
 20
4.8080610432
 10
16.5167661764
 20
4.6060698895
 10
16.5603424937
 20
4.4076483466
 10
16.5913692339
 20
4.2140923785
 10
16.610204202
 20
4.0241060212
 10
16.616847398
 20
3.8376892747
  0
LWPOLYLINE
  5
26B
100
AcDbEntity
  8
SMUSSO
100
AcDbPolyline
 62
7
  6
CONTINUOUS
 90
5
 70
0
 10
14.849080445
 20
1.9725123844
 10
14.9191797199
 20
1.9828968258
 10
15.0361826241
 20
2.0150488926
 10
15.1464052654
 20
2.0609330483
 10
15.1988420527
 20
2.0889833946
  0
LWPOLYLINE
  5
26C
100
AcDbEntity
  8
ASSI
100
AcDbPolyline
 62
7
  6
CONTINUOUS
 90
26
 70
0
 10
5.0556515256
 20
-3.0827860298
 10
5.1340795091
 20
-3.132637694
 10
5.2104452597
 20
-3.1894082214
 10
5.2847487772
 20
-3.2530976122
 10
5.3576217829
 20
-3.3244037313
 10
5.4284325555
 20
-3.4026287136
 10
5.495285932
 20
-3.485678964
 10
5.5580750442
 20
-3.5736847871
 10
5.6169067603
 20
-3.6665158782
 10
5.6702065218
 20
-3.7616877274
 10
5.7178249402
 20
-3.8592635461
 10
5.7599114039
 20
-3.959180123
 10
5.7953395208
 20
-4.0587633138
 10
5.8239294841
 20
-4.1580041157
 10
5.8458611006
 20
-4.2569115315
 10
5.8605473974
 20
-4.3528384261
 10
5.867792717
 20
-4.4457043114
 10
5.867792717
 20
-4.5355896756
 10
5.8605473974
 20
-4.6200888475
 10
5.8458611006
 20
-4.6990563747
 10
5.8239294841
 20
-4.7726377095
 10
5.7953395208
 20
-4.8388635383
 10
5.7599114039
 20
-4.8975352279
 10
5.7178249402
 20
-4.9488514113
 10
5.6702065218
 20
-4.9914386742
 10
5.6306290851
 20
-5.0175528462
  0
LINE
  5
26D
100
AcDbEntity
  8
0
100
AcDbLine
 62
7
  6
CONTINUOUS
 10
0.7423001604
 20
-7.3692510375
 11
0.7423001604
 21
-6.6344277884
  0
LINE
  5
26E
100
AcDbEntity
  8
0
100
AcDbLine
 62
7
  6
CONTINUOUS
 10
1.095853551
 20
-7.9816234726
 11
1.095853551
 21
-6.838565085
  0
LWPOLYLINE
  5
26F
100
AcDbEntity
  8
ASSI
100
AcDbPolyline
 62
7
  6
CONTINUOUS
 90
16
 70
0
 10
-5.8871796082
 20
-6.1757176392
 10
-5.8027087306
 20
-6.0913519519
 10
-5.7209565565
 20
-6.0028581247
 10
-5.641923086
 20
-5.9102361575
 10
-5.5653145923
 20
-5.8130899506
 10
-5.491424802
 20
-5.7118156037
 10
-5.4211348959
 20
-5.607601416
 10
-5.3544763579
 20
-5.5003870486
 10
-5.291417704
 20
-5.3902328405
 10
-5.2327456625
 20
-5.2785081074
 10
-5.1785266182
 20
-5.1652093592
 10
-5.1286941862
 20
-5.0503400862
 10
-5.0838359406
 20
-4.9352800752
 10
-5.0441477392
 20
-4.8204892554
 10
-5.009433724
 20
-4.7055076977
 10
-4.9796938952
 20
-4.5903354022
  0
LINE
  5
270
100
AcDbEntity
  8
ASSI
100
AcDbLine
 62
7
  6
CONTINUOUS
 10
-11.5929213884
 20
-7.029289779
 11
-10.744393251
 21
-6.539360267
  0
LINE
  5
271
100
AcDbEntity
  8
ASSI
100
AcDbLine
 62
7
  6
CONTINUOUS
 10
12.8412449383
 20
7.078691626
 11
13.2972373094
 21
7.3419759061
  0
LINE
  5
272
100
AcDbEntity
  8
ASSI
100
AcDbLine
 62
7
  6
CONTINUOUS
 10
-4.3842240032
 20
-3.5525779967
 11
3.2171738945
 21
0.8363738816
  0
LINE
  5
273
100
AcDbEntity
  8
ASSI
100
AcDbLine
 62
7
  6
CONTINUOUS
 10
5.8334689849
 20
2.3469898769
 11
13.4348668827
 21
6.7359417552
  0
LINE
  5
274
100
AcDbEntity
  8
ASSI
100
AcDbLine
 62
7
  6
CONTINUOUS
 10
-9.3721960619
 20
-6.6708461179
 11
-5.3742859242
 21
-4.36250291
  0
LINE
  5
275
100
AcDbEntity
  8
ASSI
100
AcDbLine
 62
7
  6
CONTINUOUS
 10
-13.2975612291
 20
-9.2202228406
 11
-12.4490330917
 21
-8.7302933286
  0
LWPOLYLINE
  5
276
100
AcDbEntity
  8
ASSI
100
AcDbPolyline
 62
7
  6
CONTINUOUS
 90
31
 70
0
 10
-11.5928597622
 20
-7.0293966522
 10
-11.5650485789
 20
-7.0140316189
 10
-11.4473316048
 20
-6.9615822339
 10
-11.3224816431
 20
-6.9251835411
 10
-11.1903605126
 20
-6.9051464766
 10
-11.0511063946
 20
-6.9011601043
 10
-10.9073996288
 20
-6.9133011534
 10
-10.7591539578
 20
-6.941882046
 10
-10.6064556391
 20
-6.98659036
 10
-10.452243784
 20
-7.0465655572
 10
-10.2964890721
 20
-7.1221033894
 10
-10.1392208239
 20
-7.2129081049
 10
-9.983466112
 20
-7.3172319098
 10
-9.8292542569
 20
-7.4353366974
 10
-9.6765559382
 20
-7.5669605744
 10
-9.5283102673
 20
-7.7095700666
 10
-9.3846035014
 20
-7.8633779887
 10
-9.2453493834
 20
-8.0281715259
 10
-9.113228253
 20
-8.2007787601
 10
-8.9883782912
 20
-8.3813510592
 10
-8.8706613171
 20
-8.5697370553
 10
-8.762343127
 20
-8.7623107265
 10
-8.6636057954
 20
-8.959153197
 10
-8.5742672478
 20
-9.1601833426
 10
-8.4960470575
 20
-9.3615317689
 10
-8.4291606108
 20
-9.5632046419
 10
-8.3733925214
 20
-9.7651957956
 10
-8.3298162041
 20
-9.9636173385
 10
-8.2987894639
 20
-10.1571733067
 10
-8.2799544958
 20
-10.347159664
 10
-8.2733112998
 20
-10.5335764104
  0
LWPOLYLINE
  5
277
100
AcDbEntity
  8
SMUSSO
100
AcDbPolyline
 62
7
  6
CONTINUOUS
 90
12
 70
0
 10
-10.744393251
 20
-6.539360267
 10
-10.6920048464
 20
-6.511333823
 10
-10.5817829008
 20
-6.4654426215
 10
-10.4647792386
 20
-6.4332838396
 10
-10.3416480674
 20
-6.4150376112
 10
-10.2130782002
 20
-6.4108062744
 10
-10.0797886245
 20
-6.4206137035
 10
-9.9425247763
 20
-6.4444052541
 10
-9.8020546802
 20
-6.4820479522
 10
-9.6591639773
 20
-6.533331357
 10
-9.5146518462
 20
-6.5979687348
 10
-9.3695147369
 20
-6.6754900098
  0
LWPOLYLINE
  5
278
100
AcDbEntity
  8
0
100
AcDbPolyline
 62
7
  6
CONTINUOUS
 90
28
 70
0
 10
-14.0475974694
 20
-7.9212056588
 10
-14.1043766074
 20
-7.9483942833
 10
-14.1658580694
 20
-7.9673685
 10
-14.2306859313
 20
-7.9777179631
 10
-14.2989362103
 20
-7.9792467517
 10
-14.3705328892
 20
-7.9721507868
 10
-14.4438617921
 20
-7.9565900497
 10
-14.5189622686
 20
-7.9323722537
 10
-14.595794969
 20
-7.8996896856
 10
-14.6726276695
 20
-7.8592791868
 10
-14.74946037
 20
-7.8109652089
 10
-14.8262930704
 20
-7.7549233005
 10
-14.9013935469
 20
-7.6924169488
 10
-14.9747224498
 20
-7.6232993068
 10
-15.0463191287
 20
-7.5477172215
 10
-15.1145694077
 20
-7.4673747214
 10
-15.1793972696
 20
-7.3821636684
 10
-15.2408787316
 20
-7.2921922005
 10
-15.2976276695
 20
-7.1994887606
 10
-15.3495365787
 20
-7.103991289
 10
-15.3967129637
 20
-7.0057618453
 10
-15.4380932141
 20
-6.9070150519
 10
-15.4735456642
 20
-6.8077391565
 10
-15.5032019796
 20
-6.7079459114
 10
-15.5263935469
 20
-6.6098851952
 10
-15.5428974947
 20
-6.5143069675
 10
-15.5529366945
 20
-6.4204612689
 10
-15.556511146
 20
-6.3283480992
  0
LINE
  5
279
100
AcDbEntity
  8
0
100
AcDbLine
 62
7
  6
CONTINUOUS
 10
2.6868438086
 20
-5.5116726567
 11
2.6868438086
 21
-0.6128904509
  0
LWPOLYLINE
  5
27A
100
AcDbEntity
  8
ASSI
100
AcDbPolyline
 62
7
  6
CONTINUOUS
 90
22
 70
0
 10
-5.7984375656
 20
-6.8185380137
 10
-5.6917868606
 20
-6.7521821007
 10
-5.5868894863
 20
-6.6779685952
 10
-5.4837454429
 20
-6.5958974971
 10
-5.3817995931
 20
-6.5054239829
 10
-5.281607074
 20
-6.4070928762
 10
-5.1848332973
 20
-6.3025386478
 10
-5.091535406
 20
-6.1916572799
 10
-5.0016562571
 20
-6.0745527904
 10
-4.9166898318
 20
-5.9531717033
 10
-4.8367182451
 20
-5.8274425366
 10
-4.761659382
 20
-5.6974367724
 10
-4.6927608796
 20
-5.5653153812
 10
-4.6301257066
 20
-5.431043001
 10
-4.5736508943
 20
-5.294654994
 10
-4.5242751733
 20
-5.158418417
 10
-4.4821172032
 20
-5.0223358012
 10
-4.4470583245
 20
-4.8864046155
 10
-4.4196812899
 20
-4.7528843235
 10
-4.4001803502
 20
-4.6225280797
 10
-4.3883612547
 20
-4.4945827297
 10
-4.3842240032
 20
-4.3690482735
  0
LWPOLYLINE
  5
27B
100
AcDbEntity
  8
ASSI
100
AcDbPolyline
 62
7
  6
CONTINUOUS
 90
7
 70
0
 10
-6.6823210421
 20
-6.308194772
 10
-6.6068328405
 20
-6.2622084411
 10
-6.5321007167
 20
-6.2121756806
 10
-6.4581246706
 20
-6.1580964905
 10
-6.3849047023
 20
-6.0999708707
 10
-6.3124408116
 20
-6.0377988214
 10
-6.2407329988
 20
-5.9715803426
  0
LINE
  5
27C
100
AcDbEntity
  8
0
100
AcDbLine
 62
7
  6
CONTINUOUS
 10
12.7277601015
 20
5.1846087744
 11
6.8233228116
 21
1.7754606832
  0
LINE
  5
27D
100
AcDbEntity
  8
0
100
AcDbLine
 62
7
  6
CONTINUOUS
 10
3.0403971992
 20
-0.4087531542
 11
-3.677117222
 21
-4.2873617909
  0
LINE
  5
27E
100
AcDbEntity
  8
0
100
AcDbLine
 62
7
  6
CONTINUOUS
 10
6.9293717454
 20
1.7142293579
 11
12.444917389
 21
4.8988362865
  0
LINE
  5
27F
100
AcDbEntity
  8
ASSI
100
AcDbLine
 62
7
  6
CONTINUOUS
 10
-6.2407329988
 20
-5.9715803426
 11
-5.3198278995
 21
-5.4398612799
  0
LINE
  5
280
100
AcDbEntity
  8
ASSI
100
AcDbLine
 62
7
  6
CONTINUOUS
 10
13.512711167
 20
5.43381075
 11
13.5236089252
 21
5.440102979
  0
LINE
  5
281
100
AcDbEntity
  8
0
100
AcDbLine
 62
7
  6
CONTINUOUS
 10
11.7378106078
 20
3.6740914164
 11
7.636410193
 21
1.3059942195
  0
LINE
  5
282
100
AcDbEntity
  8
0
100
AcDbLine
 62
7
  6
CONTINUOUS
 10
11.4549678953
 20
3.4291661153
 11
10.7478611142
 21
3.020891522
  0
LWPOLYLINE
  5
283
100
AcDbEntity
  8
ASSI
100
AcDbPolyline
 62
7
  6
CONTINUOUS
 90
31
 70
0
 10
-13.2976228553
 20
-9.2201159674
 10
-13.3254340386
 20
-9.2354810007
 10
-13.4431510127
 20
-9.2879303857
 10
-13.5680009744
 20
-9.3243290785
 10
-13.7001221049
 20
-9.344366143
 10
-13.8393762229
 20
-9.3483525153
 10
-13.9830829888
 20
-9.3362114663
 10
-14.1313286597
 20
-9.3076305736
 10
-14.2840269784
 20
-9.2629222596
 10
-14.4382388335
 20
-9.2029470625
 10
-14.5939935454
 20
-9.1274092302
 10
-14.7512617936
 20
-9.0366045147
 10
-14.9070165055
 20
-8.9322807098
 10
-15.0612283606
 20
-8.8141759222
 10
-15.2139266793
 20
-8.6825520452
 10
-15.3621723502
 20
-8.539942553
 10
-15.5058791161
 20
-8.3861346309
 10
-15.6451332341
 20
-8.2213410937
 10
-15.7772543646
 20
-8.0487338595
 10
-15.9021043263
 20
-7.8681615604
 10
-16.0198213004
 20
-7.6797755643
 10
-16.1281394905
 20
-7.4872018931
 10
-16.2268768222
 20
-7.2903594226
 10
-16.3162153697
 20
-7.0893292771
 10
-16.39443556
 20
-6.8879808507
 10
-16.4613220067
 20
-6.6863079777
 10
-16.5170900961
 20
-6.484316824
 10
-16.5606664134
 20
-6.2858952811
 10
-16.5916931536
 20
-6.0923393129
 10
-16.6105281218
 20
-5.9023529556
 10
-16.6171713178
 20
-5.7159362092
  0
LWPOLYLINE
  5
284
100
AcDbEntity
  8
0
100
AcDbPolyline
 62
7
  6
CONTINUOUS
 90
28
 70
0
 10
-10.8428851482
 20
-8.3283069608
 10
-10.7861060102
 20
-8.3011183363
 10
-10.7246245482
 20
-8.2821441196
 10
-10.6597966863
 20
-8.2717946565
 10
-10.5915464073
 20
-8.2702658679
 10
-10.5199497283
 20
-8.2773618328
 10
-10.4466208254
 20
-8.2929225699
 10
-10.371520349
 20
-8.3171403659
 10
-10.2946876485
 20
-8.3498229341
 10
-10.217854948
 20
-8.3902334328
 10
-10.1410222475
 20
-8.4385474107
 10
-10.0641895471
 20
-8.4945893191
 10
-9.9890890707
 20
-8.5570956708
 10
-9.9157601677
 20
-8.6262133128
 10
-9.8441634888
 20
-8.7017953981
 10
-9.7759132098
 20
-8.7821378982
 10
-9.7110853479
 20
-8.8673489513
 10
-9.6496038859
 20
-8.9573204191
 10
-9.592854948
 20
-9.050023859
 10
-9.5409460388
 20
-9.1455213307
 10
-9.4937696538
 20
-9.2437507743
 10
-9.4523894034
 20
-9.3424975677
 10
-9.4169369533
 20
-9.4417734631
 10
-9.3872806379
 20
-9.5415667083
 10
-9.3640890707
 20
-9.6396274244
 10
-9.3475851228
 20
-9.7352056521
 10
-9.3375459231
 20
-9.8290513507
 10
-9.3339714715
 20
-9.9211645204
  0
LWPOLYLINE
  5
285
100
AcDbEntity
  8
ASSI
100
AcDbPolyline
 62
7
  6
CONTINUOUS
 90
7
 70
0
 10
13.5236089252
 20
5.440102979
 10
13.5953167381
 20
5.456690885
 10
13.6677806287
 20
5.4781983202
 10
13.7410005971
 20
5.5046252846
 10
13.8149766432
 20
5.5359717782
 10
13.889708767
 20
5.5722378011
 10
13.9651969686
 20
5.6134233531
  0
LINE
  5
286
100
AcDbEntity
  8
SMUSSO
100
AcDbLine
 62
7
  6
CONTINUOUS
 10
-8.0258239263
 20
7.3279399155
 11
-5.8337929047
 21
6.0622886762
  0
LINE
  5
287
100
AcDbEntity
  8
SMUSSO
100
AcDbLine
 62
7
  6
CONTINUOUS
 10
3.2171738945
 20
0.8363738816
 11
5.4092049162
 21
-0.4292773577
  0
LINE
  5
288
100
AcDbEntity
  8
0
100
AcDbLine
 62
7
  6
CONTINUOUS
 10
3.0403971992
 20
-5.7158099534
 11
3.0403971992
 21
-0.4087531542
  0
LINE
  5
289
100
AcDbEntity
  8
0
100
AcDbLine
 62
7
  6
CONTINUOUS
 10
3.2171738945
 20
-6.7567996926
 11
3.2171738945
 21
0.8363738816
  0
LINE
  5
28A
100
AcDbEntity
  8
0
100
AcDbLine
 62
7
  6
CONTINUOUS
 10
11.0307038266
 20
2.8575816846
 11
11.7378106078
 21
3.265856278
  0
LINE
  5
28B
100
AcDbEntity
  8
SMUSSO
100
AcDbLine
 62
7
  6
CONTINUOUS
 10
5.4092049162
 20
-0.4292773577
 11
8.0255000066
 21
1.0813386376
  0
LINE
  5
28C
100
AcDbEntity
  8
0
100
AcDbLine
 62
7
  6
CONTINUOUS
 10
9.1215155174
 20
0.69372634
 11
8.4673554696
 21
0.3160225269
  0
LINE
  5
28D
100
AcDbEntity
  8
0
100
AcDbLine
 62
7
  6
CONTINUOUS
 10
8.6972514487
 20
0.1221419093
 11
9.4043582299
 21
0.5304165027
  0
LINE
  5
28E
100
AcDbEntity
  8
0
100
AcDbLine
 62
7
  6
CONTINUOUS
 10
10.7832164532
 20
-2.388261544
 11
10.5357290798
 21
-2.2453654363
  0
LINE
  5
28F
100
AcDbEntity
  8
ASSI
100
AcDbLine
 62
7
  6
CONTINUOUS
 10
-7.422101825
 20
-10.0482907832
 11
-6.6823210421
 21
-9.6211506308
  0
LINE
  5
290
100
AcDbEntity
  8
0
100
AcDbLine
 62
7
  6
CONTINUOUS
 10
11.0307038266
 20
0.4081708543
 11
11.7378106078
 21
0.8164454476
  0
LINE
  5
291
100
AcDbEntity
  8
SMUSSO
100
AcDbLine
 62
7
  6
CONTINUOUS
 10
6.469865088
 20
-2.2663946629
 11
9.0861601784
 21
-0.7557786676
  0
LINE
  5
292
100
AcDbEntity
  8
0
100
AcDbLine
 62
7
  6
CONTINUOUS
 10
10.9350826642
 20
0.2713449298
 11
11.4549678953
 21
0.5715201465
  0
LINE
  5
293
100
AcDbEntity
  8
0
100
AcDbLine
 62
7
  6
CONTINUOUS
 10
10.5524131121
 20
-0.2762233483
 11
11.7378106078
 21
0.4082103092
  0
LWPOLYLINE
  5
294
100
AcDbEntity
  8
ASSI
100
AcDbPolyline
 62
7
  6
CONTINUOUS
 90
10
 70
0
 10
4.4806739661
 20
-3.0259008501
 10
4.4943962909
 20
-3.0183924015
 10
4.553228007
 20
-2.9934987015
 10
4.6160171192
 20
-2.9780001712
 10
4.6828704957
 20
-2.9721505244
 10
4.7536812683
 20
-2.9756960473
 10
4.826554274
 20
-2.9885418485
 10
4.9008577915
 20
-3.0106562974
 10
4.9772235421
 20
-3.0420710245
 10
5.0556515256
 20
-3.0827860298
  0
LWPOLYLINE
  5
295
100
AcDbEntity
  8
0
100
AcDbPolyline
 62
7
  6
CONTINUOUS
 90
28
 70
0
 10
-9.5928247479
 20
-10.4933355968
 10
-9.6496038859
 20
-10.5205242213
 10
-9.7110853479
 20
-10.5394984379
 10
-9.7759132098
 20
-10.549847901
 10
-9.8441634888
 20
-10.5513766897
 10
-9.9157601677
 20
-10.5442807248
 10
-9.9890890707
 20
-10.5287199877
 10
-10.0641895471
 20
-10.5045021917
 10
-10.1410222475
 20
-10.4718196235
 10
-10.217854948
 20
-10.4314091248
 10
-10.2946876485
 20
-10.3830951469
 10
-10.371520349
 20
-10.3270532385
 10
-10.4466208254
 20
-10.2645468867
 10
-10.5199497283
 20
-10.1954292447
 10
-10.5915464073
 20
-10.1198471595
 10
-10.6597966863
 20
-10.0395046594
 10
-10.7246245482
 20
-9.9542936063
 10
-10.7861060102
 20
-9.8643221384
 10
-10.842854948
 20
-9.7716186986
 10
-10.8947638572
 20
-9.6761212269
 10
-10.9419402422
 20
-9.5778917833
 10
-10.9833204926
 20
-9.4791449899
 10
-11.0187729427
 20
-9.3798690945
 10
-11.0484292581
 20
-9.2800758493
 10
-11.0716208254
 20
-9.1820151331
 10
-11.0881247733
 20
-9.0864369055
 10
-11.098163973
 20
-8.9925912068
 10
-11.1017384245
 20
-8.9004780371
  0
LINE
  5
296
100
AcDbEntity
  8
0
100
AcDbLine
 62
7
  6
CONTINUOUS
 10
10.7832164532
 20
-1.2452031565
 11
10.5357376223
 21
-1.1023119811
  0
LINE
  5
297
100
AcDbEntity
  8
0
100
AcDbLine
 62
7
  6
CONTINUOUS
 10
8.5203073201
 20
0.2243072316
 11
8.6972514487
 21
0.1221419093
  0
LINE
  5
298
100
AcDbEntity
  8
SMUSSO
100
AcDbLine
 62
7
  6
CONTINUOUS
 10
8.0255000066
 20
1.0813386376
 11
5.8334689849
 21
2.3469898769
  0
LINE
  5
299
100
AcDbEntity
  8
SMUSSO
100
AcDbLine
 62
7
  6
CONTINUOUS
 10
-3.2174978143
 20
7.5729046715
 11
-5.409528836
 21
8.8385559108
  0
LINE
  5
29A
100
AcDbEntity
  8
SMUSSO
100
AcDbLine
 62
7
  6
CONTINUOUS
 10
6.469865088
 20
-2.2663946629
 11
5.4092049162
 21
-0.4292773577
  0
LINE
  5
29B
100
AcDbEntity
  8
SMUSSO
100
AcDbLine
 62
7
  6
CONTINUOUS
 10
6.469865088
 20
-7.4101574067
 11
6.469865088
 21
-2.2663946629
  0
LWPOLYLINE
  5
29C
100
AcDbEntity
  8
SMUSSO
100
AcDbPolyline
 62
7
  6
CONTINUOUS
 90
12
 70
0
 10
15.1988420527
 20
2.0889833946
 10
15.2492311889
 20
2.1202926908
 10
15.3440852929
 20
2.1927958235
 10
15.4304371852
 20
2.2780370421
 10
15.507803871
 20
2.3755395739
 10
15.5757524979
 20
2.4847577851
 10
15.6339030881
 20
2.6050805929
 10
15.6819306423
 20
2.7358351482
 10
15.7195667143
 20
2.8762903048
 10
15.7466009055
 20
3.0256605988
 10
15.7628820815
 20
3.1831106012
 10
15.7683192606
 20
3.3477597627
  0
LINE
  5
29D
100
AcDbEntity
  8
ASSI
100
AcDbLine
 62
7
  6
CONTINUOUS
 10
-8.8427885076
 20
-11.7923527786
 11
-7.9942603702
 21
-11.3024232666
  0
LINE
  5
29E
100
AcDbEntity
  8
ASSI
100
AcDbLine
 62
7
  6
CONTINUOUS
 10
15.1988420527
 20
2.0889833946
 11
16.0473701901
 21
2.5789129065
  0
LINE
  5
29F
100
AcDbEntity
  8
0
100
AcDbLine
 62
7
  6
CONTINUOUS
 10
-3.677117222
 20
-9.1861439967
 11
-2.0861269644
 21
-8.2675261617
  0
LINE
  5
2A0
100
AcDbEntity
  8
0
100
AcDbLine
 62
7
  6
CONTINUOUS
 10
0.7423001604
 20
-6.6344277884
 11
2.6868438086
 21
-5.5116726567
  0
LINE
  5
2A1
100
AcDbEntity
  8
0
100
AcDbLine
 62
7
  6
CONTINUOUS
 10
12.444917389
 20
0.0000146257
 11
10.5357290798
 21
-1.1023267763
  0
LINE
  5
2A2
100
AcDbEntity
  8
0
100
AcDbLine
 62
7
  6
CONTINUOUS
 10
9.0861601784
 20
-2.1027178947
 11
9.4043582299
 21
-1.9189943277
  0
LINE
  5
2A3
100
AcDbEntity
  8
0
100
AcDbLine
 62
7
  6
CONTINUOUS
 10
-3.677117222
 20
-9.59441859
 11
-1.7325735738
 21
-8.4716634584
  0
LINE
  5
2A4
100
AcDbEntity
  8
0
100
AcDbLine
 62
7
  6
CONTINUOUS
 10
1.095853551
 20
-6.838565085
 11
3.0403971992
 21
-5.7158099534
  0
LINE
  5
2A5
100
AcDbEntity
  8
0
100
AcDbLine
 62
7
  6
CONTINUOUS
 10
10.7832164532
 20
-1.2452031565
 11
12.7277601015
 21
-0.1224480248
  0
LINE
  5
2A6
100
AcDbEntity
  8
0
100
AcDbLine
 62
7
  6
CONTINUOUS
 10
-1.7325735738
 20
-8.7982121141
 11
0.7423001604
 21
-7.3692510375
  0
LWPOLYLINE
  5
2A7
100
AcDbEntity
  8
ASSI
100
AcDbPolyline
 62
7
  6
CONTINUOUS
 90
31
 70
0
 10
-8.8428501338
 20
-11.7922459054
 10
-8.8706613171
 20
-11.8076109387
 10
-8.9883782912
 20
-11.8600603237
 10
-9.113228253
 20
-11.8964590164
 10
-9.2453493834
 20
-11.916496081
 10
-9.3846035014
 20
-11.9204824532
 10
-9.5283102673
 20
-11.9083414042
 10
-9.6765559382
 20
-11.8797605115
 10
-9.8292542569
 20
-11.8350521976
 10
-9.983466112
 20
-11.7750770004
 10
-10.1392208239
 20
-11.6995391681
 10
-10.2964890721
 20
-11.6087344527
 10
-10.452243784
 20
-11.5044106478
 10
-10.6064556391
 20
-11.3863058602
 10
-10.7591539578
 20
-11.2546819831
 10
-10.9073996288
 20
-11.1120724909
 10
-11.0511063946
 20
-10.9582645689
 10
-11.1903605126
 20
-10.7934710317
 10
-11.3224816431
 20
-10.6208637974
 10
-11.4473316048
 20
-10.4402914983
 10
-11.5650485789
 20
-10.2519055023
 10
-11.673366769
 20
-10.0593318311
 10
-11.7721041007
 20
-9.8624893606
 10
-11.8614426483
 20
-9.661459215
 10
-11.9396628385
 20
-9.4601107886
 10
-12.0065492853
 20
-9.2584379157
 10
-12.0623173747
 20
-9.056446762
 10
-12.1058936919
 20
-8.8580252191
 10
-12.1369204322
 20
-8.6644692509
 10
-12.1557554003
 20
-8.4744828936
 10
-12.1623985963
 20
-8.2880661471
  0
LWPOLYLINE
  5
2A8
100
AcDbEntity
  8
ASSI
100
AcDbPolyline
 62
7
  6
CONTINUOUS
 90
5
 70
0
 10
13.6199456753
 20
5.2195863012
 10
13.6319057937
 20
5.2182310798
 10
13.7109392642
 20
5.2168749833
 10
13.7926914382
 20
5.2227865175
 10
13.8771623158
 20
5.2359656823
  0
LINE
  5
2A9
100
AcDbEntity
  8
0
100
AcDbLine
 62
7
  6
CONTINUOUS
 10
11.4549678953
 20
0.5715201465
 11
11.7378106078
 21
0.4082103092
  0
LINE
  5
2AA
100
AcDbEntity
  8
0
100
AcDbLine
 62
7
  6
CONTINUOUS
 10
12.7277601015
 20
-0.1224480248
 11
12.444917389
 21
0.0408618125
  0
LINE
  5
2AB
100
AcDbEntity
  8
0
100
AcDbLine
 62
7
  6
CONTINUOUS
 10
10.7478611142
 20
3.020891522
 11
9.1215155174
 21
0.69372634
  0
LINE
  5
2AC
100
AcDbEntity
  8
0
100
AcDbLine
 62
7
  6
CONTINUOUS
 10
9.4043582299
 20
0.5304165027
 11
11.0307038266
 21
2.8575816846
  0
LINE
  5
2AD
100
AcDbEntity
  8
0
100
AcDbLine
 62
7
  6
CONTINUOUS
 10
10.5357290798
 20
-2.449502733
 11
9.0861601784
 21
-3.2864656493
  0
LINE
  5
2AE
100
AcDbEntity
  8
0
100
AcDbLine
 62
7
  6
CONTINUOUS
 10
-5.7984375656
 20
-11.9623007575
 11
-1.7325735738
 21
-9.6147218459
  0
LINE
  5
2AF
100
AcDbEntity
  8
0
100
AcDbLine
 62
7
  6
CONTINUOUS
 10
1.095853551
 20
-7.9816234726
 11
3.2171738945
 21
-6.7567996926
  0
LINE
  5
2B0
100
AcDbEntity
  8
0
100
AcDbLine
 62
7
  6
CONTINUOUS
 10
10.7832164532
 20
-2.388261544
 11
14.849080445
 21
-0.0406826323
  0
LWPOLYLINE
  5
2B1
100
AcDbEntity
  8
ASSI
100
AcDbPolyline
 62
7
  6
CONTINUOUS
 90
10
 70
0
 10
5.6306290851
 20
-5.0175528462
 10
5.6169067603
 20
-5.0250612948
 10
5.5580750442
 20
-5.0499549948
 10
5.495285932
 20
-5.065453525
 10
5.4284325555
 20
-5.0713031719
 10
5.3576217829
 20
-5.0677576489
 10
5.2847487772
 20
-5.0549118478
 10
5.2104452597
 20
-5.0327973989
 10
5.1340795091
 20
-5.0013826718
 10
5.0556515256
 20
-4.9606676664
  0
LINE
  5
2B2
100
AcDbEntity
  8
SMUSSO
100
AcDbLine
 62
7
  6
CONTINUOUS
 10
8.0255000066
 20
1.0813386376
 11
9.0861601784
 21
-0.7557786676
  0
LINE
  5
2B3
100
AcDbEntity
  8
0
100
AcDbLine
 62
7
  6
CONTINUOUS
 10
8.6972514487
 20
-0.082168989
 11
8.6972514487
 21
0.1221419093
  0
LINE
  5
2B4
100
AcDbEntity
  8
SMUSSO
100
AcDbLine
 62
7
  6
CONTINUOUS
 10
9.0861601784
 20
-5.8995414114
 11
9.0861601784
 21
-0.7557786676
  0
LINE
  5
2B5
100
AcDbEntity
  8
0
100
AcDbLine
 62
7
  6
CONTINUOUS
 10
9.4043582299
 20
-1.9189943277
 11
9.4043582299
 21
0.5304165027
  0
LINE
  5
2B6
100
AcDbEntity
  8
0
100
AcDbLine
 62
7
  6
CONTINUOUS
 10
9.4043582299
 20
-1.9189943277
 11
11.0307038266
 21
0.4081708543
  0
LINE
  5
2B7
100
AcDbEntity
  8
SMUSSO
100
AcDbLine
 62
7
  6
CONTINUOUS
 10
5.4092049162
 20
-8.0224509319
 11
9.0861601784
 21
-5.8995414114
  0
LINE
  5
2B8
100
AcDbEntity
  8
0
100
AcDbLine
 62
7
  6
CONTINUOUS
 10
11.4549678953
 20
3.4291661153
 11
11.7378106078
 21
3.265856278
  0
LINE
  5
2B9
100
AcDbEntity
  8
0
100
AcDbLine
 62
7
  6
CONTINUOUS
 10
10.5357290798
 20
-1.1023267763
 11
10.5357290798
 21
-2.449502733
  0
LINE
  5
2BA
100
AcDbEntity
  8
0
100
AcDbLine
 62
7
  6
CONTINUOUS
 10
10.7832164532
 20
-2.388261544
 11
10.7832164532
 21
-1.2452031565
  0
LINE
  5
2BB
100
AcDbEntity
  8
0
100
AcDbLine
 62
7
  6
CONTINUOUS
 10
11.0307038266
 20
0.4081708543
 11
11.0307038266
 21
2.8575816846
  0
LWPOLYLINE
  5
2BC
100
AcDbEntity
  8
ASSI
100
AcDbPolyline
 62
7
  6
CONTINUOUS
 90
12
 70
0
 10
13.8490913077
 20
5.0041002575
 10
13.8873611245
 20
4.9836062236
 10
13.9673327113
 20
4.9502262407
 10
14.0522991365
 20
4.9269622518
 10
14.1421782855
 20
4.9136479505
 10
14.2354761767
 20
4.9105046489
 10
14.3322499535
 20
4.9177023522
 10
14.4324424725
 20
4.935071055
 10
14.5343883223
 20
4.9623220528
 10
14.6375323658
 20
4.9993591107
 10
14.74242974
 20
5.0462784636
 10
14.849080445
 20
5.1030801115
  0
LINE
  5
2BD
100
AcDbEntity
  8
0
100
AcDbLine
 62
7
  6
CONTINUOUS
 10
12.3388684552
 20
4.9600676118
 11
12.444917389
 21
4.8988362865
  0
LINE
  5
2BE
100
AcDbEntity
  8
0
100
AcDbLine
 62
7
  6
CONTINUOUS
 10
11.4549678953
 20
0.5715201465
 11
11.4549678953
 21
0.6531356103
  0
LINE
  5
2BF
100
AcDbEntity
  8
0
100
AcDbLine
 62
7
  6
CONTINUOUS
 10
11.4549678953
 20
3.4291661153
 11
11.4549678953
 21
3.510781579
  0
LINE
  5
2C0
100
AcDbEntity
  8
0
100
AcDbLine
 62
7
  6
CONTINUOUS
 10
11.7378106078
 20
0.4082103092
 11
11.7378106078
 21
0.8164454476
  0
LINE
  5
2C1
100
AcDbEntity
  8
0
100
AcDbLine
 62
7
  6
CONTINUOUS
 10
11.7378106078
 20
3.265856278
 11
11.7378106078
 21
3.6740914164
  0
LINE
  5
2C2
100
AcDbEntity
  8
0
100
AcDbLine
 62
7
  6
CONTINUOUS
 10
12.3742067109
 20
4.9396637458
 11
12.3742067109
 21
4.9804714777
  0
LINE
  5
2C3
100
AcDbEntity
  8
0
100
AcDbLine
 62
7
  6
CONTINUOUS
 10
12.444917389
 20
4.8988362865
 11
12.444917389
 21
0.0000146257
  0
LINE
  5
2C4
100
AcDbEntity
  8
ASSI
100
AcDbLine
 62
7
  6
CONTINUOUS
 10
13.5236089252
 20
5.440102979
 11
13.8771623158
 21
5.2359656823
  0
LINE
  5
2C5
100
AcDbEntity
  8
ASSI
100
AcDbLine
 62
7
  6
CONTINUOUS
 10
13.9651969686
 20
5.6134233531
 11
14.849080445
 21
5.1030801115
  0
LWPOLYLINE
  5
2C6
100
AcDbEntity
  8
ASSI
100
AcDbPolyline
 62
7
  6
CONTINUOUS
 90
5
 70
0
 10
13.4348668827
 20
5.9194714784
 10
13.4390041341
 20
5.7987146164
 10
13.4508232297
 20
5.6844176617
 10
13.4703241693
 20
5.5765806142
 10
13.4977012039
 20
5.4746746356
  0
LINE
  5
2C7
100
AcDbEntity
  8
0
100
AcDbLine
 62
7
  6
CONTINUOUS
 10
12.7277601015
 20
-0.1224480248
 11
12.7277601015
 21
5.1846087744
  0
LINE
  5
2C8
100
AcDbEntity
  8
ASSI
100
AcDbLine
 62
7
  6
CONTINUOUS
 10
13.4348668827
 20
6.7359417552
 11
13.4348668827
 21
5.9194714784
  0
LINE
  5
2C9
100
AcDbEntity
  8
ASSI
100
AcDbLine
 62
7
  6
CONTINUOUS
 10
13.4348668827
 20
6.7359417552
 11
4.3839000835
 21
11.9618565498
  0
LWPOLYLINE
  5
2CA
100
AcDbEntity
  8
SMUSSO
100
AcDbPolyline
 62
7
  6
CONTINUOUS
 90
3
 70
0
 10
13.6254822221
 20
5.4656440641
 10
13.5338974096
 20
5.5445889435
 10
13.4668309872
 20
5.5958973474
  0
LWPOLYLINE
  5
2CB
100
AcDbEntity
  8
SMUSSO
100
AcDbPolyline
 62
7
  6
CONTINUOUS
 90
13
 70
0
 10
10.1771043751
 20
8.6169329977
 10
10.0794267618
 20
8.7225385043
 10
9.9421690235
 20
8.8572464202
 10
9.8017058905
 20
8.981806264
 10
9.6588229061
 20
9.0955214351
 10
9.5143191264
 20
9.1977559985
 10
9.3690026733
 20
9.2879382191
 10
9.2236862211
 20
9.3655637579
 10
9.0791824444
 20
9.430198498
 10
8.9362994659
 20
9.4814809754
 10
8.7958363416
 20
9.5191243955
 10
8.6585786147
 20
9.5429182334
 10
8.5609014255
 20
9.550108325
  0
LINE
  5
2CC
100
AcDbEntity
  8
ASSI
100
AcDbLine
 62
7
  6
CONTINUOUS
 10
14.849080445
 20
-0.0406826323
 11
14.849080445
 21
5.1030801115
  0
LWPOLYLINE
  5
2CD
100
AcDbEntity
  8
ASSI
100
AcDbPolyline
 62
7
  6
CONTINUOUS
 90
7
 70
0
 10
13.5327600826
 20
5.3792285642
 10
13.5749180528
 20
5.2918289156
 10
13.6242937737
 20
5.2126101835
 10
13.680768586
 20
5.1414378741
 10
13.743403759
 20
5.0794950217
 10
13.8123022614
 20
5.0269358942
 10
13.8490913077
 20
5.0041002575
  0
LINE
  5
2CE
100
AcDbEntity
  8
ASSI
100
AcDbLine
 62
7
  6
CONTINUOUS
 10
13.4977012039
 20
5.4746746356
 11
13.5327600826
 21
5.3792285642
  0
LWPOLYLINE
  5
2CF
100
AcDbEntity
  8
SMUSSO
100
AcDbPolyline
 62
7
  6
CONTINUOUS
 90
28
 70
0
 10
15.7683192606
 20
3.3477597627
 10
15.7628820792
 20
3.5186876788
 10
15.7466008947
 20
3.694938827
 10
15.7195666867
 20
3.8755275946
 10
15.6819305847
 20
4.059444037
 10
15.6339029868
 20
4.2456597157
 10
15.5757523482
 20
4.4331334565
 10
15.5078036765
 20
4.6208170947
 10
15.4304369492
 20
4.8076607706
 10
15.3440850196
 20
4.9926190075
 10
15.2492308865
 20
5.1746572794
 10
15.1464049427
 20
5.3527577021
 10
15.0361822832
 20
5.5259241798
 10
14.91917936
 20
5.6931882479
 10
14.7960504822
 20
5.8536145426
 10
14.6674841984
 20
6.0063059477
 10
14.5341994833
 20
6.1504085663
 10
14.396941745
 20
6.2851164823
 10
14.2564786119
 20
6.409676326
 10
14.1135956276
 20
6.5233914971
 10
13.9690918478
 20
6.6256260605
 10
13.8237753947
 20
6.7158082812
 10
13.6784589426
 20
6.7934338199
 10
13.5339551659
 20
6.8580685601
 10
13.3910721873
 20
6.9093510374
 10
13.2506090631
 20
6.9469944575
 10
13.1133513362
 20
6.9707882954
 10
13.015674147
 20
6.9779783871
  0
LWPOLYLINE
  5
2D0
100
AcDbEntity
  8
ASSI
100
AcDbPolyline
 62
7
  6
CONTINUOUS
 90
11
 70
0
 10
16.616847398
 20
3.8376892747
 10
16.610204202
 20
3.6589439245
 10
16.5913692339
 20
3.4907077162
 10
16.5603424937
 20
3.33298065
 10
16.5167661764
 20
3.184879946
 10
16.460998087
 20
3.047288384
 10
16.3941116402
 20
2.9228543032
 10
16.31589145
 20
2.8118325919
 10
16.2265529024
 20
2.7139683617
 10
16.1278155708
 20
2.6311452869
 10
16.047308564
 20
2.5790197798
  0
ENDSEC
  0
SECTION
  2
OBJECTS
  0
DICTIONARY
  5
C
100
AcDbDictionary
280
0
281
1
  3
ACAD_GROUP
350
D
  3
ACAD_MLINESTYLE
350
17
  3
ACAD_LAYOUT
350
1A
  3
ACAD_PLOTSETTINGS
350
19
  3
ACAD_PLOTSTYLENAME
350
E
  0
DICTIONARY
  5
D
102
{ACAD_REACTORS
330
C
102
}
100
AcDbDictionary
280
0
281
1
  0
ACDBDICTIONARYWDFLT
  5
E
102
{ACAD_REACTORS
330
C
102
}
100
AcDbDictionary
281
1
  3
Normal
350
F
100
AcDbDictionaryWithDefault
340
F
  0
DICTIONARY
  5
17
102
{ACAD_REACTORS
330
C
102
}
100
AcDbDictionary
280
0
281
1
  3
Standard
350
18
  0
DICTIONARY
  5
19
102
{ACAD_REACTORS
330
C
102
}
100
AcDbDictionary
281
1
  0
DICTIONARY
  5
1A
102
{ACAD_REACTORS
330
C
102
}
100
AcDbDictionary
281
1
  3
Model
350
2D1
  3
Layout1
350
2D2
  0
ACDBPLACEHOLDER
  5
F
102
{ACAD_REACTORS
330
E
102
}
  0
MLINESTYLE
  5
18
102
{ACAD_REACTORS
330
17
102
}
100
AcDbMlineStyle
  2
STANDARD
 70
0
  3

 62
256
 51
90.0
 52
90.0
 71
2
 49
0.5
 62
256
  6
BYLAYER
 49
-0.5
 62
256
  6
BYLAYER
  0
LAYOUT
  5
2D1
102
{ACAD_REACTORS
330
1A
102
}
100
AcDbPlotSettings
  1

  2
none_device
  4
ISO_A4_(297.00_x_210.00_MM)
  6

 40
0.0
 41
0.0
 42
0.0
 43
0.0
 44
297.0
 45
210.0
 46
0.0
 47
0.0
 48
0.0
 49
0.0
140
0.0
141
0.0
142
1.0
143
1.0
 70
1024
 72
1
 73
0
 74
0
  7

 75
0
147
1.0
148
0.0
149
0.0
100
AcDbLayout
  1
Model
 70
0
 71
0
 10
0.0
 20
0.0
 11
297.0
 21
210.0
 12
0.0
 22
0.0
 32
0.0
 14
0.0
 24
0.0
 34
0.0
 15
0.0
 25
0.0
 35
0.0
146
0.0
 13
0.0
 23
0.0
 33
0.0
 16
1.0
 26
0.0
 36
0.0
 17
0.0
 27
1.0
 37
0.0
 76
0
330
20F
345
0
346
0
  0
LAYOUT
  5
2D2
102
{ACAD_REACTORS
330
1A
102
}
100
AcDbPlotSettings
  1

  2
none_device
  4
ISO_A4_(297.00_x_210.00_MM)
  6

 40
0.0
 41
0.0
 42
0.0
 43
0.0
 44
297.0
 45
210.0
 46
0.0
 47
0.0
 48
0.0
 49
0.0
140
0.0
141
0.0
142
1.0
143
1.0
 70
0
 72
1
 73
0
 74
0
  7

 75
0
147
1.0
148
0.0
149
0.0
100
AcDbLayout
  1
Layout1
 70
0
 71
1
 10
0.0
 20
0.0
 11
297.0
 21
210.0
 12
0.0
 22
0.0
 32
0.0
 14
0.0
 24
0.0
 34
0.0
 15
0.0
 25
0.0
 35
0.0
146
0.0
 13
0.0
 23
0.0
 33
0.0
 16
1.0
 26
0.0
 36
0.0
 17
0.0
 27
1.0
 37
0.0
 76
0
330
210
345
0
346
0
  0
ENDSEC
  0
EOF
