  0
SECTION
  2
HEADER
  9
$ACADVER
  1
AC1021
  9
$DWGCODEPAGE
  3
ANSI_1252
  9
$EXTMAX
 10
297.0
 20
210.0
 30
0.0
  9
$EXTMIN
 10
0.0
 20
0.0
 30
0.0
  9
$LIMMIN
 10
0.0
 20
0.0
  9
$LIMMAX
 10
297.0
 20
210.0
  9
$VIEWCTR
 10
148.5
 20
105.0
  9
$VIEWSIZE
 40
210.0
  9
$CLAYER
  8
0
  9
$LTSCALE
 40
16.335
  9
$CELTYPE
  6
BYLAYER
  9
$DIMSCALE
 40
1.0
  9
$DIMASZ
 40
3.0
  9
$DIMEXO
 40
0.5
  9
$DIMDLI
 40
11.286
  9
$DIMEXE
 40
1.5
  9
$DIMCEN
 40
2.673
  9
$DIMLFAC
 40
1.0
  9
$DIMBLK
  1
_FILLED
  9
$DIMALT
 70
0
  9
$DIMALTF
 40
25.4
  9
$DIMTXT
 40
3.0
  9
$DIMTOL
 70
1
  9
$DIMLIM
 70
0
  9
$DIMTFAC
 40
1.0
  9
$DIMTP
 40
0.01
  9
$DIMTM
 40
0.01
  9
$DIMGAP
 40
0.625
  9
$DIMDSEP
 70
44
  9
$AUNITS
 70
0
  9
$PDMODE
 70
3
  9
$PDSIZE
 40
3.0
  9
$HANDSEED
  5
2D6
  9
$TILEMODE
 70
1
  9
$MEASUREMENT
 70
1
  9
$INSUNITS
 70
4
  0
ENDSEC
  0
SECTION
  2
CLASSES
  0
CLASS
  1
ACDBDICTIONARYWDFLT
  2
AcDbDictionaryWithDefault
  3
AutoCAD 2000
 90
0
 91
1
280
0
281
0
  0
CLASS
  1
ACDBPLACEHOLDER
  2
AcDbPlaceHolder
  3
AutoCAD 2000
 90
0
 91
1
280
0
281
0
  0
CLASS
  1
LAYOUT
  2
AcDbLayout
  3
AutoCAD 2000
 90
0
 91
0
280
0
281
0
  0
ENDSEC
  0
SECTION
  2
TABLES
  0
TABLE
  2
VPORT
  5
8
100
AcDbSymbolTable
 70
2
  0
VPORT
  5
1F4
100
AcDbSymbolTableRecord
100
AcDbViewportTableRecord
  2
*ACTIVE
 70
0
 10
0.0
 20
0.0
 11
1.0
 21
1.0
 12
148.5
 22
105.0
 13
0.0
 23
0.0
 14
1.0
 24
1.0
 15
0.0
 25
0.0
 16
0.0
 26
0.0
 36
1.0
 17
0.0
 27
0.0
 37
0.0
 40
210.0
 41
1.4142857143
 42
50.0
 43
0.0
 44
0.0
 50
0.0
 51
0.0
 71
0
 72
100
 73
1
 74
1
 75
0
 76
0
 77
0
 78
0
  0
ENDTAB
  0
TABLE
  2
LTYPE
  5
5
100
AcDbSymbolTable
 70
6
  0
LTYPE
  5
14
100
AcDbSymbolTableRecord
100
AcDbLinetypeTableRecord
  2
BYBLOCK
 70
0
  3

 72
65
 73
0
 40
0.0
  0
LTYPE
  5
15
100
AcDbSymbolTableRecord
100
AcDbLinetypeTableRecord
  2
BYLAYER
 70
0
  3

 72
65
 73
0
 40
0.0
  0
LTYPE
  5
16
100
AcDbSymbolTableRecord
100
AcDbLinetypeTableRecord
  2
CONTINUOUS
 70
64
  3
Solid line
 72
65
 73
0
 40
0.0
  0
LTYPE
  5
1F5
100
AcDbSymbolTableRecord
100
AcDbLinetypeTableRecord
  2
CENTER
 70
64
  3
____ _ ____ _ ____ _ ____ _ ____ _ ____ _ ____
 72
65
 73
4
 40
0.6
 49
0.375
 74
0
 49
-0.075
 74
0
 49
0.075
 74
0
 49
-0.075
 74
0
  0
LTYPE
  5
1F6
100
AcDbSymbolTableRecord
100
AcDbLinetypeTableRecord
  2
HIDDEN
 70
64
  3
- - - - - - - - - - - - - - - - - - - -
 72
65
 73
2
 40
0.2
 49
0.1
 74
0
 49
-0.1
 74
0
  0
LTYPE
  5
1F7
100
AcDbSymbolTableRecord
100
AcDbLinetypeTableRecord
  2
PHANTOM
 70
64
  3
_____ _ _ _____ _ _ _____ _ _ _____
 72
65
 73
6
 40
0.8
 49
0.45
 74
0
 49
-0.05
 74
0
 49
0.1
 74
0
 49
-0.05
 74
0
 49
0.1
 74
0
 49
-0.05
 74
0
  0
LTYPE
  5
1F8
100
AcDbSymbolTableRecord
100
AcDbLinetypeTableRecord
  2
DOT
 70
64
  3
. . . . . . . . . . . . . . . . . . . .
 72
65
 73
2
 40
0.2
 49
0.1
 74
0
 49
-0.1
 74
0
  0
LTYPE
  5
1F9
100
AcDbSymbolTableRecord
100
AcDbLinetypeTableRecord
  2
DASHED
 70
64
  3
- - - - - - - - - - - - - - - - - - - -
 72
65
 73
2
 40
0.2
 49
0.1
 74
0
 49
-0.1
 74
0
  0
ENDTAB
  0
TABLE
  2
LAYER
  5
2
100
AcDbSymbolTable
 70
36
  0
LAYER
  5
10
100
AcDbSymbolTableRecord
100
AcDbLayerTableRecord
  2
0
 70
0
 62
7
  6
CONTINUOUS
370
-3
390
F
  0
LAYER
  5
1FA
100
AcDbSymbolTableRecord
100
AcDbLayerTableRecord
  2
DEFAULT_1
 70
0
 62
7
  6
CENTER
370
-3
390
F
  0
LAYER
  5
1FB
100
AcDbSymbolTableRecord
100
AcDbLayerTableRecord
  2
DEFAULT_2
 70
0
 62
7
  6
HIDDEN
370
-3
390
F
  0
LAYER
  5
1FC
100
AcDbSymbolTableRecord
100
AcDbLayerTableRecord
  2
DEFAULT_3
 70
0
 62
7
  6
PHANTOM
370
-3
390
F
  0
LAYER
  5
1FD
100
AcDbSymbolTableRecord
100
AcDbLayerTableRecord
  2
ASSI
 70
0
 62
7
  6
CONTINUOUS
370
-3
390
F
  0
LAYER
  5
1FE
100
AcDbSymbolTableRecord
100
AcDbLayerTableRecord
  2
COORDINATE
 70
0
 62
7
  6
CONTINUOUS
370
-3
390
F
  0
LAYER
  5
1FF
100
AcDbSymbolTableRecord
100
AcDbLayerTableRecord
  2
COORD_ORIGINE
 70
0
 62
7
  6
CONTINUOUS
370
-3
390
F
  0
LAYER
  5
200
100
AcDbSymbolTableRecord
100
AcDbLayerTableRecord
  2
COSMETICI
 70
0
 62
7
  6
CONTINUOUS
370
-3
390
F
  0
LAYER
  5
201
100
AcDbSymbolTableRecord
100
AcDbLayerTableRecord
  2
CURVE
 70
0
 62
7
  6
CONTINUOUS
370
-3
390
F
  0
LAYER
  5
202
100
AcDbSymbolTableRecord
100
AcDbLayerTableRecord
  2
DRAFT
 70
0
 62
7
  6
CONTINUOUS
370
-3
390
F
  0
LAYER
  5
203
100
AcDbSymbolTableRecord
100
AcDbLayerTableRecord
  2
NOTE
 70
0
 62
7
  6
CONTINUOUS
370
-3
390
F
  0
LAYER
  5
204
100
AcDbSymbolTableRecord
100
AcDbLayerTableRecord
  2
PIANI
 70
0
 62
7
  6
CONTINUOUS
370
-3
390
F
  0
LAYER
  5
205
100
AcDbSymbolTableRecord
100
AcDbLayerTableRecord
  2
PIANI_ORIGINE
 70
0
 62
7
  6
CONTINUOUS
370
-3
390
F
  0
LAYER
  5
206
100
AcDbSymbolTableRecord
100
AcDbLayerTableRecord
  2
PUNTI
 70
0
 62
7
  6
CONTINUOUS
370
-3
390
F
  0
LAYER
  5
207
100
AcDbSymbolTableRecord
100
AcDbLayerTableRecord
  2
RACCORDO
 70
0
 62
7
  6
CONTINUOUS
370
-3
390
F
  0
LAYER
  5
208
100
AcDbSymbolTableRecord
100
AcDbLayerTableRecord
  2
SIMBOLI
 70
0
 62
7
  6
CONTINUOUS
370
-3
390
F
  0
LAYER
  5
209
100
AcDbSymbolTableRecord
100
AcDbLayerTableRecord
  2
SMUSSO
 70
0
 62
7
  6
CONTINUOUS
370
-3
390
F
  0
LAYER
  5
20A
100
AcDbSymbolTableRecord
100
AcDbLayerTableRecord
  2
SNAPLINE
 70
0
 62
7
  6
CONTINUOUS
370
-3
390
F
  0
LAYER
  5
20B
100
AcDbSymbolTableRecord
100
AcDbLayerTableRecord
  2
SUPERFICI
 70
0
 62
7
  6
CONTINUOUS
370
-3
390
F
  0
LAYER
  5
20C
100
AcDbSymbolTableRecord
100
AcDbLayerTableRecord
  2
TRASH
 70
0
 62
7
  6
CONTINUOUS
370
-3
390
F
  0
ENDTAB
  0
TABLE
  2
STYLE
  5
3
100
AcDbSymbolTable
 70
1
  0
STYLE
  5
11
100
AcDbSymbolTableRecord
100
AcDbTextStyleTableRecord
  2
STANDARD
 70
0
 40
0.0
 41
0.8
 50
0.0
 71
0
 42
0.2
  3
txt
  4

  0
STYLE
  5
20D
100
AcDbSymbolTableRecord
100
AcDbTextStyleTableRecord
  2
TEXTSTYLE_1
 70
0
 40
0.0
 41
0.8
 50
0.0
 71
0
 42
0.2
  3
gdt
  4

  0
ENDTAB
  0
TABLE
  2
VIEW
  5
6
100
AcDbSymbolTable
 70
0
  0
ENDTAB
  0
TABLE
  2
UCS
  5
7
100
AcDbSymbolTable
 70
0
  0
ENDTAB
  0
TABLE
  2
APPID
  5
9
100
AcDbSymbolTable
 70
1
  0
APPID
  5
20E
100
AcDbSymbolTableRecord
100
AcDbRegAppTableRecord
  2
ACAD
 70
0
  0
ENDTAB
  0
TABLE
  2
BLOCK_RECORD
  5
1
100
AcDbSymbolTable
 70
0
  0
BLOCK_RECORD
  5
20F
100
AcDbSymbolTableRecord
100
AcDbBlockTableRecord
  2
*Model_Space
  0
BLOCK_RECORD
  5
210
100
AcDbSymbolTableRecord
100
AcDbBlockTableRecord
  2
*Paper_Space
  0
ENDTAB
  0
TABLE
  2
DIMSTYLE
  5
A
100
AcDbSymbolTable
 70
1
100
AcDbDimStyleTable
 71
0
  0
DIMSTYLE
105
211
100
AcDbSymbolTableRecord
100
AcDbDimStyleTableRecord
  2
STANDARD
 70
0
  3

  4

 40
1.0
 41
3.0
 42
0.5
 43
0.38
 44
1.5
 45
0.0
 46
0.0
 47
0.01
 48
0.01
140
3.0
141
0.09
142
0.0
143
25.4
144
1.0
145
0.0
146
1.0
147
0.625
 71
1.0
 72
0.0
 73
0
 74
0
 75
0
 76
0
 77
1
 78
8
170
0
171
1
172
0
173
0
174
0
175
0
176
0
177
0
178
0
270
2
271
2
272
2
273
2
274
2
275
0
280
0
281
0
282
0
283
1
284
8
285
0
286
0
287
3
288
0
340
11
278
44
  0
ENDTAB
  0
ENDSEC
  0
SECTION
  2
BLOCKS
  0
BLOCK
  5
20
100
AcDbEntity
  8
0
100
AcDbBlockBegin
  2
*Model_Space
 70
0
 10
0.0
 20
0.0
 30
0.0
  3
*Model_Space
  1

  0
ENDBLK
  5
21
100
AcDbEntity
  8
0
100
AcDbBlockEnd
  0
BLOCK
  5
1C
100
AcDbEntity
  8
0
100
AcDbBlockBegin
  2
*Paper_Space
 70
0
 10
0.0
 20
0.0
 30
0.0
  3
*Paper_Space
  1

  0
ENDBLK
  5
1D
100
AcDbEntity
  8
0
100
AcDbBlockEnd
  0
ENDSEC
  0
SECTION
  2
ENTITIES
  0
LINE
  5
212
100
AcDbEntity
  8
0
100
AcDbLine
 62
7
  6
CONTINUOUS
 10
-16.4413094318
 20
-0.4289129208
 11
-16.4413094318
 21
-8.022086495
  0
LINE
  5
213
100
AcDbEntity
  8
0
100
AcDbLine
 62
7
  6
CONTINUOUS
 10
-15.0624512085
 20
-2.5722243345
 11
-15.0624512085
 21
-7.4710459953
  0
LINE
  5
214
100
AcDbEntity
  8
RACCORDO
100
AcDbLine
 62
7
  6
CONTINUOUS
 10
-14.2505715083
 20
0.3868896472
 11
-14.2505715083
 21
0.5123835208
  0
LINE
  5
215
100
AcDbEntity
  8
0
100
AcDbLine
 62
7
  6
CONTINUOUS
 10
-7.3196319545
 20
-13.2888287489
 11
-16.4413094318
 21
-8.022086495
  0
LINE
  5
216
100
AcDbEntity
  8
0
100
AcDbLine
 62
7
  6
CONTINUOUS
 10
-15.0624512085
 20
-7.4710459953
 11
-8.6984901778
 21
-11.1455173352
  0
LINE
  5
217
100
AcDbEntity
  8
0
100
AcDbLine
 62
7
  6
CONTINUOUS
 10
-13.7896590024
 20
-3.3071186025
 11
-13.7896590024
 21
-6.7361517273
  0
LINE
  5
218
100
AcDbEntity
  8
0
100
AcDbLine
 62
7
  6
CONTINUOUS
 10
-5.4798599329
 20
-11.9029355895
 11
-5.5872203406
 21
-11.8409470266
  0
LINE
  5
219
100
AcDbEntity
  8
0
100
AcDbLine
 62
7
  6
CONTINUOUS
 10
-13.7896590024
 20
-6.7361517273
 11
-8.6984901778
 21
-9.6757287992
  0
LINE
  5
21A
100
AcDbEntity
  8
DRAFT
100
AcDbLine
 62
7
  6
CONTINUOUS
 10
-8.941904892
 20
6.8341504423
 11
-7.7792513623
 21
7.5121028838
  0
LINE
  5
21B
100
AcDbEntity
  8
DRAFT
100
AcDbLine
 62
7
  6
CONTINUOUS
 10
-8.2371838194
 20
7.2409689138
 11
-7.0721445811
 21
7.9202985673
  0
LINE
  5
21C
100
AcDbEntity
  8
DRAFT
100
AcDbLine
 62
7
  6
CONTINUOUS
 10
-8.2371838194
 20
7.2409689138
 11
-8.941904892
 21
6.8341504423
  0
LINE
  5
21D
100
AcDbEntity
  8
DRAFT
100
AcDbLine
 62
7
  6
CONTINUOUS
 10
-7.0721445811
 20
7.9202985673
 11
-5.9037314415
 21
8.5882750718
  0
LINE
  5
21E
100
AcDbEntity
  8
0
100
AcDbLine
 62
7
  6
CONTINUOUS
 10
-8.6984901778
 20
-6.2466956744
 11
-15.0624512085
 21
-2.5722243345
  0
LINE
  5
21F
100
AcDbEntity
  8
DRAFT
100
AcDbLine
 62
7
  6
CONTINUOUS
 10
-8.941904892
 20
6.8341504423
 11
-8.941904892
 21
3.24793754
  0
LINE
  5
220
100
AcDbEntity
  8
0
100
AcDbLine
 62
7
  6
CONTINUOUS
 10
-8.6984901778
 20
-11.1455173352
 11
-8.6984901778
 21
-6.2466956744
  0
LINE
  5
221
100
AcDbEntity
  8
0
100
AcDbLine
 62
7
  6
CONTINUOUS
 10
-7.3196319545
 20
-5.6956551747
 11
-16.4413094318
 21
-0.4289129208
  0
LINE
  5
222
100
AcDbEntity
  8
RACCORDO
100
AcDbLine
 62
7
  6
CONTINUOUS
 10
-7.5565057311
 20
4.0478496524
 11
-7.5565057311
 21
4.4316064003
  0
LINE
  5
223
100
AcDbEntity
  8
0
100
AcDbLine
 62
7
  6
CONTINUOUS
 10
-7.3196319545
 20
-5.6956551747
 11
-7.3196319545
 21
-13.2888287489
  0
LWPOLYLINE
  5
224
100
AcDbEntity
  8
ASSI
100
AcDbPolyline
 62
7
  6
CONTINUOUS
 90
11
 70
0
 10
-8.2128320193
 20
4.0580702632
 10
-8.2464985858
 20
4.0362723239
 10
-8.2877887426
 20
4.0016372199
 10
-8.3251484989
 20
3.9607121782
 10
-8.3578587603
 20
3.9142849171
 10
-8.3858294562
 20
3.8622488469
 10
-8.4091506572
 20
3.8047105573
 10
-8.4273734808
 20
3.7427775357
 10
-8.4403482994
 20
3.6768189443
 10
-8.4482247406
 20
3.6064656209
 10
-8.4510028044
 20
3.5317175653
  0
LINE
  5
225
100
AcDbEntity
  8
RACCORDO
100
AcDbLine
 62
7
  6
CONTINUOUS
 10
-5.6276120743
 20
5.6618799337
 11
-7.4949041069
 21
4.5686230252
  0
LINE
  5
226
100
AcDbEntity
  8
RACCORDO
100
AcDbLine
 62
7
  6
CONTINUOUS
 10
-10.5953135195
 20
2.7534040073
 11
-14.1889698841
 21
0.6494001457
  0
LINE
  5
227
100
AcDbEntity
  8
RACCORDO
100
AcDbLine
 62
253
  6
CONTINUOUS
 10
-5.4770829566
 20
5.6473212678
 11
-7.3443749892
 21
4.5540643593
  0
LINE
  5
228
100
AcDbEntity
  8
RACCORDO
100
AcDbLine
 62
253
  6
CONTINUOUS
 10
-10.4447844018
 20
2.7388453414
 11
-14.0384407664
 21
0.6348414798
  0
LINE
  5
229
100
AcDbEntity
  8
0
100
AcDbLine
 62
7
  6
CONTINUOUS
 10
-16.4413094318
 20
-0.4289129208
 11
-15.7342026506
 21
-0.0206383275
  0
LINE
  5
22A
100
AcDbEntity
  8
0
100
AcDbLine
 62
7
  6
CONTINUOUS
 10
6.6103716349
 20
12.8808388217
 11
7.317478416
 21
13.289113415
  0
LINE
  5
22B
100
AcDbEntity
  8
0
100
AcDbLine
 62
7
  6
CONTINUOUS
 10
1.1302940807
 20
9.6758832641
 11
-0.9910262629
 21
8.4510594841
  0
LINE
  5
22C
100
AcDbEntity
  8
0
100
AcDbLine
 62
7
  6
CONTINUOUS
 10
-15.5220706163
 20
-0.1431207055
 11
-14.8149638351
 21
0.2651538879
  0
LINE
  5
22D
100
AcDbEntity
  8
0
100
AcDbLine
 62
7
  6
CONTINUOUS
 10
6.115396888
 20
12.3500818504
 11
6.8225036692
 21
12.7583564437
  0
LINE
  5
22E
100
AcDbEntity
  8
0
100
AcDbLine
 62
7
  6
CONTINUOUS
 10
-14.6381871398
 20
0.1630852395
 11
-13.9310803586
 21
0.5713598329
  0
LINE
  5
22F
100
AcDbEntity
  8
0
100
AcDbLine
 62
7
  6
CONTINUOUS
 10
5.5850668021
 20
11.8397386087
 11
6.2921735833
 21
12.248013202
  0
LINE
  5
230
100
AcDbEntity
  8
0
100
AcDbLine
 62
7
  6
CONTINUOUS
 10
1.90811154
 20
9.5126010452
 11
1.6606002498
 21
9.3696911283
  0
LINE
  5
231
100
AcDbEntity
  8
0
100
AcDbLine
 62
7
  6
CONTINUOUS
 10
-0.7081835504
 20
8.0019850499
 11
-0.9309554893
 21
7.8733593243
  0
LINE
  5
232
100
AcDbEntity
  8
0
100
AcDbLine
 62
7
  6
CONTINUOUS
 10
-7.2842766155
 20
4.2050313319
 11
-10.1342030198
 21
2.559519544
  0
LINE
  5
233
100
AcDbEntity
  8
RACCORDO
100
AcDbLine
 62
7
  6
CONTINUOUS
 10
5.3282243581
 20
11.9183834933
 11
1.7093915546
 21
9.857986503
  0
LINE
  5
234
100
AcDbEntity
  8
RACCORDO
100
AcDbLine
 62
7
  6
CONTINUOUS
 10
-1.4127387072
 20
8.0803890995
 11
-3.2310708926
 21
7.0451143672
  0
LINE
  5
235
100
AcDbEntity
  8
RACCORDO
100
AcDbLine
 62
253
  6
CONTINUOUS
 10
5.4777063944
 20
11.9032202557
 11
1.8588735909
 21
9.8428232653
  0
LINE
  5
236
100
AcDbEntity
  8
RACCORDO
100
AcDbLine
 62
253
  6
CONTINUOUS
 10
-1.263256671
 20
8.0652258619
 11
-3.1436305787
 21
6.9946274258
  0
LINE
  5
237
100
AcDbEntity
  8
0
100
AcDbLine
 62
7
  6
CONTINUOUS
 10
-15.7342026506
 20
-0.0206383275
 11
-15.5220706163
 21
-0.1431207055
  0
LINE
  5
238
100
AcDbEntity
  8
0
100
AcDbLine
 62
7
  6
CONTINUOUS
 10
-6.8246572077
 20
-5.1648982034
 11
-6.6125251733
 21
-5.2873805814
  0
LINE
  5
239
100
AcDbEntity
  8
0
100
AcDbLine
 62
7
  6
CONTINUOUS
 10
-14.8149638351
 20
0.2651538879
 11
-14.6381871398
 21
0.1630852395
  0
LINE
  5
23A
100
AcDbEntity
  8
0
100
AcDbLine
 62
7
  6
CONTINUOUS
 10
-6.2943271218
 20
-4.6545549617
 11
-6.1175504265
 21
-4.7566236101
  0
LINE
  5
23B
100
AcDbEntity
  8
0
100
AcDbLine
 62
7
  6
CONTINUOUS
 10
-6.6125251733
 20
-5.2873805814
 11
-6.6125251733
 21
-12.8805541556
  0
LINE
  5
23C
100
AcDbEntity
  8
0
100
AcDbLine
 62
7
  6
CONTINUOUS
 10
-6.1175504265
 20
-4.7566236101
 11
-6.1175504265
 21
-12.3497971842
  0
LINE
  5
23D
100
AcDbEntity
  8
0
100
AcDbLine
 62
7
  6
CONTINUOUS
 10
-5.5872203406
 20
-4.2447872844
 11
-5.5872203406
 21
-11.8409470266
  0
LINE
  5
23E
100
AcDbEntity
  8
0
100
AcDbLine
 62
7
  6
CONTINUOUS
 10
-14.0384407664
 20
0.6348414798
 11
-5.4798599329
 21
-4.3067758292
  0
LINE
  5
23F
100
AcDbEntity
  8
RACCORDO
100
AcDbLine
 62
7
  6
CONTINUOUS
 10
-5.2677291909
 20
-4.6741970518
 11
-5.2677291909
 21
-11.7804776306
  0
LINE
  5
240
100
AcDbEntity
  8
RACCORDO
100
AcDbLine
 62
7
  6
CONTINUOUS
 10
5.901577903
 20
-8.5879904056
 11
3.2289173541
 21
-7.044829701
  0
LINE
  5
241
100
AcDbEntity
  8
DRAFT
100
AcDbLine
 62
7
  6
CONTINUOUS
 10
-3.4583127891
 20
-10.0066937232
 11
-3.4583127891
 21
-4.3730488133
  0
LINE
  5
242
100
AcDbEntity
  8
DRAFT
100
AcDbLine
 62
7
  6
CONTINUOUS
 10
3.1407352643
 20
-6.2229939279
 11
2.8627056946
 21
-6.0624631388
  0
LINE
  5
243
100
AcDbEntity
  8
RACCORDO
100
AcDbLine
 62
7
  6
CONTINUOUS
 10
-10.4447844018
 20
2.7388453414
 11
-1.8610271294
 21
-2.2173085279
  0
LINE
  5
244
100
AcDbEntity
  8
RACCORDO
100
AcDbLine
 62
7
  6
CONTINUOUS
 10
-1.6488963874
 20
-3.3355827404
 11
-1.6488963874
 21
-2.5847297505
  0
LINE
  5
245
100
AcDbEntity
  8
0
100
AcDbLine
 62
7
  6
CONTINUOUS
 10
-0.9910262629
 20
8.4510594841
 11
-0.9910262629
 21
7.9080434362
  0
LINE
  5
246
100
AcDbEntity
  8
0
100
AcDbLine
 62
7
  6
CONTINUOUS
 10
-15.0624512085
 20
-7.4710459953
 11
-13.7896590024
 21
-6.7361517273
  0
LINE
  5
247
100
AcDbEntity
  8
DRAFT
100
AcDbLine
 62
7
  6
CONTINUOUS
 10
1.2010047588
 20
-1.3882635233
 11
1.4732338745
 21
-1.5454452028
  0
LWPOLYLINE
  5
248
100
AcDbEntity
  8
ASSI
100
AcDbPolyline
 62
7
  6
CONTINUOUS
 90
12
 70
0
 10
-7.638330956
 20
4.000604793
 10
-7.670713367
 20
4.0193019913
 10
-7.7358471556
 20
4.0508905393
 10
-7.8003357496
 20
4.0759710763
 10
-7.8641914102
 20
4.0946672804
 10
-7.9261850544
 20
4.10661929
 10
-7.986280611
 20
4.111696456
 10
-8.0445141513
 20
4.1100294276
 10
-8.0997648058
 20
4.1016502915
 10
-8.1519747898
 20
4.08642902
 10
-8.2012018881
 20
4.0644956408
 10
-8.2128320193
 20
4.0580702632
  0
LINE
  5
249
100
AcDbEntity
  8
0
100
AcDbLine
 62
7
  6
CONTINUOUS
 10
1.2010047588
 20
-0.694263788
 11
-7.2842766155
 21
4.2050313319
  0
LINE
  5
24A
100
AcDbEntity
  8
0
100
AcDbLine
 62
7
  6
CONTINUOUS
 10
1.2010047588
 20
-0.694263788
 11
1.2010047588
 21
-1.3882635233
  0
LINE
  5
24B
100
AcDbEntity
  8
RACCORDO
100
AcDbLine
 62
7
  6
CONTINUOUS
 10
1.4732338745
 20
-0.7820520787
 11
1.4732338745
 21
-1.5454452028
  0
LINE
  5
24C
100
AcDbEntity
  8
0
100
AcDbLine
 62
7
  6
CONTINUOUS
 10
14.6360336013
 20
7.4303730008
 11
13.9289268201
 21
7.0220984074
  0
LINE
  5
24D
100
AcDbEntity
  8
0
100
AcDbLine
 62
7
  6
CONTINUOUS
 10
-5.5872203406
 20
-4.2462803684
 11
-6.2943271218
 21
-4.6545549617
  0
LINE
  5
24E
100
AcDbEntity
  8
RACCORDO
100
AcDbLine
 62
253
  6
CONTINUOUS
 10
3.1414770402
 20
0.6710727416
 11
1.2611031325
 21
-0.4146308562
  0
LINE
  5
24F
100
AcDbEntity
  8
RACCORDO
100
AcDbLine
 62
253
  6
CONTINUOUS
 10
-1.8610271294
 20
-2.2173085279
 11
-5.4798599329
 21
-4.3067758292
  0
LINE
  5
250
100
AcDbEntity
  8
RACCORDO
100
AcDbLine
 62
253
  6
CONTINUOUS
 10
14.0362872279
 20
6.9616029466
 11
10.4426308633
 21
4.886669396
  0
LINE
  5
251
100
AcDbEntity
  8
RACCORDO
100
AcDbLine
 62
253
  6
CONTINUOUS
 10
7.3422214507
 20
3.0965306465
 11
5.4749294181
 21
2.0183788996
  0
LINE
  5
252
100
AcDbEntity
  8
0
100
AcDbLine
 62
7
  6
CONTINUOUS
 10
15.5199170778
 20
7.7365789458
 11
14.8128102966
 21
7.3283043524
  0
LINE
  5
253
100
AcDbEntity
  8
0
100
AcDbLine
 62
7
  6
CONTINUOUS
 10
-6.1175504265
 20
-4.7566236101
 11
-6.8246572077
 21
-5.1648982034
  0
LINE
  5
254
100
AcDbEntity
  8
0
100
AcDbLine
 62
7
  6
CONTINUOUS
 10
10.3933929142
 20
4.6133059253
 11
10.145881624
 21
4.4703960084
  0
LINE
  5
255
100
AcDbEntity
  8
0
100
AcDbLine
 62
7
  6
CONTINUOUS
 10
7.7770978238
 20
3.1026899299
 11
7.4919950565
 21
2.9380751652
  0
LINE
  5
256
100
AcDbEntity
  8
0
100
AcDbLine
 62
7
  6
CONTINUOUS
 10
1.2010047588
 20
-0.694263788
 11
-1.711252999
 21
-2.3757649182
  0
LINE
  5
257
100
AcDbEntity
  8
0
100
AcDbLine
 62
7
  6
CONTINUOUS
 10
10.1812608798
 20
4.4499684695
 11
8.0599405363
 21
3.2251446895
  0
LINE
  5
258
100
AcDbEntity
  8
0
100
AcDbLine
 62
7
  6
CONTINUOUS
 10
16.4391558933
 20
8.0223711611
 11
15.7320491122
 21
7.6140965678
  0
LINE
  5
259
100
AcDbEntity
  8
0
100
AcDbLine
 62
7
  6
CONTINUOUS
 10
-6.6125251733
 20
-5.2873805814
 11
-7.3196319545
 21
-5.6956551747
  0
LINE
  5
25A
100
AcDbEntity
  8
RACCORDO
100
AcDbLine
 62
253
  6
CONTINUOUS
 10
3.3536077822
 20
0.303651519
 11
1.4732338745
 21
-0.7820520787
  0
LINE
  5
25B
100
AcDbEntity
  8
RACCORDO
100
AcDbLine
 62
253
  6
CONTINUOUS
 10
-1.6488963874
 20
-2.5847297505
 11
-5.2677291909
 21
-4.6741970518
  0
LINE
  5
25C
100
AcDbEntity
  8
RACCORDO
100
AcDbLine
 62
253
  6
CONTINUOUS
 10
14.2484179699
 20
6.594181724
 11
10.6547616053
 21
4.5192481734
  0
LINE
  5
25D
100
AcDbEntity
  8
RACCORDO
100
AcDbLine
 62
253
  6
CONTINUOUS
 10
7.5543521927
 20
2.7291094239
 11
5.8991703303
 21
1.7734275138
  0
LINE
  5
25E
100
AcDbEntity
  8
RACCORDO
100
AcDbLine
 62
7
  6
CONTINUOUS
 10
1.2611031325
 20
-0.4146308562
 11
-7.3443749892
 21
4.5540643593
  0
LINE
  5
25F
100
AcDbEntity
  8
RACCORDO
100
AcDbLine
 62
7
  6
CONTINUOUS
 10
1.6467428489
 20
9.3776922179
 11
1.6467428489
 21
9.7203653064
  0
LINE
  5
260
100
AcDbEntity
  8
0
100
AcDbLine
 62
7
  6
CONTINUOUS
 10
2.8627056946
 20
-0.7487629846
 11
2.8627056946
 21
-6.0624631388
  0
LINE
  5
261
100
AcDbEntity
  8
DRAFT
100
AcDbLine
 62
7
  6
CONTINUOUS
 10
6.5637151192
 20
1.3897276815
 11
7.5543521927
 21
1.9657162998
  0
LINE
  5
262
100
AcDbEntity
  8
DRAFT
100
AcDbLine
 62
7
  6
CONTINUOUS
 10
10.6547616053
 20
3.7683951835
 11
12.4515897876
 21
4.8131295365
  0
LINE
  5
263
100
AcDbEntity
  8
0
100
AcDbLine
 62
7
  6
CONTINUOUS
 10
12.0197385109
 20
4.4909261301
 11
10.1812608798
 21
3.4294121874
  0
LINE
  5
264
100
AcDbEntity
  8
0
100
AcDbLine
 62
7
  6
CONTINUOUS
 10
7.7770978238
 20
2.0412785701
 11
6.6061832022
 21
1.3652071426
  0
LINE
  5
265
100
AcDbEntity
  8
0
100
AcDbLine
 62
7
  6
CONTINUOUS
 10
12.3025812234
 20
4.3276162927
 11
10.1812608798
 21
3.1027925128
  0
LINE
  5
266
100
AcDbEntity
  8
0
100
AcDbLine
 62
7
  6
CONTINUOUS
 10
8.0599405363
 20
1.8779687328
 11
6.8890259146
 21
1.2018973052
  0
LINE
  5
267
100
AcDbEntity
  8
DRAFT
100
AcDbLine
 62
7
  6
CONTINUOUS
 10
-3.4583127891
 20
-4.3730488133
 11
-1.6488963874
 21
-3.3355827404
  0
LINE
  5
268
100
AcDbEntity
  8
DRAFT
100
AcDbLine
 62
7
  6
CONTINUOUS
 10
1.4732338745
 20
-1.5454452028
 11
3.1407352643
 21
-0.589349018
  0
LINE
  5
269
100
AcDbEntity
  8
RACCORDO
100
AcDbLine
 62
7
  6
CONTINUOUS
 10
-8.2371838194
 20
7.2409689138
 11
-5.4770829566
 21
5.6473212678
  0
LINE
  5
26A
100
AcDbEntity
  8
RACCORDO
100
AcDbLine
 62
7
  6
CONTINUOUS
 10
3.1414770402
 20
0.6710727416
 11
5.901577903
 21
-0.9225749044
  0
LWPOLYLINE
  5
26B
100
AcDbEntity
  8
ASSI
100
AcDbPolyline
 62
7
  6
CONTINUOUS
 90
31
 70
0
 10
4.4890512913
 20
-3.9397074926
 10
4.4918293551
 20
-4.0176635865
 10
4.4997057963
 20
-4.0971124269
 10
4.5126806149
 20
-4.1780540135
 10
4.5309034385
 20
-4.2610302951
 10
4.5542246395
 20
-4.345499323
 10
4.5821953354
 20
-4.4298352517
 10
4.6149055968
 20
-4.5140355028
 10
4.6522653531
 20
-4.5981026545
 10
4.69355551
 20
-4.6804185967
 10
4.7388522076
 20
-4.7609494047
 10
4.7880793059
 20
-4.8397290031
 10
4.8402892899
 20
-4.9152410554
 10
4.8955399445
 20
-4.9874222624
 10
4.9537734847
 20
-5.0563359235
 10
5.0138690413
 20
-5.1206556
 10
5.0758626856
 20
-5.1802922967
 10
5.1397183461
 20
-5.2353350089
 10
5.2042069401
 20
-5.2847242837
 10
5.2693407287
 20
-5.3283506021
 10
5.3351074506
 20
-5.3663234832
 10
5.4002412392
 20
-5.3979120312
 10
5.4647298332
 20
-5.4229925682
 10
5.5285854938
 20
-5.4416887722
 10
5.590579138
 20
-5.4536407819
 10
5.6506746946
 20
-5.4587179478
 10
5.7089082349
 20
-5.4570509194
 10
5.7641588894
 20
-5.4486717834
 10
5.8163688734
 20
-5.4334505118
 10
5.8655959717
 20
-5.4115171326
 10
5.8772261029
 20
-5.4050917551
  0
LINE
  5
26C
100
AcDbEntity
  8
DRAFT
100
AcDbLine
 62
7
  6
CONTINUOUS
 10
3.1407352643
 20
-0.589349018
 11
3.1407352643
 21
-6.2229939279
  0
LINE
  5
26D
100
AcDbEntity
  8
RACCORDO
100
AcDbLine
 62
7
  6
CONTINUOUS
 10
3.3536077822
 20
0.303651519
 11
3.3536077822
 21
-6.8718848007
  0
LINE
  5
26E
100
AcDbEntity
  8
DRAFT
100
AcDbLine
 62
7
  6
CONTINUOUS
 10
7.0699910426
 20
-0.2451932993
 11
5.901577903
 21
-0.9225749044
  0
LINE
  5
26F
100
AcDbEntity
  8
0
100
AcDbLine
 62
7
  6
CONTINUOUS
 10
7.5960643623
 20
0.7936621669
 11
11.2419210516
 21
2.898734126
  0
LINE
  5
270
100
AcDbEntity
  8
0
100
AcDbLine
 62
7
  6
CONTINUOUS
 10
8.484204605
 20
0.0000239683
 11
9.8984181674
 21
0.8165731549
  0
LINE
  5
271
100
AcDbEntity
  8
DRAFT
100
AcDbLine
 62
7
  6
CONTINUOUS
 10
8.2350302809
 20
0.4247312536
 11
7.0699910426
 21
-0.2451932993
  0
LINE
  5
272
100
AcDbEntity
  8
DRAFT
100
AcDbLine
 62
7
  6
CONTINUOUS
 10
-7.0721445811
 20
7.9202985673
 11
7.0699910426
 21
-0.2451932993
  0
LINE
  5
273
100
AcDbEntity
  8
0
100
AcDbLine
 62
7
  6
CONTINUOUS
 10
8.7670473175
 20
-0.1632858691
 11
8.484204605
 21
0.0000239683
  0
LWPOLYLINE
  5
274
100
AcDbEntity
  8
ASSI
100
AcDbPolyline
 62
7
  6
CONTINUOUS
 90
11
 70
0
 10
4.7272220764
 20
-3.4133547947
 10
4.69355551
 20
-3.435152734
 10
4.6522653531
 20
-3.469787838
 10
4.6149055968
 20
-3.5107128797
 10
4.5821953354
 20
-3.5571401408
 10
4.5542246395
 20
-3.609176211
 10
4.5309034385
 20
-3.6667145006
 10
4.5126806149
 20
-3.7286475222
 10
4.4997057963
 20
-3.7946061136
 10
4.4918293551
 20
-3.864959437
 10
4.4890512913
 20
-3.9397074926
  0
LINE
  5
275
100
AcDbEntity
  8
DRAFT
100
AcDbLine
 62
7
  6
CONTINUOUS
 10
8.9397513535
 20
-0.7958814481
 11
7.7770978238
 21
-1.4699381694
  0
LINE
  5
276
100
AcDbEntity
  8
0
100
AcDbLine
 62
7
  6
CONTINUOUS
 10
10.1812608798
 20
0.6532633176
 11
8.7670473175
 21
-0.1632858691
  0
LINE
  5
277
100
AcDbEntity
  8
DRAFT
100
AcDbLine
 62
7
  6
CONTINUOUS
 10
7.7770978238
 20
-1.4699381694
 11
6.6062989756
 21
-2.1431876061
  0
LINE
  5
278
100
AcDbEntity
  8
RACCORDO
100
AcDbLine
 62
7
  6
CONTINUOUS
 10
8.2350302809
 20
0.4247312536
 11
5.4749294181
 21
2.0183788996
  0
LINE
  5
279
100
AcDbEntity
  8
RACCORDO
100
AcDbLine
 62
7
  6
CONTINUOUS
 10
-3.1436305787
 20
6.9946274258
 11
-5.9037314415
 21
8.5882750718
  0
LINE
  5
27A
100
AcDbEntity
  8
0
100
AcDbLine
 62
7
  6
CONTINUOUS
 10
11.0651614397
 20
-0.2650881966
 11
11.2419210516
 21
-0.3671469812
  0
LINE
  5
27B
100
AcDbEntity
  8
DRAFT
100
AcDbLine
 62
7
  6
CONTINUOUS
 10
12.4515897876
 20
-0.8205153733
 11
12.1965152062
 21
-0.6732385069
  0
LINE
  5
27C
100
AcDbEntity
  8
0
100
AcDbLine
 62
7
  6
CONTINUOUS
 10
7.7770978238
 20
2.0412785701
 11
8.0599405363
 21
1.8779687328
  0
LINE
  5
27D
100
AcDbEntity
  8
DRAFT
100
AcDbLine
 62
7
  6
CONTINUOUS
 10
5.901577903
 20
-0.9225749044
 11
6.6062989756
 21
-2.1431876061
  0
LWPOLYLINE
  5
27E
100
AcDbEntity
  8
ASSI
100
AcDbPolyline
 62
7
  6
CONTINUOUS
 90
31
 70
0
 10
6.115396888
 20
-4.8787390572
 10
6.1126188242
 20
-4.8007829632
 10
6.104742383
 20
-4.7213341229
 10
6.0917675644
 20
-4.6403925362
 10
6.0735447408
 20
-4.5574162546
 10
6.0502235398
 20
-4.4729472267
 10
6.0222528439
 20
-4.388611298
 10
5.9895425825
 20
-4.304411047
 10
5.9521828262
 20
-4.2203438952
 10
5.9108926694
 20
-4.138027953
 10
5.8655959717
 20
-4.0574971451
 10
5.8163688734
 20
-3.9787175467
 10
5.7641588894
 20
-3.9032054944
 10
5.7089082349
 20
-3.8310242873
 10
5.6506746946
 20
-3.7621106263
 10
5.590579138
 20
-3.6977909498
 10
5.5285854938
 20
-3.6381542531
 10
5.4647298332
 20
-3.5831115409
 10
5.4002412392
 20
-3.533722266
 10
5.3351074506
 20
-3.4900959476
 10
5.2693407287
 20
-3.4521230666
 10
5.2042069401
 20
-3.4205345186
 10
5.1397183461
 20
-3.3954539816
 10
5.0758626856
 20
-3.3767577775
 10
5.0138690413
 20
-3.3648057679
 10
4.9537734847
 20
-3.3597286019
 10
4.8955399445
 20
-3.3613956303
 10
4.8402892899
 20
-3.3697747664
 10
4.7880793059
 20
-3.3849960379
 10
4.7388522076
 20
-3.4069294171
 10
4.7272220764
 20
-3.4133547947
  0
LINE
  5
27F
100
AcDbEntity
  8
0
100
AcDbLine
 62
7
  6
CONTINUOUS
 10
6.115396888
 20
12.3500818504
 11
6.115396888
 21
12.1459445537
  0
LINE
  5
280
100
AcDbEntity
  8
DRAFT
100
AcDbLine
 62
7
  6
CONTINUOUS
 10
6.6062989756
 20
-2.1431876061
 11
6.6062989756
 21
-8.1811719342
  0
LINE
  5
281
100
AcDbEntity
  8
0
100
AcDbLine
 62
7
  6
CONTINUOUS
 10
6.6103716349
 20
12.8808388217
 11
6.6103716349
 21
12.6358740657
  0
LINE
  5
282
100
AcDbEntity
  8
DRAFT
100
AcDbLine
 62
7
  6
CONTINUOUS
 10
12.4515897876
 20
-0.8205153733
 11
8.9397513535
 21
-2.8624124732
  0
LINE
  5
283
100
AcDbEntity
  8
0
100
AcDbLine
 62
7
  6
CONTINUOUS
 10
11.2419210516
 20
-0.3671469812
 11
10.8884018278
 21
-0.5712645504
  0
LINE
  5
284
100
AcDbEntity
  8
0
100
AcDbLine
 62
7
  6
CONTINUOUS
 10
12.3025812234
 20
-0.571205368
 11
8.9397513535
 21
-2.5129795535
  0
LINE
  5
285
100
AcDbEntity
  8
0
100
AcDbLine
 62
7
  6
CONTINUOUS
 10
12.1965152062
 20
-0.6732385069
 11
8.9397513535
 21
-2.5536531386
  0
LINE
  5
286
100
AcDbEntity
  8
0
100
AcDbLine
 62
7
  6
CONTINUOUS
 10
2.8627056946
 20
-6.0624631388
 11
-3.4583127891
 21
-9.7121399904
  0
LINE
  5
287
100
AcDbEntity
  8
DRAFT
100
AcDbLine
 62
7
  6
CONTINUOUS
 10
3.1407352643
 20
-6.2229939279
 11
-3.4583127891
 21
-10.0066937232
  0
LINE
  5
288
100
AcDbEntity
  8
RACCORDO
100
AcDbLine
 62
7
  6
CONTINUOUS
 10
-1.263256671
 20
8.0652258619
 11
7.3422214507
 21
3.0965306465
  0
LINE
  5
289
100
AcDbEntity
  8
0
100
AcDbLine
 62
7
  6
CONTINUOUS
 10
7.7770978238
 20
3.1026899299
 11
-0.7081835504
 21
8.0019850499
  0
LINE
  5
28A
100
AcDbEntity
  8
0
100
AcDbLine
 62
7
  6
CONTINUOUS
 10
-0.9910262629
 20
8.4510594841
 11
8.0599405363
 21
3.2251446895
  0
LINE
  5
28B
100
AcDbEntity
  8
0
100
AcDbLine
 62
7
  6
CONTINUOUS
 10
14.8128102966
 20
-0.2648692217
 11
14.6360336013
 21
-0.1628005734
  0
LINE
  5
28C
100
AcDbEntity
  8
DRAFT
100
AcDbLine
 62
7
  6
CONTINUOUS
 10
7.0699910426
 20
-0.2451932993
 11
7.7770978238
 21
-1.4699381694
  0
LINE
  5
28D
100
AcDbEntity
  8
RACCORDO
100
AcDbLine
 62
7
  6
CONTINUOUS
 10
7.5543521927
 20
1.9657162998
 11
7.5543521927
 21
2.7291094239
  0
LINE
  5
28E
100
AcDbEntity
  8
0
100
AcDbLine
 62
7
  6
CONTINUOUS
 10
7.7770978238
 20
3.1026899299
 11
7.7770978238
 21
2.0412785701
  0
LINE
  5
28F
100
AcDbEntity
  8
DRAFT
100
AcDbLine
 62
7
  6
CONTINUOUS
 10
7.7770978238
 20
-1.4699381694
 11
7.7770978238
 21
-7.5118182177
  0
LINE
  5
290
100
AcDbEntity
  8
0
100
AcDbLine
 62
7
  6
CONTINUOUS
 10
8.0599405363
 20
3.2251446895
 11
8.0599405363
 21
1.8779687328
  0
LINE
  5
291
100
AcDbEntity
  8
0
100
AcDbLine
 62
7
  6
CONTINUOUS
 10
9.8984181674
 20
0.8165731549
 11
10.9590783391
 21
2.6538088249
  0
LINE
  5
292
100
AcDbEntity
  8
0
100
AcDbLine
 62
7
  6
CONTINUOUS
 10
11.2419210516
 20
2.4904989876
 11
10.1812608798
 21
0.6532633176
  0
LWPOLYLINE
  5
293
100
AcDbEntity
  8
ASSI
100
AcDbPolyline
 62
7
  6
CONTINUOUS
 90
11
 70
0
 10
5.8772261029
 20
-5.4050917551
 10
5.9108926694
 20
-5.3832938158
 10
5.9521828262
 20
-5.3486587117
 10
5.9895425825
 20
-5.30773367
 10
6.0222528439
 20
-5.2613064089
 10
6.0502235398
 20
-5.2092703388
 10
6.0735447408
 20
-5.1517320492
 10
6.0917675644
 20
-5.0897990275
 10
6.104742383
 20
-5.0238404362
 10
6.1126188242
 20
-4.9534871128
 10
6.115396888
 20
-4.8787390572
  0
LINE
  5
294
100
AcDbEntity
  8
RACCORDO
100
AcDbLine
 62
253
  6
CONTINUOUS
 10
14.2484179699
 20
-0.5120988547
 11
8.9397513535
 21
-3.6202021143
  0
LINE
  5
295
100
AcDbEntity
  8
RACCORDO
100
AcDbLine
 62
7
  6
CONTINUOUS
 10
14.1868163456
 20
-0.6491154796
 11
8.9397513535
 21
-3.7211523928
  0
LINE
  5
296
100
AcDbEntity
  8
0
100
AcDbLine
 62
7
  6
CONTINUOUS
 10
14.6360336013
 20
-0.1628005734
 11
14.2484179699
 21
-0.3866049811
  0
LINE
  5
297
100
AcDbEntity
  8
0
100
AcDbLine
 62
7
  6
CONTINUOUS
 10
-5.5872203406
 20
-11.8394539426
 11
-6.1175504265
 21
-12.1456598876
  0
LINE
  5
298
100
AcDbEntity
  8
0
100
AcDbLine
 62
7
  6
CONTINUOUS
 10
15.5199170778
 20
0.1434053716
 11
14.8128102966
 21
-0.2648692217
  0
LINE
  5
299
100
AcDbEntity
  8
0
100
AcDbLine
 62
7
  6
CONTINUOUS
 10
-6.1175504265
 20
-12.3497971842
 11
-6.6125251733
 21
-12.6355893996
  0
LINE
  5
29A
100
AcDbEntity
  8
0
100
AcDbLine
 62
7
  6
CONTINUOUS
 10
16.4391558933
 20
0.4291975869
 11
15.7320491122
 21
0.0209229936
  0
LINE
  5
29B
100
AcDbEntity
  8
0
100
AcDbLine
 62
7
  6
CONTINUOUS
 10
-6.6125251733
 20
-12.8805541556
 11
-7.3196319545
 21
-13.2888287489
  0
LINE
  5
29C
100
AcDbEntity
  8
RACCORDO
100
AcDbLine
 62
253
  6
CONTINUOUS
 10
3.3536077822
 20
-6.8718848007
 11
-5.2677291909
 21
-11.7804776306
  0
LINE
  5
29D
100
AcDbEntity
  8
RACCORDO
100
AcDbLine
 62
7
  6
CONTINUOUS
 10
3.2909590765
 20
-7.0095059973
 11
-5.3303778966
 21
-11.9180988272
  0
LINE
  5
29E
100
AcDbEntity
  8
0
100
AcDbLine
 62
7
  6
CONTINUOUS
 10
10.9590783391
 20
2.6538088249
 11
11.2419210516
 21
2.4904989876
  0
LINE
  5
29F
100
AcDbEntity
  8
0
100
AcDbLine
 62
7
  6
CONTINUOUS
 10
15.7320491122
 20
0.0209229936
 11
15.5199170778
 21
0.1434053716
  0
LINE
  5
2A0
100
AcDbEntity
  8
DRAFT
100
AcDbLine
 62
7
  6
CONTINUOUS
 10
10.3933929142
 20
3.91930619
 11
10.6547616053
 21
3.7683951835
  0
LINE
  5
2A1
100
AcDbEntity
  8
DRAFT
100
AcDbLine
 62
7
  6
CONTINUOUS
 10
8.2350302809
 20
0.4247312536
 11
8.9397513535
 21
-0.7958814481
  0
LINE
  5
2A2
100
AcDbEntity
  8
0
100
AcDbLine
 62
7
  6
CONTINUOUS
 10
8.7670473175
 20
-0.1632858691
 11
8.7670473175
 21
-0.4967492833
  0
LINE
  5
2A3
100
AcDbEntity
  8
DRAFT
100
AcDbLine
 62
7
  6
CONTINUOUS
 10
8.9397513535
 20
-0.7958814481
 11
8.9397513535
 21
-6.8338657762
  0
LINE
  5
2A4
100
AcDbEntity
  8
0
100
AcDbLine
 62
7
  6
CONTINUOUS
 10
11.2419210516
 20
0.0410881572
 11
10.1812608798
 21
-1.7961475128
  0
LINE
  5
2A5
100
AcDbEntity
  8
0
100
AcDbLine
 62
7
  6
CONTINUOUS
 10
10.1812608798
 20
4.4499684695
 11
1.1302940807
 21
9.6758832641
  0
LINE
  5
2A6
100
AcDbEntity
  8
0
100
AcDbLine
 62
7
  6
CONTINUOUS
 10
10.3933929142
 20
4.6133059253
 11
1.90811154
 21
9.5126010452
  0
LINE
  5
2A7
100
AcDbEntity
  8
RACCORDO
100
AcDbLine
 62
7
  6
CONTINUOUS
 10
10.4426308633
 20
4.886669396
 11
1.8588735909
 21
9.8428232653
  0
LINE
  5
2A8
100
AcDbEntity
  8
0
100
AcDbLine
 62
7
  6
CONTINUOUS
 10
12.0197385109
 20
4.4909261301
 11
12.3025812234
 21
4.3276162927
  0
LINE
  5
2A9
100
AcDbEntity
  8
0
100
AcDbLine
 62
7
  6
CONTINUOUS
 10
10.1812608798
 20
0.6532633176
 11
10.1812608798
 21
-1.7961475128
  0
LINE
  5
2AA
100
AcDbEntity
  8
0
100
AcDbLine
 62
7
  6
CONTINUOUS
 10
10.1812608798
 20
3.1027925128
 11
10.1812608798
 21
4.4499684695
  0
LINE
  5
2AB
100
AcDbEntity
  8
0
100
AcDbLine
 62
7
  6
CONTINUOUS
 10
10.3933929142
 20
4.6133059253
 11
10.3933929142
 21
3.91930619
  0
LINE
  5
2AC
100
AcDbEntity
  8
RACCORDO
100
AcDbLine
 62
7
  6
CONTINUOUS
 10
10.6547616053
 20
4.5192481734
 11
10.6547616053
 21
3.7683951835
  0
LINE
  5
2AD
100
AcDbEntity
  8
0
100
AcDbLine
 62
7
  6
CONTINUOUS
 10
10.9590783391
 20
2.7354242886
 11
10.9590783391
 21
2.6538088249
  0
LINE
  5
2AE
100
AcDbEntity
  8
0
100
AcDbLine
 62
7
  6
CONTINUOUS
 10
11.2419210516
 20
2.898734126
 11
11.2419210516
 21
-0.3671469812
  0
LINE
  5
2AF
100
AcDbEntity
  8
DRAFT
100
AcDbLine
 62
7
  6
CONTINUOUS
 10
8.9397513535
 20
-6.8338657762
 11
7.7770978238
 21
-7.5118182177
  0
LINE
  5
2B0
100
AcDbEntity
  8
DRAFT
100
AcDbLine
 62
7
  6
CONTINUOUS
 10
5.901577903
 20
-8.5879904056
 11
6.6062989756
 21
-8.1811719342
  0
LINE
  5
2B1
100
AcDbEntity
  8
DRAFT
100
AcDbLine
 62
7
  6
CONTINUOUS
 10
7.7770978238
 20
-7.5118182177
 11
6.6062989756
 21
-8.1811719342
  0
LINE
  5
2B2
100
AcDbEntity
  8
DRAFT
100
AcDbLine
 62
7
  6
CONTINUOUS
 10
7.0699910426
 20
-7.9200139011
 11
5.901577903
 21
-8.5879904056
  0
LINE
  5
2B3
100
AcDbEntity
  8
0
100
AcDbLine
 62
7
  6
CONTINUOUS
 10
12.1965152062
 20
4.6648208778
 11
12.1965152062
 21
4.3888574817
  0
LINE
  5
2B4
100
AcDbEntity
  8
0
100
AcDbLine
 62
7
  6
CONTINUOUS
 10
12.1965152062
 20
-0.632446557
 11
12.1965152062
 21
-0.6732385069
  0
LINE
  5
2B5
100
AcDbEntity
  8
0
100
AcDbLine
 62
7
  6
CONTINUOUS
 10
12.3025812234
 20
-0.571205368
 11
12.3025812234
 21
4.3276162927
  0
LINE
  5
2B6
100
AcDbEntity
  8
DRAFT
100
AcDbLine
 62
7
  6
CONTINUOUS
 10
12.4515897876
 20
4.8131295365
 11
12.4515897876
 21
-0.8205153733
  0
LINE
  5
2B7
100
AcDbEntity
  8
RACCORDO
100
AcDbLine
 62
7
  6
CONTINUOUS
 10
14.2484179699
 20
6.594181724
 11
14.2484179699
 21
-0.5120988547
  0
LINE
  5
2B8
100
AcDbEntity
  8
0
100
AcDbLine
 62
7
  6
CONTINUOUS
 10
14.0362872279
 20
6.9616029466
 11
5.4777063944
 21
11.9032202557
  0
LINE
  5
2B9
100
AcDbEntity
  8
0
100
AcDbLine
 62
7
  6
CONTINUOUS
 10
14.8128102966
 20
7.3283043524
 11
14.6360336013
 21
7.4303730008
  0
LINE
  5
2BA
100
AcDbEntity
  8
0
100
AcDbLine
 62
7
  6
CONTINUOUS
 10
6.2921735833
 20
12.248013202
 11
6.115396888
 21
12.3500818504
  0
LINE
  5
2BB
100
AcDbEntity
  8
0
100
AcDbLine
 62
7
  6
CONTINUOUS
 10
14.6360336013
 20
7.4303730008
 11
14.6360336013
 21
-0.1628005734
  0
LINE
  5
2BC
100
AcDbEntity
  8
0
100
AcDbLine
 62
7
  6
CONTINUOUS
 10
14.8128102966
 20
7.3283043524
 11
14.8128102966
 21
-0.2648692217
  0
LINE
  5
2BD
100
AcDbEntity
  8
0
100
AcDbLine
 62
7
  6
CONTINUOUS
 10
15.5199170778
 20
7.7365789458
 11
15.5199170778
 21
0.1434053716
  0
LINE
  5
2BE
100
AcDbEntity
  8
0
100
AcDbLine
 62
7
  6
CONTINUOUS
 10
15.7320491122
 20
7.6140965678
 11
15.5199170778
 21
7.7365789458
  0
LINE
  5
2BF
100
AcDbEntity
  8
0
100
AcDbLine
 62
7
  6
CONTINUOUS
 10
6.8225036692
 20
12.7583564437
 11
6.6103716349
 21
12.8808388217
  0
LINE
  5
2C0
100
AcDbEntity
  8
0
100
AcDbLine
 62
7
  6
CONTINUOUS
 10
7.317478416
 20
13.289113415
 11
16.4391558933
 21
8.0223711611
  0
LINE
  5
2C1
100
AcDbEntity
  8
0
100
AcDbLine
 62
7
  6
CONTINUOUS
 10
15.7320491122
 20
7.6140965678
 11
15.7320491122
 21
0.0209229936
  0
LINE
  5
2C2
100
AcDbEntity
  8
0
100
AcDbLine
 62
7
  6
CONTINUOUS
 10
16.4391558933
 20
8.0223711611
 11
16.4391558933
 21
0.4291975869
  0
ELLIPSE
  5
2C3
100
AcDbEntity
  8
RACCORDO
100
AcDbEllipse
 62
7
  6
CONTINUOUS
 10
-10.444781817
 20
2.4939012737
 30
0.0
 11
-0.1500090756
 21
0.2598066021
 31
0.0
 40
0.5773246348
 41
-0.7854403913
 42
0.0034904617
  0
ELLIPSE
  5
2C4
100
AcDbEntity
  8
RACCORDO
100
AcDbEllipse
 62
7
  6
CONTINUOUS
 10
-1.2632540862
 20
7.8202817942
 30
0.0
 11
-0.1500090756
 21
0.2598066021
 31
0.0
 40
0.5773246348
 41
-0.7854403913
 42
-0.0034904454
  0
ELLIPSE
  5
2C5
100
AcDbEntity
  8
RACCORDO
100
AcDbEllipse
 62
7
  6
CONTINUOUS
 10
5.4777089792
 20
11.6582761879
 30
0.0
 11
-0.1500090756
 21
0.2598066021
 31
0.0
 40
0.5773246348
 41
-0.7854403913
 42
-0.0034904454
  0
ELLIPSE
  5
2C6
100
AcDbEntity
  8
RACCORDO
100
AcDbEllipse
 62
7
  6
CONTINUOUS
 10
14.0362846431
 20
-0.389612746
 30
0.0
 11
-0.1500090756
 21
0.2598066021
 31
0.0
 40
0.5773246348
 41
-3.1381021919
 42
-2.3562489028
  0
ELLIPSE
  5
2C7
100
AcDbEntity
  8
RACCORDO
100
AcDbEllipse
 62
7
  6
CONTINUOUS
 10
14.0362846431
 20
6.7166618637
 30
0.0
 11
-0.1500072483
 21
0.2598034362
 31
0.0
 40
0.577338704
 41
-2.3562367205
 42
-0.7854525783
  0
ELLIPSE
  5
2C8
100
AcDbEntity
  8
RACCORDO
100
AcDbEllipse
 62
7
  6
CONTINUOUS
 10
-1.8610297141
 20
-2.4622496108
 30
0.0
 11
-0.1500072483
 21
0.2598034362
 31
0.0
 40
0.577338704
 41
-2.3562367205
 42
-0.7854525783
  0
ELLIPSE
  5
2C9
100
AcDbEntity
  8
RACCORDO
100
AcDbEllipse
 62
7
  6
CONTINUOUS
 10
7.3422188659
 20
2.8515895636
 30
0.0
 11
-0.1500072483
 21
0.2598034362
 31
0.0
 40
0.577338704
 41
-2.3562367205
 42
-0.7854525783
  0
ELLIPSE
  5
2CA
100
AcDbEntity
  8
RACCORDO
100
AcDbEllipse
 62
7
  6
CONTINUOUS
 10
1.8588761757
 20
9.5978791976
 30
0.0
 11
-0.1500090756
 21
0.2598066021
 31
0.0
 40
0.5773246348
 41
-0.7854403913
 42
0.7853437508
  0
ELLIPSE
  5
2CB
100
AcDbEntity
  8
RACCORDO
100
AcDbEllipse
 62
7
  6
CONTINUOUS
 10
10.4426282785
 20
4.6417283131
 30
0.0
 11
-0.1500072483
 21
0.2598034362
 31
0.0
 40
0.577338704
 41
-2.3562367205
 42
-0.7854525783
  0
ELLIPSE
  5
2CC
100
AcDbEntity
  8
RACCORDO
100
AcDbEllipse
 62
7
  6
CONTINUOUS
 10
-14.0384381816
 20
0.3898974121
 30
0.0
 11
-0.1500090756
 21
0.2598066021
 31
0.0
 40
0.5773246348
 41
-0.7854403913
 42
0.7853437508
  0
ELLIPSE
  5
2CD
100
AcDbEntity
  8
RACCORDO
100
AcDbEllipse
 62
7
  6
CONTINUOUS
 10
-5.4770803718
 20
5.4023772001
 30
0.0
 11
-0.1500090756
 21
0.2598066021
 31
0.0
 40
0.5773246348
 41
-0.7854403913
 42
0.0034904617
  0
ELLIPSE
  5
2CE
100
AcDbEntity
  8
RACCORDO
100
AcDbEllipse
 62
7
  6
CONTINUOUS
 10
3.1414744554
 20
-6.7493986919
 30
0.0
 11
-0.1500090756
 21
0.2598066021
 31
0.0
 40
0.5773246348
 41
-3.1450830989
 42
-2.3562489028
  0
ELLIPSE
  5
2CF
100
AcDbEntity
  8
RACCORDO
100
AcDbEllipse
 62
7
  6
CONTINUOUS
 10
3.1414744554
 20
0.4261316587
 30
0.0
 11
-0.1500072483
 21
0.2598034362
 31
0.0
 40
0.577338704
 41
-2.3562367205
 42
-0.7854525783
  0
ELLIPSE
  5
2D0
100
AcDbEntity
  8
RACCORDO
100
AcDbEllipse
 62
7
  6
CONTINUOUS
 10
-5.4798625176
 20
-11.6579915218
 30
0.0
 11
-0.1500090756
 21
0.2598066021
 31
0.0
 40
0.5773246348
 41
2.3561522622
 42
3.9269364044
  0
ELLIPSE
  5
2D1
100
AcDbEntity
  8
RACCORDO
100
AcDbEllipse
 62
7
  6
CONTINUOUS
 10
-5.4798625176
 20
-4.5517169121
 30
0.0
 11
-0.1500072483
 21
0.2598034362
 31
0.0
 40
0.577338704
 41
-2.3562367205
 42
-0.7854525783
  0
ELLIPSE
  5
2D2
100
AcDbEntity
  8
RACCORDO
100
AcDbEllipse
 62
7
  6
CONTINUOUS
 10
-7.3443724044
 20
4.3091202916
 30
0.0
 11
-0.1500090756
 21
0.2598066021
 31
0.0
 40
0.5773246348
 41
-0.7854403913
 42
0.7853437508
  0
ELLIPSE
  5
2D3
100
AcDbEntity
  8
RACCORDO
100
AcDbEllipse
 62
7
  6
CONTINUOUS
 10
1.2611005477
 20
-0.6595719391
 30
0.0
 11
-0.1500072483
 21
0.2598034362
 31
0.0
 40
0.577338704
 41
-2.3562367205
 42
-0.7854525783
  0
ENDSEC
  0
SECTION
  2
OBJECTS
  0
DICTIONARY
  5
C
100
AcDbDictionary
280
0
281
1
  3
ACAD_GROUP
350
D
  3
ACAD_MLINESTYLE
350
17
  3
ACAD_LAYOUT
350
1A
  3
ACAD_PLOTSETTINGS
350
19
  3
ACAD_PLOTSTYLENAME
350
E
  0
DICTIONARY
  5
D
102
{ACAD_REACTORS
330
C
102
}
100
AcDbDictionary
280
0
281
1
  0
ACDBDICTIONARYWDFLT
  5
E
102
{ACAD_REACTORS
330
C
102
}
100
AcDbDictionary
281
1
  3
Normal
350
F
100
AcDbDictionaryWithDefault
340
F
  0
DICTIONARY
  5
17
102
{ACAD_REACTORS
330
C
102
}
100
AcDbDictionary
280
0
281
1
  3
Standard
350
18
  0
DICTIONARY
  5
19
102
{ACAD_REACTORS
330
C
102
}
100
AcDbDictionary
281
1
  0
DICTIONARY
  5
1A
102
{ACAD_REACTORS
330
C
102
}
100
AcDbDictionary
281
1
  3
Model
350
2D4
  3
Layout1
350
2D5
  0
ACDBPLACEHOLDER
  5
F
102
{ACAD_REACTORS
330
E
102
}
  0
MLINESTYLE
  5
18
102
{ACAD_REACTORS
330
17
102
}
100
AcDbMlineStyle
  2
STANDARD
 70
0
  3

 62
256
 51
90.0
 52
90.0
 71
2
 49
0.5
 62
256
  6
BYLAYER
 49
-0.5
 62
256
  6
BYLAYER
  0
LAYOUT
  5
2D4
102
{ACAD_REACTORS
330
1A
102
}
100
AcDbPlotSettings
  1

  2
none_device
  4
ISO_A4_(297.00_x_210.00_MM)
  6

 40
0.0
 41
0.0
 42
0.0
 43
0.0
 44
297.0
 45
210.0
 46
0.0
 47
0.0
 48
0.0
 49
0.0
140
0.0
141
0.0
142
1.0
143
1.0
 70
1024
 72
1
 73
0
 74
0
  7

 75
0
147
1.0
148
0.0
149
0.0
100
AcDbLayout
  1
Model
 70
0
 71
0
 10
0.0
 20
0.0
 11
297.0
 21
210.0
 12
0.0
 22
0.0
 32
0.0
 14
0.0
 24
0.0
 34
0.0
 15
0.0
 25
0.0
 35
0.0
146
0.0
 13
0.0
 23
0.0
 33
0.0
 16
1.0
 26
0.0
 36
0.0
 17
0.0
 27
1.0
 37
0.0
 76
0
330
20F
345
0
346
0
  0
LAYOUT
  5
2D5
102
{ACAD_REACTORS
330
1A
102
}
100
AcDbPlotSettings
  1

  2
none_device
  4
ISO_A4_(297.00_x_210.00_MM)
  6

 40
0.0
 41
0.0
 42
0.0
 43
0.0
 44
297.0
 45
210.0
 46
0.0
 47
0.0
 48
0.0
 49
0.0
140
0.0
141
0.0
142
1.0
143
1.0
 70
0
 72
1
 73
0
 74
0
  7

 75
0
147
1.0
148
0.0
149
0.0
100
AcDbLayout
  1
Layout1
 70
0
 71
1
 10
0.0
 20
0.0
 11
297.0
 21
210.0
 12
0.0
 22
0.0
 32
0.0
 14
0.0
 24
0.0
 34
0.0
 15
0.0
 25
0.0
 35
0.0
146
0.0
 13
0.0
 23
0.0
 33
0.0
 16
1.0
 26
0.0
 36
0.0
 17
0.0
 27
1.0
 37
0.0
 76
0
330
210
345
0
346
0
  0
ENDSEC
  0
EOF
