  0
SECTION
  2
HEADER
  9
$ACADVER
  1
AC1015
  9
$DWGCODEPAGE
  3
ANSI_1252
  9
$EXTMAX
 10
297.0
 20
210.0
 30
0.0
  9
$EXTMIN
 10
0.0
 20
0.0
 30
0.0
  9
$LIMMIN
 10
0.0
 20
0.0
  9
$LIMMAX
 10
297.0
 20
210.0
  9
$VIEWCTR
 10
148.5
 20
105.0
  9
$VIEWSIZE
 40
210.0
  9
$CLAYER
  8
0
  9
$LTSCALE
 40
16.335
  9
$CELTYPE
  6
BYLAYER
  9
$DIMSCALE
 40
1.0
  9
$DIMASZ
 40
3.0
  9
$DIMEXO
 40
1.85625
  9
$DIMDLI
 40
11.286
  9
$DIMEXE
 40
5.346
  9
$DIMCEN
 40
2.673
  9
$DIMLFAC
 40
1.0
  9
$DIMBLK
  1
_FILLED
  9
$DIMTXT
 40
3.0
  9
$DIMTOL
 70
1
  9
$DIMLIM
 70
0
  9
$DIMTFAC
 40
1.0
  9
$DIMTP
 40
0.01
  9
$DIMTM
 40
0.01
  9
$PDMODE
 70
3
  9
$PDSIZE
 40
3.0
  9
$HANDSEED
  5
2D3
  9
$TILEMODE
 70
1
  9
$MEASUREMENT
 70
1
  9
$INSUNITS
 70
4
  0
ENDSEC
  0
SECTION
  2
CLASSES
  0
CLASS
  1
ACDBDICTIONARYWDFLT
  2
AcDbDictionaryWithDefault
  3
AutoCAD 2000
 90
0
280
0
281
0
  0
CLASS
  1
ACDBPLACEHOLDER
  2
AcDbPlaceHolder
  3
AutoCAD 2000
 90
0
280
0
281
0
  0
CLASS
  1
LAYOUT
  2
AcDbLayout
  3
AutoCAD 2000
 90
0
280
0
281
0
  0
ENDSEC
  0
SECTION
  2
TABLES
  0
TABLE
  2
VPORT
  5
8
100
AcDbSymbolTable
 70
2
  0
VPORT
  5
1F4
100
AcDbSymbolTableRecord
100
AcDbViewportTableRecord
  2
*ACTIVE
 70
0
 10
0.0
 20
0.0
 11
1.0
 21
1.0
 12
148.5
 22
105.0
 13
0.0
 23
0.0
 14
1.0
 24
1.0
 15
0.0
 25
0.0
 16
0.0
 26
0.0
 36
1.0
 17
0.0
 27
0.0
 37
0.0
 40
210.0
 41
1.4142857143
 42
50.0
 43
0.0
 44
0.0
 50
0.0
 51
0.0
 71
0
 72
100
 73
1
 74
1
 75
0
 76
0
 77
0
 78
0
  0
ENDTAB
  0
TABLE
  2
LTYPE
  5
5
100
AcDbSymbolTable
 70
6
  0
LTYPE
  5
14
100
AcDbSymbolTableRecord
100
AcDbLinetypeTableRecord
  2
BYBLOCK
 70
0
  3

 72
65
 73
0
 40
0.0
  0
LTYPE
  5
15
100
AcDbSymbolTableRecord
100
AcDbLinetypeTableRecord
  2
BYLAYER
 70
0
  3

 72
65
 73
0
 40
0.0
  0
LTYPE
  5
16
100
AcDbSymbolTableRecord
100
AcDbLinetypeTableRecord
  2
CONTINUOUS
 70
64
  3
Solid line
 72
65
 73
0
 40
0.0
  0
LTYPE
  5
1F5
100
AcDbSymbolTableRecord
100
AcDbLinetypeTableRecord
  2
CENTER
 70
64
  3
____ _ ____ _ ____ _ ____ _ ____ _ ____ _ ____
 72
65
 73
4
 40
0.6
 49
0.375
 74
0
 49
-0.075
 74
0
 49
0.075
 74
0
 49
-0.075
 74
0
  0
LTYPE
  5
1F6
100
AcDbSymbolTableRecord
100
AcDbLinetypeTableRecord
  2
HIDDEN
 70
64
  3
- - - - - - - - - - - - - - - - - - - -
 72
65
 73
2
 40
0.2
 49
0.1
 74
0
 49
-0.1
 74
0
  0
LTYPE
  5
1F7
100
AcDbSymbolTableRecord
100
AcDbLinetypeTableRecord
  2
PHANTOM
 70
64
  3
_____ _ _ _____ _ _ _____ _ _ _____
 72
65
 73
6
 40
0.8
 49
0.45
 74
0
 49
-0.05
 74
0
 49
0.1
 74
0
 49
-0.05
 74
0
 49
0.1
 74
0
 49
-0.05
 74
0
  0
LTYPE
  5
1F8
100
AcDbSymbolTableRecord
100
AcDbLinetypeTableRecord
  2
DOT
 70
64
  3
. . . . . . . . . . . . . . . . . . . .
 72
65
 73
2
 40
0.2
 49
0.1
 74
0
 49
-0.1
 74
0
  0
LTYPE
  5
1F9
100
AcDbSymbolTableRecord
100
AcDbLinetypeTableRecord
  2
DASHED
 70
64
  3
- - - - - - - - - - - - - - - - - - - -
 72
65
 73
2
 40
0.2
 49
0.1
 74
0
 49
-0.1
 74
0
  0
ENDTAB
  0
TABLE
  2
LAYER
  5
2
100
AcDbSymbolTable
 70
36
  0
LAYER
  5
10
100
AcDbSymbolTableRecord
100
AcDbLayerTableRecord
  2
0
 70
0
 62
7
  6
CONTINUOUS
370
-3
390
F
  0
LAYER
  5
1FA
100
AcDbSymbolTableRecord
100
AcDbLayerTableRecord
  2
DEFAULT_1
 70
0
 62
7
  6
CENTER
370
-3
390
F
  0
LAYER
  5
1FB
100
AcDbSymbolTableRecord
100
AcDbLayerTableRecord
  2
DEFAULT_2
 70
0
 62
7
  6
HIDDEN
370
-3
390
F
  0
LAYER
  5
1FC
100
AcDbSymbolTableRecord
100
AcDbLayerTableRecord
  2
DEFAULT_3
 70
0
 62
7
  6
PHANTOM
370
-3
390
F
  0
LAYER
  5
1FD
100
AcDbSymbolTableRecord
100
AcDbLayerTableRecord
  2
ASSI
 70
0
 62
7
  6
CONTINUOUS
370
-3
390
F
  0
LAYER
  5
1FE
100
AcDbSymbolTableRecord
100
AcDbLayerTableRecord
  2
COORDINATE
 70
0
 62
7
  6
CONTINUOUS
370
-3
390
F
  0
LAYER
  5
1FF
100
AcDbSymbolTableRecord
100
AcDbLayerTableRecord
  2
COPY_PUBLISH
 70
0
 62
7
  6
CONTINUOUS
370
-3
390
F
  0
LAYER
  5
200
100
AcDbSymbolTableRecord
100
AcDbLayerTableRecord
  2
COSMETICI
 70
0
 62
7
  6
CONTINUOUS
370
-3
390
F
  0
LAYER
  5
201
100
AcDbSymbolTableRecord
100
AcDbLayerTableRecord
  2
CURVE
 70
0
 62
7
  6
CONTINUOUS
370
-3
390
F
  0
LAYER
  5
202
100
AcDbSymbolTableRecord
100
AcDbLayerTableRecord
  2
DRAFT
 70
0
 62
7
  6
CONTINUOUS
370
-3
390
F
  0
LAYER
  5
203
100
AcDbSymbolTableRecord
100
AcDbLayerTableRecord
  2
IMPORT_IGES
 70
0
 62
7
  6
CONTINUOUS
370
-3
390
F
  0
LAYER
  5
204
100
AcDbSymbolTableRecord
100
AcDbLayerTableRecord
  2
NOTE
 70
0
 62
7
  6
CONTINUOUS
370
-3
390
F
  0
LAYER
  5
205
100
AcDbSymbolTableRecord
100
AcDbLayerTableRecord
  2
PIANI
 70
0
 62
7
  6
CONTINUOUS
370
-3
390
F
  0
LAYER
  5
206
100
AcDbSymbolTableRecord
100
AcDbLayerTableRecord
  2
PUNTI
 70
0
 62
7
  6
CONTINUOUS
370
-3
390
F
  0
LAYER
  5
207
100
AcDbSymbolTableRecord
100
AcDbLayerTableRecord
  2
RACCORDO
 70
0
 62
7
  6
CONTINUOUS
370
-3
390
F
  0
LAYER
  5
208
100
AcDbSymbolTableRecord
100
AcDbLayerTableRecord
  2
SIMBOLI
 70
0
 62
7
  6
CONTINUOUS
370
-3
390
F
  0
LAYER
  5
209
100
AcDbSymbolTableRecord
100
AcDbLayerTableRecord
  2
SMUSSO
 70
0
 62
7
  6
CONTINUOUS
370
-3
390
F
  0
LAYER
  5
20A
100
AcDbSymbolTableRecord
100
AcDbLayerTableRecord
  2
SNAPLINE
 70
0
 62
7
  6
CONTINUOUS
370
-3
390
F
  0
LAYER
  5
20B
100
AcDbSymbolTableRecord
100
AcDbLayerTableRecord
  2
SUPERFICI
 70
0
 62
7
  6
CONTINUOUS
370
-3
390
F
  0
LAYER
  5
20C
100
AcDbSymbolTableRecord
100
AcDbLayerTableRecord
  2
TRASH
 70
0
 62
7
  6
CONTINUOUS
370
-3
390
F
  0
ENDTAB
  0
TABLE
  2
STYLE
  5
3
100
AcDbSymbolTable
 70
1
  0
STYLE
  5
11
100
AcDbSymbolTableRecord
100
AcDbTextStyleTableRecord
  2
STANDARD
 70
0
 40
0.0
 41
0.8
 50
0.0
 71
0
 42
0.2
  3
txt
  4

  0
STYLE
  5
20D
100
AcDbSymbolTableRecord
100
AcDbTextStyleTableRecord
  2
TEXTSTYLE_1
 70
0
 40
0.0
 41
0.8
 50
0.0
 71
0
 42
0.2
  3
gdt
  4

  0
ENDTAB
  0
TABLE
  2
VIEW
  5
6
100
AcDbSymbolTable
 70
0
  0
ENDTAB
  0
TABLE
  2
UCS
  5
7
100
AcDbSymbolTable
 70
0
  0
ENDTAB
  0
TABLE
  2
APPID
  5
9
100
AcDbSymbolTable
 70
1
  0
APPID
  5
20E
100
AcDbSymbolTableRecord
100
AcDbRegAppTableRecord
  2
ACAD
 70
0
  0
ENDTAB
  0
TABLE
  2
BLOCK_RECORD
  5
1
100
AcDbSymbolTable
 70
0
  0
BLOCK_RECORD
  5
20F
100
AcDbSymbolTableRecord
100
AcDbBlockTableRecord
  2
*Model_Space
  0
BLOCK_RECORD
  5
210
100
AcDbSymbolTableRecord
100
AcDbBlockTableRecord
  2
*Paper_Space
  0
ENDTAB
  0
TABLE
  2
DIMSTYLE
  5
A
100
AcDbSymbolTable
 70
1
100
AcDbDimStyleTable
 71
0
  0
DIMSTYLE
105
211
100
AcDbSymbolTableRecord
100
AcDbDimStyleTableRecord
  2
STANDARD
 70
0
  3

  4

 40
1.0
 41
3.0
 42
0.0625
 43
0.38
 44
0.18
 45
0.0
 46
0.0
 47
0.01
 48
0.01
140
3.0
141
0.09
142
0.0
143
25.4
144
1.0
145
0.0
146
1.0
147
0.09
 71
1.0
 72
0.0
 73
0
 74
0
 75
0
 76
0
 77
1
 78
8
170
0
171
2
172
0
173
0
174
0
175
0
176
0
177
0
178
0
270
2
271
2
272
2
273
2
274
2
275
0
280
0
281
0
282
0
283
1
284
8
285
0
286
0
287
3
288
0
340
11
  0
ENDTAB
  0
ENDSEC
  0
SECTION
  2
BLOCKS
  0
BLOCK
  5
20
100
AcDbEntity
  8
0
100
AcDbBlockBegin
  2
*Model_Space
 70
0
 10
0.0
 20
0.0
 30
0.0
  3
*Model_Space
  1

  0
ENDBLK
  5
21
100
AcDbEntity
  8
0
100
AcDbBlockEnd
  0
BLOCK
  5
1C
100
AcDbEntity
  8
0
100
AcDbBlockBegin
  2
*Paper_Space
 70
0
 10
0.0
 20
0.0
 30
0.0
  3
*Paper_Space
  1

  0
ENDBLK
  5
1D
100
AcDbEntity
  8
0
100
AcDbBlockEnd
  0
ENDSEC
  0
SECTION
  2
ENTITIES
  0
LWPOLYLINE
  5
212
100
AcDbEntity
  8
ASSI
100
AcDbPolyline
 62
7
  6
CONTINUOUS
 90
12
 70
0
 10
-16.8921251474
 20
-6.8351463535
 10
-16.8854819514
 20
-6.6448052664
 10
-16.8666469832
 20
-6.464240426
 10
-16.835620243
 20
-6.2934518325
 10
-16.7920439257
 20
-6.1314628976
 10
-16.7362758363
 20
-5.9792502096
 10
-16.6693893896
 20
-5.8397435324
 10
-16.5911691993
 20
-5.7131890085
 10
-16.5018306518
 20
-5.5993404956
 10
-16.4030933201
 20
-5.5003893305
 10
-16.29477513
 20
-5.4166241065
 10
-16.1770779587
 20
-5.347766156
  0
LINE
  5
213
100
AcDbEntity
  8
ASSI
100
AcDbLine
 62
7
  6
CONTINUOUS
 10
-15.1243581944
 20
-4.8488133865
 11
-15.1243581944
 21
-2.7398256539
  0
LWPOLYLINE
  5
214
100
AcDbEntity
  8
0
100
AcDbPolyline
 62
7
  6
CONTINUOUS
 90
12
 70
0
 10
-15.8314649756
 20
-7.3654764394
 10
-15.8278905241
 20
-7.2717488543
 10
-15.8178513243
 20
-7.1833751758
 10
-15.8013473765
 20
-7.1003554039
 10
-15.7781558092
 20
-7.0221419897
 10
-15.7484994938
 20
-6.9492824821
 10
-15.7130470437
 20
-6.8834195279
 10
-15.6716667933
 20
-6.8247120618
 10
-15.6244904083
 20
-6.773001149
 10
-15.5725814991
 20
-6.729452633
 10
-15.5158325612
 20
-6.6942519316
 10
-15.5066562321
 20
-6.689550153
  0
LINE
  5
215
100
AcDbEntity
  8
ASSI
100
AcDbLine
 62
7
  6
CONTINUOUS
 10
-14.2404747179
 20
-4.9373548544
 11
-14.2404747179
 21
-3.1817673922
  0
LINE
  5
216
100
AcDbEntity
  8
ASSI
100
AcDbLine
 62
7
  6
CONTINUOUS
 10
-13.710144632
 20
0.5653573386
 11
-13.710144632
 21
-0.3006680652
  0
LWPOLYLINE
  5
217
100
AcDbEntity
  8
0
100
AcDbPolyline
 62
7
  6
CONTINUOUS
 90
12
 70
0
 10
-14.0636980226
 20
-8.2493599159
 10
-14.0672724741
 20
-8.343087501
 10
-14.0773116738
 20
-8.4314611795
 10
-14.0938156217
 20
-8.5144809514
 10
-14.117007189
 20
-8.5926943656
 10
-14.1466635044
 20
-8.6655538731
 10
-14.1821159545
 20
-8.7314168273
 10
-14.2234962049
 20
-8.7901242935
 10
-14.2706725899
 20
-8.8418352062
 10
-14.3225814991
 20
-8.8853837222
 10
-14.379330437
 20
-8.9205844236
 10
-14.3885067661
 20
-8.9252862023
  0
LINE
  5
218
100
AcDbEntity
  8
ASSI
100
AcDbLine
 62
7
  6
CONTINUOUS
 10
-12.1651163151
 20
-0.466964441
 11
-12.1651163151
 21
-1.0731822236
  0
LINE
  5
219
100
AcDbEntity
  8
SMUSSO
100
AcDbLine
 62
7
  6
CONTINUOUS
 10
-12.1545097134
 20
-7.7897405076
 11
-12.1545097134
 21
-7.9698812543
  0
LWPOLYLINE
  5
21A
100
AcDbEntity
  8
ASSI
100
AcDbPolyline
 62
7
  6
CONTINUOUS
 90
12
 70
0
 10
-13.0030378508
 20
-8.7796900018
 10
-13.0096810468
 20
-8.9700310889
 10
-13.028516015
 20
-9.1505959292
 10
-13.0595427552
 20
-9.3213845228
 10
-13.1031190725
 20
-9.4833734576
 10
-13.1588871619
 20
-9.6355861457
 10
-13.2257736086
 20
-9.7750928228
 10
-13.3039937988
 20
-9.9016473467
 10
-13.3933323464
 20
-10.0154958597
 10
-13.4920696781
 20
-10.1144470247
 10
-13.6003878682
 20
-10.1982122487
 10
-13.7180850394
 20
-10.2670701992
  0
LWPOLYLINE
  5
21B
100
AcDbEntity
  8
ASSI
100
AcDbPolyline
 62
7
  6
CONTINUOUS
 90
12
 70
0
 10
-12.4373524259
 20
-9.0625327142
 10
-12.4307092299
 20
-8.8721916271
 10
-12.4118742618
 20
-8.6916267868
 10
-12.3808475215
 20
-8.5208381932
 10
-12.3372712043
 20
-8.3588492584
 10
-12.2815031149
 20
-8.2066365703
 10
-12.2146166681
 20
-8.0671298931
 10
-12.1363964779
 20
-7.9405753693
 10
-12.0470579303
 20
-7.8267268563
 10
-11.9483205986
 20
-7.7277756912
 10
-11.8400024085
 20
-7.6440104673
 10
-11.7223052373
 20
-7.5751525168
  0
LINE
  5
21C
100
AcDbEntity
  8
0
100
AcDbLine
 62
7
  6
CONTINUOUS
 10
-12.4840297812
 20
-9.5159499043
 11
-12.3963675738
 21
-9.559781008
  0
LINE
  5
21D
100
AcDbEntity
  8
0
100
AcDbLine
 62
7
  6
CONTINUOUS
 10
-8.0292570597
 20
-11.7433362651
 11
-6.0733913952
 21
-12.7212690974
  0
LINE
  5
21E
100
AcDbEntity
  8
0
100
AcDbLine
 62
7
  6
CONTINUOUS
 10
-6.6037214811
 20
-11.7632837314
 11
-7.7709182651
 21
-11.1796853394
  0
LWPOLYLINE
  5
21F
100
AcDbEntity
  8
SMUSSO
100
AcDbPolyline
 62
7
  6
CONTINUOUS
 90
4
 70
0
 10
-12.2408836574
 20
-7.6103251309
 10
-12.2032531999
 20
-7.8011602192
 10
-12.1762237011
 20
-7.989654661
 10
-12.1750413094
 20
-8.0030998689
  0
LINE
  5
220
100
AcDbEntity
  8
ASSI
100
AcDbLine
 62
7
  6
CONTINUOUS
 10
-11.4120475932
 20
-4.5959809545
 11
-11.4120475932
 21
-7.4198304771
  0
LWPOLYLINE
  5
221
100
AcDbEntity
  8
0
100
AcDbPolyline
 62
7
  6
CONTINUOUS
 90
12
 70
0
 10
-11.3766922541
 20
-9.5928628001
 10
-11.3731178026
 20
-9.499135215
 10
-11.3630786029
 20
-9.4107615365
 10
-11.346574655
 20
-9.3277417646
 10
-11.3233830877
 20
-9.2495283504
 10
-11.2937267723
 20
-9.1766688428
 10
-11.2582743222
 20
-9.1108058887
 10
-11.2168940718
 20
-9.0520984225
 10
-11.1697176868
 20
-9.0003875098
 10
-11.1178087776
 20
-8.9568389937
 10
-11.0610598398
 20
-8.9216382924
 10
-11.0518835107
 20
-8.9169365137
  0
LWPOLYLINE
  5
222
100
AcDbEntity
  8
ASSI
100
AcDbPolyline
 62
7
  6
CONTINUOUS
 90
7
 70
0
 10
-12.2302561212
 20
-1.6253673689
 10
-12.2104607425
 20
-1.5310025266
 10
-12.1942408616
 20
-1.4375712781
 10
-12.1815964784
 20
-1.3450736236
 10
-12.1725275929
 20
-1.253509563
 10
-12.1670342052
 20
-1.1628790964
 10
-12.1651163151
 20
-1.0731822236
  0
LINE
  5
223
100
AcDbEntity
  8
0
100
AcDbLine
 62
7
  6
CONTINUOUS
 10
-6.9572748717
 20
-10.8936867131
 11
-6.6037214811
 21
-11.0704634084
  0
LINE
  5
224
100
AcDbEntity
  8
SMUSSO
100
AcDbLine
 62
7
  6
CONTINUOUS
 10
-13.2575962921
 20
-5.5835673508
 11
-13.710144632
 21
-5.2441560958
  0
LWPOLYLINE
  5
225
100
AcDbEntity
  8
SMUSSO
100
AcDbPolyline
 62
7
  6
CONTINUOUS
 90
16
 70
0
 10
-13.7101445055
 20
-5.2441561907
 10
-13.6663256786
 20
-5.277666291
 10
-13.5258555784
 20
-5.3940022559
 10
-13.3885917235
 20
-5.5214633256
 10
-13.2553021432
 20
-5.6593361654
 10
-13.126732276
 20
-5.8068494861
 10
-13.003601106
 20
-5.9631781421
 10
-12.8865974423
 20
-6.1274473315
 10
-12.7763754926
 20
-6.2987382261
 10
-12.6735515802
 20
-6.4760926627
 10
-12.5787008683
 20
-6.6585180969
 10
-12.492353524
 20
-6.8449942635
 10
-12.4149922197
 20
-7.0344781227
 10
-12.347049582
 20
-7.2259091096
 10
-12.2889051728
 20
-7.4182165359
 10
-12.2408836574
 20
-7.6103251309
  0
LWPOLYLINE
  5
226
100
AcDbEntity
  8
SMUSSO
100
AcDbPolyline
 62
7
  6
CONTINUOUS
 90
18
 70
0
 10
-13.257596326
 20
-5.5835673253
 10
-13.1497458358
 20
-5.6700478107
 10
-13.0444184106
 20
-5.765777755
 10
-12.9422619757
 20
-5.8701626976
 10
-12.8439390633
 20
-5.9825256647
 10
-12.7500873547
 20
-6.1021379249
 10
-12.661315517
 20
-6.2282237481
 10
-12.5781992727
 20
-6.3599654206
 10
-12.5012776778
 20
-6.4965085246
 10
-12.4310495982
 20
-6.6369675243
 10
-12.3679704905
 20
-6.7804314867
 10
-12.3124494558
 20
-6.925969965
 10
-12.2648465646
 20
-7.0726390853
 10
-12.2254705354
 20
-7.2194876396
 10
-12.1945767368
 20
-7.3655632295
 10
-12.1723655173
 20
-7.509918491
 10
-12.1589809119
 20
-7.6516172388
 10
-12.1545097134
 20
-7.7897404892
  0
LINE
  5
227
100
AcDbEntity
  8
ASSI
100
AcDbLine
 62
7
  6
CONTINUOUS
 10
-10.6589788712
 20
-1.2200331629
 11
-10.6589788712
 21
-1.8262509456
  0
LINE
  5
228
100
AcDbEntity
  8
ASSI
100
AcDbLine
 62
7
  6
CONTINUOUS
 10
-9.7857019964
 20
-7.1647412152
 11
-9.7857019964
 21
-5.4091537529
  0
LWPOLYLINE
  5
229
100
AcDbEntity
  8
ASSI
100
AcDbPolyline
 62
7
  6
CONTINUOUS
 90
7
 70
0
 10
-10.7241186772
 20
-2.3784360909
 10
-10.7043232986
 20
-2.2840712485
 10
-10.6881034177
 20
-2.1906400001
 10
-10.6754590345
 20
-2.0981423456
 10
-10.666390149
 20
-2.006578285
 10
-10.6608967612
 20
-1.9159478183
 10
-10.6589788712
 20
-1.8262509456
  0
LINE
  5
22A
100
AcDbEntity
  8
SMUSSO
100
AcDbLine
 62
7
  6
CONTINUOUS
 10
-8.3007777559
 20
5.4620717983
 11
-9.3614379277
 21
4.6933637785
  0
LINE
  5
22B
100
AcDbEntity
  8
SMUSSO
100
AcDbLine
 62
7
  6
CONTINUOUS
 10
-5.6844826656
 20
6.7702193435
 11
-8.3007777559
 21
5.4620717983
  0
LINE
  5
22C
100
AcDbEntity
  8
SMUSSO
100
AcDbLine
 62
7
  6
CONTINUOUS
 10
-8.8028235706
 20
-7.8109537115
 11
-9.2553719105
 21
-7.4715424566
  0
LWPOLYLINE
  5
22D
100
AcDbEntity
  8
SMUSSO
100
AcDbPolyline
 62
7
  6
CONTINUOUS
 90
16
 70
0
 10
-9.255371784
 20
-7.4715425514
 10
-9.2115529572
 20
-7.5050526517
 10
-9.0710828569
 20
-7.6213886166
 10
-8.933819002
 20
-7.7488496864
 10
-8.8005294217
 20
-7.8867225262
 10
-8.6719595545
 20
-8.0342358468
 10
-8.5488283845
 20
-8.1905645028
 10
-8.4318247208
 20
-8.3548336922
 10
-8.3216027711
 20
-8.5261245869
 10
-8.2187788588
 20
-8.7034790235
 10
-8.1239281468
 20
-8.8859044576
 10
-8.0375808026
 20
-9.0723806242
 10
-7.9602194983
 20
-9.2618644834
 10
-7.8922768605
 20
-9.4532954704
 10
-7.8341324513
 20
-9.6456028966
 10
-7.7861109359
 20
-9.8377114917
  0
LWPOLYLINE
  5
22E
100
AcDbEntity
  8
SMUSSO
100
AcDbPolyline
 62
7
  6
CONTINUOUS
 90
18
 70
0
 10
-8.8028236045
 20
-7.8109536861
 10
-8.6949731143
 20
-7.8974341714
 10
-8.5896456892
 20
-7.9931641157
 10
-8.4874892543
 20
-8.0975490583
 10
-8.3891663418
 20
-8.2099120255
 10
-8.2953146332
 20
-8.3295242856
 10
-8.2065427956
 20
-8.4556101088
 10
-8.1234265512
 20
-8.5873517813
 10
-8.0465049563
 20
-8.7238948853
 10
-7.9762768767
 20
-8.8643538851
 10
-7.913197769
 20
-9.0078178475
 10
-7.8576767344
 20
-9.1533563258
 10
-7.8100738432
 20
-9.300025446
 10
-7.7706978139
 20
-9.4468740003
 10
-7.7398040153
 20
-9.5929495902
 10
-7.7175927959
 20
-9.7373048517
 10
-7.7042081904
 20
-9.8790035995
 10
-7.6997369919
 20
-10.0171268499
  0
LINE
  5
22F
100
AcDbEntity
  8
SMUSSO
100
AcDbLine
 62
7
  6
CONTINUOUS
 10
-9.3614379277
 20
2.7397106908
 11
-9.3614379277
 21
4.6933637785
  0
LWPOLYLINE
  5
230
100
AcDbEntity
  8
ASSI
100
AcDbPolyline
 62
7
  6
CONTINUOUS
 90
12
 70
0
 10
-8.5482651294
 20
-11.0070763625
 10
-8.5549083254
 20
-11.1974174496
 10
-8.5737432935
 20
-11.3779822899
 10
-8.6047700337
 20
-11.5487708835
 10
-8.648346351
 20
-11.7107598183
 10
-8.7041144404
 20
-11.8629725064
 10
-8.7710008871
 20
-12.0024791836
 10
-8.8492210774
 20
-12.1290337074
 10
-8.938559625
 20
-12.2428822204
 10
-9.0372969566
 20
-12.3418333855
 10
-9.1456151467
 20
-12.4255986095
 10
-9.263312318
 20
-12.49445656
  0
LWPOLYLINE
  5
231
100
AcDbEntity
  8
0
100
AcDbPolyline
 62
7
  6
CONTINUOUS
 90
12
 70
0
 10
-9.6089253011
 20
-10.4767462766
 10
-9.6124997527
 20
-10.5704738617
 10
-9.6225389524
 20
-10.6588475402
 10
-9.6390429003
 20
-10.7418673121
 10
-9.6622344675
 20
-10.8200807263
 10
-9.6918907829
 20
-10.8929402339
 10
-9.727343233
 20
-10.958803188
 10
-9.7687234834
 20
-11.0175106542
 10
-9.8158998684
 20
-11.069221567
 10
-9.8678087776
 20
-11.112770083
 10
-9.9245577155
 20
-11.1479707843
 10
-9.9337340446
 20
-11.152672563
  0
LWPOLYLINE
  5
232
100
AcDbEntity
  8
ASSI
100
AcDbPolyline
 62
7
  6
CONTINUOUS
 90
16
 70
0
 10
-14.1524400652
 20
-2.6975941348
 10
-14.0679691876
 20
-2.6176051252
 10
-13.9862170135
 20
-2.5329317526
 10
-13.907183543
 20
-2.4435740171
 10
-13.8305750493
 20
-2.3491448021
 10
-13.756685259
 20
-2.250031224
 10
-13.6863953529
 20
-2.1473946327
 10
-13.6197368149
 20
-2.0411674872
 10
-13.556678161
 20
-1.9314173283
 10
-13.4980061195
 20
-1.8195081287
 10
-13.4437870752
 20
-1.7054287224
 10
-13.3939546433
 20
-1.5891902753
 10
-13.3490963976
 20
-1.4721902579
 10
-13.3094081962
 20
-1.3548944934
 10
-13.274694181
 20
-1.2368371586
 10
-13.2449543522
 20
-1.1180182534
  0
LINE
  5
233
100
AcDbEntity
  8
ASSI
100
AcDbLine
 62
7
  6
CONTINUOUS
 10
4.1089462539
 20
9.4749027816
 11
-3.4924516439
 21
5.6742038327
  0
LINE
  5
234
100
AcDbEntity
  8
ASSI
100
AcDbLine
 62
7
  6
CONTINUOUS
 10
-6.1087467343
 20
4.3660562875
 11
-13.710144632
 21
0.5653573386
  0
LWPOLYLINE
  5
235
100
AcDbEntity
  8
SMUSSO
100
AcDbPolyline
 62
7
  6
CONTINUOUS
 90
5
 70
0
 10
-7.7861109359
 20
-9.8377114917
 10
-7.7484804784
 20
-10.0285465799
 10
-7.7214509797
 20
-10.2170410218
 10
-7.7051729954
 20
-10.4021411723
 10
-7.6997369919
 20
-10.5828122671
  0
LINE
  5
236
100
AcDbEntity
  8
ASSI
100
AcDbLine
 62
7
  6
CONTINUOUS
 10
-7.7103435937
 20
-2.6943508017
 11
-7.7103435937
 21
-3.3005685844
  0
LINE
  5
237
100
AcDbEntity
  8
SMUSSO
100
AcDbLine
 62
7
  6
CONTINUOUS
 10
-7.6997369919
 20
-10.0171268683
 11
-7.6997369919
 21
-10.582812293
  0
LINE
  5
238
100
AcDbEntity
  8
ASSI
100
AcDbLine
 62
7
  6
CONTINUOUS
 10
-6.9572748717
 20
-6.8233673153
 11
-6.9572748717
 21
-10.8936867131
  0
LWPOLYLINE
  5
239
100
AcDbEntity
  8
SMUSSO
100
AcDbPolyline
 62
7
  6
CONTINUOUS
 90
13
 70
0
 10
-7.6997369919
 20
-10.5828123236
 10
-7.7051729949
 20
-10.7580474046
 10
-7.7214509762
 20
-10.9268695518
 10
-7.748480467
 20
-11.0883344656
 10
-7.7861109069
 20
-11.2415390513
 10
-7.8341323942
 20
-11.3856260817
 10
-7.8922767729
 20
-11.5197890697
 10
-7.9602193862
 20
-11.6432774161
 10
-8.0375806709
 20
-11.7553999821
 10
-8.1239279989
 20
-11.8555288219
 10
-8.2187786987
 20
-11.943103566
 10
-8.3216026044
 20
-12.0176341153
 10
-8.4144430749
 20
-12.0702151561
  0
LWPOLYLINE
  5
23A
100
AcDbEntity
  8
ASSI
100
AcDbPolyline
 62
7
  6
CONTINUOUS
 90
7
 70
0
 10
-7.7754833997
 20
-3.8527537296
 10
-7.7556880211
 20
-3.7583888873
 10
-7.7394681401
 20
-3.6649576389
 10
-7.7268237569
 20
-3.5724599843
 10
-7.7177548715
 20
-3.4808959238
 10
-7.7122614837
 20
-3.3902654571
 10
-7.7103435937
 20
-3.3005685844
  0
LINE
  5
23B
100
AcDbEntity
  8
0
100
AcDbLine
 62
7
  6
CONTINUOUS
 10
-2.0075274034
 20
-9.4759015361
 11
-2.361080794
 21
-9.2991248409
  0
LINE
  5
23C
100
AcDbEntity
  8
ASSI
100
AcDbLine
 62
7
  6
CONTINUOUS
 10
-15.1243581944
 20
-2.7398256539
 11
-14.2404747179
 21
-3.1817673922
  0
LINE
  5
23D
100
AcDbEntity
  8
ASSI
100
AcDbLine
 62
7
  6
CONTINUOUS
 10
-11.4120475932
 20
-4.5959809545
 11
-9.7857019964
 21
-5.4091537529
  0
LINE
  5
23E
100
AcDbEntity
  8
ASSI
100
AcDbLine
 62
7
  6
CONTINUOUS
 10
-6.9572748717
 20
-6.8233673153
 11
-6.0733913952
 21
-7.2653090535
  0
LINE
  5
23F
100
AcDbEntity
  8
ASSI
100
AcDbLine
 62
7
  6
CONTINUOUS
 10
-14.1524400652
 20
-2.6975941348
 11
-13.7988866746
 21
-2.8743708301
  0
LINE
  5
240
100
AcDbEntity
  8
ASSI
100
AcDbLine
 62
7
  6
CONTINUOUS
 10
-10.9704595498
 20
-4.2885843925
 11
-10.6169061593
 21
-4.4653610878
  0
LINE
  5
241
100
AcDbEntity
  8
ASSI
100
AcDbLine
 62
7
  6
CONTINUOUS
 10
-9.6976673437
 20
-4.9249804956
 11
-9.3441139531
 21
-5.1017571909
  0
LINE
  5
242
100
AcDbEntity
  8
ASSI
100
AcDbLine
 62
7
  6
CONTINUOUS
 10
-6.5156868284
 20
-6.5159707532
 11
-6.1621334378
 21
-6.6927474485
  0
LINE
  5
243
100
AcDbEntity
  8
0
100
AcDbLine
 62
7
  6
CONTINUOUS
 10
-6.6037214811
 20
-11.0704634084
 11
-6.6037214811
 21
-11.7632837314
  0
LINE
  5
244
100
AcDbEntity
  8
ASSI
100
AcDbLine
 62
7
  6
CONTINUOUS
 10
-6.2042061497
 20
-3.4474195237
 11
-6.2042061497
 21
-4.0536373063
  0
LINE
  5
245
100
AcDbEntity
  8
ASSI
100
AcDbLine
 62
7
  6
CONTINUOUS
 10
-6.0733913952
 20
-12.7212690974
 11
-6.0733913952
 21
-7.2653090535
  0
LWPOLYLINE
  5
246
100
AcDbEntity
  8
ASSI
100
AcDbPolyline
 62
7
  6
CONTINUOUS
 90
7
 70
0
 10
-6.2693459558
 20
-4.6058224516
 10
-6.2495505771
 20
-4.5114576093
 10
-6.2333306962
 20
-4.4180263608
 10
-6.220686313
 20
-4.3255287063
 10
-6.2116174275
 20
-4.2339646457
 10
-6.2061240398
 20
-4.1433341791
 10
-6.2042061497
 20
-4.0536373063
  0
LWPOLYLINE
  5
247
100
AcDbEntity
  8
SMUSSO
100
AcDbPolyline
 62
7
  6
CONTINUOUS
 90
6
 70
0
 10
-12.4158244518
 20
-9.4170974024
 10
-12.4923533924
 20
-9.5280136213
 10
-12.5787007204
 20
-9.6281424612
 10
-12.6735514202
 20
-9.7157172053
 10
-12.7763753259
 20
-9.7902477546
 10
-12.8692157964
 20
-9.8428287953
  0
LWPOLYLINE
  5
248
100
AcDbEntity
  8
ASSI
100
AcDbPolyline
 62
7
  6
CONTINUOUS
 90
22
 70
0
 10
-15.1243581944
 20
-2.7398256539
 10
-15.0177074894
 20
-2.6814332239
 10
-14.9128101151
 20
-2.6145091601
 10
-14.8096660717
 20
-2.5390534626
 10
-14.7077202219
 20
-2.454550655
 10
-14.6075277028
 20
-2.3615162135
 10
-14.510753926
 20
-2.2614965674
 10
-14.4174560348
 20
-2.1543749608
 10
-14.3275768859
 20
-2.0402681496
 10
-14.2426104606
 20
-1.92107283
 10
-14.1626388739
 20
-1.7967039492
 10
-14.0875800108
 20
-1.6672465601
 10
-14.0186815084
 20
-1.5348525182
 10
-13.9560463354
 20
-1.3994727381
 10
-13.899571523
 20
-1.2611563052
 10
-13.8501958021
 20
-1.122202331
 10
-13.808037832
 20
-0.9826001591
 10
-13.7729789533
 20
-0.8423604459
 10
-13.7456019186
 20
-0.7038142718
 10
-13.726100979
 20
-0.5677386638
 10
-13.7142818835
 20
-0.4333565949
 10
-13.710144632
 20
-0.3006680652
  0
LWPOLYLINE
  5
249
100
AcDbEntity
  8
ASSI
100
AcDbPolyline
 62
7
  6
CONTINUOUS
 90
7
 70
0
 10
-14.2404747179
 20
-3.1817673922
 10
-14.1649865163
 20
-3.1414772119
 10
-14.0902543925
 20
-3.0968099996
 10
-14.0162783464
 20
-3.0477657552
 10
-13.9430583781
 20
-2.9943444789
 10
-13.8705944875
 20
-2.9365461705
 10
-13.7988866746
 20
-2.8743708301
  0
LINE
  5
24A
100
AcDbEntity
  8
ASSI
100
AcDbLine
 62
7
  6
CONTINUOUS
 10
-12.2302561212
 20
-1.6253673689
 11
-11.0392832902
 21
-1.0298809534
  0
LINE
  5
24B
100
AcDbEntity
  8
ASSI
100
AcDbLine
 62
7
  6
CONTINUOUS
 10
-14.1524400652
 20
-2.6975941348
 11
-10.9281484963
 21
-1.0854483504
  0
LINE
  5
24C
100
AcDbEntity
  8
0
100
AcDbLine
 62
7
  6
CONTINUOUS
 10
0.8208997214
 20
-9.2741235391
 11
0.0343336289
 21
-8.8808404928
  0
LINE
  5
24D
100
AcDbEntity
  8
ASSI
100
AcDbLine
 62
7
  6
CONTINUOUS
 10
-13.2449543522
 20
-1.1180182534
 11
-12.2302561212
 21
-1.6253673689
  0
LINE
  5
24E
100
AcDbEntity
  8
ASSI
100
AcDbLine
 62
7
  6
CONTINUOUS
 10
-10.7241186772
 20
-2.3784360909
 11
-9.7094204462
 21
-2.8857852064
  0
LINE
  5
24F
100
AcDbEntity
  8
ASSI
100
AcDbLine
 62
7
  6
CONTINUOUS
 10
-8.7901816307
 20
-3.3454046141
 11
-7.7754833997
 21
-3.8527537296
  0
LINE
  5
250
100
AcDbEntity
  8
ASSI
100
AcDbLine
 62
7
  6
CONTINUOUS
 10
-6.2693459558
 20
-4.6058224516
 11
-5.2546477248
 21
-5.1131715671
  0
LINE
  5
251
100
AcDbEntity
  8
0
100
AcDbLine
 62
7
  6
CONTINUOUS
 10
0.8208997214
 20
-8.0616879738
 11
0.4673463308
 21
-7.8849112785
  0
LINE
  5
252
100
AcDbEntity
  8
ASSI
100
AcDbLine
 62
7
  6
CONTINUOUS
 10
-4.6591778328
 20
-3.960126061
 11
-4.6591778328
 21
-4.8261514648
  0
LWPOLYLINE
  5
253
100
AcDbEntity
  8
ASSI
100
AcDbPolyline
 62
7
  6
CONTINUOUS
 90
16
 70
0
 10
-10.6169061593
 20
-4.4653610878
 10
-10.5324352816
 20
-4.3853720782
 10
-10.4506831076
 20
-4.3006987056
 10
-10.3716496371
 20
-4.2113409701
 10
-10.2950411433
 20
-4.116911755
 10
-10.2211513531
 20
-4.017798177
 10
-10.150861447
 20
-3.9151615857
 10
-10.084202909
 20
-3.8089344401
 10
-10.0211442551
 20
-3.6991842813
 10
-9.9624722135
 20
-3.5872750817
 10
-9.9082531692
 20
-3.4731956754
 10
-9.8584207373
 20
-3.3569572283
 10
-9.8135624917
 20
-3.2399572108
 10
-9.7738742903
 20
-3.1226614464
 10
-9.7391602751
 20
-3.0046041116
 10
-9.7094204462
 20
-2.8857852064
  0
LWPOLYLINE
  5
254
100
AcDbEntity
  8
ASSI
100
AcDbPolyline
 62
7
  6
CONTINUOUS
 90
16
 70
0
 10
-9.6976673437
 20
-4.9249804956
 10
-9.6131964661
 20
-4.844991486
 10
-9.531444292
 20
-4.7603181134
 10
-9.4524108216
 20
-4.6709603778
 10
-9.3758023278
 20
-4.5765311628
 10
-9.3019125376
 20
-4.4774175848
 10
-9.2316226314
 20
-4.3747809935
 10
-9.1649640934
 20
-4.2685538479
 10
-9.1019054395
 20
-4.1588036891
 10
-9.043233398
 20
-4.0468944895
 10
-8.9890143537
 20
-3.9328150832
 10
-8.9391819218
 20
-3.8165766361
 10
-8.8943236761
 20
-3.6995766186
 10
-8.8546354747
 20
-3.5822808542
 10
-8.8199214596
 20
-3.4642235194
 10
-8.7901816307
 20
-3.3454046141
  0
LINE
  5
255
100
AcDbEntity
  8
ASSI
100
AcDbLine
 62
7
  6
CONTINUOUS
 10
-13.7988866746
 20
-2.8743708301
 11
-10.6589788712
 21
-1.3044169284
  0
LWPOLYLINE
  5
256
100
AcDbEntity
  8
ASSI
100
AcDbPolyline
 62
7
  6
CONTINUOUS
 90
18
 70
0
 10
8.7950207486
 20
7.1318655342
 10
8.8379505036
 20
7.1499680894
 10
8.970071634
 20
7.1860758831
 10
9.1093257521
 20
7.2059607717
 10
9.2530325179
 20
7.2092400142
 10
9.4012781889
 20
7.195591924
 10
9.5539765076
 20
7.1653381876
 10
9.7081883627
 20
7.119061124
 10
9.8639430746
 20
7.0564503272
 10
10.0212113228
 20
6.977816203
 10
10.1769660346
 20
6.884672288
 10
10.3311778897
 20
6.7767374965
 10
10.4838762085
 20
6.6542929141
 10
10.6321218794
 20
6.5196953335
 10
10.7758286453
 20
6.3727093251
 10
10.9150827633
 20
6.2135703185
 10
11.0472038937
 20
6.0453413943
 10
11.0901342364
 20
5.9843087903
  0
LINE
  5
257
100
AcDbEntity
  8
ASSI
100
AcDbLine
 62
253
  6
CONTINUOUS
 10
-13.710144632
 20
-0.3006680652
 11
-12.1651163151
 21
-1.0731822236
  0
LINE
  5
258
100
AcDbEntity
  8
ASSI
100
AcDbLine
 62
253
  6
CONTINUOUS
 10
-10.6589788712
 20
-1.8262509456
 11
-7.7103435937
 21
-3.3005685844
  0
LINE
  5
259
100
AcDbEntity
  8
ASSI
100
AcDbLine
 62
253
  6
CONTINUOUS
 10
-6.2042061497
 20
-4.0536373063
 11
-4.6591778328
 21
-4.8261514648
  0
LINE
  5
25A
100
AcDbEntity
  8
SMUSSO
100
AcDbLine
 62
7
  6
CONTINUOUS
 10
2.9422200649
 20
-8.2134633673
 11
5.1342510866
 21
-9.3094788781
  0
LINE
  5
25B
100
AcDbEntity
  8
ASSI
100
AcDbLine
 62
7
  6
CONTINUOUS
 10
-12.1651163151
 20
-0.466964441
 11
-10.6589788712
 21
-1.2200331629
  0
LINE
  5
25C
100
AcDbEntity
  8
ASSI
100
AcDbLine
 62
7
  6
CONTINUOUS
 10
-7.7103435937
 20
-2.6943508017
 11
-6.2042061497
 21
-3.4474195237
  0
LINE
  5
25D
100
AcDbEntity
  8
ASSI
100
AcDbLine
 62
7
  6
CONTINUOUS
 10
-4.6591778328
 20
-3.960126061
 11
-13.710144632
 21
0.5653573386
  0
LINE
  5
25E
100
AcDbEntity
  8
0
100
AcDbLine
 62
7
  6
CONTINUOUS
 10
-3.9520710516
 20
-4.8190082357
 11
-3.9520710516
 21
-10.4481733603
  0
LWPOLYLINE
  5
25F
100
AcDbEntity
  8
ASSI
100
AcDbPolyline
 62
7
  6
CONTINUOUS
 90
7
 70
0
 10
-11.4120475932
 20
-4.5959809545
 10
-11.3365593916
 20
-4.5556907742
 10
-11.2618272678
 20
-4.5110235619
 10
-11.1878512217
 20
-4.4619793176
 10
-11.1146312533
 20
-4.4085580413
 10
-11.0421673627
 20
-4.3507597329
 10
-10.9704595498
 20
-4.2885843925
  0
LINE
  5
260
100
AcDbEntity
  8
ASSI
100
AcDbLine
 62
7
  6
CONTINUOUS
 10
-16.1774188867
 20
-5.3477434024
 11
-15.3288907493
 21
-4.9234793337
  0
LINE
  5
261
100
AcDbEntity
  8
ASSI
100
AcDbLine
 62
7
  6
CONTINUOUS
 10
-13.910302871
 20
-5.1086125855
 11
-9.745516048
 21
-3.026219174
  0
LWPOLYLINE
  5
262
100
AcDbEntity
  8
SMUSSO
100
AcDbPolyline
 62
7
  6
CONTINUOUS
 90
14
 70
0
 10
-15.3288909269
 20
-4.9234794225
 10
-15.3115094519
 20
-4.9149914935
 10
-15.1945057897
 20
-4.8677259442
 10
-15.0713746185
 20
-4.8345284359
 10
-14.9428047513
 20
-4.8155849624
 10
-14.8095151756
 20
-4.8110016841
 10
-14.6722513274
 20
-4.8208044503
 10
-14.5317812312
 20
-4.8449385668
 10
-14.3888905284
 20
-4.883269151
 10
-14.2443783973
 20
-4.9355819189
 10
-14.0990534502
 20
-5.0015842042
 10
-13.9537285058
 20
-5.0809068482
 10
-13.8092163795
 20
-5.1731061914
 10
-13.7101445055
 20
-5.2441561907
  0
LWPOLYLINE
  5
263
100
AcDbEntity
  8
ASSI
100
AcDbPolyline
 62
7
  6
CONTINUOUS
 90
29
 70
0
 10
-16.1770779587
 20
-5.347766156
 10
-16.0522081942
 20
-5.2951112595
 10
-15.9200870637
 20
-5.2590034657
 10
-15.7808329457
 20
-5.2391185772
 10
-15.6371261798
 20
-5.2358393347
 10
-15.4888805089
 20
-5.2494874249
 10
-15.3361821902
 20
-5.2797411613
 10
-15.1819703351
 20
-5.3260182249
 10
-15.0262156232
 20
-5.3886290217
 10
-14.868947375
 20
-5.4672631458
 10
-14.7131926631
 20
-5.5604070609
 10
-14.558980808
 20
-5.6683418523
 10
-14.4062824893
 20
-5.7907864347
 10
-14.2580368184
 20
-5.9253840154
 10
-14.1143300525
 20
-6.0723700238
 10
-13.9750759345
 20
-6.2315090304
 10
-13.842954804
 20
-6.3997379545
 10
-13.7181048423
 20
-6.5772328872
 10
-13.6003878682
 20
-6.7638177375
 10
-13.4920696781
 20
-6.9559011515
 10
-13.3933323464
 20
-7.1535896482
 10
-13.3039937988
 20
-7.3567767088
 10
-13.2257736086
 20
-7.5615514229
 10
-13.1588871619
 20
-7.7679445468
 10
-13.1031190725
 20
-7.9759253243
 10
-13.0595427552
 20
-8.1814905764
 10
-13.028516015
 20
-8.3833059102
 10
-13.0096810468
 20
-8.5827057186
 10
-13.0030378508
 20
-8.7796900018
  0
LWPOLYLINE
  5
264
100
AcDbEntity
  8
SMUSSO
100
AcDbPolyline
 62
7
  6
CONTINUOUS
 90
4
 70
0
 10
14.5741266154
 20
-0.5483297058
 10
14.6442258903
 20
-0.5294336126
 10
14.7612287945
 20
-0.4821752711
 10
14.7786591648
 20
-0.4736640362
  0
LINE
  5
265
100
AcDbEntity
  8
0
100
AcDbLine
 62
7
  6
CONTINUOUS
 10
2.7654433696
 20
-7.0894161496
 11
2.411889979
 21
-6.9126394543
  0
LINE
  5
266
100
AcDbEntity
  8
0
100
AcDbLine
 62
7
  6
CONTINUOUS
 10
-2.0075274034
 20
-10.6883371014
 11
-2.0075274034
 21
-9.4759015361
  0
LINE
  5
267
100
AcDbEntity
  8
ASSI
100
AcDbLine
 62
7
  6
CONTINUOUS
 10
-10.9704595498
 20
-4.2885843925
 11
-10.1175986498
 21
-3.8621539425
  0
LINE
  5
268
100
AcDbEntity
  8
ASSI
100
AcDbLine
 62
7
  6
CONTINUOUS
 10
-7.7754833997
 20
-3.8527537296
 11
-6.5845105687
 21
-3.2572673142
  0
LINE
  5
269
100
AcDbEntity
  8
ASSI
100
AcDbLine
 62
7
  6
CONTINUOUS
 10
-9.6976673437
 20
-4.9249804956
 11
-6.4733757748
 21
-3.3128347111
  0
LWPOLYLINE
  5
26A
100
AcDbEntity
  8
0
100
AcDbPolyline
 62
7
  6
CONTINUOUS
 90
27
 70
0
 10
-15.5066562321
 20
-6.689550153
 10
-15.4543510992
 20
-6.667213627
 10
-15.3895232373
 20
-6.6489473085
 10
-15.3212729583
 20
-6.6396522416
 10
-15.2496762794
 20
-6.6391291608
 10
-15.1763473765
 20
-6.6473898593
 10
-15.1012469
 20
-6.6646338703
 10
-15.0244141996
 20
-6.6906616605
 10
-14.9475814991
 20
-6.7248864229
 10
-14.8707487986
 20
-6.7674943609
 10
-14.7939160981
 20
-6.8182992712
 10
-14.7188156217
 20
-6.8761557366
 10
-14.6454867188
 20
-6.9412239412
 10
-14.5738900399
 20
-7.0133437008
 10
-14.5056397609
 20
-7.0908890467
 10
-14.440811899
 20
-7.1739832271
 10
-14.379330437
 20
-7.2625029938
 10
-14.3225814991
 20
-7.354452633
 10
-14.2706725899
 20
-7.4499100582
 10
-14.2234962049
 20
-7.548797356
 10
-14.1821159545
 20
-7.6488850726
 10
-14.1466635044
 20
-7.7502004768
 10
-14.117007189
 20
-7.8527162998
 10
-14.0938156217
 20
-7.9541212812
 10
-14.0773116738
 20
-8.053645001
 10
-14.0672724741
 20
-8.1520578792
 10
-14.0636980226
 20
-8.2493599159
  0
LWPOLYLINE
  5
26B
100
AcDbEntity
  8
ASSI
100
AcDbPolyline
 62
7
  6
CONTINUOUS
 90
27
 70
0
 10
4.780697696
 20
-6.1016132696
 10
4.7022697125
 20
-6.0575536767
 10
4.6259039619
 20
-6.0059234244
 10
4.5516004444
 20
-5.9467225128
 10
4.4787274387
 20
-5.8792817457
 10
4.4079166661
 20
-5.8042703193
 10
4.3410632896
 20
-5.723695822
 10
4.2782741774
 20
-5.6374080249
 10
4.2194424613
 20
-5.5455571569
 10
4.1661426998
 20
-5.4506014934
 10
4.1185242815
 20
-5.3524571903
 10
4.0764378177
 20
-5.2512080918
 10
4.0410097009
 20
-5.1495640052
 10
4.0124197375
 20
-5.047514264
 10
3.9904881211
 20
-4.9450695347
 10
3.9758018242
 20
-4.8449716244
 10
3.9685565046
 20
-4.7472839082
 10
3.9685565046
 20
-4.6519430109
 10
3.9758018242
 20
-4.5615006143
 10
3.9904881211
 20
-4.4760890008
 10
4.0124197375
 20
-4.395575888
 10
4.0410097009
 20
-4.3221161101
 10
4.0764378177
 20
-4.2559001404
 10
4.1185242815
 20
-4.1967375056
 10
4.1661426998
 20
-4.1462116209
 10
4.2194424613
 20
-4.1045557189
 10
4.2665961408
 20
-4.0771784576
  0
LWPOLYLINE
  5
26C
100
AcDbEntity
  8
ASSI
100
AcDbPolyline
 62
7
  6
CONTINUOUS
 90
16
 70
0
 10
-6.1621334378
 20
-6.6927474485
 10
-6.0776625602
 20
-6.6127584389
 10
-5.9959103861
 20
-6.5280850663
 10
-5.9168769156
 20
-6.4387273308
 10
-5.8402684218
 20
-6.3442981158
 10
-5.7663786316
 20
-6.2451845377
 10
-5.6960887255
 20
-6.1425479464
 10
-5.6294301875
 20
-6.0363208009
 10
-5.5663715336
 20
-5.926570642
 10
-5.5076994921
 20
-5.8146614424
 10
-5.4534804478
 20
-5.7005820361
 10
-5.4036480158
 20
-5.584343589
 10
-5.3587897702
 20
-5.4673435716
 10
-5.3191015688
 20
-5.3500478072
 10
-5.2843875536
 20
-5.2319904723
 10
-5.2546477248
 20
-5.1131715671
  0
LWPOLYLINE
  5
26D
100
AcDbEntity
  8
ASSI
100
AcDbPolyline
 62
7
  6
CONTINUOUS
 90
7
 70
0
 10
-9.7857019964
 20
-5.4091537529
 10
-9.7102137949
 20
-5.3688635726
 10
-9.635481671
 20
-5.3241963603
 10
-9.561505625
 20
-5.275152116
 10
-9.4882856566
 20
-5.2217308396
 10
-9.415821766
 20
-5.1639325313
 10
-9.3441139531
 20
-5.1017571909
  0
LINE
  5
26E
100
AcDbEntity
  8
ASSI
100
AcDbLine
 62
7
  6
CONTINUOUS
 10
-9.3441139531
 20
-5.1017571909
 11
-6.2042061497
 21
-3.5318032892
  0
LINE
  5
26F
100
AcDbEntity
  8
ASSI
100
AcDbLine
 62
7
  6
CONTINUOUS
 10
-4.6591778328
 20
-3.960126061
 11
2.9422200649
 21
-0.1594271121
  0
LINE
  5
270
100
AcDbEntity
  8
ASSI
100
AcDbLine
 62
7
  6
CONTINUOUS
 10
5.5585151553
 20
1.1487204331
 11
13.1599130531
 21
4.949419382
  0
LWPOLYLINE
  5
271
100
AcDbEntity
  8
ASSI
100
AcDbPolyline
 62
7
  6
CONTINUOUS
 90
29
 70
0
 10
13.1678534605
 20
4.8699268321
 10
13.2927232251
 20
4.9225817287
 10
13.4248443555
 20
4.9586895224
 10
13.5640984735
 20
4.978574411
 10
13.7078052394
 20
4.9818536535
 10
13.8560509103
 20
4.9682055632
 10
14.0087492291
 20
4.9379518269
 10
14.1629610842
 20
4.8916747632
 10
14.318715796
 20
4.8290639664
 10
14.4759840443
 20
4.7504298423
 10
14.6317387561
 20
4.6572859273
 10
14.7859506112
 20
4.5493511358
 10
14.93864893
 20
4.4269065534
 10
15.0868946009
 20
4.2923089727
 10
15.2306013667
 20
4.1453229644
 10
15.3698554848
 20
3.9861839578
 10
15.5019766152
 20
3.8179550336
 10
15.6268265769
 20
3.6404601009
 10
15.7445435511
 20
3.4538752507
 10
15.8528617412
 20
3.2617918366
 10
15.9515990728
 20
3.0641033399
 10
16.0409376204
 20
2.8609162794
 10
16.1191578106
 20
2.6561415652
 10
16.1860442574
 20
2.4497484413
 10
16.2418123468
 20
2.2417676639
 10
16.2853886641
 20
2.0362024118
 10
16.3164154043
 20
1.834387078
 10
16.3352503724
 20
1.6349872695
 10
16.3418935684
 20
1.4380029864
  0
LINE
  5
272
100
AcDbEntity
  8
0
100
AcDbLine
 62
7
  6
CONTINUOUS
 10
0.4673463308
 20
-8.6643341419
 11
0.4673463308
 21
-7.8849112785
  0
LINE
  5
273
100
AcDbEntity
  8
0
100
AcDbLine
 62
7
  6
CONTINUOUS
 10
0.8208997214
 20
-9.2741235391
 11
0.8208997214
 21
-8.0616879738
  0
LWPOLYLINE
  5
274
100
AcDbEntity
  8
ASSI
100
AcDbPolyline
 62
7
  6
CONTINUOUS
 90
7
 70
0
 10
-6.9572748717
 20
-6.8233673153
 10
-6.8817866701
 20
-6.783077135
 10
-6.8070545463
 20
-6.7384099227
 10
-6.7330785002
 20
-6.6893656783
 10
-6.6598585319
 20
-6.635944402
 10
-6.5873946412
 20
-6.5781460936
 10
-6.5156868284
 20
-6.5159707532
  0
LINE
  5
275
100
AcDbEntity
  8
ASSI
100
AcDbLine
 62
7
  6
CONTINUOUS
 10
-11.7226461652
 20
-7.5751297631
 11
-10.8741180278
 21
-7.1508656944
  0
LINE
  5
276
100
AcDbEntity
  8
ASSI
100
AcDbLine
 62
7
  6
CONTINUOUS
 10
13.1599130531
 20
4.8661498461
 11
13.1675125325
 21
4.8699495858
  0
LINE
  5
277
100
AcDbEntity
  8
ASSI
100
AcDbLine
 62
7
  6
CONTINUOUS
 10
-9.4555301495
 20
-7.3359989462
 11
-5.2907433265
 21
-5.2536055347
  0
LINE
  5
278
100
AcDbEntity
  8
0
100
AcDbLine
 62
7
  6
CONTINUOUS
 10
12.4528062719
 20
3.3834304261
 11
6.7709507206
 21
0.5425026504
  0
LINE
  5
279
100
AcDbEntity
  8
0
100
AcDbLine
 62
7
  6
CONTINUOUS
 10
2.7654433696
 20
-1.460251025
 11
-3.9520710516
 21
-4.8190082357
  0
LINE
  5
27A
100
AcDbEntity
  8
0
100
AcDbLine
 62
7
  6
CONTINUOUS
 10
6.9167463934
 20
0.469604814
 11
12.1699635594
 21
3.096213397
  0
LWPOLYLINE
  5
27B
100
AcDbEntity
  8
SMUSSO
100
AcDbPolyline
 62
7
  6
CONTINUOUS
 90
14
 70
0
 10
-10.8741182055
 20
-7.1508657832
 10
-10.8567367304
 20
-7.1423778543
 10
-10.7397330682
 20
-7.0951123049
 10
-10.616601897
 20
-7.0619147966
 10
-10.4880320298
 20
-7.0429713231
 10
-10.3547424541
 20
-7.0383880448
 10
-10.2174786059
 20
-7.048190811
 10
-10.0770085098
 20
-7.0723249276
 10
-9.9341178069
 20
-7.1106555117
 10
-9.7896056758
 20
-7.1629682796
 10
-9.6442807287
 20
-7.228970565
 10
-9.4989557843
 20
-7.3082932089
 10
-9.3544436581
 20
-7.4004925521
 10
-9.255371784
 20
-7.4715425514
  0
LWPOLYLINE
  5
27C
100
AcDbEntity
  8
0
100
AcDbPolyline
 62
7
  6
CONTINUOUS
 90
27
 70
0
 10
-14.3885067661
 20
-8.9252862023
 10
-14.440811899
 20
-8.9476227282
 10
-14.5056397609
 20
-8.9658890467
 10
-14.5738900399
 20
-8.9751841136
 10
-14.6454867188
 20
-8.9757071944
 10
-14.7188156217
 20
-8.967446496
 10
-14.7939160981
 20
-8.950202485
 10
-14.8707487986
 20
-8.9241746948
 10
-14.9475814991
 20
-8.8899499323
 10
-15.0244141996
 20
-8.8473419943
 10
-15.1012469
 20
-8.796537084
 10
-15.1763473765
 20
-8.7386806186
 10
-15.2496762794
 20
-8.6736124141
 10
-15.3212729583
 20
-8.6014926544
 10
-15.3895232373
 20
-8.5239473085
 10
-15.4543510992
 20
-8.4408531281
 10
-15.5158325612
 20
-8.3523333615
 10
-15.5725814991
 20
-8.2603837222
 10
-15.6244904083
 20
-8.164926297
 10
-15.6716667933
 20
-8.0660389993
 10
-15.7130470437
 20
-7.9659512827
 10
-15.7484994938
 20
-7.8646358785
 10
-15.7781558092
 20
-7.7621200554
 10
-15.8013473765
 20
-7.660715074
 10
-15.8178513243
 20
-7.5611913542
 10
-15.8278905241
 20
-7.462778476
 10
-15.8314649756
 20
-7.3654764394
  0
LWPOLYLINE
  5
27D
100
AcDbEntity
  8
ASSI
100
AcDbPolyline
 62
7
  6
CONTINUOUS
 90
29
 70
0
 10
-11.7223052373
 20
-7.5751525168
 10
-11.5974354727
 20
-7.5224976202
 10
-11.4653143422
 20
-7.4863898265
 10
-11.3260602242
 20
-7.4665049379
 10
-11.1823534584
 20
-7.4632256954
 10
-11.0341077874
 20
-7.4768737857
 10
-10.8814094687
 20
-7.507127522
 10
-10.7271976136
 20
-7.5534045857
 10
-10.5714429017
 20
-7.6160153825
 10
-10.4141746535
 20
-7.6946495066
 10
-10.2584199416
 20
-7.7877934216
 10
-10.1042080865
 20
-7.8957282131
 10
-9.9515097678
 20
-8.0181727955
 10
-9.8032640969
 20
-8.1527703762
 10
-9.659557331
 20
-8.2997563845
 10
-9.520303213
 20
-8.4588953911
 10
-9.3881820826
 20
-8.6271243153
 10
-9.2633321208
 20
-8.804619248
 10
-9.1456151467
 20
-8.9912040982
 10
-9.0372969566
 20
-9.1832875122
 10
-8.938559625
 20
-9.380976009
 10
-8.8492210774
 20
-9.5841630695
 10
-8.7710008871
 20
-9.7889377836
 10
-8.7041144404
 20
-9.9953309075
 10
-8.648346351
 20
-10.203311685
 10
-8.6047700337
 20
-10.4088769371
 10
-8.5737432935
 20
-10.6106922709
 10
-8.5549083254
 20
-10.8100920794
 10
-8.5482651294
 20
-11.0070763625
  0
LWPOLYLINE
  5
27E
100
AcDbEntity
  8
ASSI
100
AcDbPolyline
 62
7
  6
CONTINUOUS
 90
27
 70
0
 10
4.780697696
 20
-4.1097548409
 10
4.8591256795
 20
-4.1538144338
 10
4.9354914301
 20
-4.2054446861
 10
5.0097949476
 20
-4.2646455977
 10
5.0826679533
 20
-4.3320863647
 10
5.1534787259
 20
-4.4070977912
 10
5.2203321025
 20
-4.4876722884
 10
5.2831212146
 20
-4.5739600856
 10
5.3419529307
 20
-4.6658109536
 10
5.3952526923
 20
-4.7607666171
 10
5.4428711106
 20
-4.8589109201
 10
5.4849575743
 20
-4.9601600187
 10
5.5203856912
 20
-5.0618041053
 10
5.5489756545
 20
-5.1638538465
 10
5.570907271
 20
-5.2662985757
 10
5.5855935678
 20
-5.3663964861
 10
5.5928388874
 20
-5.4640842023
 10
5.5928388874
 20
-5.5594250996
 10
5.5855935678
 20
-5.6498674962
 10
5.570907271
 20
-5.7352791097
 10
5.5489756545
 20
-5.8157922225
 10
5.5203856912
 20
-5.8892520003
 10
5.4849575743
 20
-5.9554679701
 10
5.4428711106
 20
-6.0146306049
 10
5.3952526923
 20
-6.0651564896
 10
5.3419529307
 20
-6.1068123916
 10
5.2947992513
 20
-6.1341896529
  0
LINE
  5
27F
100
AcDbEntity
  8
0
100
AcDbLine
 62
7
  6
CONTINUOUS
 10
2.411889979
 20
-6.9126394543
 11
2.411889979
 21
-1.6370277203
  0
LWPOLYLINE
  5
280
100
AcDbEntity
  8
ASSI
100
AcDbPolyline
 62
7
  6
CONTINUOUS
 90
22
 70
0
 10
-6.0733913952
 20
-7.2653090535
 10
-5.9667406902
 20
-7.2069166235
 10
-5.8618433159
 20
-7.1399925597
 10
-5.7586992725
 20
-7.0645368622
 10
-5.6567534227
 20
-6.9800340545
 10
-5.5565609036
 20
-6.8869996131
 10
-5.4597871269
 20
-6.786979967
 10
-5.3664892356
 20
-6.6798583604
 10
-5.2766100867
 20
-6.5657515492
 10
-5.1916436614
 20
-6.4465562296
 10
-5.1116720747
 20
-6.3221873488
 10
-5.0366132116
 20
-6.1927299597
 10
-4.9677147092
 20
-6.0603359178
 10
-4.9050795362
 20
-5.9249561377
 10
-4.8486047239
 20
-5.7866397048
 10
-4.7992290029
 20
-5.6476857305
 10
-4.7570710328
 20
-5.5080835587
 10
-4.7220121541
 20
-5.3678438455
 10
-4.6946351195
 20
-5.2292976714
 10
-4.6751341798
 20
-5.0932220634
 10
-4.6633150843
 20
-4.9588399945
 10
-4.6591778328
 20
-4.8261514648
  0
LINE
  5
281
100
AcDbEntity
  8
ASSI
100
AcDbLine
 62
7
  6
CONTINUOUS
 10
-6.5156868284
 20
-6.5159707532
 11
-5.6628259283
 21
-6.0895403032
  0
LINE
  5
282
100
AcDbEntity
  8
ASSI
100
AcDbLine
 62
7
  6
CONTINUOUS
 10
-13.7177441115
 20
-10.2670929529
 11
-12.869215974
 21
-9.8428288842
  0
LINE
  5
283
100
AcDbEntity
  8
SMUSSO
100
AcDbLine
 62
7
  6
CONTINUOUS
 10
5.1342510866
 20
-1.2554426229
 11
7.750546177
 21
0.0527049223
  0
LINE
  5
284
100
AcDbEntity
  8
0
100
AcDbLine
 62
7
  6
CONTINUOUS
 10
11.4628567782
 20
1.8766346026
 11
7.7634364251
 21
0.0269244261
  0
LINE
  5
285
100
AcDbEntity
  8
0
100
AcDbLine
 62
7
  6
CONTINUOUS
 10
11.1800140657
 20
1.585043257
 11
10.4729072846
 21
1.2314898664
  0
LINE
  5
286
100
AcDbEntity
  8
0
100
AcDbLine
 62
7
  6
CONTINUOUS
 10
10.755749997
 20
1.0900685102
 11
11.4628567782
 21
1.4436219007
  0
LWPOLYLINE
  5
287
100
AcDbEntity
  8
0
100
AcDbPolyline
 62
7
  6
CONTINUOUS
 90
27
 70
0
 10
-11.0518835107
 20
-8.9169365137
 10
-10.9995783778
 20
-8.8945999877
 10
-10.9347505159
 20
-8.8763336692
 10
-10.8665002369
 20
-8.8670386023
 10
-10.7949035579
 20
-8.8665155216
 10
-10.721574655
 20
-8.87477622
 10
-10.6464741786
 20
-8.892020231
 10
-10.5696414781
 20
-8.9180480212
 10
-10.4928087776
 20
-8.9522727836
 10
-10.4159760771
 20
-8.9948807217
 10
-10.3391433767
 20
-9.0456856319
 10
-10.2640429003
 20
-9.1035420974
 10
-10.1907139973
 20
-9.1686103019
 10
-10.1191173184
 20
-9.2407300616
 10
-10.0508670394
 20
-9.3182754075
 10
-9.9860391775
 20
-9.4013695879
 10
-9.9245577155
 20
-9.4898893545
 10
-9.8678087776
 20
-9.5818389937
 10
-9.8158998684
 20
-9.6772964189
 10
-9.7687234834
 20
-9.7761837167
 10
-9.727343233
 20
-9.8762714333
 10
-9.6918907829
 20
-9.9775868375
 10
-9.6622344675
 20
-10.0801026605
 10
-9.6390429003
 20
-10.181507642
 10
-9.6225389524
 20
-10.2810313618
 10
-9.6124997527
 20
-10.37944424
 10
-9.6089253011
 20
-10.4767462766
  0
LWPOLYLINE
  5
288
100
AcDbEntity
  8
ASSI
100
AcDbPolyline
 62
7
  6
CONTINUOUS
 90
29
 70
0
 10
-13.7180850394
 20
-10.2670701992
 10
-13.842954804
 20
-10.3197250958
 10
-13.9750759345
 20
-10.3558328895
 10
-14.1143300525
 20
-10.3757177781
 10
-14.2580368184
 20
-10.3789970206
 10
-14.4062824893
 20
-10.3653489303
 10
-14.558980808
 20
-10.335095194
 10
-14.7131926631
 20
-10.2888181303
 10
-14.868947375
 20
-10.2262073335
 10
-15.0262156232
 20
-10.1475732094
 10
-15.1819703351
 20
-10.0544292943
 10
-15.3361821902
 20
-9.9464945029
 10
-15.4888805089
 20
-9.8240499205
 10
-15.6371261798
 20
-9.6894523398
 10
-15.7808329457
 20
-9.5424663315
 10
-15.9200870637
 20
-9.3833273249
 10
-16.0522081942
 20
-9.2150984007
 10
-16.1770581559
 20
-9.037603468
 10
-16.29477513
 20
-8.8510186178
 10
-16.4030933201
 20
-8.6589352037
 10
-16.5018306518
 20
-8.461246707
 10
-16.5911691993
 20
-8.2580596465
 10
-16.6693893896
 20
-8.0532849323
 10
-16.7362758363
 20
-7.8468918084
 10
-16.7920439257
 20
-7.638911031
 10
-16.835620243
 20
-7.4333457789
 10
-16.8666469832
 20
-7.2315304451
 10
-16.8854819514
 20
-7.0321306366
 10
-16.8921251474
 20
-6.8351463535
  0
LINE
  5
289
100
AcDbEntity
  8
0
100
AcDbLine
 62
7
  6
CONTINUOUS
 10
10.5082626236
 20
-4.4304420879
 11
10.2607752502
 21
-4.3066984012
  0
LINE
  5
28A
100
AcDbEntity
  8
SMUSSO
100
AcDbLine
 62
7
  6
CONTINUOUS
 10
-8.3007777559
 20
5.4620717983
 11
-6.1087467343
 21
4.3660562875
  0
LINE
  5
28B
100
AcDbEntity
  8
SMUSSO
100
AcDbLine
 62
7
  6
CONTINUOUS
 10
2.9422200649
 20
-0.1594271121
 11
5.1342510866
 21
-1.2554426229
  0
LINE
  5
28C
100
AcDbEntity
  8
0
100
AcDbLine
 62
7
  6
CONTINUOUS
 10
2.7654433696
 20
-7.0894161496
 11
2.7654433696
 21
-1.460251025
  0
LINE
  5
28D
100
AcDbEntity
  8
0
100
AcDbLine
 62
7
  6
CONTINUOUS
 10
2.9422200649
 20
-8.2134633673
 11
2.9422200649
 21
-0.1594271121
  0
LINE
  5
28E
100
AcDbEntity
  8
0
100
AcDbLine
 62
7
  6
CONTINUOUS
 10
8.8465616878
 20
-0.78376446
 11
8.3728544495
 21
-1.0206180792
  0
LINE
  5
28F
100
AcDbEntity
  8
0
100
AcDbLine
 62
7
  6
CONTINUOUS
 10
8.4999893476
 20
-1.2398933426
 11
9.1294044003
 21
-0.9251858162
  0
LWPOLYLINE
  5
290
100
AcDbEntity
  8
ASSI
100
AcDbPolyline
 62
7
  6
CONTINUOUS
 90
7
 70
0
 10
13.3148012291
 20
3.3749933398
 10
13.3203629085
 20
3.3757326813
 10
13.3928267991
 20
3.3903982635
 10
13.4660467675
 20
3.4101969555
 10
13.5400228136
 20
3.4351287573
 10
13.6147549374
 20
3.4651936688
 10
13.690243139
 20
3.50039169
  0
LINE
  5
291
100
AcDbEntity
  8
0
100
AcDbLine
 62
7
  6
CONTINUOUS
 10
10.5082626236
 20
-3.2180065226
 11
10.2607752502
 21
-3.0942628359
  0
LINE
  5
292
100
AcDbEntity
  8
SMUSSO
100
AcDbLine
 62
7
  6
CONTINUOUS
 10
6.1949112584
 20
-3.0848108145
 11
8.8112063488
 21
-1.7766632693
  0
LINE
  5
293
100
AcDbEntity
  8
0
100
AcDbLine
 62
7
  6
CONTINUOUS
 10
10.755749997
 20
-1.5080077012
 11
11.4628567782
 21
-1.1544543106
  0
LINE
  5
294
100
AcDbEntity
  8
ASSI
100
AcDbLine
 62
7
  6
CONTINUOUS
 10
-7.7115658895
 20
-10.8243493724
 11
-6.9572748717
 21
-10.4472038635
  0
LINE
  5
295
100
AcDbEntity
  8
0
100
AcDbLine
 62
7
  6
CONTINUOUS
 10
10.5525788349
 20
-1.7597632717
 11
11.1800140657
 21
-1.4460456563
  0
LINE
  5
296
100
AcDbEntity
  8
0
100
AcDbLine
 62
7
  6
CONTINUOUS
 10
10.1699092827
 20
-2.2339407603
 11
11.4628567782
 21
-1.5874670125
  0
LWPOLYLINE
  5
297
100
AcDbEntity
  8
ASSI
100
AcDbPolyline
 62
7
  6
CONTINUOUS
 90
9
 70
0
 10
4.2665961408
 20
-4.0771784576
 10
4.2782741774
 20
-4.0715365669
 10
4.3410632896
 20
-4.048037882
 10
4.4079166661
 20
-4.0343167612
 10
4.4787274387
 20
-4.0301161075
 10
4.5516004444
 20
-4.035548346
 10
4.6259039619
 20
-4.050650952
 10
4.7022697125
 20
-4.0753864503
 10
4.780697696
 20
-4.1097548409
  0
LWPOLYLINE
  5
298
100
AcDbEntity
  8
0
100
AcDbPolyline
 62
7
  6
CONTINUOUS
 90
27
 70
0
 10
-9.9337340446
 20
-11.152672563
 10
-9.9860391775
 20
-11.175009089
 10
-10.0508670394
 20
-11.1932754075
 10
-10.1191173184
 20
-11.2025704744
 10
-10.1907139973
 20
-11.2030935552
 10
-10.2640429003
 20
-11.1948328567
 10
-10.3391433767
 20
-11.1775888457
 10
-10.4159760771
 20
-11.1515610555
 10
-10.4928087776
 20
-11.1173362931
 10
-10.5696414781
 20
-11.074728355
 10
-10.6464741786
 20
-11.0239234448
 10
-10.721574655
 20
-10.9660669793
 10
-10.7949035579
 20
-10.9009987748
 10
-10.8665002369
 20
-10.8288790151
 10
-10.9347505159
 20
-10.7513336692
 10
-10.9995783778
 20
-10.6682394888
 10
-11.0610598398
 20
-10.5797197222
 10
-11.1178087776
 20
-10.487770083
 10
-11.1697176868
 20
-10.3923126578
 10
-11.2168940718
 20
-10.29342536
 10
-11.2582743222
 20
-10.1933376434
 10
-11.2937267723
 20
-10.0920222392
 10
-11.3233830877
 20
-9.9895064162
 10
-11.346574655
 20
-9.8881014347
 10
-11.3630786029
 20
-9.788577715
 10
-11.3731178026
 20
-9.6901648368
 10
-11.3766922541
 20
-9.5928628001
  0
LWPOLYLINE
  5
299
100
AcDbEntity
  8
ASSI
100
AcDbPolyline
 62
7
  6
CONTINUOUS
 90
3
 70
0
 10
13.4427262076
 20
3.1876219802
 10
13.5177376086
 20
3.1849416455
 10
13.6022084862
 20
3.1894235135
  0
LINE
  5
29A
100
AcDbEntity
  8
SMUSSO
100
AcDbLine
 62
7
  6
CONTINUOUS
 10
7.750546177
 20
0.0527049223
 11
5.5585151553
 21
1.1487204331
  0
LINE
  5
29B
100
AcDbEntity
  8
SMUSSO
100
AcDbLine
 62
7
  6
CONTINUOUS
 10
-3.4924516439
 20
5.6742038327
 11
-5.6844826656
 21
6.7702193435
  0
LINE
  5
29C
100
AcDbEntity
  8
0
100
AcDbLine
 62
7
  6
CONTINUOUS
 10
12.4528062719
 20
-2.2457346985
 11
12.1682138328
 21
-2.103438479
  0
LINE
  5
29D
100
AcDbEntity
  8
0
100
AcDbLine
 62
7
  6
CONTINUOUS
 10
11.1800140657
 20
-1.4460456563
 11
11.4628567782
 21
-1.5874670125
  0
LINE
  5
29E
100
AcDbEntity
  8
SMUSSO
100
AcDbLine
 62
7
  6
CONTINUOUS
 10
6.1949112584
 20
-3.0848108145
 11
5.1342510866
 21
-1.2554426229
  0
LINE
  5
29F
100
AcDbEntity
  8
SMUSSO
100
AcDbLine
 62
7
  6
CONTINUOUS
 10
6.1949112584
 20
-8.5407708583
 11
6.1949112584
 21
-3.0848108145
  0
LINE
  5
2A0
100
AcDbEntity
  8
0
100
AcDbLine
 62
7
  6
CONTINUOUS
 10
10.4729072846
 20
1.2314898664
 11
8.8465616878
 21
-0.78376446
  0
LWPOLYLINE
  5
2A1
100
AcDbEntity
  8
SMUSSO
100
AcDbPolyline
 62
7
  6
CONTINUOUS
 90
13
 70
0
 10
14.7786591648
 20
-0.4736640362
 10
14.8714514358
 20
-0.4211136967
 10
14.9742773593
 20
-0.3465903745
 10
15.0691314633
 20
-0.2590221112
 10
15.1554833556
 20
-0.1588985497
 10
15.2328500415
 20
-0.046779704
 10
15.3007986683
 20
0.076707009
 10
15.3589492585
 20
0.2108706956
 10
15.4069768127
 20
0.3549611284
 10
15.4446128847
 20
0.508172603
 10
15.4716470759
 20
0.6696483268
 10
15.4879282519
 20
0.8384851727
 10
15.493365431
 20
1.0137389177
  0
LINE
  5
2A2
100
AcDbEntity
  8
ASSI
100
AcDbLine
 62
7
  6
CONTINUOUS
 10
-9.26297139
 20
-12.4944793136
 11
-8.4144432526
 21
-12.0702152449
  0
LINE
  5
2A3
100
AcDbEntity
  8
ASSI
100
AcDbLine
 62
7
  6
CONTINUOUS
 10
14.7786591703
 20
-0.4736640334
 11
15.6271873078
 21
-0.0493999647
  0
LINE
  5
2A4
100
AcDbEntity
  8
0
100
AcDbLine
 62
7
  6
CONTINUOUS
 10
8.8112063488
 20
-3.6823610533
 11
9.1294044003
 21
-3.5232620276
  0
LINE
  5
2A5
100
AcDbEntity
  8
0
100
AcDbLine
 62
7
  6
CONTINUOUS
 10
-3.9520710516
 20
-10.0946199697
 11
-2.361080794
 21
-9.2991248409
  0
LINE
  5
2A6
100
AcDbEntity
  8
0
100
AcDbLine
 62
7
  6
CONTINUOUS
 10
0.4673463308
 20
-7.8849112785
 11
2.411889979
 21
-6.9126394543
  0
LINE
  5
2A7
100
AcDbEntity
  8
0
100
AcDbLine
 62
7
  6
CONTINUOUS
 10
12.1699635594
 20
-2.0999390257
 11
10.2607752502
 21
-3.0545331803
  0
LINE
  5
2A8
100
AcDbEntity
  8
0
100
AcDbLine
 62
7
  6
CONTINUOUS
 10
-3.9520710516
 20
-10.4481733603
 11
-2.0075274034
 21
-9.4759015361
  0
LINE
  5
2A9
100
AcDbEntity
  8
0
100
AcDbLine
 62
7
  6
CONTINUOUS
 10
0.8208997214
 20
-8.0616879738
 11
2.7654433696
 21
-7.0894161496
  0
LINE
  5
2AA
100
AcDbEntity
  8
0
100
AcDbLine
 62
7
  6
CONTINUOUS
 10
10.5082626236
 20
-3.2180065226
 11
12.4528062719
 21
-2.2457346985
  0
LINE
  5
2AB
100
AcDbEntity
  8
0
100
AcDbLine
 62
7
  6
CONTINUOUS
 10
-2.0075274034
 20
-9.901771009
 11
0.4673463308
 21
-8.6643341419
  0
LWPOLYLINE
  5
2AC
100
AcDbEntity
  8
ASSI
100
AcDbPolyline
 62
7
  6
CONTINUOUS
 90
9
 70
0
 10
5.2947992513
 20
-6.1341896529
 10
5.2831212146
 20
-6.1398315435
 10
5.2203321025
 20
-6.1633302285
 10
5.1534787259
 20
-6.1770513492
 10
5.0826679533
 20
-6.181252003
 10
5.0097949476
 20
-6.1758197644
 10
4.9354914301
 20
-6.1607171585
 10
4.8591256795
 20
-6.1359816602
 10
4.780697696
 20
-6.1016132696
  0
LWPOLYLINE
  5
2AD
100
AcDbEntity
  8
ASSI
100
AcDbPolyline
 62
7
  6
CONTINUOUS
 90
29
 70
0
 10
-9.263312318
 20
-12.49445656
 10
-9.3881820826
 20
-12.5471114565
 10
-9.520303213
 20
-12.5832192502
 10
-9.659557331
 20
-12.6031041388
 10
-9.8032640969
 20
-12.6063833813
 10
-9.9515097678
 20
-12.5927352911
 10
-10.1042080865
 20
-12.5624815547
 10
-10.2584199416
 20
-12.5162044911
 10
-10.4141746535
 20
-12.4535936942
 10
-10.5714429017
 20
-12.3749595701
 10
-10.7271976136
 20
-12.2818156551
 10
-10.8814094687
 20
-12.1738808636
 10
-11.0341077874
 20
-12.0514362812
 10
-11.1823534584
 20
-11.9168387006
 10
-11.3260602242
 20
-11.7698526922
 10
-11.4653143422
 20
-11.6107136856
 10
-11.5974354727
 20
-11.4424847614
 10
-11.7222854344
 20
-11.2649898288
 10
-11.8400024085
 20
-11.0784049785
 10
-11.9483205986
 20
-10.8863215645
 10
-12.0470579303
 20
-10.6886330677
 10
-12.1363964779
 20
-10.4854460072
 10
-12.2146166681
 20
-10.2806712931
 10
-12.2815031149
 20
-10.0742781692
 10
-12.3372712043
 20
-9.8662973917
 10
-12.3808475215
 20
-9.6607321396
 10
-12.4118742618
 20
-9.4589168058
 10
-12.4307092299
 20
-9.2595169973
 10
-12.4373524259
 20
-9.0625327142
  0
LINE
  5
2AE
100
AcDbEntity
  8
0
100
AcDbLine
 62
7
  6
CONTINUOUS
 10
9.1294044003
 20
-0.9251858162
 11
10.755749997
 21
1.0900685102
  0
LINE
  5
2AF
100
AcDbEntity
  8
0
100
AcDbLine
 62
7
  6
CONTINUOUS
 10
10.2607752502
 20
-4.4834750965
 11
8.8112063488
 21
-5.2082595473
  0
LINE
  5
2B0
100
AcDbEntity
  8
0
100
AcDbLine
 62
7
  6
CONTINUOUS
 10
-6.0733913952
 20
-12.7212690974
 11
-2.0075274034
 21
-10.6883371014
  0
LINE
  5
2B1
100
AcDbEntity
  8
0
100
AcDbLine
 62
7
  6
CONTINUOUS
 10
0.8208997214
 20
-9.2741235391
 11
2.9422200649
 21
-8.2134633673
  0
LINE
  5
2B2
100
AcDbEntity
  8
0
100
AcDbLine
 62
7
  6
CONTINUOUS
 10
10.5082626236
 20
-4.4304420879
 11
14.5741266154
 21
-2.397510092
  0
LINE
  5
2B3
100
AcDbEntity
  8
0
100
AcDbLine
 62
7
  6
CONTINUOUS
 10
11.1800140657
 20
1.585043257
 11
11.4628567782
 21
1.4436219007
  0
LINE
  5
2B4
100
AcDbEntity
  8
SMUSSO
100
AcDbLine
 62
7
  6
CONTINUOUS
 10
7.750546177
 20
0.0527049223
 11
8.8112063488
 21
-1.7766632693
  0
LINE
  5
2B5
100
AcDbEntity
  8
SMUSSO
100
AcDbLine
 62
7
  6
CONTINUOUS
 10
8.8112063488
 20
-7.2326233132
 11
8.8112063488
 21
-1.7766632693
  0
LINE
  5
2B6
100
AcDbEntity
  8
0
100
AcDbLine
 62
7
  6
CONTINUOUS
 10
9.1294044003
 20
-3.5232620276
 11
9.1294044003
 21
-0.9251858162
  0
LINE
  5
2B7
100
AcDbEntity
  8
0
100
AcDbLine
 62
7
  6
CONTINUOUS
 10
9.1294044003
 20
-3.5232620276
 11
10.755749997
 21
-1.5080077012
  0
LINE
  5
2B8
100
AcDbEntity
  8
SMUSSO
100
AcDbLine
 62
7
  6
CONTINUOUS
 10
5.1342510866
 20
-9.3094788781
 11
6.1949112584
 21
-8.5407708583
  0
LINE
  5
2B9
100
AcDbEntity
  8
SMUSSO
100
AcDbLine
 62
7
  6
CONTINUOUS
 10
8.8112063488
 20
-7.2326233132
 11
6.1949112584
 21
-8.5407708583
  0
LINE
  5
2BA
100
AcDbEntity
  8
SMUSSO
100
AcDbLine
 62
7
  6
CONTINUOUS
 10
7.750546177
 20
-8.0013313329
 11
5.1342510866
 21
-9.3094788781
  0
LINE
  5
2BB
100
AcDbEntity
  8
0
100
AcDbLine
 62
7
  6
CONTINUOUS
 10
10.2607752502
 20
-3.0545331803
 11
10.2607752502
 21
-4.4834750965
  0
LINE
  5
2BC
100
AcDbEntity
  8
0
100
AcDbLine
 62
7
  6
CONTINUOUS
 10
10.5082626236
 20
-4.4304420879
 11
10.5082626236
 21
-3.2180065226
  0
LINE
  5
2BD
100
AcDbEntity
  8
SMUSSO
100
AcDbLine
 62
7
  6
CONTINUOUS
 10
8.8112063488
 20
-7.2326233132
 11
7.750546177
 21
-8.0013313329
  0
LWPOLYLINE
  5
2BE
100
AcDbEntity
  8
ASSI
100
AcDbPolyline
 62
7
  6
CONTINUOUS
 90
11
 70
0
 10
13.6797914966
 20
3.0016053544
 10
13.6923788817
 20
2.9954550419
 10
13.7773453069
 20
2.9612261476
 10
13.8672244559
 20
2.9369984853
 10
13.9605223471
 20
2.92317477
 10
14.0572961239
 20
2.9199289006
 10
14.1574886429
 20
2.9270869782
 10
14.2594344927
 20
2.9445300204
 10
14.3625785362
 20
2.9722183663
 10
14.4674759104
 20
3.0101916768
 10
14.5741266154
 20
3.0584499518
  0
LINE
  5
2BF
100
AcDbEntity
  8
0
100
AcDbLine
 62
7
  6
CONTINUOUS
 10
12.0241678866
 20
3.1691112334
 11
12.1699635594
 21
3.096213397
  0
LINE
  5
2C0
100
AcDbEntity
  8
ASSI
100
AcDbLine
 62
7
  6
CONTINUOUS
 10
13.3466576197
 20
3.3171989468
 11
13.6022084862
 21
3.1894235135
  0
LINE
  5
2C1
100
AcDbEntity
  8
ASSI
100
AcDbLine
 62
7
  6
CONTINUOUS
 10
13.690243139
 20
3.50039169
 11
14.5741266154
 21
3.0584499518
  0
LINE
  5
2C2
100
AcDbEntity
  8
0
100
AcDbLine
 62
7
  6
CONTINUOUS
 10
10.755749997
 20
-1.5080077012
 11
10.755749997
 21
1.0900685102
  0
LINE
  5
2C3
100
AcDbEntity
  8
0
100
AcDbLine
 62
7
  6
CONTINUOUS
 10
11.1800140657
 20
-1.4460456563
 11
11.1800140657
 21
-1.2958756668
  0
LINE
  5
2C4
100
AcDbEntity
  8
0
100
AcDbLine
 62
7
  6
CONTINUOUS
 10
11.1800140657
 20
1.585043257
 11
11.1800140657
 21
1.7352132464
  0
LINE
  5
2C5
100
AcDbEntity
  8
0
100
AcDbLine
 62
7
  6
CONTINUOUS
 10
11.4628567782
 20
-1.5874670125
 11
11.4628567782
 21
-1.1544543106
  0
LINE
  5
2C6
100
AcDbEntity
  8
0
100
AcDbLine
 62
7
  6
CONTINUOUS
 10
11.4628567782
 20
1.4436219007
 11
11.4628567782
 21
1.8766346026
  0
LINE
  5
2C7
100
AcDbEntity
  8
ASSI
100
AcDbLine
 62
7
  6
CONTINUOUS
 10
13.1599130531
 20
4.949419382
 11
4.1089462539
 21
9.4749027816
  0
LINE
  5
2C8
100
AcDbEntity
  8
0
100
AcDbLine
 62
7
  6
CONTINUOUS
 10
12.0992528813
 20
3.1315687361
 11
12.0992528813
 21
3.2066537308
  0
LINE
  5
2C9
100
AcDbEntity
  8
0
100
AcDbLine
 62
7
  6
CONTINUOUS
 10
12.1699635594
 20
3.096213397
 11
12.1699635594
 21
-2.0999390257
  0
LINE
  5
2CA
100
AcDbEntity
  8
0
100
AcDbLine
 62
7
  6
CONTINUOUS
 10
12.4528062719
 20
-2.2457346985
 11
12.4528062719
 21
3.3834304261
  0
LINE
  5
2CB
100
AcDbEntity
  8
ASSI
100
AcDbLine
 62
7
  6
CONTINUOUS
 10
13.1599130531
 20
4.949419382
 11
13.1599130531
 21
4.0833939782
  0
LWPOLYLINE
  5
2CC
100
AcDbEntity
  8
ASSI
100
AcDbPolyline
 62
7
  6
CONTINUOUS
 90
7
 70
0
 10
13.1599130531
 20
4.0833939782
 10
13.1640503045
 20
3.9548426999
 10
13.1758694001
 20
3.8322797266
 10
13.1953703397
 20
3.7157050581
 10
13.2227473743
 20
3.6045359187
 10
13.257806253
 20
3.4993550843
 10
13.2999642232
 20
3.4019108825
  0
LWPOLYLINE
  5
2CD
100
AcDbEntity
  8
ASSI
100
AcDbPolyline
 62
7
  6
CONTINUOUS
 90
7
 70
0
 10
13.2999642232
 20
3.4019108825
 10
13.3493399441
 20
3.3123326292
 10
13.4058147564
 20
3.2304910086
 10
13.4684499294
 20
3.1577464016
 10
13.5373484318
 20
3.094250862
 10
13.6124072949
 20
3.039852336
 10
13.6797914966
 20
3.0016053544
  0
LWPOLYLINE
  5
2CE
100
AcDbEntity
  8
SMUSSO
100
AcDbPolyline
 62
7
  6
CONTINUOUS
 90
25
 70
0
 10
15.493365431
 20
1.0137389177
 10
15.4879282496
 20
1.1944298803
 10
15.4716470651
 20
1.3795479562
 10
15.4446128571
 20
1.5680579405
 10
15.4069767551
 20
1.7589055826
 10
15.3589491572
 20
1.951023679
 10
15.3007985186
 20
2.1433380447
 10
15.2328498469
 20
2.3347734389
 10
15.1554831196
 20
2.5242590024
 10
15.06913119
 20
2.7107344706
 10
14.9742770569
 20
2.8931568319
 10
14.8714511131
 20
3.0705060553
 10
14.7612284536
 20
3.2417902465
 10
14.6442255304
 20
3.4060514691
 10
14.5210966526
 20
3.5623711532
 10
14.3925303688
 20
3.7098751471
 10
14.2592456537
 20
3.8477385631
 10
14.1219879154
 20
3.9751903776
 10
13.9815247823
 20
4.0915178017
 10
13.838641798
 20
4.196070275
 10
13.6941380182
 20
4.288263104
 10
13.5488215651
 20
4.367580711
 10
13.403505113
 20
4.4335795167
 10
13.2590013363
 20
4.4858904262
 10
13.1599130531
 20
4.5124723214
  0
LINE
  5
2CF
100
AcDbEntity
  8
ASSI
100
AcDbLine
 62
7
  6
CONTINUOUS
 10
14.5741266154
 20
-2.397510092
 11
14.5741266154
 21
3.0584499518
  0
LWPOLYLINE
  5
2D0
100
AcDbEntity
  8
ASSI
100
AcDbPolyline
 62
7
  6
CONTINUOUS
 90
12
 70
0
 10
16.3418935684
 20
1.4380029864
 10
16.3352503724
 20
1.2476618993
 10
16.3164154043
 20
1.0670970589
 10
16.2853886641
 20
0.8963084654
 10
16.2418123468
 20
0.7343195305
 10
16.1860442574
 20
0.5821068425
 10
16.1191578106
 20
0.4426001653
 10
16.0409376204
 20
0.3160456414
 10
15.9515990728
 20
0.2021971285
 10
15.8528617412
 20
0.1032459634
 10
15.7445435511
 20
0.0194807394
 10
15.6268463798
 20
-0.0493772111
  0
ENDSEC
  0
SECTION
  2
OBJECTS
  0
DICTIONARY
  5
C
100
AcDbDictionary
280
0
281
1
  3
ACAD_GROUP
350
D
  3
ACAD_MLINESTYLE
350
17
  3
ACAD_LAYOUT
350
1A
  3
ACAD_PLOTSETTINGS
350
19
  3
ACAD_PLOTSTYLENAME
350
E
  0
DICTIONARY
  5
D
102
{ACAD_REACTORS
330
C
102
}
100
AcDbDictionary
280
0
281
1
  0
ACDBDICTIONARYWDFLT
  5
E
102
{ACAD_REACTORS
330
C
102
}
100
AcDbDictionary
281
1
  3
Normal
350
F
100
AcDbDictionaryWithDefault
340
F
  0
DICTIONARY
  5
17
102
{ACAD_REACTORS
330
C
102
}
100
AcDbDictionary
280
0
281
1
  3
Standard
350
18
  0
DICTIONARY
  5
19
102
{ACAD_REACTORS
330
C
102
}
100
AcDbDictionary
281
1
  0
DICTIONARY
  5
1A
102
{ACAD_REACTORS
330
C
102
}
100
AcDbDictionary
281
1
  3
Model
350
2D1
  3
Layout1
350
2D2
  0
ACDBPLACEHOLDER
  5
F
102
{ACAD_REACTORS
330
E
102
}
  0
MLINESTYLE
  5
18
102
{ACAD_REACTORS
330
17
102
}
100
AcDbMlineStyle
  2
STANDARD
 70
0
  3

 62
256
 51
90.0
 52
90.0
 71
2
 49
0.5
 62
256
  6
BYLAYER
 49
-0.5
 62
256
  6
BYLAYER
  0
LAYOUT
  5
2D1
102
{ACAD_REACTORS
330
1A
102
}
100
AcDbPlotSettings
  1

  2
none_device
  4
ISO_A4_(297.00_x_210.00_MM)
  6

 40
0.0
 41
0.0
 42
0.0
 43
0.0
 44
297.0
 45
210.0
 46
0.0
 47
0.0
 48
0.0
 49
0.0
140
0.0
141
0.0
142
1.0
143
1.0
 70
1024
 72
1
 73
0
 74
0
  7

 75
0
147
1.0
148
0.0
149
0.0
100
AcDbLayout
  1
Model
 70
0
 71
0
 10
0.0
 20
0.0
 11
297.0
 21
210.0
 12
0.0
 22
0.0
 32
0.0
 14
0.0
 24
0.0
 34
0.0
 15
0.0
 25
0.0
 35
0.0
146
0.0
 13
0.0
 23
0.0
 33
0.0
 16
1.0
 26
0.0
 36
0.0
 17
0.0
 27
1.0
 37
0.0
 76
0
330
20F
345
0
346
0
  0
LAYOUT
  5
2D2
102
{ACAD_REACTORS
330
1A
102
}
100
AcDbPlotSettings
  1

  2
none_device
  4
ISO_A4_(297.00_x_210.00_MM)
  6

 40
0.0
 41
0.0
 42
0.0
 43
0.0
 44
297.0
 45
210.0
 46
0.0
 47
0.0
 48
0.0
 49
0.0
140
0.0
141
0.0
142
1.0
143
1.0
 70
0
 72
1
 73
0
 74
0
  7

 75
0
147
1.0
148
0.0
149
0.0
100
AcDbLayout
  1
Layout1
 70
0
 71
1
 10
0.0
 20
0.0
 11
297.0
 21
210.0
 12
0.0
 22
0.0
 32
0.0
 14
0.0
 24
0.0
 34
0.0
 15
0.0
 25
0.0
 35
0.0
146
0.0
 13
0.0
 23
0.0
 33
0.0
 16
1.0
 26
0.0
 36
0.0
 17
0.0
 27
1.0
 37
0.0
 76
0
330
210
345
0
346
0
  0
ENDSEC
  0
EOF
