  0
SECTION
  2
HEADER
  9
$ACADVER
  1
AC1015
  9
$DWGCODEPAGE
  3
ANSI_1252
  9
$EXTMAX
 10
297.0
 20
210.0
 30
0.0
  9
$EXTMIN
 10
0.0
 20
0.0
 30
0.0
  9
$LIMMIN
 10
0.0
 20
0.0
  9
$LIMMAX
 10
297.0
 20
210.0
  9
$VIEWCTR
 10
148.5
 20
105.0
  9
$VIEWSIZE
 40
210.0
  9
$CLAYER
  8
0
  9
$LTSCALE
 40
16.335
  9
$CELTYPE
  6
BYLAYER
  9
$DIMSCALE
 40
1.0
  9
$DIMASZ
 40
3.0
  9
$DIMEXO
 40
1.85625
  9
$DIMDLI
 40
11.286
  9
$DIMEXE
 40
5.346
  9
$DIMCEN
 40
2.673
  9
$DIMLFAC
 40
1.0
  9
$DIMBLK
  1
_FILLED
  9
$DIMTXT
 40
3.0
  9
$DIMTOL
 70
1
  9
$DIMLIM
 70
0
  9
$DIMTFAC
 40
1.0
  9
$DIMTP
 40
0.01
  9
$DIMTM
 40
0.01
  9
$PDMODE
 70
3
  9
$PDSIZE
 40
3.0
  9
$HANDSEED
  5
2C8
  9
$TILEMODE
 70
1
  9
$MEASUREMENT
 70
1
  9
$INSUNITS
 70
4
  0
ENDSEC
  0
SECTION
  2
CLASSES
  0
CLASS
  1
ACDBDICTIONARYWDFLT
  2
AcDbDictionaryWithDefault
  3
AutoCAD 2000
 90
0
280
0
281
0
  0
CLASS
  1
ACDBPLACEHOLDER
  2
AcDbPlaceHolder
  3
AutoCAD 2000
 90
0
280
0
281
0
  0
CLASS
  1
LAYOUT
  2
AcDbLayout
  3
AutoCAD 2000
 90
0
280
0
281
0
  0
ENDSEC
  0
SECTION
  2
TABLES
  0
TABLE
  2
VPORT
  5
8
100
AcDbSymbolTable
 70
2
  0
VPORT
  5
1F4
100
AcDbSymbolTableRecord
100
AcDbViewportTableRecord
  2
*ACTIVE
 70
0
 10
0.0
 20
0.0
 11
1.0
 21
1.0
 12
148.5
 22
105.0
 13
0.0
 23
0.0
 14
1.0
 24
1.0
 15
0.0
 25
0.0
 16
0.0
 26
0.0
 36
1.0
 17
0.0
 27
0.0
 37
0.0
 40
210.0
 41
1.4142857143
 42
50.0
 43
0.0
 44
0.0
 50
0.0
 51
0.0
 71
0
 72
100
 73
1
 74
1
 75
0
 76
0
 77
0
 78
0
  0
ENDTAB
  0
TABLE
  2
LTYPE
  5
5
100
AcDbSymbolTable
 70
6
  0
LTYPE
  5
14
100
AcDbSymbolTableRecord
100
AcDbLinetypeTableRecord
  2
BYBLOCK
 70
0
  3

 72
65
 73
0
 40
0.0
  0
LTYPE
  5
15
100
AcDbSymbolTableRecord
100
AcDbLinetypeTableRecord
  2
BYLAYER
 70
0
  3

 72
65
 73
0
 40
0.0
  0
LTYPE
  5
16
100
AcDbSymbolTableRecord
100
AcDbLinetypeTableRecord
  2
CONTINUOUS
 70
64
  3
Solid line
 72
65
 73
0
 40
0.0
  0
LTYPE
  5
1F5
100
AcDbSymbolTableRecord
100
AcDbLinetypeTableRecord
  2
CENTER
 70
64
  3
____ _ ____ _ ____ _ ____ _ ____ _ ____ _ ____
 72
65
 73
4
 40
0.6
 49
0.375
 74
0
 49
-0.075
 74
0
 49
0.075
 74
0
 49
-0.075
 74
0
  0
LTYPE
  5
1F6
100
AcDbSymbolTableRecord
100
AcDbLinetypeTableRecord
  2
HIDDEN
 70
64
  3
- - - - - - - - - - - - - - - - - - - -
 72
65
 73
2
 40
0.2
 49
0.1
 74
0
 49
-0.1
 74
0
  0
LTYPE
  5
1F7
100
AcDbSymbolTableRecord
100
AcDbLinetypeTableRecord
  2
PHANTOM
 70
64
  3
_____ _ _ _____ _ _ _____ _ _ _____
 72
65
 73
6
 40
0.8
 49
0.45
 74
0
 49
-0.05
 74
0
 49
0.1
 74
0
 49
-0.05
 74
0
 49
0.1
 74
0
 49
-0.05
 74
0
  0
LTYPE
  5
1F8
100
AcDbSymbolTableRecord
100
AcDbLinetypeTableRecord
  2
DOT
 70
64
  3
. . . . . . . . . . . . . . . . . . . .
 72
65
 73
2
 40
0.2
 49
0.1
 74
0
 49
-0.1
 74
0
  0
LTYPE
  5
1F9
100
AcDbSymbolTableRecord
100
AcDbLinetypeTableRecord
  2
DASHED
 70
64
  3
- - - - - - - - - - - - - - - - - - - -
 72
65
 73
2
 40
0.2
 49
0.1
 74
0
 49
-0.1
 74
0
  0
ENDTAB
  0
TABLE
  2
LAYER
  5
2
100
AcDbSymbolTable
 70
36
  0
LAYER
  5
10
100
AcDbSymbolTableRecord
100
AcDbLayerTableRecord
  2
0
 70
0
 62
7
  6
CONTINUOUS
370
-3
390
F
  0
LAYER
  5
1FA
100
AcDbSymbolTableRecord
100
AcDbLayerTableRecord
  2
DEFAULT_1
 70
0
 62
7
  6
CENTER
370
-3
390
F
  0
LAYER
  5
1FB
100
AcDbSymbolTableRecord
100
AcDbLayerTableRecord
  2
DEFAULT_2
 70
0
 62
7
  6
HIDDEN
370
-3
390
F
  0
LAYER
  5
1FC
100
AcDbSymbolTableRecord
100
AcDbLayerTableRecord
  2
DEFAULT_3
 70
0
 62
7
  6
PHANTOM
370
-3
390
F
  0
LAYER
  5
1FD
100
AcDbSymbolTableRecord
100
AcDbLayerTableRecord
  2
ASSI
 70
0
 62
7
  6
CONTINUOUS
370
-3
390
F
  0
LAYER
  5
1FE
100
AcDbSymbolTableRecord
100
AcDbLayerTableRecord
  2
COORDINATE
 70
0
 62
7
  6
CONTINUOUS
370
-3
390
F
  0
LAYER
  5
1FF
100
AcDbSymbolTableRecord
100
AcDbLayerTableRecord
  2
COORD_ORIGINE
 70
0
 62
7
  6
CONTINUOUS
370
-3
390
F
  0
LAYER
  5
200
100
AcDbSymbolTableRecord
100
AcDbLayerTableRecord
  2
COSMETICI
 70
0
 62
7
  6
CONTINUOUS
370
-3
390
F
  0
LAYER
  5
201
100
AcDbSymbolTableRecord
100
AcDbLayerTableRecord
  2
CURVE
 70
0
 62
7
  6
CONTINUOUS
370
-3
390
F
  0
LAYER
  5
202
100
AcDbSymbolTableRecord
100
AcDbLayerTableRecord
  2
DRAFT
 70
0
 62
7
  6
CONTINUOUS
370
-3
390
F
  0
LAYER
  5
203
100
AcDbSymbolTableRecord
100
AcDbLayerTableRecord
  2
NOTE
 70
0
 62
7
  6
CONTINUOUS
370
-3
390
F
  0
LAYER
  5
204
100
AcDbSymbolTableRecord
100
AcDbLayerTableRecord
  2
PIANI
 70
0
 62
7
  6
CONTINUOUS
370
-3
390
F
  0
LAYER
  5
205
100
AcDbSymbolTableRecord
100
AcDbLayerTableRecord
  2
PIANI_ORIGINE
 70
0
 62
7
  6
CONTINUOUS
370
-3
390
F
  0
LAYER
  5
206
100
AcDbSymbolTableRecord
100
AcDbLayerTableRecord
  2
PUNTI
 70
0
 62
7
  6
CONTINUOUS
370
-3
390
F
  0
LAYER
  5
207
100
AcDbSymbolTableRecord
100
AcDbLayerTableRecord
  2
RACCORDO
 70
0
 62
7
  6
CONTINUOUS
370
-3
390
F
  0
LAYER
  5
208
100
AcDbSymbolTableRecord
100
AcDbLayerTableRecord
  2
SIMBOLI
 70
0
 62
7
  6
CONTINUOUS
370
-3
390
F
  0
LAYER
  5
209
100
AcDbSymbolTableRecord
100
AcDbLayerTableRecord
  2
SMUSSO
 70
0
 62
7
  6
CONTINUOUS
370
-3
390
F
  0
LAYER
  5
20A
100
AcDbSymbolTableRecord
100
AcDbLayerTableRecord
  2
SNAPLINE
 70
0
 62
7
  6
CONTINUOUS
370
-3
390
F
  0
LAYER
  5
20B
100
AcDbSymbolTableRecord
100
AcDbLayerTableRecord
  2
SUPERFICI
 70
0
 62
7
  6
CONTINUOUS
370
-3
390
F
  0
LAYER
  5
20C
100
AcDbSymbolTableRecord
100
AcDbLayerTableRecord
  2
TRASH
 70
0
 62
7
  6
CONTINUOUS
370
-3
390
F
  0
ENDTAB
  0
TABLE
  2
STYLE
  5
3
100
AcDbSymbolTable
 70
1
  0
STYLE
  5
11
100
AcDbSymbolTableRecord
100
AcDbTextStyleTableRecord
  2
STANDARD
 70
0
 40
0.0
 41
0.8
 50
0.0
 71
0
 42
0.2
  3
txt
  4

  0
STYLE
  5
20D
100
AcDbSymbolTableRecord
100
AcDbTextStyleTableRecord
  2
TEXTSTYLE_1
 70
0
 40
0.0
 41
0.8
 50
0.0
 71
0
 42
0.2
  3
gdt
  4

  0
ENDTAB
  0
TABLE
  2
VIEW
  5
6
100
AcDbSymbolTable
 70
0
  0
ENDTAB
  0
TABLE
  2
UCS
  5
7
100
AcDbSymbolTable
 70
0
  0
ENDTAB
  0
TABLE
  2
APPID
  5
9
100
AcDbSymbolTable
 70
1
  0
APPID
  5
20E
100
AcDbSymbolTableRecord
100
AcDbRegAppTableRecord
  2
ACAD
 70
0
  0
ENDTAB
  0
TABLE
  2
BLOCK_RECORD
  5
1
100
AcDbSymbolTable
 70
0
  0
BLOCK_RECORD
  5
20F
100
AcDbSymbolTableRecord
100
AcDbBlockTableRecord
  2
*Model_Space
  0
BLOCK_RECORD
  5
210
100
AcDbSymbolTableRecord
100
AcDbBlockTableRecord
  2
*Paper_Space
  0
ENDTAB
  0
TABLE
  2
DIMSTYLE
  5
A
100
AcDbSymbolTable
 70
1
100
AcDbDimStyleTable
 71
0
  0
DIMSTYLE
105
211
100
AcDbSymbolTableRecord
100
AcDbDimStyleTableRecord
  2
STANDARD
 70
0
  3

  4

 40
1.0
 41
3.0
 42
0.0625
 43
0.38
 44
0.18
 45
0.0
 46
0.0
 47
0.01
 48
0.01
140
3.0
141
0.09
142
0.0
143
25.4
144
1.0
145
0.0
146
1.0
147
0.09
 71
1.0
 72
0.0
 73
0
 74
0
 75
0
 76
0
 77
1
 78
8
170
0
171
2
172
0
173
0
174
0
175
0
176
0
177
0
178
0
270
2
271
2
272
2
273
2
274
2
275
0
280
0
281
0
282
0
283
1
284
8
285
0
286
0
287
3
288
0
340
11
  0
ENDTAB
  0
ENDSEC
  0
SECTION
  2
BLOCKS
  0
BLOCK
  5
20
100
AcDbEntity
  8
0
100
AcDbBlockBegin
  2
*Model_Space
 70
0
 10
0.0
 20
0.0
 30
0.0
  3
*Model_Space
  1

  0
ENDBLK
  5
21
100
AcDbEntity
  8
0
100
AcDbBlockEnd
  0
BLOCK
  5
1C
100
AcDbEntity
  8
0
100
AcDbBlockBegin
  2
*Paper_Space
 70
0
 10
0.0
 20
0.0
 30
0.0
  3
*Paper_Space
  1

  0
ENDBLK
  5
1D
100
AcDbEntity
  8
0
100
AcDbBlockEnd
  0
ENDSEC
  0
SECTION
  2
ENTITIES
  0
LINE
  5
212
100
AcDbEntity
  8
0
100
AcDbLine
 62
7
  6
CONTINUOUS
 10
-19.2013947679
 20
-8.3265651939
 11
-19.2013947679
 21
-0.2725289387
  0
LINE
  5
213
100
AcDbEntity
  8
0
100
AcDbLine
 62
7
  6
CONTINUOUS
 10
-17.8225365445
 20
-2.3908999666
 11
-17.8225365445
 21
-7.5870523893
  0
LINE
  5
214
100
AcDbEntity
  8
RACCORDO
100
AcDbLine
 62
7
  6
CONTINUOUS
 10
-17.0106568444
 20
0.4339312934
 11
-17.0106568444
 21
0.4952001202
  0
LINE
  5
215
100
AcDbEntity
  8
0
100
AcDbLine
 62
7
  6
CONTINUOUS
 10
-16.5497443384
 20
-3.0272960697
 11
-16.5497443384
 21
-6.9506562863
  0
LINE
  5
216
100
AcDbEntity
  8
0
100
AcDbLine
 62
7
  6
CONTINUOUS
 10
-19.2013947679
 20
-8.3265651939
 11
-10.0797172905
 21
-12.8874039326
  0
LINE
  5
217
100
AcDbEntity
  8
0
100
AcDbLine
 62
7
  6
CONTINUOUS
 10
-17.8225365445
 20
-7.5870523893
 11
-11.4585755139
 21
-10.7690329047
  0
LINE
  5
218
100
AcDbEntity
  8
0
100
AcDbLine
 62
7
  6
CONTINUOUS
 10
-8.2399452689
 20
-11.6875533152
 11
-8.3473056766
 21
-11.6338731017
  0
LINE
  5
219
100
AcDbEntity
  8
0
100
AcDbLine
 62
7
  6
CONTINUOUS
 10
-16.5497443384
 20
-6.9506562863
 11
-11.4585755139
 21
-9.4962406985
  0
LINE
  5
21A
100
AcDbEntity
  8
DRAFT
100
AcDbLine
 62
7
  6
CONTINUOUS
 10
-10.9972691554
 20
6.3763892917
 11
-11.701990228
 21
5.8656463085
  0
LINE
  5
21B
100
AcDbEntity
  8
DRAFT
100
AcDbLine
 62
7
  6
CONTINUOUS
 10
-9.8322299171
 20
6.96558383
 11
-10.9972691554
 21
6.3763892917
  0
LINE
  5
21C
100
AcDbEntity
  8
DRAFT
100
AcDbLine
 62
7
  6
CONTINUOUS
 10
-8.6638167775
 20
7.5431154807
 11
-9.8322299171
 21
6.96558383
  0
LINE
  5
21D
100
AcDbEntity
  8
DRAFT
100
AcDbLine
 62
7
  6
CONTINUOUS
 10
-11.701990228
 20
3.3135767647
 11
-11.701990228
 21
5.8656463085
  0
LINE
  5
21E
100
AcDbEntity
  8
0
100
AcDbLine
 62
7
  6
CONTINUOUS
 10
-11.4585755139
 20
-10.7690329047
 11
-11.4585755139
 21
-5.572880482
  0
LINE
  5
21F
100
AcDbEntity
  8
0
100
AcDbLine
 62
7
  6
CONTINUOUS
 10
-11.4585755139
 20
-5.572880482
 11
-17.8225365445
 21
-2.3908999666
  0
LINE
  5
220
100
AcDbEntity
  8
DRAFT
100
AcDbLine
 62
7
  6
CONTINUOUS
 10
-4.6703504145
 20
-8.8252919585
 11
-4.4089817234
 21
-8.955976304
  0
LINE
  5
221
100
AcDbEntity
  8
0
100
AcDbLine
 62
7
  6
CONTINUOUS
 10
-10.0797172905
 20
-12.8874039326
 11
-10.0797172905
 21
-4.8333676774
  0
LINE
  5
222
100
AcDbEntity
  8
RACCORDO
100
AcDbLine
 62
7
  6
CONTINUOUS
 10
-8.3719641228
 20
5.0045409078
 11
-16.9333219326
 21
0.6571428349
  0
LINE
  5
223
100
AcDbEntity
  8
RACCORDO
100
AcDbLine
 62
253
  6
CONTINUOUS
 10
-8.2371682926
 20
4.9963388603
 11
-16.7985261024
 21
0.6489407875
  0
LINE
  5
224
100
AcDbEntity
  8
0
100
AcDbLine
 62
7
  6
CONTINUOUS
 10
4.55739308
 20
11.6068649852
 11
3.8502862988
 21
11.2533115946
  0
LINE
  5
225
100
AcDbEntity
  8
0
100
AcDbLine
 62
7
  6
CONTINUOUS
 10
-18.4942879867
 20
0.0810244519
 11
-19.2013947679
 21
-0.2725289387
  0
LINE
  5
226
100
AcDbEntity
  8
0
100
AcDbLine
 62
7
  6
CONTINUOUS
 10
4.0624183332
 20
11.1472455774
 11
3.355311552
 21
10.7936921868
  0
LINE
  5
227
100
AcDbEntity
  8
0
100
AcDbLine
 62
7
  6
CONTINUOUS
 10
-17.5750491711
 20
0.3285118253
 11
-18.2821559523
 21
-0.0250415653
  0
LINE
  5
228
100
AcDbEntity
  8
0
100
AcDbLine
 62
7
  6
CONTINUOUS
 10
3.5320882473
 20
10.7053038392
 11
2.8249814661
 21
10.3517504486
  0
LINE
  5
229
100
AcDbEntity
  8
0
100
AcDbLine
 62
7
  6
CONTINUOUS
 10
-16.6911656946
 20
0.5936768682
 11
-17.3982724758
 21
0.2401234776
  0
LINE
  5
22A
100
AcDbEntity
  8
RACCORDO
100
AcDbLine
 62
7
  6
CONTINUOUS
 10
2.5840905786
 20
10.4158491004
 11
-5.9788640756
 21
6.2006391297
  0
LINE
  5
22B
100
AcDbEntity
  8
RACCORDO
100
AcDbLine
 62
253
  6
CONTINUOUS
 10
2.7176210584
 20
10.4070143678
 11
-5.9037159147
 21
6.1630650493
  0
LINE
  5
22C
100
AcDbEntity
  8
0
100
AcDbLine
 62
7
  6
CONTINUOUS
 10
-19.2013947679
 20
-0.2725289387
 11
-10.0797172905
 21
-4.8333676774
  0
LINE
  5
22D
100
AcDbEntity
  8
0
100
AcDbLine
 62
7
  6
CONTINUOUS
 10
-9.3726105094
 20
-12.533850542
 11
-9.3726105094
 21
-4.4798142868
  0
LINE
  5
22E
100
AcDbEntity
  8
0
100
AcDbLine
 62
7
  6
CONTINUOUS
 10
-8.8776357625
 20
-12.0742311342
 11
-8.8776357625
 21
-4.020194879
  0
LINE
  5
22F
100
AcDbEntity
  8
0
100
AcDbLine
 62
253
  6
CONTINUOUS
 10
-8.559437711
 20
1.2872662009
 11
-8.559437711
 21
0.5726079873
  0
LINE
  5
230
100
AcDbEntity
  8
0
100
AcDbLine
 62
7
  6
CONTINUOUS
 10
-8.3473056766
 20
-11.6338731017
 11
-8.3473056766
 21
-3.576669435
  0
LINE
  5
231
100
AcDbEntity
  8
0
100
AcDbLine
 62
7
  6
CONTINUOUS
 10
-9.3726105094
 20
-4.4798142868
 11
-9.5847425437
 21
-4.3737482696
  0
LINE
  5
232
100
AcDbEntity
  8
0
100
AcDbLine
 62
7
  6
CONTINUOUS
 10
-18.2821559523
 20
-0.0250415653
 11
-18.4942879867
 21
0.0810244519
  0
LINE
  5
233
100
AcDbEntity
  8
RACCORDO
100
AcDbLine
 62
7
  6
CONTINUOUS
 10
-1.8924917905
 20
-8.1724842397
 11
-1.4989822035
 21
-8.3692390332
  0
LINE
  5
234
100
AcDbEntity
  8
0
100
AcDbLine
 62
7
  6
CONTINUOUS
 10
-8.8776357625
 20
-4.020194879
 11
-9.0544124578
 21
-3.9318065314
  0
LINE
  5
235
100
AcDbEntity
  8
0
100
AcDbLine
 62
7
  6
CONTINUOUS
 10
-17.3982724758
 20
0.2401234776
 11
-17.5750491711
 21
0.3285118253
  0
LINE
  5
236
100
AcDbEntity
  8
DRAFT
100
AcDbLine
 62
7
  6
CONTINUOUS
 10
-1.5590805772
 20
-7.2696570399
 11
-1.2868514616
 21
-7.4057715977
  0
LINE
  5
237
100
AcDbEntity
  8
RACCORDO
100
AcDbLine
 62
7
  6
CONTINUOUS
 10
-8.0278145269
 20
-3.9962210386
 11
-8.0278145269
 21
-11.5338126479
  0
LINE
  5
238
100
AcDbEntity
  8
0
100
AcDbLine
 62
7
  6
CONTINUOUS
 10
-13.2970576587
 20
-1.1017979674
 11
-8.559437711
 21
1.2872662009
  0
LINE
  5
239
100
AcDbEntity
  8
0
100
AcDbLine
 62
7
  6
CONTINUOUS
 10
6.2190985295
 20
8.6562801267
 11
1.4814785819
 21
6.3077243473
  0
LINE
  5
23A
100
AcDbEntity
  8
0
100
AcDbLine
 62
7
  6
CONTINUOUS
 10
-11.7414182263
 20
-1.8811968659
 11
-13.2970531449
 21
-1.1033794066
  0
LINE
  5
23B
100
AcDbEntity
  8
0
100
AcDbLine
 62
7
  6
CONTINUOUS
 10
-16.7985261024
 20
0.6489407875
 11
-13.2970576587
 21
-1.1017979674
  0
LINE
  5
23C
100
AcDbEntity
  8
0
100
AcDbLine
 62
7
  6
CONTINUOUS
 10
-11.7414227401
 20
-1.8796154267
 11
-8.2399452689
 21
-3.6303496293
  0
LINE
  5
23D
100
AcDbEntity
  8
RACCORDO
100
AcDbLine
 62
7
  6
CONTINUOUS
 10
3.141492567
 20
-8.823654428
 11
0.4565398651
 21
-7.4811780771
  0
LINE
  5
23E
100
AcDbEntity
  8
DRAFT
100
AcDbLine
 62
7
  6
CONTINUOUS
 10
-6.2183981252
 20
-3.878815109
 11
-6.2183981252
 21
-9.8543903951
  0
LINE
  5
23F
100
AcDbEntity
  8
0
100
AcDbLine
 62
7
  6
CONTINUOUS
 10
1.4814785819
 20
5.5930661338
 11
1.4267563436
 21
5.5633051835
  0
LINE
  5
240
100
AcDbEntity
  8
0
100
AcDbLine
 62
7
  6
CONTINUOUS
 10
-11.7414227401
 20
-1.8796154267
 11
-7.0038027924
 21
0.5094487416
  0
LINE
  5
241
100
AcDbEntity
  8
0
100
AcDbLine
 62
7
  6
CONTINUOUS
 10
-12.6042328219
 20
-1.4497895681
 11
-8.559437711
 21
0.5726079873
  0
LINE
  5
242
100
AcDbEntity
  8
0
100
AcDbLine
 62
7
  6
CONTINUOUS
 10
1.4814785819
 20
5.5930661338
 11
6.2190940158
 21
7.9618738507
  0
LINE
  5
243
100
AcDbEntity
  8
0
100
AcDbLine
 62
7
  6
CONTINUOUS
 10
7.7747334481
 20
7.8784626674
 11
3.0371135005
 21
5.529906888
  0
LINE
  5
244
100
AcDbEntity
  8
DRAFT
100
AcDbLine
 62
7
  6
CONTINUOUS
 10
0.3806499283
 20
-6.5778213568
 11
0.1026203585
 21
-6.438806572
  0
LINE
  5
245
100
AcDbEntity
  8
RACCORDO
100
AcDbLine
 62
7
  6
CONTINUOUS
 10
-4.4089817234
 20
-9.7524018228
 11
-4.4089817234
 21
-8.955976304
  0
LINE
  5
246
100
AcDbEntity
  8
0
100
AcDbLine
 62
7
  6
CONTINUOUS
 10
-17.8225365445
 20
-7.5870523893
 11
-16.5497443384
 21
-6.9506562863
  0
LINE
  5
247
100
AcDbEntity
  8
0
100
AcDbLine
 62
7
  6
CONTINUOUS
 10
-9.0544124578
 20
-3.9318065314
 11
-8.3473056766
 21
-3.5782531408
  0
LINE
  5
248
100
AcDbEntity
  8
0
100
AcDbLine
 62
7
  6
CONTINUOUS
 10
11.1688414841
 20
6.1798204396
 11
11.8759482653
 21
6.5333738302
  0
LWPOLYLINE
  5
249
100
AcDbEntity
  8
0
100
AcDbPolyline
 62
7
  6
CONTINUOUS
 90
20
 70
0
 10
-6.9460985487
 20
0.5410656703
 10
-7.0038027924
 20
0.5726079873
 10
-7.0744272959
 20
0.604908512
 10
-7.1509414632
 20
0.6342642048
 10
-7.2316202517
 20
0.6600132298
 10
-7.3165582655
 20
0.6820736575
 10
-7.4056609005
 20
0.7005274174
 10
-7.4969193021
 20
0.7149584621
 10
-7.5903824409
 20
0.7252754112
 10
-7.6860013463
 20
0.731569645
 10
-7.7816202517
 20
0.7336992577
 10
-7.8772391571
 20
0.731569645
 10
-7.9728580625
 20
0.7252754112
 10
-8.0663212013
 20
0.7149584621
 10
-8.1575796029
 20
0.7005274174
 10
-8.2466822379
 20
0.6820736575
 10
-8.3316202517
 20
0.6600132298
 10
-8.411724026
 20
0.6344848167
 10
-8.4876631791
 20
0.6053497359
 10
-8.559437711
 20
0.5726079873
  0
LINE
  5
24A
100
AcDbEntity
  8
0
100
AcDbLine
 62
7
  6
CONTINUOUS
 10
-1.5590805772
 20
-8.0057786331
 11
-1.5590805772
 21
-7.2696570399
  0
LINE
  5
24B
100
AcDbEntity
  8
RACCORDO
100
AcDbLine
 62
7
  6
CONTINUOUS
 10
-1.2868514616
 20
-7.4057715977
 11
-1.2868514616
 21
-8.2154983659
  0
LINE
  5
24C
100
AcDbEntity
  8
DRAFT
100
AcDbLine
 62
7
  6
CONTINUOUS
 10
9.6915044515
 20
4.0761361793
 11
4.0007572576
 21
1.2108284631
  0
LINE
  5
24D
100
AcDbEntity
  8
RACCORDO
100
AcDbLine
 62
253
  6
CONTINUOUS
 10
0.3813917042
 20
0.6870588619
 11
-8.2399452689
 21
-3.6303496293
  0
LINE
  5
24E
100
AcDbEntity
  8
RACCORDO
100
AcDbLine
 62
253
  6
CONTINUOUS
 10
0.5935224461
 20
0.3211874526
 11
-8.0278145269
 21
-3.9962210386
  0
LINE
  5
24F
100
AcDbEntity
  8
0
100
AcDbLine
 62
7
  6
CONTINUOUS
 10
-9.5847425437
 20
-4.3737482696
 11
-8.8776357625
 21
-4.020194879
  0
LINE
  5
250
100
AcDbEntity
  8
0
100
AcDbLine
 62
7
  6
CONTINUOUS
 10
12.0527249606
 20
6.4449854825
 11
12.7598317418
 21
6.7985388731
  0
LINE
  5
251
100
AcDbEntity
  8
0
100
AcDbLine
 62
7
  6
CONTINUOUS
 10
-10.0797172905
 20
-4.8333676774
 11
-9.3726105094
 21
-4.4798142868
  0
LINE
  5
252
100
AcDbEntity
  8
0
100
AcDbLine
 62
7
  6
CONTINUOUS
 10
12.9719637761
 20
6.692472856
 11
13.6790705573
 21
7.0460262466
  0
LINE
  5
253
100
AcDbEntity
  8
0
100
AcDbLine
 62
7
  6
CONTINUOUS
 10
4.1154599887
 20
1.1534770975
 11
9.2596531749
 21
3.7255736906
  0
LINE
  5
254
100
AcDbEntity
  8
RACCORDO
100
AcDbLine
 62
253
  6
CONTINUOUS
 10
11.2762018919
 20
6.1277239511
 11
2.7148440821
 21
1.8537850509
  0
LINE
  5
255
100
AcDbEntity
  8
RACCORDO
100
AcDbLine
 62
253
  6
CONTINUOUS
 10
11.4883326338
 20
5.7618525418
 11
3.1869855581
 21
1.6177143129
  0
LINE
  5
256
100
AcDbEntity
  8
DRAFT
100
AcDbLine
 62
7
  6
CONTINUOUS
 10
0.3806499283
 20
-0.6022460707
 11
-6.2183981252
 21
-3.878815109
  0
LINE
  5
257
100
AcDbEntity
  8
0
100
AcDbLine
 62
7
  6
CONTINUOUS
 10
0.1026203585
 20
-6.438806572
 11
0.1026203585
 21
-0.7402937213
  0
LINE
  5
258
100
AcDbEntity
  8
DRAFT
100
AcDbLine
 62
7
  6
CONTINUOUS
 10
3.141492567
 20
-0.6929915695
 11
4.3099057066
 21
-0.1054839818
  0
LINE
  5
259
100
AcDbEntity
  8
0
100
AcDbLine
 62
7
  6
CONTINUOUS
 10
4.3983027012
 20
1.0120557413
 11
9.5424958874
 21
3.5841523344
  0
LINE
  5
25A
100
AcDbEntity
  8
0
100
AcDbLine
 62
7
  6
CONTINUOUS
 10
8.4818357156
 20
2.1877968447
 11
5.264328105
 21
0.5790430394
  0
LINE
  5
25B
100
AcDbEntity
  8
DRAFT
100
AcDbLine
 62
7
  6
CONTINUOUS
 10
4.3099057066
 20
-0.1054839818
 11
5.4749449449
 21
0.4737346195
  0
LINE
  5
25C
100
AcDbEntity
  8
RACCORDO
100
AcDbLine
 62
7
  6
CONTINUOUS
 10
7.4211755438
 20
-3.6236285021
 11
7.6825455273
 21
-3.7543134938
  0
LINE
  5
25D
100
AcDbEntity
  8
RACCORDO
100
AcDbLine
 62
7
  6
CONTINUOUS
 10
-10.9972691554
 20
6.3763892917
 11
-8.2371682926
 21
4.9963388603
  0
LINE
  5
25E
100
AcDbEntity
  8
RACCORDO
100
AcDbLine
 62
7
  6
CONTINUOUS
 10
0.3813917042
 20
0.6870588619
 11
3.141492567
 21
-0.6929915695
  0
LINE
  5
25F
100
AcDbEntity
  8
DRAFT
100
AcDbLine
 62
7
  6
CONTINUOUS
 10
7.6333075782
 20
-2.6734629621
 11
7.8946762692
 21
-2.8041473077
  0
LINE
  5
260
100
AcDbEntity
  8
DRAFT
100
AcDbLine
 62
7
  6
CONTINUOUS
 10
0.3806499283
 20
-6.5778213568
 11
0.3806499283
 21
-0.6022460707
  0
LINE
  5
261
100
AcDbEntity
  8
RACCORDO
100
AcDbLine
 62
7
  6
CONTINUOUS
 10
0.5935224461
 20
0.3211874526
 11
0.5935224461
 21
-7.2898633293
  0
LINE
  5
262
100
AcDbEntity
  8
0
100
AcDbLine
 62
253
  6
CONTINUOUS
 10
1.4814785819
 20
6.3077243473
 11
1.4814785819
 21
5.5930661338
  0
LINE
  5
263
100
AcDbEntity
  8
DRAFT
100
AcDbLine
 62
7
  6
CONTINUOUS
 10
5.0170124878
 20
-1.3250627762
 11
6.1796660175
 21
-0.7417294363
  0
LINE
  5
264
100
AcDbEntity
  8
0
100
AcDbLine
 62
7
  6
CONTINUOUS
 10
5.9245305734
 20
-0.3016858876
 11
7.1383328313
 21
0.3052152414
  0
LINE
  5
265
100
AcDbEntity
  8
0
100
AcDbLine
 62
7
  6
CONTINUOUS
 10
7.4211755438
 20
0.1637938852
 11
6.0516654715
 21
-0.520961151
  0
LINE
  5
266
100
AcDbEntity
  8
DRAFT
100
AcDbLine
 62
7
  6
CONTINUOUS
 10
3.8462136396
 20
-1.9084556253
 11
5.0170124878
 21
-1.3250627762
  0
LINE
  5
267
100
AcDbEntity
  8
DRAFT
100
AcDbLine
 62
7
  6
CONTINUOUS
 10
-9.8322299171
 20
6.96558383
 11
4.3099057066
 21
-0.1054839818
  0
LWPOLYLINE
  5
268
100
AcDbEntity
  8
ASSI
100
AcDbPolyline
 62
7
  6
CONTINUOUS
 90
29
 70
0
 10
1.7289659553
 20
-4.0520596929
 10
1.7317440191
 20
-4.1344349386
 10
1.7396204603
 20
-4.217820313
 10
1.7525952789
 20
-4.3022158162
 10
1.7708181025
 20
-4.3881794671
 10
1.7941393035
 20
-4.4751532468
 10
1.8221099994
 20
-4.5614630986
 10
1.8548202608
 20
-4.6470961609
 10
1.8921800171
 20
-4.7320652953
 10
1.9334701739
 20
-4.8147350303
 10
1.9787668716
 20
-4.8950608216
 10
2.0279939699
 20
-4.9730872135
 10
2.0802039539
 20
-5.0473123672
 10
2.1354546084
 20
-5.1176626446
 10
2.1936881487
 20
-5.1842116837
 10
2.2537837053
 20
-5.2456785599
 10
2.3157773495
 20
-5.3019648209
 10
2.3796330101
 20
-5.353168919
 10
2.444121604
 20
-5.3983052864
 10
2.5092553926
 20
-5.4372563781
 10
2.5750221146
 20
-5.4701397391
 10
2.6401559032
 20
-5.4963224359
 10
2.7046444972
 20
-5.5156746626
 10
2.7685001577
 20
-5.528326225
 10
2.8304938019
 20
-5.5340336082
 10
2.8905893586
 20
-5.5326622886
 10
2.9488228988
 20
-5.5243467898
 10
3.0040735534
 20
-5.509247167
 10
3.0562918186
 20
-5.4872278466
  0
LWPOLYLINE
  5
269
100
AcDbEntity
  8
ASSI
100
AcDbPolyline
 62
7
  6
CONTINUOUS
 90
12
 70
0
 10
2.0279856887
 20
-3.4300643376
 10
1.9787668716
 20
-3.4588594805
 10
1.9334701739
 20
-3.4938885742
 10
1.8921800171
 20
-3.5352681523
 10
1.8548202608
 20
-3.5828775305
 10
1.8221099994
 20
-3.6358003314
 10
1.7941393035
 20
-3.6941394873
 10
1.7708181025
 20
-3.7577920659
 10
1.7525952789
 20
-3.8255328932
 10
1.7396204603
 20
-3.8969535778
 10
1.7317440191
 20
-3.972462511
 10
1.7289659553
 20
-4.0520596929
  0
LINE
  5
26A
100
AcDbEntity
  8
0
100
AcDbLine
 62
7
  6
CONTINUOUS
 10
8.0488230137
 20
-1.4928111214
 11
8.4818357156
 21
-1.2763047704
  0
LINE
  5
26B
100
AcDbEntity
  8
DRAFT
100
AcDbLine
 62
7
  6
CONTINUOUS
 10
9.6915044515
 20
-1.8994391068
 11
9.4364298702
 21
-1.7719018161
  0
LINE
  5
26C
100
AcDbEntity
  8
0
100
AcDbLine
 62
7
  6
CONTINUOUS
 10
8.2653293647
 20
-1.1680515949
 11
8.4818357156
 21
-1.2763047704
  0
LINE
  5
26D
100
AcDbEntity
  8
RACCORDO
100
AcDbLine
 62
7
  6
CONTINUOUS
 10
5.4749449449
 20
0.4737346195
 11
2.7148440821
 21
1.8537850509
  0
LINE
  5
26E
100
AcDbEntity
  8
RACCORDO
100
AcDbLine
 62
7
  6
CONTINUOUS
 10
-5.9037159147
 20
6.1630650493
 11
-8.6638167775
 21
7.5431154807
  0
LINE
  5
26F
100
AcDbEntity
  8
DRAFT
100
AcDbLine
 62
7
  6
CONTINUOUS
 10
3.141492567
 20
-0.6929915695
 11
3.8462136396
 21
-1.9084556253
  0
LWPOLYLINE
  5
270
100
AcDbEntity
  8
ASSI
100
AcDbPolyline
 62
7
  6
CONTINUOUS
 90
29
 70
0
 10
3.355311552
 20
-4.8652324913
 10
3.3525334882
 20
-4.7828572456
 10
3.344657047
 20
-4.6994718712
 10
3.3316822284
 20
-4.6150763679
 10
3.3134594048
 20
-4.5291127171
 10
3.2901382038
 20
-4.4421389374
 10
3.2621675078
 20
-4.3558290856
 10
3.2294572465
 20
-4.2701960233
 10
3.1920974902
 20
-4.1852268889
 10
3.1508073333
 20
-4.1025571539
 10
3.1055106357
 20
-4.0222313626
 10
3.0562835374
 20
-3.9442049707
 10
3.0040735534
 20
-3.869979817
 10
2.9488228988
 20
-3.7996295396
 10
2.8905893586
 20
-3.7330805005
 10
2.8304938019
 20
-3.6716136243
 10
2.7685001577
 20
-3.6153273632
 10
2.7046444972
 20
-3.5641232652
 10
2.6401559032
 20
-3.5189868978
 10
2.5750221146
 20
-3.4800358061
 10
2.5092553926
 20
-3.4471524451
 10
2.444121604
 20
-3.4209697482
 10
2.3796330101
 20
-3.4016175216
 10
2.3157773495
 20
-3.3889659591
 10
2.2537837053
 20
-3.383258576
 10
2.1936881487
 20
-3.3846298955
 10
2.1354546084
 20
-3.3929453944
 10
2.0802039539
 20
-3.4080450172
 10
2.0279856887
 20
-3.4300643376
  0
LINE
  5
271
100
AcDbEntity
  8
0
100
AcDbLine
 62
7
  6
CONTINUOUS
 10
3.355311552
 20
10.6169154915
 11
3.355311552
 21
10.7936921868
  0
LINE
  5
272
100
AcDbEntity
  8
DRAFT
100
AcDbLine
 62
7
  6
CONTINUOUS
 10
3.8462136396
 20
-8.3129114449
 11
3.8462136396
 21
-1.9084556253
  0
LINE
  5
273
100
AcDbEntity
  8
0
100
AcDbLine
 62
7
  6
CONTINUOUS
 10
3.8502862988
 20
11.0411795603
 11
3.8502862988
 21
11.2533115946
  0
LINE
  5
274
100
AcDbEntity
  8
DRAFT
100
AcDbLine
 62
7
  6
CONTINUOUS
 10
7.8946762692
 20
-2.8041473077
 11
9.6915044515
 21
-1.8994391068
  0
LINE
  5
275
100
AcDbEntity
  8
0
100
AcDbLine
 62
7
  6
CONTINUOUS
 10
7.4211755438
 20
-2.4342823262
 11
6.1796660175
 21
-3.0550370893
  0
LINE
  5
276
100
AcDbEntity
  8
0
100
AcDbLine
 62
7
  6
CONTINUOUS
 10
9.5424958874
 20
-1.6120000883
 11
7.4211755438
 21
-2.6726602601
  0
LINE
  5
277
100
AcDbEntity
  8
0
100
AcDbLine
 62
7
  6
CONTINUOUS
 10
-6.2183981252
 20
-9.5993158138
 11
-4.6703504145
 21
-8.8252919585
  0
LINE
  5
278
100
AcDbEntity
  8
0
100
AcDbLine
 62
7
  6
CONTINUOUS
 10
-1.5590805772
 20
-7.2696570399
 11
0.1026203585
 21
-6.438806572
  0
LINE
  5
279
100
AcDbEntity
  8
0
100
AcDbLine
 62
7
  6
CONTINUOUS
 10
7.6333075782
 20
-2.6734629621
 11
9.4364298702
 21
-1.7719018161
  0
LINE
  5
27A
100
AcDbEntity
  8
DRAFT
100
AcDbLine
 62
7
  6
CONTINUOUS
 10
-6.2183981252
 20
-9.8543903951
 11
-4.4089817234
 21
-8.955976304
  0
LINE
  5
27B
100
AcDbEntity
  8
DRAFT
100
AcDbLine
 62
7
  6
CONTINUOUS
 10
-1.2868514616
 20
-7.4057715977
 11
0.3806499283
 21
-6.5778213568
  0
LINE
  5
27C
100
AcDbEntity
  8
0
100
AcDbLine
 62
7
  6
CONTINUOUS
 10
11.8759482653
 20
-1.520662425
 11
12.0527249606
 21
-1.6090507727
  0
LINE
  5
27D
100
AcDbEntity
  8
0
100
AcDbLine
 62
7
  6
CONTINUOUS
 10
12.7598317418
 20
-1.2554973821
 11
12.9719637761
 21
-1.3615633992
  0
LINE
  5
27E
100
AcDbEntity
  8
DRAFT
100
AcDbLine
 62
7
  6
CONTINUOUS
 10
4.3099057066
 20
-0.1054839818
 11
5.0170124878
 21
-1.3250627762
  0
LINE
  5
27F
100
AcDbEntity
  8
DRAFT
100
AcDbLine
 62
7
  6
CONTINUOUS
 10
5.0170124878
 20
-7.7336507642
 11
5.0170124878
 21
-1.3250627762
  0
LINE
  5
280
100
AcDbEntity
  8
0
100
AcDbLine
 62
7
  6
CONTINUOUS
 10
7.1383328313
 20
0.3052152414
 11
8.1989930031
 21
1.8962054991
  0
LINE
  5
281
100
AcDbEntity
  8
0
100
AcDbLine
 62
7
  6
CONTINUOUS
 10
8.4818357156
 20
1.7547841428
 11
7.4211755438
 21
0.1637938852
  0
LWPOLYLINE
  5
282
100
AcDbEntity
  8
ASSI
100
AcDbPolyline
 62
7
  6
CONTINUOUS
 90
12
 70
0
 10
3.0562918186
 20
-5.4872278466
 10
3.1055106357
 20
-5.4584327036
 10
3.1508073333
 20
-5.42340361
 10
3.1920974902
 20
-5.3820240319
 10
3.2294572465
 20
-5.3344146537
 10
3.2621675078
 20
-5.2814918528
 10
3.2901382038
 20
-5.2231526969
 10
3.3134594048
 20
-5.1595001183
 10
3.3316822284
 20
-5.091759291
 10
3.344657047
 20
-5.0203386064
 10
3.3525334882
 20
-4.9448296732
 10
3.355311552
 20
-4.8652324913
  0
LINE
  5
283
100
AcDbEntity
  8
RACCORDO
100
AcDbLine
 62
253
  6
CONTINUOUS
 10
11.4883326338
 20
-1.7757390675
 11
7.8946762692
 21
-3.6005728265
  0
LINE
  5
284
100
AcDbEntity
  8
RACCORDO
100
AcDbLine
 62
7
  6
CONTINUOUS
 10
11.4109977221
 20
-1.9376817823
 11
7.8173413575
 21
-3.7625155413
  0
LINE
  5
285
100
AcDbEntity
  8
0
100
AcDbLine
 62
7
  6
CONTINUOUS
 10
7.6333075782
 20
-3.4095845554
 11
7.4211755438
 21
-3.5156505725
  0
LINE
  5
286
100
AcDbEntity
  8
0
100
AcDbLine
 62
7
  6
CONTINUOUS
 10
-1.5590805772
 20
-8.0057786331
 11
-4.4089817234
 21
-9.4307292062
  0
LINE
  5
287
100
AcDbEntity
  8
0
100
AcDbLine
 62
7
  6
CONTINUOUS
 10
-8.8776357625
 20
-11.8974544389
 11
-8.3473056766
 21
-11.632289396
  0
LINE
  5
288
100
AcDbEntity
  8
0
100
AcDbLine
 62
7
  6
CONTINUOUS
 10
11.4883326338
 20
-1.7144702407
 11
11.8759482653
 21
-1.520662425
  0
LINE
  5
289
100
AcDbEntity
  8
0
100
AcDbLine
 62
7
  6
CONTINUOUS
 10
-9.3726105094
 20
-12.3217185076
 11
-8.8776357625
 21
-12.0742311342
  0
LINE
  5
28A
100
AcDbEntity
  8
0
100
AcDbLine
 62
7
  6
CONTINUOUS
 10
12.0527249606
 20
-1.6090507727
 11
12.7598317418
 21
-1.2554973821
  0
LINE
  5
28B
100
AcDbEntity
  8
0
100
AcDbLine
 62
7
  6
CONTINUOUS
 10
7.4211755438
 20
-4.1016021763
 11
6.1796660175
 21
-4.7223569395
  0
LINE
  5
28C
100
AcDbEntity
  8
0
100
AcDbLine
 62
7
  6
CONTINUOUS
 10
-10.0797172905
 20
-12.8874039326
 11
-9.3726105094
 21
-12.533850542
  0
LINE
  5
28D
100
AcDbEntity
  8
0
100
AcDbLine
 62
7
  6
CONTINUOUS
 10
12.9719637761
 20
-1.3615633992
 11
13.6790705573
 21
-1.0080100086
  0
LINE
  5
28E
100
AcDbEntity
  8
RACCORDO
100
AcDbLine
 62
253
  6
CONTINUOUS
 10
0.5935224461
 20
-7.2898633293
 11
-1.2868514616
 21
-8.2154983659
  0
LINE
  5
28F
100
AcDbEntity
  8
RACCORDO
100
AcDbLine
 62
253
  6
CONTINUOUS
 10
-4.4089817234
 20
-9.7524018228
 11
-8.0278145269
 21
-11.5338126479
  0
LINE
  5
290
100
AcDbEntity
  8
RACCORDO
100
AcDbLine
 62
7
  6
CONTINUOUS
 10
0.514922184
 20
-7.4524387292
 11
-1.3654517237
 21
-8.3780737658
  0
LINE
  5
291
100
AcDbEntity
  8
RACCORDO
100
AcDbLine
 62
7
  6
CONTINUOUS
 10
-4.4875819856
 20
-9.9149772227
 11
-8.1064147891
 21
-11.6963880478
  0
LINE
  5
292
100
AcDbEntity
  8
0
100
AcDbLine
 62
7
  6
CONTINUOUS
 10
8.1989930031
 20
1.8962054991
 11
8.4818357156
 21
1.7547841428
  0
LINE
  5
293
100
AcDbEntity
  8
DRAFT
100
AcDbLine
 62
7
  6
CONTINUOUS
 10
5.4749449449
 20
0.4737346195
 11
6.1796660175
 21
-0.7417294363
  0
LINE
  5
294
100
AcDbEntity
  8
DRAFT
100
AcDbLine
 62
7
  6
CONTINUOUS
 10
6.1796660175
 20
-7.1461852559
 11
6.1796660175
 21
-0.7417294363
  0
LINE
  5
295
100
AcDbEntity
  8
0
100
AcDbLine
 62
7
  6
CONTINUOUS
 10
6.2190940158
 20
7.9618738507
 11
6.2190940158
 21
8.6562778891
  0
LINE
  5
296
100
AcDbEntity
  8
0
100
AcDbLine
 62
7
  6
CONTINUOUS
 10
8.4818357156
 20
-0.8432920685
 11
7.4211755438
 21
-2.4342823262
  0
LINE
  5
297
100
AcDbEntity
  8
0
100
AcDbLine
 62
7
  6
CONTINUOUS
 10
9.2596531749
 20
3.7255736906
 11
9.5424958874
 21
3.5841523344
  0
LINE
  5
298
100
AcDbEntity
  8
0
100
AcDbLine
 62
7
  6
CONTINUOUS
 10
7.4211755438
 20
-2.6726602601
 11
7.4211755438
 21
-4.1016021763
  0
LINE
  5
299
100
AcDbEntity
  8
0
100
AcDbLine
 62
7
  6
CONTINUOUS
 10
7.4211755438
 20
-2.4342823262
 11
7.4211755438
 21
0.1637938852
  0
LINE
  5
29A
100
AcDbEntity
  8
0
100
AcDbLine
 62
7
  6
CONTINUOUS
 10
7.6333075782
 20
-3.4095845554
 11
7.6333075782
 21
-2.6734629621
  0
LINE
  5
29B
100
AcDbEntity
  8
RACCORDO
100
AcDbLine
 62
7
  6
CONTINUOUS
 10
7.8946762692
 20
-2.8041473077
 11
7.8946762692
 21
-3.6005728265
  0
LINE
  5
29C
100
AcDbEntity
  8
0
100
AcDbLine
 62
7
  6
CONTINUOUS
 10
8.1989930031
 20
1.8962054991
 11
8.1989930031
 21
2.0463754885
  0
LINE
  5
29D
100
AcDbEntity
  8
DRAFT
100
AcDbLine
 62
7
  6
CONTINUOUS
 10
3.141492567
 20
-8.823654428
 11
3.8462136396
 21
-8.3129114449
  0
LINE
  5
29E
100
AcDbEntity
  8
DRAFT
100
AcDbLine
 62
7
  6
CONTINUOUS
 10
4.3099057066
 20
-8.2461227774
 11
5.0170124878
 21
-7.7336507642
  0
LINE
  5
29F
100
AcDbEntity
  8
DRAFT
100
AcDbLine
 62
7
  6
CONTINUOUS
 10
5.4749449449
 20
-7.6569282391
 11
6.1796660175
 21
-7.1461852559
  0
LINE
  5
2A0
100
AcDbEntity
  8
DRAFT
100
AcDbLine
 62
7
  6
CONTINUOUS
 10
4.3099057066
 20
-8.2461227774
 11
5.4749449449
 21
-7.6569282391
  0
LINE
  5
2A1
100
AcDbEntity
  8
DRAFT
100
AcDbLine
 62
7
  6
CONTINUOUS
 10
5.0170124878
 20
-7.7336507642
 11
6.1796660175
 21
-7.1461852559
  0
LINE
  5
2A2
100
AcDbEntity
  8
DRAFT
100
AcDbLine
 62
7
  6
CONTINUOUS
 10
3.8462136396
 20
-8.3129114449
 11
5.0170124878
 21
-7.7336507642
  0
LINE
  5
2A3
100
AcDbEntity
  8
DRAFT
100
AcDbLine
 62
7
  6
CONTINUOUS
 10
3.141492567
 20
-8.823654428
 11
4.3099057066
 21
-8.2461227774
  0
LINE
  5
2A4
100
AcDbEntity
  8
0
100
AcDbLine
 62
7
  6
CONTINUOUS
 10
8.4818357156
 20
-1.2763047704
 11
8.4818357156
 21
2.1877968447
  0
LINE
  5
2A5
100
AcDbEntity
  8
0
100
AcDbLine
 62
7
  6
CONTINUOUS
 10
9.4364298702
 20
-1.7719018161
 11
9.4364298702
 21
-1.6650330969
  0
LINE
  5
2A6
100
AcDbEntity
  8
0
100
AcDbLine
 62
7
  6
CONTINUOUS
 10
9.4364298702
 20
3.637185343
 11
9.4364298702
 21
3.9477053879
  0
LINE
  5
2A7
100
AcDbEntity
  8
0
100
AcDbLine
 62
7
  6
CONTINUOUS
 10
9.5424958874
 20
3.5841523344
 11
9.5424958874
 21
-1.6120000883
  0
LINE
  5
2A8
100
AcDbEntity
  8
DRAFT
100
AcDbLine
 62
7
  6
CONTINUOUS
 10
9.6915044515
 20
-1.8994391068
 11
9.6915044515
 21
4.0761361793
  0
LINE
  5
2A9
100
AcDbEntity
  8
0
100
AcDbLine
 62
7
  6
CONTINUOUS
 10
6.2190940158
 20
7.9618738507
 11
7.0773434451
 21
7.5327491361
  0
LINE
  5
2AA
100
AcDbEntity
  8
0
100
AcDbLine
 62
7
  6
CONTINUOUS
 10
6.2190940158
 20
8.6546941738
 11
7.7747289344
 21
7.8768767144
  0
LINE
  5
2AB
100
AcDbEntity
  8
0
100
AcDbLine
 62
7
  6
CONTINUOUS
 10
2.7176210584
 20
10.4070143678
 11
6.2190985295
 21
8.6562801267
  0
LINE
  5
2AC
100
AcDbEntity
  8
0
100
AcDbLine
 62
7
  6
CONTINUOUS
 10
7.7747334481
 20
7.8784626674
 11
11.2762018919
 21
6.1277239511
  0
LINE
  5
2AD
100
AcDbEntity
  8
0
100
AcDbLine
 62
7
  6
CONTINUOUS
 10
3.355311552
 20
10.7936921868
 11
3.5320882473
 21
10.7053038392
  0
LINE
  5
2AE
100
AcDbEntity
  8
0
100
AcDbLine
 62
7
  6
CONTINUOUS
 10
11.8759482653
 20
6.5333738302
 11
12.0527249606
 21
6.4449854825
  0
LINE
  5
2AF
100
AcDbEntity
  8
0
100
AcDbLine
 62
7
  6
CONTINUOUS
 10
3.8502862988
 20
11.2533115946
 11
4.0624183332
 21
11.1472455774
  0
LINE
  5
2B0
100
AcDbEntity
  8
0
100
AcDbLine
 62
7
  6
CONTINUOUS
 10
12.7598317418
 20
6.7985388731
 11
12.9719637761
 21
6.692472856
  0
LINE
  5
2B1
100
AcDbEntity
  8
RACCORDO
100
AcDbLine
 62
7
  6
CONTINUOUS
 10
11.4883326338
 20
5.7618525418
 11
11.4883326338
 21
-1.7757390675
  0
LINE
  5
2B2
100
AcDbEntity
  8
0
100
AcDbLine
 62
7
  6
CONTINUOUS
 10
11.8759482653
 20
-1.520662425
 11
11.8759482653
 21
6.5333738302
  0
LINE
  5
2B3
100
AcDbEntity
  8
0
100
AcDbLine
 62
7
  6
CONTINUOUS
 10
12.0527249606
 20
-1.6090507727
 11
12.0527249606
 21
6.4449854825
  0
LINE
  5
2B4
100
AcDbEntity
  8
0
100
AcDbLine
 62
7
  6
CONTINUOUS
 10
13.6790705573
 20
7.0460262466
 11
4.55739308
 21
11.6068649852
  0
LINE
  5
2B5
100
AcDbEntity
  8
0
100
AcDbLine
 62
7
  6
CONTINUOUS
 10
12.7598317418
 20
-1.2554973821
 11
12.7598317418
 21
6.7985388731
  0
LINE
  5
2B6
100
AcDbEntity
  8
0
100
AcDbLine
 62
7
  6
CONTINUOUS
 10
12.9719637761
 20
-1.3615633992
 11
12.9719637761
 21
6.692472856
  0
LINE
  5
2B7
100
AcDbEntity
  8
0
100
AcDbLine
 62
7
  6
CONTINUOUS
 10
13.6790705573
 20
-1.0080100086
 11
13.6790705573
 21
7.0460262466
  0
ELLIPSE
  5
2B8
100
AcDbEntity
  8
RACCORDO
100
AcDbEllipse
 62
7
  6
CONTINUOUS
 10
2.7176236431
 20
10.1472038715
 30
0.0
 11
-0.1341663376
 21
0.2683310734
 31
0.0
 40
0.6123651249
 41
-0.6847157912
 42
-0.0041954756
  0
ELLIPSE
  5
2B9
100
AcDbEntity
  8
RACCORDO
100
AcDbEllipse
 62
7
  6
CONTINUOUS
 10
11.2761993071
 20
-1.6696692385
 30
0.0
 11
-0.1341663376
 21
0.2683310734
 31
0.0
 40
0.6123651249
 41
-3.1381933616
 42
-2.2555243027
  0
ELLIPSE
  5
2BA
100
AcDbEntity
  8
RACCORDO
100
AcDbEllipse
 62
7
  6
CONTINUOUS
 10
11.2761993071
 20
5.8679160395
 30
0.0
 11
-0.1341634545
 21
0.2683285107
 31
0.0
 40
0.6123797465
 41
-2.2555067568
 42
-0.6847226146
  0
ELLIPSE
  5
2BB
100
AcDbEntity
  8
RACCORDO
100
AcDbEllipse
 62
7
  6
CONTINUOUS
 10
-4.6211150502
 20
-9.6463319938
 30
0.0
 11
-0.1341663376
 21
0.2683310734
 31
0.0
 40
0.6123651249
 41
-3.1457881292
 42
-2.2555243027
  0
ELLIPSE
  5
2BC
100
AcDbEntity
  8
RACCORDO
100
AcDbEllipse
 62
7
  6
CONTINUOUS
 10
7.6825429425
 20
-3.4945029974
 30
0.0
 11
-0.1341663376
 21
0.2683310734
 31
0.0
 40
0.6123651249
 41
2.4568768624
 42
4.0276610045
  0
ELLIPSE
  5
2BD
100
AcDbEntity
  8
DRAFT
100
AcDbEllipse
 62
7
  6
CONTINUOUS
 10
-7.7816202517
 20
0.8983574712
 30
0.0
 11
1.099998867
 21
0.0031441051
 31
0.0
 40
0.5021345238
 41
5.4963519035
 42
8.6379445571
  0
ELLIPSE
  5
2BE
100
AcDbEntity
  8
DRAFT
100
AcDbEllipse
 62
7
  6
CONTINUOUS
 10
2.2592960412
 20
5.9188156177
 30
0.0
 11
1.0999988989
 21
-0.003126234
 31
0.0
 40
0.4978593837
 41
2.3576094224
 42
5.499202076
  0
ELLIPSE
  5
2BF
100
AcDbEntity
  8
RACCORDO
100
AcDbEllipse
 62
7
  6
CONTINUOUS
 10
0.3813891194
 20
-7.1837935003
 30
0.0
 11
-0.1341663376
 21
0.2683310734
 31
0.0
 40
0.6123651249
 41
-3.1457881292
 42
-2.2555243027
  0
ELLIPSE
  5
2C0
100
AcDbEntity
  8
RACCORDO
100
AcDbEllipse
 62
7
  6
CONTINUOUS
 10
0.3813891194
 20
0.4272509503
 30
0.0
 11
-0.1341634545
 21
0.2683285107
 31
0.0
 40
0.6123797465
 41
-2.2555067568
 42
-0.6847226146
  0
ELLIPSE
  5
2C1
100
AcDbEntity
  8
RACCORDO
100
AcDbEllipse
 62
7
  6
CONTINUOUS
 10
-8.2371657078
 20
4.7365283639
 30
0.0
 11
-0.1341663376
 21
0.2683310734
 31
0.0
 40
0.6123651249
 41
-0.6847157912
 42
0.003399292
  0
ELLIPSE
  5
2C2
100
AcDbEntity
  8
RACCORDO
100
AcDbEllipse
 62
7
  6
CONTINUOUS
 10
-16.7985235176
 20
0.3891302911
 30
0.0
 11
-0.1341663376
 21
0.2683310734
 31
0.0
 40
0.6123651249
 41
-0.6847157912
 42
0.8860683509
  0
ELLIPSE
  5
2C3
100
AcDbEntity
  8
RACCORDO
100
AcDbEllipse
 62
7
  6
CONTINUOUS
 10
-8.2399478537
 20
-11.4277428188
 30
0.0
 11
-0.1341663376
 21
0.2683310734
 31
0.0
 40
0.6123651249
 41
2.4568768624
 42
4.0276610045
  0
ELLIPSE
  5
2C4
100
AcDbEntity
  8
RACCORDO
100
AcDbEllipse
 62
7
  6
CONTINUOUS
 10
-8.2399478537
 20
-3.8901575409
 30
0.0
 11
-0.1341634545
 21
0.2683285107
 31
0.0
 40
0.6123797465
 41
-2.2555067568
 42
-0.6847226146
  0
ELLIPSE
  5
2C5
100
AcDbEntity
  8
RACCORDO
100
AcDbEllipse
 62
7
  6
CONTINUOUS
 10
-1.4989847883
 20
-8.1094285368
 30
0.0
 11
-0.1341663376
 21
0.2683310734
 31
0.0
 40
0.6123651249
 41
2.4568768624
 42
4.0276610045
  0
ENDSEC
  0
SECTION
  2
OBJECTS
  0
DICTIONARY
  5
C
100
AcDbDictionary
280
0
281
1
  3
ACAD_GROUP
350
D
  3
ACAD_MLINESTYLE
350
17
  3
ACAD_LAYOUT
350
1A
  3
ACAD_PLOTSETTINGS
350
19
  3
ACAD_PLOTSTYLENAME
350
E
  0
DICTIONARY
  5
D
102
{ACAD_REACTORS
330
C
102
}
100
AcDbDictionary
280
0
281
1
  0
ACDBDICTIONARYWDFLT
  5
E
102
{ACAD_REACTORS
330
C
102
}
100
AcDbDictionary
281
1
  3
Normal
350
F
100
AcDbDictionaryWithDefault
340
F
  0
DICTIONARY
  5
17
102
{ACAD_REACTORS
330
C
102
}
100
AcDbDictionary
280
0
281
1
  3
Standard
350
18
  0
DICTIONARY
  5
19
102
{ACAD_REACTORS
330
C
102
}
100
AcDbDictionary
281
1
  0
DICTIONARY
  5
1A
102
{ACAD_REACTORS
330
C
102
}
100
AcDbDictionary
281
1
  3
Model
350
2C6
  3
Layout1
350
2C7
  0
ACDBPLACEHOLDER
  5
F
102
{ACAD_REACTORS
330
E
102
}
  0
MLINESTYLE
  5
18
102
{ACAD_REACTORS
330
17
102
}
100
AcDbMlineStyle
  2
STANDARD
 70
0
  3

 62
256
 51
90.0
 52
90.0
 71
2
 49
0.5
 62
256
  6
BYLAYER
 49
-0.5
 62
256
  6
BYLAYER
  0
LAYOUT
  5
2C6
102
{ACAD_REACTORS
330
1A
102
}
100
AcDbPlotSettings
  1

  2
none_device
  4
ISO_A4_(297.00_x_210.00_MM)
  6

 40
0.0
 41
0.0
 42
0.0
 43
0.0
 44
297.0
 45
210.0
 46
0.0
 47
0.0
 48
0.0
 49
0.0
140
0.0
141
0.0
142
1.0
143
1.0
 70
1024
 72
1
 73
0
 74
0
  7

 75
0
147
1.0
148
0.0
149
0.0
100
AcDbLayout
  1
Model
 70
0
 71
0
 10
0.0
 20
0.0
 11
297.0
 21
210.0
 12
0.0
 22
0.0
 32
0.0
 14
0.0
 24
0.0
 34
0.0
 15
0.0
 25
0.0
 35
0.0
146
0.0
 13
0.0
 23
0.0
 33
0.0
 16
1.0
 26
0.0
 36
0.0
 17
0.0
 27
1.0
 37
0.0
 76
0
330
20F
345
0
346
0
  0
LAYOUT
  5
2C7
102
{ACAD_REACTORS
330
1A
102
}
100
AcDbPlotSettings
  1

  2
none_device
  4
ISO_A4_(297.00_x_210.00_MM)
  6

 40
0.0
 41
0.0
 42
0.0
 43
0.0
 44
297.0
 45
210.0
 46
0.0
 47
0.0
 48
0.0
 49
0.0
140
0.0
141
0.0
142
1.0
143
1.0
 70
0
 72
1
 73
0
 74
0
  7

 75
0
147
1.0
148
0.0
149
0.0
100
AcDbLayout
  1
Layout1
 70
0
 71
1
 10
0.0
 20
0.0
 11
297.0
 21
210.0
 12
0.0
 22
0.0
 32
0.0
 14
0.0
 24
0.0
 34
0.0
 15
0.0
 25
0.0
 35
0.0
146
0.0
 13
0.0
 23
0.0
 33
0.0
 16
1.0
 26
0.0
 36
0.0
 17
0.0
 27
1.0
 37
0.0
 76
0
330
210
345
0
346
0
  0
ENDSEC
  0
EOF
