  0
SECTION
  2
HEADER
  9
$ACADVER
  1
AC1015
  9
$DWGCODEPAGE
  3
ANSI_1252
  9
$EXTMAX
 10
297.0
 20
210.0
 30
0.0
  9
$EXTMIN
 10
0.0
 20
0.0
 30
0.0
  9
$LIMMIN
 10
0.0
 20
0.0
  9
$LIMMAX
 10
297.0
 20
210.0
  9
$VIEWCTR
 10
148.5
 20
105.0
  9
$VIEWSIZE
 40
210.0
  9
$CLAYER
  8
0
  9
$LTSCALE
 40
16.335
  9
$CELTYPE
  6
BYLAYER
  9
$DIMSCALE
 40
1.0
  9
$DIMASZ
 40
3.0
  9
$DIMEXO
 40
1.85625
  9
$DIMDLI
 40
11.286
  9
$DIMEXE
 40
5.346
  9
$DIMCEN
 40
2.673
  9
$DIMLFAC
 40
1.0
  9
$DIMBLK
  1
_FILLED
  9
$DIMTXT
 40
3.0
  9
$DIMTOL
 70
1
  9
$DIMLIM
 70
0
  9
$DIMTFAC
 40
1.0
  9
$DIMTP
 40
0.01
  9
$DIMTM
 40
0.01
  9
$PDMODE
 70
3
  9
$PDSIZE
 40
3.0
  9
$HANDSEED
  5
283
  9
$TILEMODE
 70
1
  9
$MEASUREMENT
 70
1
  9
$INSUNITS
 70
4
  0
ENDSEC
  0
SECTION
  2
CLASSES
  0
CLASS
  1
ACDBDICTIONARYWDFLT
  2
AcDbDictionaryWithDefault
  3
AutoCAD 2000
 90
0
280
0
281
0
  0
CLASS
  1
ACDBPLACEHOLDER
  2
AcDbPlaceHolder
  3
AutoCAD 2000
 90
0
280
0
281
0
  0
CLASS
  1
LAYOUT
  2
AcDbLayout
  3
AutoCAD 2000
 90
0
280
0
281
0
  0
ENDSEC
  0
SECTION
  2
TABLES
  0
TABLE
  2
VPORT
  5
8
100
AcDbSymbolTable
 70
2
  0
VPORT
  5
1F4
100
AcDbSymbolTableRecord
100
AcDbViewportTableRecord
  2
*ACTIVE
 70
0
 10
0.0
 20
0.0
 11
1.0
 21
1.0
 12
148.5
 22
105.0
 13
0.0
 23
0.0
 14
1.0
 24
1.0
 15
0.0
 25
0.0
 16
0.0
 26
0.0
 36
1.0
 17
0.0
 27
0.0
 37
0.0
 40
210.0
 41
1.4142857143
 42
50.0
 43
0.0
 44
0.0
 50
0.0
 51
0.0
 71
0
 72
100
 73
1
 74
1
 75
0
 76
0
 77
0
 78
0
  0
ENDTAB
  0
TABLE
  2
LTYPE
  5
5
100
AcDbSymbolTable
 70
6
  0
LTYPE
  5
14
100
AcDbSymbolTableRecord
100
AcDbLinetypeTableRecord
  2
BYBLOCK
 70
0
  3

 72
65
 73
0
 40
0.0
  0
LTYPE
  5
15
100
AcDbSymbolTableRecord
100
AcDbLinetypeTableRecord
  2
BYLAYER
 70
0
  3

 72
65
 73
0
 40
0.0
  0
LTYPE
  5
16
100
AcDbSymbolTableRecord
100
AcDbLinetypeTableRecord
  2
CONTINUOUS
 70
64
  3
Solid line
 72
65
 73
0
 40
0.0
  0
LTYPE
  5
1F5
100
AcDbSymbolTableRecord
100
AcDbLinetypeTableRecord
  2
CENTER
 70
64
  3
____ _ ____ _ ____ _ ____ _ ____ _ ____ _ ____
 72
65
 73
4
 40
0.6
 49
0.375
 74
0
 49
-0.075
 74
0
 49
0.075
 74
0
 49
-0.075
 74
0
  0
LTYPE
  5
1F6
100
AcDbSymbolTableRecord
100
AcDbLinetypeTableRecord
  2
HIDDEN
 70
64
  3
- - - - - - - - - - - - - - - - - - - -
 72
65
 73
2
 40
0.2
 49
0.1
 74
0
 49
-0.1
 74
0
  0
LTYPE
  5
1F7
100
AcDbSymbolTableRecord
100
AcDbLinetypeTableRecord
  2
PHANTOM
 70
64
  3
_____ _ _ _____ _ _ _____ _ _ _____
 72
65
 73
6
 40
0.8
 49
0.45
 74
0
 49
-0.05
 74
0
 49
0.1
 74
0
 49
-0.05
 74
0
 49
0.1
 74
0
 49
-0.05
 74
0
  0
LTYPE
  5
1F8
100
AcDbSymbolTableRecord
100
AcDbLinetypeTableRecord
  2
DOT
 70
64
  3
. . . . . . . . . . . . . . . . . . . .
 72
65
 73
2
 40
0.2
 49
0.1
 74
0
 49
-0.1
 74
0
  0
LTYPE
  5
1F9
100
AcDbSymbolTableRecord
100
AcDbLinetypeTableRecord
  2
DASHED
 70
64
  3
- - - - - - - - - - - - - - - - - - - -
 72
65
 73
2
 40
0.2
 49
0.1
 74
0
 49
-0.1
 74
0
  0
ENDTAB
  0
TABLE
  2
LAYER
  5
2
100
AcDbSymbolTable
 70
36
  0
LAYER
  5
10
100
AcDbSymbolTableRecord
100
AcDbLayerTableRecord
  2
0
 70
0
 62
7
  6
CONTINUOUS
370
-3
390
F
  0
LAYER
  5
1FA
100
AcDbSymbolTableRecord
100
AcDbLayerTableRecord
  2
DEFAULT_1
 70
0
 62
7
  6
CENTER
370
-3
390
F
  0
LAYER
  5
1FB
100
AcDbSymbolTableRecord
100
AcDbLayerTableRecord
  2
DEFAULT_2
 70
0
 62
7
  6
HIDDEN
370
-3
390
F
  0
LAYER
  5
1FC
100
AcDbSymbolTableRecord
100
AcDbLayerTableRecord
  2
DEFAULT_3
 70
0
 62
7
  6
PHANTOM
370
-3
390
F
  0
LAYER
  5
1FD
100
AcDbSymbolTableRecord
100
AcDbLayerTableRecord
  2
ASSI
 70
0
 62
7
  6
CONTINUOUS
370
-3
390
F
  0
LAYER
  5
1FE
100
AcDbSymbolTableRecord
100
AcDbLayerTableRecord
  2
COORDINATE
 70
0
 62
7
  6
CONTINUOUS
370
-3
390
F
  0
LAYER
  5
1FF
100
AcDbSymbolTableRecord
100
AcDbLayerTableRecord
  2
COORD_ORIGINE
 70
0
 62
7
  6
CONTINUOUS
370
-3
390
F
  0
LAYER
  5
200
100
AcDbSymbolTableRecord
100
AcDbLayerTableRecord
  2
COSMETICI
 70
0
 62
7
  6
CONTINUOUS
370
-3
390
F
  0
LAYER
  5
201
100
AcDbSymbolTableRecord
100
AcDbLayerTableRecord
  2
CURVE
 70
0
 62
7
  6
CONTINUOUS
370
-3
390
F
  0
LAYER
  5
202
100
AcDbSymbolTableRecord
100
AcDbLayerTableRecord
  2
NOTE
 70
0
 62
7
  6
CONTINUOUS
370
-3
390
F
  0
LAYER
  5
203
100
AcDbSymbolTableRecord
100
AcDbLayerTableRecord
  2
PIANI
 70
0
 62
7
  6
CONTINUOUS
370
-3
390
F
  0
LAYER
  5
204
100
AcDbSymbolTableRecord
100
AcDbLayerTableRecord
  2
PIANI_ORIGINE
 70
0
 62
7
  6
CONTINUOUS
370
-3
390
F
  0
LAYER
  5
205
100
AcDbSymbolTableRecord
100
AcDbLayerTableRecord
  2
PUNTI
 70
0
 62
7
  6
CONTINUOUS
370
-3
390
F
  0
LAYER
  5
206
100
AcDbSymbolTableRecord
100
AcDbLayerTableRecord
  2
RACCORDO
 70
0
 62
7
  6
CONTINUOUS
370
-3
390
F
  0
LAYER
  5
207
100
AcDbSymbolTableRecord
100
AcDbLayerTableRecord
  2
SIMBOLI
 70
0
 62
7
  6
CONTINUOUS
370
-3
390
F
  0
LAYER
  5
208
100
AcDbSymbolTableRecord
100
AcDbLayerTableRecord
  2
SNAPLINE
 70
0
 62
7
  6
CONTINUOUS
370
-3
390
F
  0
LAYER
  5
209
100
AcDbSymbolTableRecord
100
AcDbLayerTableRecord
  2
SUPERFICI
 70
0
 62
7
  6
CONTINUOUS
370
-3
390
F
  0
LAYER
  5
20A
100
AcDbSymbolTableRecord
100
AcDbLayerTableRecord
  2
TRASH
 70
0
 62
7
  6
CONTINUOUS
370
-3
390
F
  0
ENDTAB
  0
TABLE
  2
STYLE
  5
3
100
AcDbSymbolTable
 70
1
  0
STYLE
  5
11
100
AcDbSymbolTableRecord
100
AcDbTextStyleTableRecord
  2
STANDARD
 70
0
 40
0.0
 41
0.8
 50
0.0
 71
0
 42
0.2
  3
txt
  4

  0
STYLE
  5
20B
100
AcDbSymbolTableRecord
100
AcDbTextStyleTableRecord
  2
TEXTSTYLE_1
 70
0
 40
0.0
 41
0.8
 50
0.0
 71
0
 42
0.2
  3
gdt
  4

  0
ENDTAB
  0
TABLE
  2
VIEW
  5
6
100
AcDbSymbolTable
 70
0
  0
ENDTAB
  0
TABLE
  2
UCS
  5
7
100
AcDbSymbolTable
 70
0
  0
ENDTAB
  0
TABLE
  2
APPID
  5
9
100
AcDbSymbolTable
 70
1
  0
APPID
  5
20C
100
AcDbSymbolTableRecord
100
AcDbRegAppTableRecord
  2
ACAD
 70
0
  0
ENDTAB
  0
TABLE
  2
BLOCK_RECORD
  5
1
100
AcDbSymbolTable
 70
0
  0
BLOCK_RECORD
  5
20D
100
AcDbSymbolTableRecord
100
AcDbBlockTableRecord
  2
*Model_Space
  0
BLOCK_RECORD
  5
20E
100
AcDbSymbolTableRecord
100
AcDbBlockTableRecord
  2
*Paper_Space
  0
ENDTAB
  0
TABLE
  2
DIMSTYLE
  5
A
100
AcDbSymbolTable
 70
1
100
AcDbDimStyleTable
 71
0
  0
DIMSTYLE
105
20F
100
AcDbSymbolTableRecord
100
AcDbDimStyleTableRecord
  2
STANDARD
 70
0
  3

  4

 40
1.0
 41
3.0
 42
0.0625
 43
0.38
 44
0.18
 45
0.0
 46
0.0
 47
0.01
 48
0.01
140
3.0
141
0.09
142
0.0
143
25.4
144
1.0
145
0.0
146
1.0
147
0.09
 71
1.0
 72
0.0
 73
0
 74
0
 75
0
 76
0
 77
1
 78
8
170
0
171
2
172
0
173
0
174
0
175
0
176
0
177
0
178
0
270
2
271
2
272
2
273
2
274
2
275
0
280
0
281
0
282
0
283
1
284
8
285
0
286
0
287
3
288
0
340
11
  0
ENDTAB
  0
ENDSEC
  0
SECTION
  2
BLOCKS
  0
BLOCK
  5
20
100
AcDbEntity
  8
0
100
AcDbBlockBegin
  2
*Model_Space
 70
0
 10
0.0
 20
0.0
 30
0.0
  3
*Model_Space
  1

  0
ENDBLK
  5
21
100
AcDbEntity
  8
0
100
AcDbBlockEnd
  0
BLOCK
  5
1C
100
AcDbEntity
  8
0
100
AcDbBlockBegin
  2
*Paper_Space
 70
0
 10
0.0
 20
0.0
 30
0.0
  3
*Paper_Space
  1

  0
ENDBLK
  5
1D
100
AcDbEntity
  8
0
100
AcDbBlockEnd
  0
ENDSEC
  0
SECTION
  2
ENTITIES
  0
LWPOLYLINE
  5
210
100
AcDbEntity
  8
0
100
AcDbPolyline
 62
7
  6
CONTINUOUS
 90
19
 70
0
 10
-16.2794950338
 20
-13.2343129707
 10
-16.0695798475
 20
-13.3325963398
 10
-15.8550314939
 20
-13.4198848712
 10
-15.636666589
 20
-13.4958934015
 10
-15.4156218066
 20
-13.5603382715
 10
-15.1923720288
 20
-13.613224082
 10
-14.9667433851
 20
-13.6546584965
 10
-14.7397774631
 20
-13.6844898676
 10
-14.5120238833
 20
-13.7027167597
 10
-14.2825497002
 20
-13.7093638621
 10
-14.0515342203
 20
-13.7042276341
 10
-13.8203202222
 20
-13.6871631495
 10
-13.5897325148
 20
-13.6581278361
 10
-13.3609024796
 20
-13.6172161396
 10
-13.1342548212
 20
-13.5644809252
 10
-12.909597149
 20
-13.4997711995
 10
-12.6874115515
 20
-13.4230342753
 10
-12.4688097689
 20
-13.334483268
 10
-12.2545726743
 20
-13.2343129707
  0
LWPOLYLINE
  5
211
100
AcDbEntity
  8
RACCORDO
100
AcDbPolyline
 62
7
  6
CONTINUOUS
 90
7
 70
0
 10
-10.328610724
 20
0.9644328109
 10
-10.3323879793
 20
0.9624807294
 10
-10.3509325654
 20
0.9512690626
 10
-10.3681305695
 20
0.9380729406
 10
-10.3838540985
 20
0.9229765306
 10
-10.3982310455
 20
0.9058956653
 10
-10.4112614106
 20
0.8868303448
  0
LINE
  5
212
100
AcDbEntity
  8
RACCORDO
100
AcDbLine
 62
7
  6
CONTINUOUS
 10
-10.3286819905
 20
0.9644444804
 11
-8.4194936812
 21
1.919038635
  0
LINE
  5
213
100
AcDbEntity
  8
RACCORDO
100
AcDbLine
 62
253
  6
CONTINUOUS
 10
-10.1050751927
 20
0.9502435868
 11
-8.1958868835
 21
1.9048377414
  0
LWPOLYLINE
  5
214
100
AcDbEntity
  8
RACCORDO
100
AcDbPolyline
 62
7
  6
CONTINUOUS
 90
11
 70
0
 10
-8.4194224148
 20
1.9190269655
 10
-8.4036921821
 20
1.9260495934
 10
-8.3832854212
 20
1.9327179744
 10
-8.3619157584
 20
1.937149398
 10
-8.3397759862
 20
1.9392994749
 10
-8.3167549526
 20
1.9391298955
 10
-8.2929638096
 20
1.9366789695
 10
-8.2689288063
 20
1.932017237
 10
-8.244825359
 20
1.9251682115
 10
-8.2204780514
 20
1.9161083797
 10
-8.1958868835
 20
1.9048377414
  0
LWPOLYLINE
  5
215
100
AcDbEntity
  8
RACCORDO
100
AcDbPolyline
 62
7
  6
CONTINUOUS
 90
15
 70
0
 10
-12.8607511533
 20
-3.0845772065
 10
-12.8723219912
 20
-3.1053871328
 10
-12.8822938404
 20
-3.1277823387
 10
-12.8906667009
 20
-3.1517628241
 10
-12.8974828883
 20
-3.1775255857
 10
-12.9027000869
 20
-3.2048736268
 10
-12.90619135
 20
-3.2332159575
 10
-12.9079133106
 20
-3.2624477333
 10
-12.9079093356
 20
-3.2926737986
 10
-12.9061825791
 20
-3.3236176961
 10
-12.9026933067
 20
-3.3554173745
 10
-12.8974812529
 20
-3.3879348852
 10
-12.8906687749
 20
-3.4204799243
 10
-12.8822966585
 20
-3.4528223905
 10
-12.8734745964
 20
-3.481458033
  0
LINE
  5
216
100
AcDbEntity
  8
RACCORDO
100
AcDbLine
 62
7
  6
CONTINUOUS
 10
-10.4112614106
 20
0.8868303448
 11
-12.8607511533
 21
-3.0845772065
  0
LWPOLYLINE
  5
217
100
AcDbEntity
  8
RACCORDO
100
AcDbPolyline
 62
7
  6
CONTINUOUS
 90
11
 70
0
 10
-5.2060957071
 20
-12.7575764052
 10
-5.1815045392
 20
-12.7688470434
 10
-5.1571572316
 20
-12.7779068753
 10
-5.1330537843
 20
-12.7847559007
 10
-5.109018781
 20
-12.7894176332
 10
-5.0852276381
 20
-12.7918685592
 10
-5.0622066045
 20
-12.7920381387
 10
-5.0400668323
 20
-12.7898880617
 10
-5.0186971694
 20
-12.7854566381
 10
-4.9982904085
 20
-12.7787882571
 10
-4.9825601758
 20
-12.7717656293
  0
LINE
  5
218
100
AcDbEntity
  8
RACCORDO
100
AcDbLine
 62
7
  6
CONTINUOUS
 10
-8.2535976251
 20
-11.2338254462
 11
-5.2060957071
 21
-12.7575764052
  0
LWPOLYLINE
  5
219
100
AcDbEntity
  8
0
100
AcDbPolyline
 62
7
  6
CONTINUOUS
 90
3
 70
0
 10
-11.6716656841
 20
-2.8805535769
 10
-11.5814731522
 20
-2.7926739412
 10
-11.4532944088
 20
-2.6885685084
  0
LWPOLYLINE
  5
21A
100
AcDbEntity
  8
0
100
AcDbPolyline
 62
7
  6
CONTINUOUS
 90
4
 70
0
 10
-10.8669462546
 20
-2.4330940098
 10
-10.7461876276
 20
-2.3350151178
 10
-10.6102965748
 20
-2.2441112532
 10
-10.4905834245
 20
-2.1782090482
  0
LINE
  5
21B
100
AcDbEntity
  8
0
100
AcDbLine
 62
7
  6
CONTINUOUS
 10
-5.979735066
 20
1.0834457209
 11
-4.8473147053
 21
1.6496559012
  0
LWPOLYLINE
  5
21C
100
AcDbEntity
  8
0
100
AcDbPolyline
 62
7
  6
CONTINUOUS
 90
40
 70
0
 10
-4.8474706403
 20
1.6495672031
 10
-4.7102072962
 20
1.7119622329
 10
-4.5244778803
 20
1.7783745386
 10
-4.3321835783
 20
1.8275781749
 10
-4.1332579
 20
1.8593988495
 10
-3.9277673356
 20
1.8740108546
 10
-3.7177861246
 20
1.8712666955
 10
-3.5032687851
 20
1.8509905859
 10
-3.284260799
 20
1.8133583121
 10
-3.0629728519
 20
1.7587497374
 10
-2.839381852
 20
1.6869929231
 10
-2.613510891
 20
1.5982598079
 10
-2.3876399301
 20
1.4934460716
 10
-2.1617689691
 20
1.3723888469
 10
-1.9358980082
 20
1.2352510012
 10
-1.7123070083
 20
1.0834168156
 10
-1.4910190611
 20
0.9167374432
 10
-1.2720110751
 20
0.7353617309
 10
-1.0574937355
 20
0.5411205009
 10
-0.8475125245
 20
0.3338834491
 10
-0.6420219601
 20
0.1137808795
 10
-0.4430962818
 20
-0.1169654734
 10
-0.2508019798
 20
-0.3584634116
 10
-0.0650725639
 20
-0.6106051333
 10
0.1122171971
 20
-0.8708454979
 10
0.2809818251
 20
-1.13926653
 10
0.4413067982
 20
-1.4157862051
 10
0.5915737822
 20
-1.6976133097
 10
0.7316809083
 20
-1.9848015983
 10
0.8617300454
 20
-2.2772973164
 10
0.9804084662
 20
-2.572147987
 10
1.0876010064
 20
-2.8693774614
 10
1.1834228302
 20
-3.1689618882
 10
1.2669067041
 20
-3.4678772363
 10
1.3379276671
 20
-3.7661167293
 10
1.3966106801
 20
-4.0636871435
 10
1.4423633917
 20
-4.3575847776
 10
1.4749883514
 20
-4.6468083978
 10
1.4946830096
 20
-4.9323592377
 10
1.5014473664
 20
-5.2142372975
  0
LINE
  5
21D
100
AcDbEntity
  8
0
100
AcDbLine
 62
7
  6
CONTINUOUS
 10
-7.3443551276
 20
-10.8237427289
 11
-7.256697067
 21
-10.8356301053
  0
LINE
  5
21E
100
AcDbEntity
  8
0
100
AcDbLine
 62
7
  6
CONTINUOUS
 10
-6.6362556669
 20
-10.4702543194
 11
-6.5495902858
 21
-10.4820767147
  0
LINE
  5
21F
100
AcDbEntity
  8
0
100
AcDbLine
 62
7
  6
CONTINUOUS
 10
-5.9291488857
 20
-10.1167009288
 11
-5.8424835047
 21
-10.1285233241
  0
LINE
  5
220
100
AcDbEntity
  8
0
100
AcDbLine
 62
7
  6
CONTINUOUS
 10
-7.4139138907
 20
-10.8139835789
 11
-7.3443551276
 21
-10.8237427289
  0
LWPOLYLINE
  5
221
100
AcDbEntity
  8
0
100
AcDbPolyline
 62
7
  6
CONTINUOUS
 90
4
 70
0
 10
-10.1598394734
 20
-2.0795406192
 10
-10.0390808464
 20
-1.9814617272
 10
-9.9031897936
 20
-1.8905578626
 10
-9.7834766433
 20
-1.8246556576
  0
LWPOLYLINE
  5
222
100
AcDbEntity
  8
0
100
AcDbPolyline
 62
7
  6
CONTINUOUS
 90
3
 70
0
 10
-11.4532944088
 20
-2.6885685084
 10
-11.317403356
 20
-2.5976646438
 10
-11.1976902057
 20
-2.5317624388
  0
LWPOLYLINE
  5
223
100
AcDbEntity
  8
0
100
AcDbPolyline
 62
7
  6
CONTINUOUS
 90
40
 70
0
 10
-16.2794950338
 20
-5.1844682517
 10
-16.5166596152
 20
-5.3120604837
 10
-16.746325759
 20
-5.4539797845
 10
-16.9674202839
 20
-5.6096804661
 10
-17.1764759417
 20
-5.7764404616
 10
-17.3752415637
 20
-5.9553094787
 10
-17.5693428411
 20
-6.1524713526
 10
-17.7608547262
 20
-6.3733343607
 10
-17.9423978987
 20
-6.612912394
 10
-18.1059819058
 20
-6.8615239507
 10
-18.2482255127
 20
-7.1117460077
 10
-18.3727658894
 20
-7.3673910936
 10
-18.4827104119
 20
-7.6352015631
 10
-18.5781810827
 20
-7.9194264823
 10
-18.6553436206
 20
-8.2130285709
 10
-18.711780194
 20
-8.5063756943
 10
-18.7482027692
 20
-8.7981444837
 10
-18.7653727394
 20
-9.0871369575
 10
-18.7643396847
 20
-9.3650834666
 10
-18.7473155087
 20
-9.6301949451
 10
-18.7160236075
 20
-9.885031069
 10
-18.6720966951
 20
-10.1288585912
 10
-18.6167017949
 20
-10.3628153921
 10
-18.5506048983
 20
-10.5881650965
 10
-18.4748930402
 20
-10.8043580308
 10
-18.3896876401
 20
-11.0131992909
 10
-18.2950488669
 20
-11.2156545473
 10
-18.1924048778
 20
-11.4097229328
 10
-18.0819677253
 20
-11.5960785941
 10
-17.9630616859
 20
-11.7763690395
 10
-17.8364069044
 20
-11.9497511764
 10
-17.7020795406
 20
-12.1163582925
 10
-17.5592632788
 20
-12.2771626716
 10
-17.4076929305
 20
-12.4321627976
 10
-17.2474613317
 20
-12.5808965072
 10
-17.0777134742
 20
-12.7236586782
 10
-16.8966708964
 20
-12.8611037743
 10
-16.7033223315
 20
-12.9928412125
 10
-16.4976935397
 20
-13.1176072589
 10
-16.2794950338
 20
-13.2343129707
  0
LINE
  5
224
100
AcDbEntity
  8
0
100
AcDbLine
 62
7
  6
CONTINUOUS
 10
-11.0243223138
 20
-2.4566269535
 11
-10.9536116357
 21
-2.4212716145
  0
LINE
  5
225
100
AcDbEntity
  8
0
100
AcDbLine
 62
7
  6
CONTINUOUS
 10
-10.3172155326
 20
-2.1030735629
 11
-10.2465048545
 21
-2.0677182239
  0
LINE
  5
226
100
AcDbEntity
  8
0
100
AcDbLine
 62
7
  6
CONTINUOUS
 10
-9.6101087514
 20
-1.7495201723
 11
-9.5393980733
 21
-1.7141648333
  0
LINE
  5
227
100
AcDbEntity
  8
0
100
AcDbLine
 62
7
  6
CONTINUOUS
 10
0.5496463585
 20
3.2301024444
 11
-2.669807116
 21
1.6203757071
  0
LINE
  5
228
100
AcDbEntity
  8
0
100
AcDbLine
 62
7
  6
CONTINUOUS
 10
-11.3297475655
 20
-2.7095945176
 11
-16.2794950338
 21
-5.1844682517
  0
LWPOLYLINE
  5
229
100
AcDbEntity
  8
0
100
AcDbPolyline
 62
7
  6
CONTINUOUS
 90
3
 70
0
 10
-9.713545765
 20
-1.789825829
 10
-9.6900947322
 20
-1.7783128226
 10
-9.5393980733
 20
-1.7141648333
  0
LWPOLYLINE
  5
22A
100
AcDbEntity
  8
0
100
AcDbPolyline
 62
7
  6
CONTINUOUS
 90
3
 70
0
 10
-9.7834766433
 20
-1.8246556576
 10
-9.7600398542
 20
-1.8131581379
 10
-9.6101087514
 20
-1.7495201723
  0
LINE
  5
22B
100
AcDbEntity
  8
0
100
AcDbLine
 62
7
  6
CONTINUOUS
 10
-10.4905834245
 20
-2.1782090482
 11
-10.4671466354
 21
-2.1667115285
  0
LINE
  5
22C
100
AcDbEntity
  8
0
100
AcDbLine
 62
7
  6
CONTINUOUS
 10
-11.1976902057
 20
-2.5317624388
 11
-11.1742534165
 21
-2.5202649191
  0
LINE
  5
22D
100
AcDbEntity
  8
0
100
AcDbLine
 62
7
  6
CONTINUOUS
 10
-10.2465048545
 20
-2.0677182239
 11
-10.3964359572
 21
-2.1313561894
  0
LINE
  5
22E
100
AcDbEntity
  8
0
100
AcDbLine
 62
7
  6
CONTINUOUS
 10
-10.4671466354
 20
-2.1667115285
 11
-10.3172155326
 21
-2.1030735629
  0
LINE
  5
22F
100
AcDbEntity
  8
0
100
AcDbLine
 62
7
  6
CONTINUOUS
 10
-10.9536116357
 20
-2.4212716145
 11
-11.1035427384
 21
-2.48490958
  0
LINE
  5
230
100
AcDbEntity
  8
0
100
AcDbLine
 62
7
  6
CONTINUOUS
 10
-11.1742534165
 20
-2.5202649191
 11
-11.0243223138
 21
-2.4566269535
  0
LWPOLYLINE
  5
231
100
AcDbEntity
  8
0
100
AcDbPolyline
 62
253
  6
CONTINUOUS
 90
41
 70
0
 10
-14.267033854
 20
-5.3122762942
 10
-14.0711482502
 20
-5.4176106408
 10
-13.8760057076
 20
-5.5373285077
 10
-13.6823464686
 20
-5.6709757639
 10
-13.4909051492
 20
-5.8180454396
 10
-13.3024079518
 20
-5.9779796492
 10
-13.1175699109
 20
-6.1501717073
 10
-12.9370921804
 20
-6.3339684307
 10
-12.7616593742
 20
-6.5286726153
 10
-12.5919369691
 20
-6.7335456814
 10
-12.4285687802
 20
-6.9478104755
 10
-12.2721745191
 20
-7.1706542176
 10
-12.1233474427
 20
-7.4012315852
 10
-11.9826521031
 20
-7.6386679193
 10
-11.850622206
 20
-7.8820625426
 10
-11.7277585859
 20
-8.1304921759
 10
-11.6145273067
 20
-8.3830144405
 10
-11.5113578934
 20
-8.638671433
 10
-11.4186417029
 20
-8.8964933588
 10
-11.3367304394
 20
-9.1555022111
 10
-11.2659348206
 20
-9.4147154806
 10
-11.2065233983
 20
-9.6731498824
 10
-11.1587215405
 20
-9.9298250865
 10
-11.1227105759
 20
-10.1837674359
 10
-11.0986271066
 20
-10.4340136403
 10
-11.0865624893
 20
-10.67961443
 10
-11.0865624893
 20
-10.9196381572
 10
-11.0986271066
 20
-11.1531743296
 10
-11.1227105759
 20
-11.3793370646
 10
-11.1587215405
 20
-11.5972684494
 10
-11.2065233983
 20
-11.8061417957
 10
-11.2659348206
 20
-12.0051647753
 10
-11.3367304394
 20
-12.1935824259
 10
-11.4186417029
 20
-12.3706800147
 10
-11.5113578934
 20
-12.53578575
 10
-11.6145273067
 20
-12.6882733292
 10
-11.7277585859
 20
-12.8275643146
 10
-11.850622206
 20
-12.9531303279
 10
-11.9826521031
 20
-13.0644950541
 10
-12.1233474427
 20
-13.1612360486
 10
-12.2545726743
 20
-13.2343129707
  0
LWPOLYLINE
  5
232
100
AcDbEntity
  8
0
100
AcDbPolyline
 62
253
  6
CONTINUOUS
 90
13
 70
0
 10
-14.267033854
 20
-5.3122762942
 10
-14.4629194578
 20
-5.221725037
 10
-14.6580620005
 20
-5.1463003612
 10
-14.8517212394
 20
-5.0862883785
 10
-15.0431625588
 20
-5.0419167348
 10
-15.2316597562
 20
-5.013353747
 10
-15.4164977972
 20
-5.0007077642
 10
-15.5969755276
 20
-5.0040267571
 10
-15.7724083338
 20
-5.0232981355
 10
-15.9421307389
 20
-5.0584487965
 10
-16.1054989278
 20
-5.1093454017
 10
-16.261893189
 20
-5.1757948826
 10
-16.2794950338
 20
-5.1844682517
  0
LWPOLYLINE
  5
233
100
AcDbEntity
  8
0
100
AcDbPolyline
 62
7
  6
CONTINUOUS
 90
3
 70
0
 10
-10.9573256882
 20
-2.5763321877
 10
-10.9764033625
 20
-2.5434781884
 10
-11.0005475609
 20
-2.5004559838
  0
LINE
  5
234
100
AcDbEntity
  8
0
100
AcDbLine
 62
7
  6
CONTINUOUS
 10
-11.0005475609
 20
-2.5004559838
 11
-11.0243223138
 21
-2.4566269535
  0
LINE
  5
235
100
AcDbEntity
  8
RACCORDO
100
AcDbLine
 62
253
  6
CONTINUOUS
 10
-5.2060957071
 20
-1.499246156
 11
-3.2969073979
 21
-0.5446520014
  0
LINE
  5
236
100
AcDbEntity
  8
RACCORDO
100
AcDbLine
 62
253
  6
CONTINUOUS
 10
-4.8999094893
 20
-1.8688456158
 11
-2.9907211801
 21
-0.9142514612
  0
LINE
  5
237
100
AcDbEntity
  8
0
100
AcDbLine
 62
7
  6
CONTINUOUS
 10
-10.285591824
 20
-2.1610288395
 11
-10.3172155326
 21
-2.1030735629
  0
LINE
  5
238
100
AcDbEntity
  8
0
100
AcDbLine
 62
7
  6
CONTINUOUS
 10
-7.256697067
 20
-4.3404395769
 11
-7.1859863889
 21
-4.3050842379
  0
LINE
  5
239
100
AcDbEntity
  8
0
100
AcDbLine
 62
7
  6
CONTINUOUS
 10
-6.5495902858
 20
-3.9868861863
 11
-6.4788796077
 21
-3.9515308473
  0
LINE
  5
23A
100
AcDbEntity
  8
0
100
AcDbLine
 62
7
  6
CONTINUOUS
 10
-5.8424835047
 20
-3.6333327957
 11
-5.7717728265
 21
-3.5979774567
  0
LWPOLYLINE
  5
23B
100
AcDbEntity
  8
0
100
AcDbPolyline
 62
7
  6
CONTINUOUS
 90
31
 70
0
 10
-7.8117252797
 20
-4.0541101822
 10
-7.6421895008
 20
-4.2586719473
 10
-7.4790638253
 20
-4.4727080431
 10
-7.3222763071
 20
-4.6961121311
 10
-7.1735999744
 20
-4.926357851
 10
-7.0331268994
 20
-5.163522864
 10
-6.90076501
 20
-5.4075295089
 10
-6.7780111176
 20
-5.6556184417
 10
-6.6649742853
 20
-5.9078360018
 10
-6.56154545
 20
-6.1641358499
 10
-6.4688942346
 20
-6.4216196247
 10
-6.3871429786
 20
-6.6803007653
 10
-6.3161693425
 20
-6.9401658327
 10
-6.25677593
 20
-7.1982761483
 10
-6.2090941914
 20
-7.4546117935
 10
-6.1729926764
 20
-7.7091926869
 10
-6.1488796383
 20
-7.9591399061
 10
-6.1368911614
 20
-8.2044008529
 10
-6.1368911614
 20
-8.4450281255
 10
-6.1488796383
 20
-8.6783005955
 10
-6.1729926764
 20
-8.9041347765
 10
-6.2090941914
 20
-9.122614155
 10
-6.25677593
 20
-9.3312680616
 10
-6.3161693425
 20
-9.5299849647
 10
-6.3871429786
 20
-9.7188763959
 10
-6.4688942346
 20
-9.8958062806
 10
-6.56154545
 20
-10.06063884
 10
-6.6649742853
 20
-10.2135098528
 10
-6.7780111176
 20
-10.3526905805
 10
-6.90076501
 20
-10.478025621
 10
-7.0331268994
 20
-10.5896703764
  0
LWPOLYLINE
  5
23C
100
AcDbEntity
  8
0
100
AcDbPolyline
 62
7
  6
CONTINUOUS
 90
9
 70
0
 10
-10.0085814698
 20
-2.5755886459
 10
-10.0456697709
 20
-2.5282332556
 10
-10.0820433324
 20
-2.4796297083
 10
-10.1177021542
 20
-2.429778004
 10
-10.1526251258
 20
-2.3787293619
 10
-10.1868333578
 20
-2.3264325627
 10
-10.2203901814
 20
-2.272733949
 10
-10.2533167069
 20
-2.2175823015
 10
-10.285591824
 20
-2.1610288395
  0
LWPOLYLINE
  5
23D
100
AcDbEntity
  8
0
100
AcDbPolyline
 62
7
  6
CONTINUOUS
 90
10
 70
0
 10
-9.3014746886
 20
-2.2220352553
 10
-9.3385629897
 20
-2.174679865
 10
-9.3749365512
 20
-2.1260763178
 10
-9.410595373
 20
-2.0762246134
 10
-9.4455183446
 20
-2.0251759713
 10
-9.4797265766
 20
-1.9728791721
 10
-9.5132834002
 20
-1.9191805584
 10
-9.5462099257
 20
-1.8640289109
 10
-9.5784850428
 20
-1.8074754489
 10
-9.6101087514
 20
-1.7495201723
  0
LWPOLYLINE
  5
23E
100
AcDbEntity
  8
0
100
AcDbPolyline
 62
7
  6
CONTINUOUS
 90
18
 70
0
 10
-5.8171078188
 20
-8.2371187871
 10
-5.8184644892
 20
-8.1213938175
 10
-5.829311039
 20
-7.8862614055
 10
-5.8509679071
 20
-7.6468742789
 10
-5.8833627992
 20
-7.404031054
 10
-5.9263874594
 20
-7.1585425849
 10
-5.9798982209
 20
-6.9112278454
 10
-6.0437164388
 20
-6.6629118835
 10
-6.1176288596
 20
-6.4144237883
 10
-6.2013887043
 20
-6.1665924794
 10
-6.294716354
 20
-5.9202446555
 10
-6.3972999741
 20
-5.6762027393
 10
-6.5087970995
 20
-5.4352807013
 10
-6.6288355505
 20
-5.198282064
 10
-6.7570142939
 20
-4.9659978878
 10
-6.8929053467
 20
-4.7392029703
 10
-7.0360552862
 20
-4.5186533061
 10
-7.1859863889
 20
-4.3050842379
  0
LINE
  5
23F
100
AcDbEntity
  8
0
100
AcDbLine
 62
7
  6
CONTINUOUS
 10
-5.8171078188
 20
-7.9189207356
 11
-5.8171078188
 21
-8.2371187871
  0
LWPOLYLINE
  5
240
100
AcDbEntity
  8
0
100
AcDbPolyline
 62
7
  6
CONTINUOUS
 90
21
 70
0
 10
-7.4946204518
 20
-3.8325691549
 10
-7.3434134559
 20
-4.0026128421
 10
-7.1969161985
 20
-4.1808518627
 10
-7.0556189556
 20
-4.366690132
 10
-6.9199945487
 20
-4.5595062299
 10
-6.7904970123
 20
-4.758655127
 10
-6.6675600346
 20
-4.9634703041
 10
-6.551595117
 20
-5.1732666023
 10
-6.4429904492
 20
-5.3873421677
 10
-6.3421097867
 20
-5.6049803977
 10
-6.2492908324
 20
-5.8254531256
 10
-6.1648443251
 20
-6.0480226767
 10
-6.0890531279
 20
-6.2719439259
 10
-6.0221709713
 20
-6.496467609
 10
-5.9644217797
 20
-6.720842429
 10
-5.9159990014
 20
-6.9443171621
 10
-5.8770647483
 20
-7.1661439967
 10
-5.8477493833
 20
-7.3855806251
 10
-5.8281511103
 20
-7.6018923356
 10
-5.8183355375
 20
-7.8143552772
 10
-5.8171078188
 20
-7.9189207356
  0
LWPOLYLINE
  5
241
100
AcDbEntity
  8
0
100
AcDbPolyline
 62
7
  6
CONTINUOUS
 90
3
 70
0
 10
-8.5943679074
 20
-1.8684818647
 10
-8.6281467462
 20
-1.8254341616
 10
-8.649123162
 20
-1.7975747888
  0
LWPOLYLINE
  5
242
100
AcDbEntity
  8
0
100
AcDbPolyline
 62
7
  6
CONTINUOUS
 90
32
 70
0
 10
-7.256697067
 20
-4.3404395769
 10
-7.1067659643
 20
-4.5540086452
 10
-6.9636160248
 20
-4.7745583093
 10
-6.827724972
 20
-5.0013532268
 10
-6.6995462286
 20
-5.233637403
 10
-6.5795077776
 20
-5.4706360403
 10
-6.4680106523
 20
-5.7115580784
 10
-6.3654270321
 20
-5.9555999946
 10
-6.2720993824
 20
-6.2019478185
 10
-6.1883395377
 20
-6.4497791274
 10
-6.114427117
 20
-6.6982672225
 10
-6.050608899
 20
-6.9465831845
 10
-5.9970981376
 20
-7.193897924
 10
-5.9540734774
 20
-7.439386393
 10
-5.9216785853
 20
-7.6822296179
 10
-5.9000217171
 20
-7.9216167446
 10
-5.8891751673
 20
-8.1567491566
 10
-5.8891751673
 20
-8.3868424254
 10
-5.9000217171
 20
-8.6111282876
 10
-5.9216785853
 20
-8.8288585461
 10
-5.9540734774
 20
-9.0393068789
 10
-5.9970981376
 20
-9.2417706877
 10
-6.050608899
 20
-9.4355746658
 10
-6.114427117
 20
-9.6200724097
 10
-6.1883395377
 20
-9.7946480841
 10
-6.2720993824
 20
-9.9587195483
 10
-6.3654270321
 20
-10.1117397225
 10
-6.4680106523
 20
-10.2531980186
 10
-6.5795077776
 20
-10.3826229313
 10
-6.6995462286
 20
-10.4995831176
 10
-6.827724972
 20
-10.6036885504
 10
-6.9636160248
 20
-10.6945924151
  0
LWPOLYLINE
  5
243
100
AcDbEntity
  8
0
100
AcDbPolyline
 62
7
  6
CONTINUOUS
 90
32
 70
0
 10
-6.5495902858
 20
-3.9868861863
 10
-6.3996591831
 20
-4.2004552546
 10
-6.2565092437
 20
-4.4210049188
 10
-6.1206181908
 20
-4.6477998362
 10
-5.9924394474
 20
-4.8800840124
 10
-5.8724009965
 20
-5.1170826497
 10
-5.7609038711
 20
-5.3580046878
 10
-5.6583202509
 20
-5.602046604
 10
-5.5649926012
 20
-5.8483944279
 10
-5.4812327566
 20
-6.0962257368
 10
-5.4073203358
 20
-6.3447138319
 10
-5.3435021178
 20
-6.5930297939
 10
-5.2899913564
 20
-6.8403445334
 10
-5.2469666962
 20
-7.0858330024
 10
-5.2145718041
 20
-7.3286762273
 10
-5.1929149359
 20
-7.568063354
 10
-5.1820683861
 20
-7.803195766
 10
-5.1820683861
 20
-8.0332890348
 10
-5.1929149359
 20
-8.257574897
 10
-5.2145718041
 20
-8.4753051555
 10
-5.2469666962
 20
-8.6857534883
 10
-5.2899913564
 20
-8.8882172971
 10
-5.3435021178
 20
-9.0820212752
 10
-5.4073203358
 20
-9.2665190191
 10
-5.4812327566
 20
-9.4410946935
 10
-5.5649926012
 20
-9.6051661577
 10
-5.6583202509
 20
-9.7581863319
 10
-5.7609038711
 20
-9.899644628
 10
-5.8724009965
 20
-10.0290695407
 10
-5.9924394474
 20
-10.146029727
 10
-6.1206181908
 20
-10.2501351598
 10
-6.2565092437
 20
-10.3410390245
  0
LWPOLYLINE
  5
244
100
AcDbEntity
  8
0
100
AcDbPolyline
 62
7
  6
CONTINUOUS
 90
10
 70
0
 10
-7.1859863889
 20
-4.3050842379
 10
-7.2176457721
 20
-4.2470667664
 10
-7.2499533441
 20
-4.1904601962
 10
-7.2829091047
 20
-4.1352645274
 10
-7.3164995423
 20
-4.0815223632
 10
-7.3507381686
 20
-4.0291911004
 10
-7.3856655192
 20
-3.9781429291
 10
-7.4212951058
 20
-3.9283352461
 10
-7.4576134167
 20
-3.8798106547
 10
-7.4946204518
 20
-3.8325691549
  0
LWPOLYLINE
  5
245
100
AcDbEntity
  8
0
100
AcDbPolyline
 62
7
  6
CONTINUOUS
 90
10
 70
0
 10
-6.4788796077
 20
-3.9515308473
 10
-6.5105389909
 20
-3.8935133758
 10
-6.5428465629
 20
-3.8369068056
 10
-6.5758023236
 20
-3.7817111368
 10
-6.6093927611
 20
-3.7279689727
 10
-6.6436313874
 20
-3.6756377098
 10
-6.678558738
 20
-3.6245895385
 10
-6.7141883246
 20
-3.5747818556
 10
-6.7505066355
 20
-3.5262572641
 10
-6.7875136706
 20
-3.4790157643
  0
LWPOLYLINE
  5
246
100
AcDbEntity
  8
0
100
AcDbPolyline
 62
7
  6
CONTINUOUS
 90
18
 70
0
 10
-5.1100010376
 20
-7.8835653965
 10
-5.111357708
 20
-7.7678404269
 10
-5.1222042578
 20
-7.532708015
 10
-5.143861126
 20
-7.2933208883
 10
-5.1762560181
 20
-7.0504776634
 10
-5.2192806783
 20
-6.8049891944
 10
-5.2727914397
 20
-6.5576744548
 10
-5.3366096577
 20
-6.3093584929
 10
-5.4105220784
 20
-6.0608703977
 10
-5.4942819231
 20
-5.8130390888
 10
-5.5876095728
 20
-5.5666912649
 10
-5.690193193
 20
-5.3226493487
 10
-5.8016903183
 20
-5.0817273107
 10
-5.9217287693
 20
-4.8447286734
 10
-6.0499075127
 20
-4.6124444972
 10
-6.1857985655
 20
-4.3856495797
 10
-6.328948505
 20
-4.1650999156
 10
-6.4788796077
 20
-3.9515308473
  0
LINE
  5
247
100
AcDbEntity
  8
0
100
AcDbLine
 62
7
  6
CONTINUOUS
 10
-5.1100010376
 20
-7.565367345
 11
-5.1100010376
 21
-7.8835653965
  0
LWPOLYLINE
  5
248
100
AcDbEntity
  8
0
100
AcDbPolyline
 62
7
  6
CONTINUOUS
 90
6
 70
0
 10
-7.256697067
 20
-4.3404395769
 10
-7.3443649634
 20
-4.3285507475
 10
-7.430415274
 20
-4.3164777764
 10
-7.5148479989
 20
-4.3042206638
 10
-7.597663138
 20
-4.2917794096
 10
-7.6195507424
 20
-4.2883761091
  0
LWPOLYLINE
  5
249
100
AcDbEntity
  8
0
100
AcDbPolyline
 62
7
  6
CONTINUOUS
 90
10
 70
0
 10
-6.5495902858
 20
-3.9868861863
 10
-6.6656252288
 20
-3.9710564947
 10
-6.7788383691
 20
-3.9549027087
 10
-6.8892297067
 20
-3.9384248284
 10
-6.9967140351
 20
-3.9216296096
 10
-7.1013765608
 20
-3.9045102965
 10
-7.2034729033
 20
-3.8870466212
 10
-7.3030882693
 20
-3.8692318279
 10
-7.4001374521
 20
-3.8510726724
 10
-7.4946204518
 20
-3.8325691549
  0
LWPOLYLINE
  5
24A
100
AcDbEntity
  8
0
100
AcDbPolyline
 62
7
  6
CONTINUOUS
 90
4
 70
0
 10
-9.3172863857
 20
-2.83740256
 10
-9.514394495
 20
-2.7464724435
 10
-9.7092902902
 20
-2.6711431383
 10
-9.9019737711
 20
-2.6114146443
  0
LWPOLYLINE
  5
24B
100
AcDbEntity
  8
0
100
AcDbPolyline
 62
7
  6
CONTINUOUS
 90
9
 70
0
 10
-9.3172863857
 20
-2.83740256
 10
-9.1201782764
 20
-2.9435805528
 10
-8.9252824813
 20
-3.0631470427
 10
-8.7325990003
 20
-3.1961020297
 10
-8.5414155081
 20
-3.3430499006
 10
-8.35244433
 20
-3.5033862685
 10
-8.1678224426
 20
-3.6752979732
 10
-7.9875992158
 20
-3.8589164093
 10
-7.8117252797
 20
-4.0541101822
  0
LWPOLYLINE
  5
24C
100
AcDbEntity
  8
0
100
AcDbPolyline
 62
7
  6
CONTINUOUS
 90
21
 70
0
 10
-6.7875136706
 20
-3.4790157643
 10
-6.6363066747
 20
-3.6490594515
 10
-6.4898094173
 20
-3.8272984721
 10
-6.3485121744
 20
-4.0131367414
 10
-6.2128877675
 20
-4.2059528393
 10
-6.0833902311
 20
-4.4051017364
 10
-5.9604532534
 20
-4.6099169135
 10
-5.8444883358
 20
-4.8197132118
 10
-5.735883668
 20
-5.0337887771
 10
-5.6350030055
 20
-5.2514270071
 10
-5.5421840513
 20
-5.471899735
 10
-5.4577375439
 20
-5.6944692861
 10
-5.3819463467
 20
-5.9183905353
 10
-5.3150641901
 20
-6.1429142185
 10
-5.2573149985
 20
-6.3672890384
 10
-5.2088922202
 20
-6.5907637715
 10
-5.1699579671
 20
-6.8125906061
 10
-5.1406426021
 20
-7.0320272345
 10
-5.1210443291
 20
-7.248338945
 10
-5.1112287563
 20
-7.4608018867
 10
-5.1100010376
 20
-7.565367345
  0
LWPOLYLINE
  5
24D
100
AcDbEntity
  8
0
100
AcDbPolyline
 62
7
  6
CONTINUOUS
 90
33
 70
0
 10
-5.8424835047
 20
-3.6333327957
 10
-5.6925524019
 20
-3.846901864
 10
-5.5494024625
 20
-4.0674515282
 10
-5.4135114096
 20
-4.2942464456
 10
-5.2853326662
 20
-4.5265306218
 10
-5.1652942153
 20
-4.7635292591
 10
-5.0537970899
 20
-5.0044512972
 10
-4.9512134698
 20
-5.2484932134
 10
-4.85788582
 20
-5.4948410373
 10
-4.7741259754
 20
-5.7426723462
 10
-4.7002135546
 20
-5.9911604414
 10
-4.6363953366
 20
-6.2394764033
 10
-4.5828845752
 20
-6.4867911428
 10
-4.539859915
 20
-6.7322796118
 10
-4.5074650229
 20
-6.9751228367
 10
-4.4858081547
 20
-7.2145099634
 10
-4.4749616049
 20
-7.4496423754
 10
-4.4749616049
 20
-7.6797356442
 10
-4.4858081547
 20
-7.9040215064
 10
-4.5074650229
 20
-8.1217517649
 10
-4.539859915
 20
-8.3322000977
 10
-4.5828845752
 20
-8.5346639065
 10
-4.6363953366
 20
-8.7284678846
 10
-4.7002135546
 20
-8.9129656286
 10
-4.7741259754
 20
-9.087541303
 10
-4.85788582
 20
-9.2516127671
 10
-4.9512134698
 20
-9.4046329413
 10
-5.0537970899
 20
-9.5460912374
 10
-5.1652942153
 20
-9.6755161501
 10
-5.2853326662
 20
-9.7924763364
 10
-5.4135114096
 20
-9.8965817692
 10
-5.5494024625
 20
-9.9874856339
 10
-5.6691156128
 20
-10.0533878388
  0
LWPOLYLINE
  5
24E
100
AcDbEntity
  8
0
100
AcDbPolyline
 62
7
  6
CONTINUOUS
 90
16
 70
0
 10
-5.7717728265
 20
-3.5979774567
 10
-5.6210761676
 20
-3.8128221049
 10
-5.4780772327
 20
-4.0331409741
 10
-5.3427760218
 20
-4.2589340642
 10
-5.2147734466
 20
-4.4909893226
 10
-5.0944685954
 20
-4.7285188019
 10
-4.9830587331
 20
-4.9691586603
 10
-4.8806326746
 20
-5.2129399569
 10
-4.7871016049
 20
-5.4598316327
 10
-4.7033963442
 20
-5.7073766683
 10
-4.6296150018
 20
-5.9555815899
 10
-4.5656594684
 20
-6.2044398715
 10
-4.5121662356
 20
-6.4514749156
 10
-4.4692397686
 20
-6.6966685196
 10
-4.4367756022
 20
-6.9400388863
 10
-4.4150968326
 20
-7.1791640262
  0
LINE
  5
24F
100
AcDbEntity
  8
0
100
AcDbLine
 62
7
  6
CONTINUOUS
 10
-4.4150968326
 20
-7.1791640262
 11
-4.4043111515
 21
-7.4140015532
  0
LWPOLYLINE
  5
250
100
AcDbEntity
  8
0
100
AcDbPolyline
 62
7
  6
CONTINUOUS
 90
17
 70
0
 10
-4.4043111515
 20
-7.4140015532
 10
-4.4043108672
 20
-7.6445938535
 10
-4.4150960007
 20
-7.8686460964
 10
-4.4367742445
 20
-8.0860929819
 10
-4.4692379061
 20
-8.29699981
 10
-4.5121639296
 20
-8.499267651
 10
-4.5656567821
 20
-8.6928102465
 10
-4.6296119965
 20
-8.877713855
 10
-4.7033931158
 20
-9.0521383215
 10
-4.7870982567
 20
-9.2159790167
 10
-4.8806293024
 20
-9.3693405699
 10
-4.9830554454
 20
-9.5106967147
 10
-5.0944654871
 20
-9.6399275653
 10
-5.2147706262
 20
-9.7571530073
 10
-5.3427736508
 20
-9.8612064313
 10
-5.4780754905
 20
-9.9516989673
 10
-5.5976250561
 20
-10.0175068958
  0
LWPOLYLINE
  5
251
100
AcDbEntity
  8
0
100
AcDbPolyline
 62
7
  6
CONTINUOUS
 90
10
 70
0
 10
-5.8424835047
 20
-3.6333327957
 10
-5.9585184476
 20
-3.6175031041
 10
-6.0717315879
 20
-3.6013493181
 10
-6.1821229255
 20
-3.5848714378
 10
-6.2896072539
 20
-3.568076219
 10
-6.3942697796
 20
-3.5509569059
 10
-6.4963661221
 20
-3.5334932306
 10
-6.5959814881
 20
-3.5156784373
 10
-6.6930306709
 20
-3.4975192819
 10
-6.7875136706
 20
-3.4790157643
  0
LWPOLYLINE
  5
252
100
AcDbEntity
  8
0
100
AcDbPolyline
 62
7
  6
CONTINUOUS
 90
9
 70
0
 10
-10.0931572634
 20
-2.5671790229
 10
-10.2821284414
 20
-2.5385442128
 10
-10.4667503288
 20
-2.5258340301
 10
-10.6469735556
 20
-2.5292292394
 10
-10.8228474918
 20
-2.5485490762
 10
-10.9923832706
 20
-2.5835750624
 10
-11.1555089461
 20
-2.6344854827
 10
-11.3122964644
 20
-2.7011020525
 10
-11.3299313977
 20
-2.7097812389
  0
LWPOLYLINE
  5
253
100
AcDbEntity
  8
0
100
AcDbPolyline
 62
7
  6
CONTINUOUS
 90
10
 70
0
 10
-10.0085814698
 20
-2.5755886459
 10
-10.1032922503
 20
-2.5570444953
 10
-10.2004993449
 20
-2.5388577146
 10
-10.3002027535
 20
-2.5210283037
 10
-10.4023000378
 20
-2.5035668179
 10
-10.5068936361
 20
-2.4864627019
 10
-10.6142908636
 20
-2.4696842901
 10
-10.7245941585
 20
-2.4532210273
 10
-10.8377010825
 20
-2.4370834688
 10
-10.9536116357
 20
-2.4212716145
  0
LWPOLYLINE
  5
254
100
AcDbEntity
  8
0
100
AcDbPolyline
 62
7
  6
CONTINUOUS
 90
10
 70
0
 10
-9.3014746886
 20
-2.2220352553
 10
-9.3961854691
 20
-2.2034911047
 10
-9.4933925637
 20
-2.185304324
 10
-9.5930959723
 20
-2.1674749131
 10
-9.6951932566
 20
-2.1500134273
 10
-9.7997868549
 20
-2.1329093113
 10
-9.9071840824
 20
-2.1161308995
 10
-10.0174873773
 20
-2.0996676367
 10
-10.1305943013
 20
-2.0835300782
 10
-10.2465048545
 20
-2.0677182239
  0
LINE
  5
255
100
AcDbEntity
  8
0
100
AcDbLine
 62
7
  6
CONTINUOUS
 10
-9.9019737711
 20
-2.6114146443
 11
-10.0931572634
 21
-2.5671790229
  0
LINE
  5
256
100
AcDbEntity
  8
0
100
AcDbLine
 62
7
  6
CONTINUOUS
 10
-9.5393980733
 20
-1.7141648333
 11
-9.2830835298
 21
-1.842322105
  0
LINE
  5
257
100
AcDbEntity
  8
0
100
AcDbLine
 62
7
  6
CONTINUOUS
 10
-6.02808737
 20
-3.4698201849
 11
-5.7717728265
 21
-3.5979774567
  0
LWPOLYLINE
  5
258
100
AcDbEntity
  8
RACCORDO
100
AcDbPolyline
 62
7
  6
CONTINUOUS
 90
16
 70
0
 10
-4.8999094893
 20
-1.8688456158
 10
-4.9129298193
 20
-1.8367650513
 10
-4.9273052777
 20
-1.8053100136
 10
-4.9430358645
 20
-1.7744805027
 10
-4.9602546805
 20
-1.7440560086
 10
-4.9788286248
 20
-1.7142570414
 10
-4.9983583953
 20
-1.6857451314
 10
-5.0187762069
 20
-1.6586634325
 10
-5.0401498448
 20
-1.6328687908
 10
-5.0622833622
 20
-1.6085932743
 10
-5.0852801226
 20
-1.5857683052
 10
-5.1090367625
 20
-1.5644624614
 10
-5.1330472446
 20
-1.5451135443
 10
-5.1571428899
 20
-1.527867488
 10
-5.1814923774
 20
-1.5125783586
 10
-5.2060957071
 20
-1.499246156
  0
LINE
  5
259
100
AcDbEntity
  8
RACCORDO
100
AcDbLine
 62
7
  6
CONTINUOUS
 10
-2.4504197465
 20
-8.2897429099
 11
-4.8999094893
 21
-1.8688456158
  0
LWPOLYLINE
  5
25A
100
AcDbEntity
  8
0
100
AcDbPolyline
 62
7
  6
CONTINUOUS
 90
15
 70
0
 10
-8.5925281613
 20
-1.8016568632
 10
-8.4089660182
 20
-1.8299477476
 10
-8.2232859988
 20
-1.8732745121
 10
-8.0354644
 20
-1.9318054357
 10
-7.845524925
 20
-2.0053722392
 10
-7.6555854499
 20
-2.0931546325
 10
-7.4656459749
 20
-2.1953117143
 10
-7.2757064998
 20
-2.3116843858
 10
-7.0878849011
 20
-2.440975061
 10
-6.9022048816
 20
-2.5833283159
 10
-6.7186427385
 20
-2.7385995746
 10
-6.539245239
 20
-2.9050575223
 10
-6.364694639
 20
-3.0821250541
 10
-6.1943086827
 20
-3.270379275
 10
-6.02808737
 20
-3.4698201849
  0
LWPOLYLINE
  5
25B
100
AcDbEntity
  8
0
100
AcDbPolyline
 62
7
  6
CONTINUOUS
 90
6
 70
0
 10
-8.5943679074
 20
-1.8684818647
 10
-8.6804633135
 20
-1.8515924453
 10
-8.7686068416
 20
-1.8350007644
 10
-8.8587984917
 20
-1.8187068222
 10
-8.9510382637
 20
-1.8027106185
 10
-8.9915666531
 20
-1.7959628434
  0
LINE
  5
25C
100
AcDbEntity
  8
0
100
AcDbLine
 62
7
  6
CONTINUOUS
 10
-7.0331268994
 20
-10.5896703764
 11
-7.1735999744
 21
-10.6863623145
  0
LINE
  5
25D
100
AcDbEntity
  8
0
100
AcDbLine
 62
7
  6
CONTINUOUS
 10
-9.2830835298
 20
-1.842322105
 11
-9.1168622171
 21
-1.8091025078
  0
LWPOLYLINE
  5
25E
100
AcDbEntity
  8
0
100
AcDbPolyline
 62
7
  6
CONTINUOUS
 90
4
 70
0
 10
-9.1168622171
 20
-1.8091025078
 10
-8.9464762608
 20
-1.7912342432
 10
-8.7719256608
 20
-1.7887173114
 10
-8.5925281613
 20
-1.8016568632
  0
LWPOLYLINE
  5
25F
100
AcDbEntity
  8
RACCORDO
100
AcDbPolyline
 62
7
  6
CONTINUOUS
 90
11
 70
0
 10
-10.1050751927
 20
0.9502435868
 10
-10.1296663606
 20
0.9615142251
 10
-10.1540136682
 20
0.9705740569
 10
-10.1781171155
 20
0.9774230824
 10
-10.2021521188
 20
0.9820848149
 10
-10.2259432618
 20
0.9845357409
 10
-10.2489642954
 20
0.9847053203
 10
-10.2711040676
 20
0.9825552434
 10
-10.2924737304
 20
0.9781238198
 10
-10.3128804913
 20
0.9714554388
 10
-10.328610724
 20
0.9644328109
  0
LINE
  5
260
100
AcDbEntity
  8
RACCORDO
100
AcDbLine
 62
7
  6
CONTINUOUS
 10
-5.2060957071
 20
-1.499246156
 11
-10.1050751927
 21
0.9502435868
  0
LINE
  5
261
100
AcDbEntity
  8
RACCORDO
100
AcDbLine
 62
7
  6
CONTINUOUS
 10
-0.5412314373
 20
-7.3351487553
 11
-2.9907211801
 21
-0.9142514612
  0
LWPOLYLINE
  5
262
100
AcDbEntity
  8
RACCORDO
100
AcDbPolyline
 62
7
  6
CONTINUOUS
 90
16
 70
0
 10
-0.5412314373
 20
-7.3351487553
 10
-0.5296584727
 20
-7.3675462785
 10
-0.5196859321
 20
-7.3999162732
 10
-0.5113138158
 20
-7.4322587395
 10
-0.5045013378
 20
-7.4648037786
 10
-0.4992892839
 20
-7.4973212892
 10
-0.4958000115
 20
-7.5291209677
 10
-0.4940732551
 20
-7.5600648652
 10
-0.4940692801
 20
-7.5902909305
 10
-0.4957912406
 20
-7.6195227063
 10
-0.4992825037
 20
-7.6478650369
 10
-0.5044997024
 20
-7.6752130781
 10
-0.5113158897
 20
-7.7009758397
 10
-0.5196887502
 20
-7.7249563251
 10
-0.5296605994
 20
-7.7473515309
 10
-0.5412314373
 20
-7.7681614572
  0
LWPOLYLINE
  5
263
100
AcDbEntity
  8
0
100
AcDbPolyline
 62
7
  6
CONTINUOUS
 90
20
 70
0
 10
-0.7261149194
 20
-6.8505099225
 10
-0.7328189099
 20
-6.5551556799
 10
-0.7529106075
 20
-6.2481450467
 10
-0.7862140871
 20
-5.9372286642
 10
-0.8329103708
 20
-5.6214405251
 10
-0.8928184365
 20
-5.3017466368
 10
-0.9653952181
 20
-4.9810450211
 10
-1.0507559057
 20
-4.6593265152
 10
-1.1487853093
 20
-4.336600282
 10
-1.2585947932
 20
-4.0157918316
 10
-1.3802914676
 20
-3.6969186012
 10
-1.5137682225
 20
-3.3799631535
 10
-1.6578150923
 20
-3.0677986865
 10
-1.8125281855
 20
-2.7604687621
 10
-1.9778113937
 20
-2.4579298183
 10
-2.1521664263
 20
-2.1629243677
 10
-2.3356757684
 20
-1.8755209083
 10
-2.5282569349
 20
-1.5956509422
 10
-2.7281641794
 20
-1.3258514876
 10
-2.9302654532
 20
-1.072725288
  0
LWPOLYLINE
  5
264
100
AcDbEntity
  8
RACCORDO
100
AcDbPolyline
 62
7
  6
CONTINUOUS
 90
16
 70
0
 10
-2.4504197465
 20
-8.7227556118
 10
-2.4388489086
 20
-8.7019456855
 10
-2.4288770594
 20
-8.6795504797
 10
-2.4205041989
 20
-8.6555699943
 10
-2.4136880116
 20
-8.6298072327
 10
-2.4084708129
 20
-8.6024591915
 10
-2.4049795498
 20
-8.5741168609
 10
-2.4032575893
 20
-8.5448850851
 10
-2.4032615643
 20
-8.5146590198
 10
-2.4049883207
 20
-8.4837151223
 10
-2.4084775931
 20
-8.4519154438
 10
-2.413689647
 20
-8.4193979332
 10
-2.420502125
 20
-8.3868528941
 10
-2.4288742413
 20
-8.3545104278
 10
-2.4388467819
 20
-8.3221404331
 10
-2.4504197465
 20
-8.2897429099
  0
LINE
  5
265
100
AcDbEntity
  8
RACCORDO
100
AcDbLine
 62
7
  6
CONTINUOUS
 10
-4.8999094893
 20
-12.6941631631
 11
-2.4504197465
 21
-8.7227556118
  0
LINE
  5
266
100
AcDbEntity
  8
0
100
AcDbLine
 62
7
  6
CONTINUOUS
 10
-7.1735999744
 20
-10.6863623145
 11
-7.3046413737
 21
-10.7592525153
  0
LINE
  5
267
100
AcDbEntity
  8
0
100
AcDbLine
 62
7
  6
CONTINUOUS
 10
-6.9636160248
 20
-10.6945924151
 11
-7.0833291751
 21
-10.76049462
  0
LWPOLYLINE
  5
268
100
AcDbEntity
  8
0
100
AcDbPolyline
 62
7
  6
CONTINUOUS
 90
17
 70
0
 10
-7.012618497
 20
-10.725139281
 10
-6.8929053467
 20
-10.659237076
 10
-6.7570142939
 20
-10.5683332114
 10
-6.6288355505
 20
-10.4642277785
 10
-6.5087970995
 20
-10.3472675922
 10
-6.3972999741
 20
-10.2178426795
 10
-6.294716354
 20
-10.0763843835
 10
-6.2013887043
 20
-9.9233642093
 10
-6.1176288596
 20
-9.7592927451
 10
-6.0437164388
 20
-9.5847170707
 10
-5.9798982209
 20
-9.4002193268
 10
-5.9263874594
 20
-9.2064153486
 10
-5.8833627992
 20
-9.0039515398
 10
-5.8509679071
 20
-8.793503207
 10
-5.829311039
 20
-8.5757729485
 10
-5.8184644892
 20
-8.3514870863
 10
-5.8171078188
 20
-8.2371187871
  0
LINE
  5
269
100
AcDbEntity
  8
0
100
AcDbLine
 62
7
  6
CONTINUOUS
 10
-6.2565092437
 20
-10.3410390245
 11
-6.376222394
 21
-10.4069412294
  0
LWPOLYLINE
  5
26A
100
AcDbEntity
  8
0
100
AcDbPolyline
 62
7
  6
CONTINUOUS
 90
17
 70
0
 10
-6.3055117158
 20
-10.3715858904
 10
-6.1857985655
 20
-10.3056836854
 10
-6.0499075127
 20
-10.2147798208
 10
-5.9217287693
 20
-10.110674388
 10
-5.8016903183
 20
-9.9937142016
 10
-5.690193193
 20
-9.8642892889
 10
-5.5876095728
 20
-9.7228309929
 10
-5.4942819231
 20
-9.5698108187
 10
-5.4105220784
 20
-9.4057393545
 10
-5.3366096577
 20
-9.2311636801
 10
-5.2727914397
 20
-9.0466659362
 10
-5.2192806783
 20
-8.852861958
 10
-5.1762560181
 20
-8.6503981492
 10
-5.143861126
 20
-8.4399498164
 10
-5.1222042578
 20
-8.2222195579
 10
-5.111357708
 20
-7.9979336957
 10
-5.1100010376
 20
-7.8835653965
  0
LWPOLYLINE
  5
26B
100
AcDbEntity
  8
0
100
AcDbPolyline
 62
7
  6
CONTINUOUS
 90
40
 70
0
 10
4.574568718
 20
-4.8197422746
 10
4.8117332994
 20
-4.6921500426
 10
5.0413994432
 20
-4.5502307418
 10
5.2624939681
 20
-4.3945300603
 10
5.4715496259
 20
-4.2277700647
 10
5.6703152479
 20
-4.0489010477
 10
5.8644165253
 20
-3.8517391737
 10
6.0559284104
 20
-3.6308761656
 10
6.2374715829
 20
-3.3912981323
 10
6.4010555901
 20
-3.1426865756
 10
6.5432991969
 20
-2.8924645186
 10
6.6678395736
 20
-2.6368194327
 10
6.7777840961
 20
-2.3690089632
 10
6.8732547669
 20
-2.084784044
 10
6.9504173049
 20
-1.7911819554
 10
7.0068538782
 20
-1.497834832
 10
7.0432764535
 20
-1.2060660427
 10
7.0604464236
 20
-0.9170735688
 10
7.0594133689
 20
-0.6391270597
 10
7.042389193
 20
-0.3740155812
 10
7.0110972917
 20
-0.1191794573
 10
6.9671703793
 20
0.1246480649
 10
6.9117754791
 20
0.3586048658
 10
6.8456785825
 20
0.5839545702
 10
6.7699667244
 20
0.8001475045
 10
6.6847613243
 20
1.0089887646
 10
6.5901225511
 20
1.211444021
 10
6.4874785621
 20
1.4055124065
 10
6.3770414095
 20
1.5918680678
 10
6.2581353701
 20
1.7721585131
 10
6.1314805886
 20
1.9455406501
 10
5.9971532248
 20
2.1121477662
 10
5.8543369631
 20
2.2729521452
 10
5.7027666147
 20
2.4279522713
 10
5.5425350159
 20
2.5766859809
 10
5.3727871585
 20
2.7194481519
 10
5.1917445806
 20
2.856893248
 10
4.9983960157
 20
2.9886306861
 10
4.7927672239
 20
3.1133967326
 10
4.574568718
 20
3.2301024444
  0
LINE
  5
26C
100
AcDbEntity
  8
RACCORDO
100
AcDbLine
 62
253
  6
CONTINUOUS
 10
-2.4504197465
 20
-8.2897429099
 11
-0.5412314373
 21
-7.3351487553
  0
LINE
  5
26D
100
AcDbEntity
  8
0
100
AcDbLine
 62
7
  6
CONTINUOUS
 10
4.574568718
 20
-4.8197422746
 11
1.3549477171
 21
-6.429552775
  0
LINE
  5
26E
100
AcDbEntity
  8
0
100
AcDbLine
 62
7
  6
CONTINUOUS
 10
-7.304825206
 20
-10.7594392366
 11
-12.2545726743
 21
-13.2343129707
  0
LINE
  5
26F
100
AcDbEntity
  8
RACCORDO
100
AcDbLine
 62
253
  6
CONTINUOUS
 10
-2.4504197465
 20
-8.7227556118
 11
-0.5412314373
 21
-7.7681614572
  0
LWPOLYLINE
  5
270
100
AcDbEntity
  8
0
100
AcDbPolyline
 62
7
  6
CONTINUOUS
 90
3
 70
0
 10
-5.6691156128
 20
-10.0533878388
 10
-5.6925524019
 20
-10.0648853586
 10
-5.8424835047
 20
-10.1285233241
  0
LWPOLYLINE
  5
271
100
AcDbEntity
  8
0
100
AcDbPolyline
 62
7
  6
CONTINUOUS
 90
3
 70
0
 10
-6.376222394
 20
-10.4069412294
 10
-6.3996591831
 20
-10.4184387492
 10
-6.5495902858
 20
-10.4820767147
  0
LWPOLYLINE
  5
272
100
AcDbEntity
  8
0
100
AcDbPolyline
 62
7
  6
CONTINUOUS
 90
3
 70
0
 10
-7.0833291751
 20
-10.76049462
 10
-7.1067659643
 20
-10.7719921398
 10
-7.256697067
 20
-10.8356301053
  0
LINE
  5
273
100
AcDbEntity
  8
RACCORDO
100
AcDbLine
 62
7
  6
CONTINUOUS
 10
-3.2969073979
 20
-0.5446520014
 11
-8.1958868835
 21
1.9048377414
  0
LWPOLYLINE
  5
274
100
AcDbEntity
  8
RACCORDO
100
AcDbPolyline
 62
7
  6
CONTINUOUS
 90
16
 70
0
 10
-3.2969073979
 20
-0.5446520014
 10
-3.2723040682
 20
-0.557984204
 10
-3.2479545807
 20
-0.5732733334
 10
-3.2238589354
 20
-0.5905193897
 10
-3.1998484533
 20
-0.6098683068
 10
-3.1760918134
 20
-0.6311741506
 10
-3.153095053
 20
-0.6539991197
 10
-3.1309615356
 20
-0.6782746362
 10
-3.1095878977
 20
-0.7040692779
 10
-3.0891700861
 20
-0.7311509768
 10
-3.0696403156
 20
-0.7596628868
 10
-3.0510663712
 20
-0.789461854
 10
-3.0338475553
 20
-0.8198863481
 10
-3.0181169685
 20
-0.850715859
 10
-3.0037415101
 20
-0.8821708967
 10
-2.9907211801
 20
-0.9142514612
  0
LWPOLYLINE
  5
275
100
AcDbEntity
  8
0
100
AcDbPolyline
 62
7
  6
CONTINUOUS
 90
16
 70
0
 10
-3.5136320083
 20
-0.4362896962
 10
-3.5955325598
 20
-0.3546241484
 10
-3.8263489804
 20
-0.1421679172
 10
-4.0604535477
 20
0.0560295676
 10
-4.2978761592
 20
0.2398386588
 10
-4.5385869175
 20
0.4093890036
 10
-4.7804037819
 20
0.5631436298
 10
-5.0233368097
 20
0.7009589154
 10
-5.2673759437
 20
0.8229784824
 10
-5.5103089715
 20
0.9280962246
 10
-5.7521258359
 20
1.0161584628
 10
-5.9928365942
 20
1.0873188763
 10
-6.2302592057
 20
1.1409323966
 10
-6.4643637731
 20
1.1768394791
 10
-6.6951801936
 20
1.1951996685
 10
-6.7770807451
 20
1.1954346722
  0
LINE
  5
276
100
AcDbEntity
  8
RACCORDO
100
AcDbLine
 62
7
  6
CONTINUOUS
 10
-2.9907211801
 20
-11.7395690085
 11
-0.5412314373
 21
-7.7681614572
  0
LWPOLYLINE
  5
277
100
AcDbEntity
  8
RACCORDO
100
AcDbPolyline
 62
7
  6
CONTINUOUS
 90
7
 70
0
 10
-2.9907211801
 20
-11.7395690085
 10
-3.0037515452
 20
-11.7586343291
 10
-3.0181284922
 20
-11.7757151943
 10
-3.0338520211
 20
-11.7908116043
 10
-3.0510500252
 20
-11.8040077264
 10
-3.0695946113
 20
-11.8152193931
 10
-3.0733718666
 20
-11.8171714746
  0
LWPOLYLINE
  5
278
100
AcDbEntity
  8
0
100
AcDbPolyline
 62
7
  6
CONTINUOUS
 90
10
 70
0
 10
-1.8632587505
 20
-9.9115912349
 10
-1.8125281855
 20
-9.8694631743
 10
-1.6578150923
 20
-9.716846343
 10
-1.5137682225
 20
-9.5487287458
 10
-1.3802914676
 20
-9.365250053
 10
-1.2585947932
 20
-9.168073497
 10
-1.1487853093
 20
-8.9570745305
 10
-1.0507559057
 20
-8.7323777009
 10
-0.9653952181
 20
-8.4960198826
 10
-0.9430565709
 20
-8.419648721
  0
LWPOLYLINE
  5
279
100
AcDbEntity
  8
0
100
AcDbPolyline
 62
7
  6
CONTINUOUS
 90
17
 70
0
 10
0.0721907801
 20
-8.1889545016
 10
0.1122171971
 20
-8.1683989278
 10
0.2809818251
 20
-8.0687425237
 10
0.4413067982
 20
-7.9525478217
 10
0.5915737822
 20
-7.8209877012
 10
0.7316809083
 20
-7.6739065386
 10
0.8617300454
 20
-7.5114599576
 10
0.9804084662
 20
-7.3352877078
 10
1.0876010064
 20
-7.1452507736
 10
1.1834228302
 20
-6.9414881706
 10
1.2669067041
 20
-6.7260566963
 10
1.3379276671
 20
-6.4988381664
 10
1.3966106801
 20
-6.2599507652
 10
1.4423633917
 20
-6.0118058426
 10
1.4749883514
 20
-5.7552071822
 10
1.4946830096
 20
-5.4893510005
 10
1.5014473664
 20
-5.2142372975
  0
LINE
  5
27A
100
AcDbEntity
  8
0
100
AcDbLine
 62
7
  6
CONTINUOUS
 10
-1.0608337477
 20
-8.7554774962
 11
0.0720348452
 21
-8.1890431998
  0
LWPOLYLINE
  5
27B
100
AcDbEntity
  8
RACCORDO
100
AcDbPolyline
 62
7
  6
CONTINUOUS
 90
7
 70
0
 10
-4.9825601758
 20
-12.7717656293
 10
-4.9787829205
 20
-12.7698135477
 10
-4.9602383344
 20
-12.758601881
 10
-4.9430403303
 20
-12.7454057589
 10
-4.9273168014
 20
-12.7303093489
 10
-4.9129398544
 20
-12.7132284837
 10
-4.8999094893
 20
-12.6941631631
  0
LINE
  5
27C
100
AcDbEntity
  8
RACCORDO
100
AcDbLine
 62
253
  6
CONTINUOUS
 10
-4.8999094893
 20
-12.6941631631
 11
-2.9907211801
 21
-11.7395690085
  0
LINE
  5
27D
100
AcDbEntity
  8
RACCORDO
100
AcDbLine
 62
7
  6
CONTINUOUS
 10
-4.9824889094
 20
-12.7717772988
 11
-3.0733006002
 21
-11.8171831442
  0
LWPOLYLINE
  5
27E
100
AcDbEntity
  8
0
100
AcDbPolyline
 62
253
  6
CONTINUOUS
 90
13
 70
0
 10
2.5621075382
 20
3.1022944019
 10
2.3662219344
 20
3.1928456591
 10
2.1710793918
 20
3.2682703349
 10
1.9774201528
 20
3.3282823176
 10
1.7859788334
 20
3.3726539613
 10
1.597481636
 20
3.4012169492
 10
1.4126435951
 20
3.4138629319
 10
1.2321658646
 20
3.410543939
 10
1.0567330584
 20
3.3912725606
 10
0.8870106533
 20
3.3561218996
 10
0.7236424644
 20
3.3052252945
 10
0.5672482033
 20
3.2387758135
 10
0.5496463585
 20
3.2301024444
  0
LWPOLYLINE
  5
27F
100
AcDbEntity
  8
0
100
AcDbPolyline
 62
253
  6
CONTINUOUS
 90
41
 70
0
 10
2.5621075382
 20
3.1022944019
 10
2.7579931421
 20
2.9969600553
 10
2.9531356847
 20
2.8772421884
 10
3.1467949236
 20
2.7435949322
 10
3.338236243
 20
2.5965252565
 10
3.5267334404
 20
2.436591047
 10
3.7115714814
 20
2.2643989888
 10
3.8920492118
 20
2.0806022654
 10
4.067482018
 20
1.8858980808
 10
4.2372044231
 20
1.6810250147
 10
4.400572612
 20
1.4667602207
 10
4.5569668732
 20
1.2439164785
 10
4.7057939496
 20
1.0133391109
 10
4.8464892891
 20
0.7759027768
 10
4.9785191863
 20
0.5325081535
 10
5.1013828063
 20
0.2840785202
 10
5.2146140855
 20
0.0315562556
 10
5.3177834989
 20
-0.2241007369
 10
5.4104996894
 20
-0.4819226627
 10
5.4924109528
 20
-0.740931515
 10
5.5632065717
 20
-1.0001447844
 10
5.622617994
 20
-1.2585791863
 10
5.6704198518
 20
-1.5152543904
 10
5.7064308163
 20
-1.7691967398
 10
5.7305142857
 20
-2.0194429441
 10
5.7425789029
 20
-2.2650437339
 10
5.7425789029
 20
-2.505067461
 10
5.7305142857
 20
-2.7386036335
 10
5.7064308163
 20
-2.9647663685
 10
5.6704198518
 20
-3.1826977533
 10
5.622617994
 20
-3.3915710996
 10
5.5632065717
 20
-3.5905940792
 10
5.4924109528
 20
-3.7790117298
 10
5.4104996894
 20
-3.9561093186
 10
5.3177834989
 20
-4.1212150539
 10
5.2146140855
 20
-4.2737026331
 10
5.1013828063
 20
-4.4129936185
 10
4.9785191863
 20
-4.5385596318
 10
4.8464892891
 20
-4.6499243579
 10
4.7057939496
 20
-4.7466653525
 10
4.574568718
 20
-4.8197422746
  0
LWPOLYLINE
  5
280
100
AcDbEntity
  8
0
100
AcDbPolyline
 62
7
  6
CONTINUOUS
 90
19
 70
0
 10
4.574568718
 20
3.2301024444
 10
4.3646535318
 20
3.3283858135
 10
4.1501051781
 20
3.4156743449
 10
3.9317402732
 20
3.4916828752
 10
3.7106954908
 20
3.5561277452
 10
3.487445713
 20
3.6090135557
 10
3.2618170693
 20
3.6504479702
 10
3.0348511474
 20
3.6802793412
 10
2.8070975675
 20
3.6985062334
 10
2.5776233844
 20
3.7051533358
 10
2.3466079045
 20
3.7000171078
 10
2.1153939064
 20
3.6829526231
 10
1.884806199
 20
3.6539173098
 10
1.6559761638
 20
3.6130056133
 10
1.4293285055
 20
3.5602703989
 10
1.2046708332
 20
3.4955606731
 10
0.9824852358
 20
3.4188237489
 10
0.7638834531
 20
3.3302727417
 10
0.5496463585
 20
3.2301024444
  0
ENDSEC
  0
SECTION
  2
OBJECTS
  0
DICTIONARY
  5
C
100
AcDbDictionary
280
0
281
1
  3
ACAD_GROUP
350
D
  3
ACAD_MLINESTYLE
350
17
  3
ACAD_LAYOUT
350
1A
  3
ACAD_PLOTSETTINGS
350
19
  3
ACAD_PLOTSTYLENAME
350
E
  0
DICTIONARY
  5
D
102
{ACAD_REACTORS
330
C
102
}
100
AcDbDictionary
280
0
281
1
  0
ACDBDICTIONARYWDFLT
  5
E
102
{ACAD_REACTORS
330
C
102
}
100
AcDbDictionary
281
1
  3
Normal
350
F
100
AcDbDictionaryWithDefault
340
F
  0
DICTIONARY
  5
17
102
{ACAD_REACTORS
330
C
102
}
100
AcDbDictionary
280
0
281
1
  3
Standard
350
18
  0
DICTIONARY
  5
19
102
{ACAD_REACTORS
330
C
102
}
100
AcDbDictionary
281
1
  0
DICTIONARY
  5
1A
102
{ACAD_REACTORS
330
C
102
}
100
AcDbDictionary
281
1
  3
Model
350
281
  3
Layout1
350
282
  0
ACDBPLACEHOLDER
  5
F
102
{ACAD_REACTORS
330
E
102
}
  0
MLINESTYLE
  5
18
102
{ACAD_REACTORS
330
17
102
}
100
AcDbMlineStyle
  2
STANDARD
 70
0
  3

 62
256
 51
90.0
 52
90.0
 71
2
 49
0.5
 62
256
  6
BYLAYER
 49
-0.5
 62
256
  6
BYLAYER
  0
LAYOUT
  5
281
102
{ACAD_REACTORS
330
1A
102
}
100
AcDbPlotSettings
  1

  2
none_device
  4
ISO_A4_(297.00_x_210.00_MM)
  6

 40
0.0
 41
0.0
 42
0.0
 43
0.0
 44
297.0
 45
210.0
 46
0.0
 47
0.0
 48
0.0
 49
0.0
140
0.0
141
0.0
142
1.0
143
1.0
 70
1024
 72
1
 73
0
 74
0
  7

 75
0
147
1.0
148
0.0
149
0.0
100
AcDbLayout
  1
Model
 70
0
 71
0
 10
0.0
 20
0.0
 11
297.0
 21
210.0
 12
0.0
 22
0.0
 32
0.0
 14
0.0
 24
0.0
 34
0.0
 15
0.0
 25
0.0
 35
0.0
146
0.0
 13
0.0
 23
0.0
 33
0.0
 16
1.0
 26
0.0
 36
0.0
 17
0.0
 27
1.0
 37
0.0
 76
0
330
20D
345
0
346
0
  0
LAYOUT
  5
282
102
{ACAD_REACTORS
330
1A
102
}
100
AcDbPlotSettings
  1

  2
none_device
  4
ISO_A4_(297.00_x_210.00_MM)
  6

 40
0.0
 41
0.0
 42
0.0
 43
0.0
 44
297.0
 45
210.0
 46
0.0
 47
0.0
 48
0.0
 49
0.0
140
0.0
141
0.0
142
1.0
143
1.0
 70
0
 72
1
 73
0
 74
0
  7

 75
0
147
1.0
148
0.0
149
0.0
100
AcDbLayout
  1
Layout1
 70
0
 71
1
 10
0.0
 20
0.0
 11
297.0
 21
210.0
 12
0.0
 22
0.0
 32
0.0
 14
0.0
 24
0.0
 34
0.0
 15
0.0
 25
0.0
 35
0.0
146
0.0
 13
0.0
 23
0.0
 33
0.0
 16
1.0
 26
0.0
 36
0.0
 17
0.0
 27
1.0
 37
0.0
 76
0
330
20E
345
0
346
0
  0
ENDSEC
  0
EOF
