0
SECTION
2
HEADER
9
$ACADVER
1
AC1014
9
$HANDSEED
5
       497
9
$EXTMAX
10
297.0000000000
20
210.0000000000
9
$EXTMIN
10
0.0000000000
20
0.0000000000
9
$LIMMIN
10
0.0000000000
20
0.0000000000
9
$LIMMAX
10
297.0000000000
20
210.0000000000
9
$VIEWCTR
10
148.5000000000
20
105.0000000000
9
$VIEWSIZE
40
210.0000000000
9
$CLAYER
8
0
9
$LTSCALE
40
16.3350000000
9
$CELTYPE
6
BYLAYER
9
$DIMSCALE
40
1
9
$DIMASZ
40
3.0000000000
9
$DIMEXO
40
1.8562500000
9
$DIMDLI
40
11.2860000000
9
$DIMEXE
40
5.3460000000
9
$DIMCEN
40
2.6730000000
9
$DIMLFAC
40
1.0000000000
9
$DIMTXT
40
3.0000000000
9
$DIMTOL
70
1
9
$DIMLIM
70
0
9
$DIMTFAC
40
1.0000000000
9
$DIMTP
40
0.0100000000
9
$DIMTM
40
0.0100000000
9
$MEASUREMENT
70
1
0
ENDSEC
0
SECTION
2
CLASSES
0
ENDSEC
0
SECTION
2
TABLES
0
TABLE
2
VPORT
5
8
100
AcDbSymbolTable
70
2
0
VPORT
5
1F4
100
AcDbSymbolTableRecord
100
AcDbViewportTableRecord
2
*ACTIVE
70
0
10
0.0
20
0.0
11
1.0
21
1.0
12
148.5000000000
22
105.0000000000
13
0.0
23
0.0
14
1.0
24
1.0
15
0.0
25
0.0
16
0.0
26
0.0
36
1.0
17
0.0
27
0.0
37
0.0
40
210.0000000000
41
1.4142857143
42
50.0
43
0.0
44
0.0
50
0.0
51
0.0
71
0
72
100
73
1
74
1
75
0
76
0
77
0
78
0
0
ENDTAB
0
TABLE
2
LTYPE
5
5
100
AcDbSymbolTable
70
6
0
LTYPE
5
14
100
AcDbSymbolTableRecord
100
AcDbLinetypeTableRecord
2
BYBLOCK
70
0
3

72
65
73
0
40
0.0
0
LTYPE
5
15
100
AcDbSymbolTableRecord
100
AcDbLinetypeTableRecord
2
BYLAYER
70
0
3

72
65
73
0
40
0.0
0
LTYPE
5
16
100
AcDbSymbolTableRecord
100
AcDbLinetypeTableRecord
2
CONTINUOUS
70
64
3
Solid line
72
65
73
0
40
0
0
LTYPE
5
1F5
100
AcDbSymbolTableRecord
100
AcDbLinetypeTableRecord
2
CENTER
70
64
3
____ _ ____ _ ____ _ ____ _ ____ _ ____ _ ____
72
65
73
4
40
0.6
49
0.375
74
0
49
-0.075
74
0
49
0.075
74
0
49
-0.075
74
0
0
LTYPE
5
1F6
100
AcDbSymbolTableRecord
100
AcDbLinetypeTableRecord
2
HIDDEN
70
64
3
- - - - - - - - - - - - - - - - - - - -
72
65
73
2
40
0.2
49
0.1
74
0
49
-0.1
74
0
0
LTYPE
5
1F7
100
AcDbSymbolTableRecord
100
AcDbLinetypeTableRecord
2
PHANTOM
70
64
3
_____ _ _ _____ _ _ _____ _ _ _____
72
65
73
6
40
0.8
49
0.45
74
0
49
-0.05
74
0
49
0.1
74
0
49
-0.05
74
0
49
0.1
74
0
49
-0.05
74
0
0
LTYPE
5
1F8
100
AcDbSymbolTableRecord
100
AcDbLinetypeTableRecord
2
DOT
70
64
3
. . . . . . . . . . . . . . . . . . . .
72
65
73
2
40
0.2
49
0.1
74
0
49
-0.1
74
0
0
LTYPE
5
1F9
100
AcDbSymbolTableRecord
100
AcDbLinetypeTableRecord
2
DASHED
70
64
3
- - - - - - - - - - - - - - - - - - - -
72
65
73
2
40
0.2
49
0.1
74
0
49
-0.1
74
0
0
ENDTAB
0
TABLE
2
LAYER
5
2
100
AcDbSymbolTable
70
36
0
LAYER
5
10
100
AcDbSymbolTableRecord
100
AcDbLayerTableRecord
2
0
70
0
62
7
6
CONTINUOUS
0
LAYER
5
1FA
100
AcDbSymbolTableRecord
100
AcDbLayerTableRecord
2
DEFAULT_1
70
0
62
7
6
CENTER
0
LAYER
5
1FB
100
AcDbSymbolTableRecord
100
AcDbLayerTableRecord
2
DEFAULT_2
70
0
62
8
6
HIDDEN
0
LAYER
5
1FC
100
AcDbSymbolTableRecord
100
AcDbLayerTableRecord
2
DEFAULT_3
70
0
62
7
6
PHANTOM
0
LAYER
5
1FD
100
AcDbSymbolTableRecord
100
AcDbLayerTableRecord
2
ASSI
70
0
62
7
6
CONTINUOUS
0
LAYER
5
1FE
100
AcDbSymbolTableRecord
100
AcDbLayerTableRecord
2
COORDINATE
70
0
62
7
6
CONTINUOUS
0
LAYER
5
1FF
100
AcDbSymbolTableRecord
100
AcDbLayerTableRecord
2
COORD_ORIGINE
70
0
62
7
6
CONTINUOUS
0
LAYER
5
200
100
AcDbSymbolTableRecord
100
AcDbLayerTableRecord
2
PIANI
70
0
62
7
6
CONTINUOUS
0
LAYER
5
201
100
AcDbSymbolTableRecord
100
AcDbLayerTableRecord
2
PIANI_ORIGINE
70
0
62
7
6
CONTINUOUS
0
LAYER
5
202
100
AcDbSymbolTableRecord
100
AcDbLayerTableRecord
2
RACCORDO
70
0
62
7
6
CONTINUOUS
0
LAYER
5
203
100
AcDbSymbolTableRecord
100
AcDbLayerTableRecord
2
SMUSSO
70
0
62
7
6
CONTINUOUS
0
LAYER
5
204
100
AcDbSymbolTableRecord
100
AcDbLayerTableRecord
2
TRASH
70
0
62
7
6
CONTINUOUS
0
ENDTAB
0
TABLE
2
STYLE
5
3
100
AcDbSymbolTable
70
1
0
STYLE
5
11
100
AcDbSymbolTableRecord
100
AcDbTextStyleTableRecord
2
STANDARD
70
0
40
0.0
41
0.8000000000
50
0.0
71
0
42
0.2
3
txt
4

0
ENDTAB
0
TABLE
2
VIEW
5
6
100
AcDbSymbolTable
70
0
0
ENDTAB
0
TABLE
2
UCS
5
7
100
AcDbSymbolTable
70
0
0
ENDTAB
0
TABLE
2
APPID
5
9
100
AcDbSymbolTable
70
1
0
APPID
5
205
100
AcDbSymbolTableRecord
100
AcDbRegAppTableRecord
2
ACAD
70
0
0
ENDTAB
0
TABLE
2
DIMSTYLE
5
A
100
AcDbSymbolTable
70
1
0
DIMSTYLE
105
206
100
AcDbSymbolTableRecord
100
AcDbDimStyleTableRecord
2
STANDARD
70
0
3

4

5

6

7

40
1.0
41
3.0000000000
42
0.0625
43
0.38
44
0.18
45
0.0
46
0.0
47
0.0100000000
48
0.0100000000
140
3.0000000000
141
0.09
142
0.0
143
25.4
144
1.0000000000
145
0.0
146
1.0000000000
147
0.09
71
1
72
0
73
0
74
0
75
0
76
0
77
1
78
8
170
0
171
2
172
0
173
0
174
0
175
0
176
0
177
0
178
0
270
2
271
2
272
2
273
2
274
2
340
11
275
0
280
0
281
0
282
0
283
1
284
8
285
0
286
0
287
3
288
0
0
ENDTAB
0
TABLE
2
BLOCK_RECORD
5
1
100
AcDbSymbolTable
70
0
0
BLOCK_RECORD
5
1B
100
AcDbSymbolTableRecord
100
AcDbBlockTableRecord
2
*MODEL_SPACE
0
BLOCK_RECORD
5
1C
100
AcDbSymbolTableRecord
100
AcDbBlockTableRecord
2
*PAPER_SPACE
0
ENDTAB
0
ENDSEC
0
SECTION
2
BLOCKS
0
BLOCK
5
1E
100
AcDbEntity
8
0
100
AcDbBlockBegin
2
*MODEL_SPACE
70
0
10
0.0
20
0.0
30
0.0
3
*MODEL_SPACE
1

0
ENDBLK
5
1F
100
AcDbEntity
8
0
100
AcDbBlockEnd
0
BLOCK
5
20
100
AcDbEntity
8
0
100
AcDbBlockBegin
2
*PAPER_SPACE
70
0
10
0.0
20
0.0
30
0.0
3
*PAPER_SPACE
1

0
ENDBLK
5
21
100
AcDbEntity
8
0
100
AcDbBlockEnd
0
ENDSEC
0
SECTION
2
ENTITIES
0
LINE
5
207
100
AcDbEntity
8
0
100
AcDbLine
62
7
6
CONTINUOUS
10
-31.9208891280
20
-15.5314841562
11
-31.9589305648
21
-15.4786452905
0
LINE
5
208
100
AcDbEntity
8
0
100
AcDbLine
62
9
6
CONTINUOUS
10
-29.7586214101
20
-17.0032583203
11
-30.0626135915
21
-16.5423583655
0
LINE
5
209
100
AcDbEntity
8
0
100
AcDbLine
62
9
6
CONTINUOUS
10
-30.8744347093
20
-15.3115098784
11
-31.1784268908
21
-14.8506099235
0
LINE
5
20A
100
AcDbEntity
8
0
100
AcDbLine
62
7
6
CONTINUOUS
10
-32.3820903619
20
-13.5125009483
11
-32.3748099228
21
-13.5187004905
0
LINE
5
20B
100
AcDbEntity
8
0
100
AcDbLine
62
7
6
CONTINUOUS
10
-29.0349100107
20
-14.3419586712
11
-29.0750587277
21
-14.2929483359
0
LINE
5
20C
100
AcDbEntity
8
0
100
AcDbLine
62
7
6
CONTINUOUS
10
-27.2011856408
20
-15.3053047251
11
-27.1919409617
21
-15.3199592108
0
LINE
5
20D
100
AcDbEntity
8
0
100
AcDbLine
62
9
6
CONTINUOUS
10
-30.2011724805
20
-11.5545232715
11
-29.6862793306
21
-12.1269284010
0
LINE
5
20E
100
AcDbEntity
8
0
100
AcDbLine
62
9
6
CONTINUOUS
10
-28.7454588595
20
-13.1728356224
11
-28.2305657096
21
-13.7452407519
0
LINE
5
20F
100
AcDbEntity
8
0
100
AcDbLine
62
7
6
CONTINUOUS
10
-27.4523524787
20
-11.4671059752
11
-27.4856843450
21
-11.4214080557
0
LINE
5
210
100
AcDbEntity
8
0
100
AcDbLine
62
9
6
CONTINUOUS
10
-24.7365648353
20
-13.7781033966
11
-25.3150152617
21
-12.9010815791
0
LINE
5
211
100
AcDbEntity
8
0
100
AcDbLine
62
9
6
CONTINUOUS
10
-26.1268363796
20
-11.6702330920
11
-26.7052868060
21
-10.7932112746
0
LINE
5
212
100
AcDbEntity
8
0
100
AcDbLine
62
7
6
CONTINUOUS
10
-27.9089502771
20
-9.4551022994
11
-27.8976073164
21
-9.4674615782
0
LINE
5
213
100
AcDbEntity
8
0
100
AcDbLine
62
7
6
CONTINUOUS
10
-23.9816477678
20
-11.0404877199
11
-24.0177409507
21
-10.9959857055
0
LINE
5
214
100
AcDbEntity
8
0
100
AcDbLine
62
7
6
CONTINUOUS
10
-22.1506084644
20
-12.0008484781
11
-22.1379432087
21
-12.0193057199
0
LINE
5
215
100
AcDbEntity
8
0
100
AcDbLine
62
9
6
CONTINUOUS
10
-25.7599735739
20
-7.5726231897
11
-24.9386810009
21
-8.4856516147
0
LINE
5
216
100
AcDbEntity
8
0
100
AcDbLine
62
9
6
CONTINUOUS
10
-23.9978605297
20
-9.5315588361
11
-23.1765679566
21
-10.4445872611
0
LINE
5
217
100
AcDbEntity
8
0
100
AcDbLine
62
7
6
CONTINUOUS
10
-22.9644602406
20
-7.4320739107
11
-22.9952914196
21
-7.3901676834
0
LINE
5
218
100
AcDbEntity
8
0
100
AcDbLine
62
7
6
CONTINUOUS
10
-23.4191258834
20
-5.4229996868
11
-23.4056383427
21
-5.4386102804
0
LINE
5
219
100
AcDbEntity
8
0
100
AcDbLine
62
9
6
CONTINUOUS
10
-19.7311925695
20
-10.5276524364
11
-20.5674169319
21
-9.2598047928
0
LINE
5
21A
100
AcDbEntity
8
0
100
AcDbLine
62
9
6
CONTINUOUS
10
-21.3792380498
20
-8.0289563057
11
-22.2154624123
21
-6.7611086621
0
LINE
5
21B
100
AcDbEntity
8
0
100
AcDbLine
62
7
6
CONTINUOUS
10
-34.6803846436
20
-15.6322483530
11
-33.1432500198
21
-14.1956261216
0
LINE
5
21C
100
AcDbEntity
8
0
100
AcDbLine
62
7
6
CONTINUOUS
10
-32.4112811513
20
-13.5115202971
11
-30.9473434143
21
-12.1433086482
0
LINE
5
21D
100
AcDbEntity
8
0
100
AcDbLine
62
7
6
CONTINUOUS
10
-30.2153745458
20
-11.4592028238
11
-28.7514368088
21
-10.0909911748
0
LINE
5
21E
100
AcDbEntity
8
0
100
AcDbLine
62
7
6
CONTINUOUS
10
-28.0194679404
20
-9.4068853504
11
-26.5555302034
21
-8.0386737014
0
LINE
5
21F
100
AcDbEntity
8
0
100
AcDbLine
62
7
6
CONTINUOUS
10
-25.8235613349
20
-7.3545678770
11
-24.3596235979
21
-5.9863562280
0
LINE
5
220
100
AcDbEntity
8
0
100
AcDbLine
62
7
6
CONTINUOUS
10
-23.6276547294
20
-5.3022504036
11
-22.0173232187
21
-3.7972175897
0
LINE
5
221
100
AcDbEntity
8
0
100
AcDbLine
62
7
6
CONTINUOUS
10
-21.5781418976
20
-3.3867540951
11
-20.7729761423
21
-2.6342376882
0
LINE
5
222
100
AcDbEntity
8
0
100
AcDbLine
62
9
6
CONTINUOUS
10
-17.2748619764
20
-8.8037164953
11
-17.2648720868
21
-8.8148222249
0
LINE
5
223
100
AcDbEntity
8
0
100
AcDbLine
62
9
6
CONTINUOUS
10
-21.4543545917
20
-3.7373048978
11
-20.3493359487
21
-4.9657507213
0
LINE
5
224
100
AcDbEntity
8
0
100
AcDbLine
62
9
6
CONTINUOUS
10
-19.4085154776
20
-6.0116579426
11
-18.3034968347
21
-7.2401037660
0
LINE
5
225
100
AcDbEntity
8
0
100
AcDbLine
62
7
6
CONTINUOUS
10
-18.7869341745
20
-7.5972111032
11
-18.8072433205
21
-7.5720070719
0
LINE
5
226
100
AcDbEntity
8
0
100
AcDbLine
62
7
6
CONTINUOUS
10
-17.2735560959
20
-8.8025418222
11
-17.2648720868
21
-8.8148222249
0
LINE
5
227
100
AcDbEntity
8
0
100
AcDbLine
62
7
6
CONTINUOUS
10
-20.7729761423
20
-2.6342376882
11
-20.7714114809
21
-2.6329115913
0
LINE
5
228
100
AcDbEntity
8
0
100
AcDbLine
62
7
6
CONTINUOUS
10
-20.7714114809
20
-2.6329115913
11
-19.7032018567
21
-1.8136243144
0
LINE
5
229
100
AcDbEntity
8
0
100
AcDbLine
62
7
6
CONTINUOUS
10
-19.3075686626
20
-1.5101845822
11
-9.6936820448
21
5.8634009101
0
LINE
5
22A
100
AcDbEntity
8
0
100
AcDbLine
62
7
6
CONTINUOUS
10
-19.0927534942
20
-1.6321678473
11
-19.0863081874
21
-1.6398639323
0
LINE
5
22B
100
AcDbEntity
8
0
100
AcDbLine
62
7
6
CONTINUOUS
10
-18.0995442217
20
-3.4795794740
11
-18.1151538498
21
-3.4579888365
0
LINE
5
22C
100
AcDbEntity
8
0
100
AcDbLine
62
9
6
CONTINUOUS
10
-19.0872623609
20
-1.6404932690
11
-19.0927534942
21
-1.6321678473
0
LINE
5
22D
100
AcDbEntity
8
0
100
AcDbLine
62
9
6
CONTINUOUS
10
-14.9580014933
20
-7.3393704355
11
-16.0563653070
21
-5.6740781580
0
LINE
5
22E
100
AcDbEntity
8
0
100
AcDbLine
62
9
6
CONTINUOUS
10
-16.6055472138
20
-4.8414320193
11
-17.7039110275
21
-3.1761397418
0
LINE
5
22F
100
AcDbEntity
8
0
100
AcDbLine
62
7
6
CONTINUOUS
10
13.8652190403
20
11.0009874424
11
15.6090753848
21
11.6088417217
0
LINE
5
230
100
AcDbEntity
8
0
100
AcDbLine
62
7
6
CONTINUOUS
10
-1.1241449630
20
1.3859969350
11
-1.2732100143
21
1.2354296054
0
LINE
5
231
100
AcDbEntity
8
0
100
AcDbLine
62
7
6
CONTINUOUS
10
1.3758269488
20
3.4327432227
11
1.7589766724
21
3.7551098594
0
LINE
5
232
100
AcDbEntity
8
0
100
AcDbLine
62
7
6
CONTINUOUS
10
2.1421263960
20
4.0774764962
11
2.5252761196
21
4.3998431329
0
LINE
5
233
100
AcDbEntity
8
0
100
AcDbLine
62
7
6
CONTINUOUS
10
2.9084258432
20
4.7222097697
11
3.2915755668
21
5.0445764064
0
LINE
5
234
100
AcDbEntity
8
0
100
AcDbLine
62
7
6
CONTINUOUS
10
3.6747252905
20
5.3669430432
11
4.0578750141
21
5.6893096799
0
LINE
5
235
100
AcDbEntity
8
0
100
AcDbLine
62
7
6
CONTINUOUS
10
4.4410247377
20
6.0116763167
11
4.8241744613
21
6.3340429534
0
LINE
5
236
100
AcDbEntity
8
0
100
AcDbLine
62
7
6
CONTINUOUS
10
5.2073241849
20
6.6564095902
11
7.1230728030
21
8.2682427739
0
LINE
5
237
100
AcDbEntity
8
0
100
AcDbLine
62
7
6
CONTINUOUS
10
4.6568242383
20
5.7313013111
11
4.2943965819
21
5.4263693812
0
LINE
5
238
100
AcDbEntity
8
0
100
AcDbLine
62
7
6
CONTINUOUS
10
3.8905247910
20
5.0865680376
11
3.5280971346
21
4.7816361077
0
LINE
5
239
100
AcDbEntity
8
0
100
AcDbLine
62
7
6
CONTINUOUS
10
3.1242253438
20
4.4418347641
11
2.7617976874
21
4.1369028342
0
LINE
5
23A
100
AcDbEntity
8
0
100
AcDbLine
62
7
6
CONTINUOUS
10
2.3579258966
20
3.7971014906
11
1.9954982402
21
3.4921695607
0
LINE
5
23B
100
AcDbEntity
8
0
100
AcDbLine
62
7
6
CONTINUOUS
10
1.5916264493
20
3.1523682171
11
1.2291987929
21
2.8474362872
0
LINE
5
23C
100
AcDbEntity
8
0
100
AcDbLine
62
7
6
CONTINUOUS
10
5.4243244370
20
6.3742140564
11
5.0621454455
21
6.0694913430
0
LINE
5
23D
100
AcDbEntity
8
0
100
AcDbLine
62
7
6
CONTINUOUS
10
-16.2070291433
20
-8.5840807097
11
-15.1388195191
21
-7.7647934328
0
LINE
5
23E
100
AcDbEntity
8
0
100
AcDbLine
62
7
6
CONTINUOUS
10
-14.7431863249
20
-7.4613537006
11
-5.1292997072
21
-0.0877682083
0
LINE
5
23F
100
AcDbEntity
8
0
100
AcDbLine
62
7
6
CONTINUOUS
10
-2.8384476334
20
1.5625638635
11
-4.4209804100
21
0.3488049347
0
LINE
5
240
100
AcDbEntity
8
0
100
AcDbLine
62
9
6
CONTINUOUS
10
-2.7338910060
20
1.4686497285
11
-4.3164237826
21
0.2548907997
0
LINE
5
241
100
AcDbEntity
8
0
100
AcDbLine
62
7
6
CONTINUOUS
10
7.1230728030
20
8.2682427739
11
8.0725924690
21
8.9964981312
0
LINE
5
242
100
AcDbEntity
8
0
100
AcDbLine
62
7
6
CONTINUOUS
10
9.3386186903
20
9.9675052742
11
16.2226362684
21
15.2473566144
0
LINE
5
243
100
AcDbEntity
8
0
100
AcDbLine
62
7
6
CONTINUOUS
10
8.1420345923
20
8.9192995365
11
9.4080608136
21
9.8903066795
0
LINE
5
244
100
AcDbEntity
8
0
100
AcDbLine
62
7
6
CONTINUOUS
10
-2.0976488767
20
0.7613413120
11
0.2331490528
21
2.5489989453
0
LINE
5
245
100
AcDbEntity
8
0
100
AcDbLine
62
7
6
CONTINUOUS
10
-0.6190813239
20
1.7733667959
11
-1.1241449630
21
1.3859969350
0
LINE
5
246
100
AcDbEntity
8
0
100
AcDbLine
62
7
6
CONTINUOUS
10
-1.0084080907
20
1.2573326105
11
-0.5033444517
21
1.6447024713
0
LINE
5
247
100
AcDbEntity
8
0
100
AcDbLine
62
7
6
CONTINUOUS
10
11.4960574845
20
10.8394485275
11
14.8193763153
21
13.3883422780
0
LINE
5
248
100
AcDbEntity
8
0
100
AcDbLine
62
7
6
CONTINUOUS
10
-0.9285138794
20
1.1362004213
11
-0.4234502403
21
1.5235702822
0
LINE
5
249
100
AcDbEntity
8
0
100
AcDbLine
62
7
6
CONTINUOUS
10
15.1665869320
20
13.0023493043
11
16.9864996251
21
14.3981720724
0
LINE
5
24A
100
AcDbEntity
8
0
100
AcDbLine
62
7
6
CONTINUOUS
10
0.9926772251
20
3.1103765860
11
0.2331490528
21
2.5489989453
0
LINE
5
24B
100
AcDbEntity
8
0
100
AcDbLine
62
7
6
CONTINUOUS
10
-16.2087155400
20
-8.5852480846
11
-16.2070291433
21
-8.5840807097
0
LINE
5
24C
100
AcDbEntity
8
0
100
AcDbLine
62
7
6
CONTINUOUS
10
-32.3678259385
20
-18.6474269539
11
-30.5818189997
21
-17.5352913946
0
LINE
5
24D
100
AcDbEntity
8
0
100
AcDbLine
62
7
6
CONTINUOUS
10
-29.7313395050
20
-17.0057030331
11
-28.0303805157
21
-15.9465263100
0
LINE
5
24E
100
AcDbEntity
8
0
100
AcDbLine
62
7
6
CONTINUOUS
10
-27.1799010211
20
-15.4169379485
11
-25.4789420318
21
-14.3577612254
0
LINE
5
24F
100
AcDbEntity
8
0
100
AcDbLine
62
7
6
CONTINUOUS
10
-24.6284625371
20
-13.8281728639
11
-22.9275035478
21
-12.7689961408
0
LINE
5
250
100
AcDbEntity
8
0
100
AcDbLine
62
7
6
CONTINUOUS
10
-22.0770240531
20
-12.2394077793
11
-20.3760650638
21
-11.1802310562
0
LINE
5
251
100
AcDbEntity
8
0
100
AcDbLine
62
7
6
CONTINUOUS
10
-19.5255855692
20
-10.6506426946
11
-17.6545306809
21
-9.4855482993
0
LINE
5
252
100
AcDbEntity
8
0
100
AcDbLine
62
7
6
CONTINUOUS
10
-17.1442429841
20
-9.1677952823
11
-16.2087155400
21
-8.5852480846
0
LINE
5
253
100
AcDbEntity
8
0
100
AcDbLine
62
7
6
CONTINUOUS
10
-0.4314372197
20
1.8810460884
11
-0.6190813239
21
1.7733667959
0
LINE
5
254
100
AcDbEntity
8
0
100
AcDbLine
62
7
6
CONTINUOUS
10
-0.6941829325
20
0.3387009462
11
-0.5065389180
21
0.4463802056
0
LINE
5
255
100
AcDbEntity
8
0
100
AcDbLine
62
7
6
CONTINUOUS
10
-0.6142887212
20
0.2175687571
11
-0.4266447067
21
0.3252480164
0
LINE
5
256
100
AcDbEntity
8
0
100
AcDbLine
62
7
6
CONTINUOUS
10
-0.5033444517
20
1.6447024713
11
-0.3493713531
21
1.7265570423
0
LINE
5
257
100
AcDbEntity
8
0
100
AcDbLine
62
7
6
CONTINUOUS
10
-0.4234502403
20
1.5235702822
11
-0.2694771417
21
1.6054248532
0
LINE
5
258
100
AcDbEntity
8
0
100
AcDbLine
62
7
6
CONTINUOUS
10
-0.6222757902
20
0.5750445301
11
-0.7425779689
21
0.5190145988
0
LINE
5
259
100
AcDbEntity
8
0
100
AcDbLine
62
7
6
CONTINUOUS
10
24.6435171467
20
11.9072347140
11
26.0733268817
21
12.4998575128
0
LINE
5
25A
100
AcDbEntity
8
0
100
AcDbLine
62
7
6
CONTINUOUS
10
-0.2581746383
20
1.9414566008
11
-0.4314372197
21
1.8810460884
0
LINE
5
25B
100
AcDbEntity
8
0
100
AcDbLine
62
7
6
CONTINUOUS
10
-1.1862359975
20
1.0122278633
11
-1.1238022411
21
1.1325899416
0
LINE
5
25C
100
AcDbEntity
8
0
100
AcDbLine
62
7
6
CONTINUOUS
10
-1.1063417861
20
0.8910956742
11
-1.0439080298
21
1.0114577524
0
LINE
5
25D
100
AcDbEntity
8
0
100
AcDbLine
62
7
6
CONTINUOUS
10
-1.2732100143
20
1.2354296054
11
-1.3693147056
21
1.0892428598
0
LINE
5
25E
100
AcDbEntity
8
0
100
AcDbLine
62
7
6
CONTINUOUS
10
0.2338784502
20
1.2679297018
11
0.1521550978
21
1.1690116308
0
LINE
5
25F
100
AcDbEntity
8
0
100
AcDbLine
62
7
6
CONTINUOUS
10
-1.1238022411
20
1.1325899416
11
-1.0084080907
21
1.2573326105
0
LINE
5
260
100
AcDbEntity
8
0
100
AcDbLine
62
7
6
CONTINUOUS
10
-1.0439080298
20
1.0114577524
11
-0.9285138794
21
1.1362004213
0
LINE
5
261
100
AcDbEntity
8
0
100
AcDbLine
62
7
6
CONTINUOUS
10
-11.7900312724
20
-9.7357290664
11
-6.8603519111
21
-4.6946169398
0
LINE
5
262
100
AcDbEntity
8
0
100
AcDbLine
62
7
6
CONTINUOUS
10
0.2678919700
20
1.0403473063
11
0.4169571347
21
1.1909146872
0
LINE
5
263
100
AcDbEntity
8
0
100
AcDbLine
62
7
6
CONTINUOUS
10
0.3477861814
20
0.9192151172
11
0.4968513461
21
1.0697824980
0
LINE
5
264
100
AcDbEntity
8
0
100
AcDbLine
62
7
6
CONTINUOUS
10
-27.2793770546
20
-23.9469186903
11
-11.7893648500
21
-9.7350834175
0
LINE
5
265
100
AcDbEntity
8
0
100
AcDbLine
62
7
6
CONTINUOUS
10
-6.8603519111
20
-4.6946169398
11
-6.8579477308
21
-4.6924835803
0
LINE
5
266
100
AcDbEntity
8
0
100
AcDbLine
62
7
6
CONTINUOUS
10
12.0300783649
20
10.2457791588
11
13.5180084237
21
11.3869804160
0
LINE
5
267
100
AcDbEntity
8
0
100
AcDbLine
62
7
6
CONTINUOUS
10
12.1904787178
20
10.0674625803
11
10.2123127471
21
8.5502639193
0
LINE
5
268
100
AcDbEntity
8
0
100
AcDbLine
62
7
6
CONTINUOUS
10
-6.8579477308
20
-4.6924835803
11
-2.9016157894
21
-1.6580862583
0
LINE
5
269
100
AcDbEntity
8
0
100
AcDbLine
62
7
6
CONTINUOUS
10
0.8262587859
20
1.1786907852
11
-0.7562739907
21
-0.0350681435
0
LINE
5
26A
100
AcDbEntity
8
0
100
AcDbLine
62
7
6
CONTINUOUS
10
17.0302845935
20
13.4285053000
11
18.6128173701
21
14.6422642287
0
LINE
5
26B
100
AcDbEntity
8
0
100
AcDbLine
62
7
6
CONTINUOUS
10
-0.4385117133
20
-0.0087844588
11
0.7399701662
21
0.8950785922
0
LINE
5
26C
100
AcDbEntity
8
0
100
AcDbLine
62
7
6
CONTINUOUS
10
12.4301613520
20
9.7040660129
11
14.0126941286
21
10.9178249416
0
LINE
5
26D
100
AcDbEntity
8
0
100
AcDbLine
62
7
6
CONTINUOUS
10
-0.3414170078
20
-0.1167243440
11
0.8198643776
21
0.7739464030
0
LINE
5
26E
100
AcDbEntity
8
0
100
AcDbLine
62
7
6
CONTINUOUS
10
16.2597593306
20
12.6095226527
11
17.1301523577
21
13.2770900635
0
LINE
5
26F
100
AcDbEntity
8
0
100
AcDbLine
62
7
6
CONTINUOUS
10
18.8115119889
20
14.4213760327
11
19.8676834501
21
15.2314303711
0
LINE
5
270
100
AcDbEntity
8
0
100
AcDbLine
62
7
6
CONTINUOUS
10
12.6298968804
20
9.4012355400
11
10.7463336275
21
7.9565945506
0
LINE
5
271
100
AcDbEntity
8
0
100
AcDbLine
62
7
6
CONTINUOUS
10
15.6090753848
20
11.6088417217
11
16.4794684119
21
12.2764091326
0
LINE
5
272
100
AcDbEntity
8
0
100
AcDbLine
62
7
6
CONTINUOUS
10
0.9433664511
20
0.0363984146
11
0.4383028120
21
-0.3509714463
0
LINE
5
273
100
AcDbEntity
8
0
100
AcDbLine
62
7
6
CONTINUOUS
10
0.5540396843
20
-0.4796357708
11
1.0591033233
21
-0.0922659099
0
LINE
5
274
100
AcDbEntity
8
0
100
AcDbLine
62
7
6
CONTINUOUS
10
0.6339338956
20
-0.6007679600
11
1.1389975347
21
-0.2133980991
0
LINE
5
275
100
AcDbEntity
8
0
100
AcDbLine
62
7
6
CONTINUOUS
10
1.7521537085
20
0.1493762503
11
1.5837991779
21
0.0202529754
0
LINE
5
276
100
AcDbEntity
8
0
100
AcDbLine
62
7
6
CONTINUOUS
10
23.1552636182
20
16.3104100175
11
25.1334295889
21
17.8276086785
0
LINE
5
277
100
AcDbEntity
8
0
100
AcDbLine
62
7
6
CONTINUOUS
10
13.3478474401
20
8.7808193349
11
11.3696814693
21
7.2636206739
0
LINE
5
278
100
AcDbEntity
8
0
100
AcDbLine
62
7
6
CONTINUOUS
10
1.8924308739
20
-0.3228519310
11
0.4782526280
21
-1.4074875849
0
LINE
5
279
100
AcDbEntity
8
0
100
AcDbLine
62
7
6
CONTINUOUS
10
0.3663956381
20
-0.5873149507
11
0.5540396843
21
-0.4796357708
0
LINE
5
27A
100
AcDbEntity
8
0
100
AcDbLine
62
7
6
CONTINUOUS
10
0.4462898495
20
-0.7084471399
11
0.6339338956
21
-0.6007679600
0
LINE
5
27B
100
AcDbEntity
8
0
100
AcDbLine
62
7
6
CONTINUOUS
10
0.4383028120
20
-0.3509714463
11
0.2843296720
21
-0.4328259712
0
LINE
5
27C
100
AcDbEntity
8
0
100
AcDbLine
62
7
6
CONTINUOUS
10
0.1931330694
20
-0.6477255215
11
0.3663956381
21
-0.5873149507
0
LINE
5
27D
100
AcDbEntity
8
0
100
AcDbLine
62
7
6
CONTINUOUS
10
0.2730272808
20
-0.7688577106
11
0.4462898495
21
-0.7084471399
0
LINE
5
27E
100
AcDbEntity
8
0
100
AcDbLine
62
7
6
CONTINUOUS
10
-1.4268404317
20
0.9001680196
11
-1.4170243287
21
0.7627424763
0
LINE
5
27F
100
AcDbEntity
8
0
100
AcDbLine
62
7
6
CONTINUOUS
10
-1.1957093972
20
0.8962463730
11
-1.1862359975
21
1.0122278633
0
LINE
5
280
100
AcDbEntity
8
0
100
AcDbLine
62
7
6
CONTINUOUS
10
-1.1158151859
20
0.7751141839
11
-1.1063417861
21
0.8910956742
0
LINE
5
281
100
AcDbEntity
8
0
100
AcDbLine
62
7
6
CONTINUOUS
10
-1.3693147056
20
1.0892428598
11
-1.4268404317
21
0.9001680196
0
LINE
5
282
100
AcDbEntity
8
0
100
AcDbLine
62
7
6
CONTINUOUS
10
0.4169571347
20
1.1909146872
11
0.4744828076
21
1.3799895644
0
LINE
5
283
100
AcDbEntity
8
0
100
AcDbLine
62
7
6
CONTINUOUS
10
0.4968513461
20
1.0697824980
11
0.5543770190
21
1.2588573752
0
LINE
5
284
100
AcDbEntity
8
0
100
AcDbLine
62
7
6
CONTINUOUS
10
1.1211944522
20
0.2815032341
11
1.0587605601
21
0.1611411295
0
LINE
5
285
100
AcDbEntity
8
0
100
AcDbLine
62
7
6
CONTINUOUS
10
1.2081684328
20
0.0583015323
11
1.3042731367
21
0.2044882195
0
LINE
5
286
100
AcDbEntity
8
0
100
AcDbLine
62
7
6
CONTINUOUS
10
1.2880626442
20
-0.0628306568
11
1.3841673480
21
0.0833560304
0
LINE
5
287
100
AcDbEntity
8
0
100
AcDbLine
62
7
6
CONTINUOUS
10
1.0587605601
20
0.1611411295
11
0.9433664511
21
0.0363984146
0
LINE
5
288
100
AcDbEntity
8
0
100
AcDbLine
62
7
6
CONTINUOUS
10
1.0591033233
20
-0.0922659099
11
1.2081684328
21
0.0583015323
0
LINE
5
289
100
AcDbEntity
8
0
100
AcDbLine
62
7
6
CONTINUOUS
10
1.1389975347
20
-0.2133980991
11
1.2880626442
21
-0.0628306568
0
LINE
5
28A
100
AcDbEntity
8
0
100
AcDbLine
62
7
6
CONTINUOUS
10
4.7553436177
20
-0.3242550539
11
5.1384933413
21
-0.0018884171
0
LINE
5
28B
100
AcDbEntity
8
0
100
AcDbLine
62
7
6
CONTINUOUS
10
5.5216430649
20
0.3204782196
11
5.9047927885
21
0.6428448564
0
LINE
5
28C
100
AcDbEntity
8
0
100
AcDbLine
62
7
6
CONTINUOUS
10
6.2879425121
20
0.9652114931
11
6.6710922357
21
1.2875781299
0
LINE
5
28D
100
AcDbEntity
8
0
100
AcDbLine
62
7
6
CONTINUOUS
10
7.0542419594
20
1.6099447666
11
7.4373916830
21
1.9323114034
0
LINE
5
28E
100
AcDbEntity
8
0
100
AcDbLine
62
7
6
CONTINUOUS
10
7.8205414066
20
2.2546780401
11
8.2036911302
21
2.5770446769
0
LINE
5
28F
100
AcDbEntity
8
0
100
AcDbLine
62
7
6
CONTINUOUS
10
8.5868408538
20
2.8994113136
11
10.5025894719
21
4.5112444973
0
LINE
5
290
100
AcDbEntity
8
0
100
AcDbLine
62
7
6
CONTINUOUS
10
7.8048671627
20
2.2316316836
11
7.4422483876
21
1.9265389542
0
LINE
5
291
100
AcDbEntity
8
0
100
AcDbLine
62
7
6
CONTINUOUS
10
7.0385677155
20
1.5868984101
11
6.6759489404
21
1.2818056807
0
LINE
5
292
100
AcDbEntity
8
0
100
AcDbLine
62
7
6
CONTINUOUS
10
6.2722682682
20
0.9421651366
11
5.9096494931
21
0.6370724072
0
LINE
5
293
100
AcDbEntity
8
0
100
AcDbLine
62
7
6
CONTINUOUS
10
5.5059688210
20
0.2974318631
11
5.1433500459
21
-0.0076608663
0
LINE
5
294
100
AcDbEntity
8
0
100
AcDbLine
62
7
6
CONTINUOUS
10
4.7396693738
20
-0.3473014104
11
4.3770505987
21
-0.6523941398
0
LINE
5
295
100
AcDbEntity
8
0
100
AcDbLine
62
7
6
CONTINUOUS
10
8.5723673615
20
2.8745444289
11
8.2099423740
21
2.5696147445
0
LINE
5
296
100
AcDbEntity
8
0
100
AcDbLine
62
7
6
CONTINUOUS
10
21.5368587876
20
14.5650355849
11
22.2117977604
21
15.0826951346
0
LINE
5
297
100
AcDbEntity
8
0
100
AcDbLine
62
7
6
CONTINUOUS
10
0.5939895002
20
-1.5361519094
11
2.0081677461
21
-0.4515162555
0
LINE
5
298
100
AcDbEntity
8
0
100
AcDbLine
62
7
6
CONTINUOUS
10
15.1700628508
20
9.6311816962
11
13.6391315567
21
8.4569996792
0
LINE
5
299
100
AcDbEntity
8
0
100
AcDbLine
62
7
6
CONTINUOUS
10
17.0183768876
20
10.9437201117
11
18.8382895806
21
12.3395428798
0
LINE
5
29A
100
AcDbEntity
8
0
100
AcDbLine
62
7
6
CONTINUOUS
10
0.6738837116
20
-1.6572840985
11
2.0880619575
21
-0.5726484447
0
LINE
5
29B
100
AcDbEntity
8
0
100
AcDbLine
62
7
6
CONTINUOUS
10
15.3697983792
20
9.3283512234
11
13.8818683205
21
8.1871499662
0
LINE
5
29C
100
AcDbEntity
8
0
100
AcDbLine
62
7
6
CONTINUOUS
10
2.3167993318
20
-0.7946210392
11
2.4851538625
21
-0.6654977643
0
LINE
5
29D
100
AcDbEntity
8
0
100
AcDbLine
62
7
6
CONTINUOUS
10
2.3966935432
20
-0.9157532283
11
2.5650480738
21
-0.7866299534
0
LINE
5
29E
100
AcDbEntity
8
0
100
AcDbLine
62
7
6
CONTINUOUS
10
14.0422686734
20
8.0088333876
11
17.3655875042
21
10.5577271381
0
LINE
5
29F
100
AcDbEntity
8
0
100
AcDbLine
62
7
6
CONTINUOUS
10
0.8189203034
20
-2.4809996664
11
3.1497182329
21
-0.6933420331
0
LINE
5
2A0
100
AcDbEntity
8
0
100
AcDbLine
62
9
6
CONTINUOUS
10
-0.6128438715
20
-3.8623675856
11
0.9696889051
21
-2.6486086568
0
LINE
5
2A1
100
AcDbEntity
8
0
100
AcDbLine
62
7
6
CONTINUOUS
10
11.3826670146
20
5.3166984493
11
12.6486932358
21
6.2877055924
0
LINE
5
2A2
100
AcDbEntity
8
0
100
AcDbLine
62
7
6
CONTINUOUS
10
10.5025894719
20
4.5112444973
11
11.4521091379
21
5.2394998546
0
LINE
5
2A3
100
AcDbEntity
8
0
100
AcDbLine
62
7
6
CONTINUOUS
10
12.7181353592
20
6.2105069976
11
19.6021529373
21
11.4903583378
0
LINE
5
2A4
100
AcDbEntity
8
0
100
AcDbLine
62
7
6
CONTINUOUS
10
20.8570811871
20
12.1634800728
11
21.9046524012
21
12.9669382592
0
LINE
5
2A5
100
AcDbEntity
8
0
100
AcDbLine
62
7
6
CONTINUOUS
10
1.2714382079
20
-3.0248156565
11
4.3721938940
21
-0.6466216906
0
LINE
5
2A6
100
AcDbEntity
8
0
100
AcDbLine
62
9
6
CONTINUOUS
10
-0.1816345986
20
-4.4225267075
11
1.4008981780
21
-3.2087677788
0
LINE
5
2A7
100
AcDbEntity
8
0
100
AcDbLine
62
7
6
CONTINUOUS
10
26.0733268817
20
12.4998575128
11
26.0764683143
21
12.5016617818
0
LINE
5
2A8
100
AcDbEntity
8
0
100
AcDbLine
62
7
6
CONTINUOUS
10
0.2843296720
20
-0.4328259712
11
0.1447380330
21
-0.4674118689
0
LINE
5
2A9
100
AcDbEntity
8
0
100
AcDbLine
62
7
6
CONTINUOUS
10
1.7860053556
20
-8.1448629021
11
3.3818666973
21
-9.9189770427
0
LINE
5
2AA
100
AcDbEntity
8
0
100
AcDbLine
62
7
6
CONTINUOUS
10
-4.3164237826
20
0.2548907997
11
-0.6128438715
21
-3.8623675856
0
LINE
5
2AB
100
AcDbEntity
8
0
100
AcDbLine
62
7
6
CONTINUOUS
10
-3.0442779956
20
-1.7675042301
11
-4.3481619986
21
0.2093889759
0
LINE
5
2AC
100
AcDbEntity
8
0
100
AcDbLine
62
7
6
CONTINUOUS
10
3.4136049133
20
-9.8734752189
11
-0.1816345986
21
-4.4225267075
0
LINE
5
2AD
100
AcDbEntity
8
0
100
AcDbLine
62
7
6
CONTINUOUS
10
0.4744828076
20
1.3799895644
11
0.4646667234
21
1.5174150702
0
LINE
5
2AE
100
AcDbEntity
8
0
100
AcDbLine
62
7
6
CONTINUOUS
10
0.5543770190
20
1.2588573752
11
0.5445609348
21
1.3962828811
0
LINE
5
2AF
100
AcDbEntity
8
0
100
AcDbLine
62
7
6
CONTINUOUS
10
1.3617988096
20
0.3935630967
11
1.3519827806
21
0.5309885412
0
LINE
5
2B0
100
AcDbEntity
8
0
100
AcDbLine
62
7
6
CONTINUOUS
10
1.4416930209
20
0.2724309075
11
1.4318769920
21
0.4098563521
0
LINE
5
2B1
100
AcDbEntity
8
0
100
AcDbLine
62
7
6
CONTINUOUS
10
0.2433518264
20
1.3839111740
11
0.2338784502
21
1.2679297018
0
LINE
5
2B2
100
AcDbEntity
8
0
100
AcDbLine
62
7
6
CONTINUOUS
10
1.1306678283
20
0.3974847063
11
1.1211944522
21
0.2815032341
0
LINE
5
2B3
100
AcDbEntity
8
0
100
AcDbLine
62
7
6
CONTINUOUS
10
1.3042731367
20
0.2044882195
11
1.3617988096
21
0.3935630967
0
LINE
5
2B4
100
AcDbEntity
8
0
100
AcDbLine
62
7
6
CONTINUOUS
10
1.3841673480
20
0.0833560304
11
1.4416930209
21
0.2724309075
0
LINE
5
2B5
100
AcDbEntity
8
0
100
AcDbLine
62
7
6
CONTINUOUS
10
23.1527066197
20
16.3078437472
11
23.1552636182
21
16.3104100175
0
LINE
5
2B6
100
AcDbEntity
8
0
100
AcDbLine
62
7
6
CONTINUOUS
10
21.5401220579
20
11.2619379963
11
22.5945872378
21
12.0706836641
0
LINE
5
2B7
100
AcDbEntity
8
0
100
AcDbLine
62
7
6
CONTINUOUS
10
17.6182135059
20
6.6397702159
11
14.3344579944
21
4.1212204387
0
LINE
5
2B8
100
AcDbEntity
8
0
100
AcDbLine
62
7
6
CONTINUOUS
10
23.9877086802
20
11.4037434650
11
24.6461350072
21
11.9087382715
0
LINE
5
2B9
100
AcDbEntity
8
0
100
AcDbLine
62
7
6
CONTINUOUS
10
26.0764683143
20
12.5016617818
11
28.0546342850
21
14.0188604427
0
LINE
5
2BA
100
AcDbEntity
8
0
100
AcDbLine
62
7
6
CONTINUOUS
10
18.0811609948
20
6.1251129177
11
14.7974054833
21
3.6065631405
0
LINE
5
2BB
100
AcDbEntity
8
0
100
AcDbLine
62
7
6
CONTINUOUS
10
-0.2694771417
20
1.6054248532
11
-0.1298853670
21
1.6400107771
0
LINE
5
2BC
100
AcDbEntity
8
0
100
AcDbLine
62
7
6
CONTINUOUS
10
-0.3493713531
20
1.7265570423
11
-0.2097795784
21
1.7611429663
0
LINE
5
2BD
100
AcDbEntity
8
0
100
AcDbLine
62
7
6
CONTINUOUS
10
0.0611856929
20
-0.7863800823
11
0.2730272808
21
-0.7688577106
0
LINE
5
2BE
100
AcDbEntity
8
0
100
AcDbLine
62
7
6
CONTINUOUS
10
-0.0187085185
20
-0.6652478932
11
0.1931330694
21
-0.6477255215
0
LINE
5
2BF
100
AcDbEntity
8
0
100
AcDbLine
62
7
6
CONTINUOUS
10
-0.8261303091
20
0.2000463854
11
-0.6142887212
21
0.2175687571
0
LINE
5
2C0
100
AcDbEntity
8
0
100
AcDbLine
62
7
6
CONTINUOUS
10
-0.9060245205
20
0.3211785745
11
-0.6941829325
21
0.3387009462
0
LINE
5
2C1
100
AcDbEntity
8
0
100
AcDbLine
62
7
6
CONTINUOUS
10
4.3721938940
20
-0.6466216906
11
3.1497182329
21
-0.6933420331
0
LINE
5
2C2
100
AcDbEntity
8
0
100
AcDbLine
62
7
6
CONTINUOUS
10
0.1447380330
20
-0.4674118689
11
0.0195277611
21
-0.4547290347
0
LINE
5
2C3
100
AcDbEntity
8
0
100
AcDbLine
62
7
6
CONTINUOUS
10
-0.7425779689
20
0.5190145988
11
-0.8677882409
21
0.5316974330
0
LINE
5
2C4
100
AcDbEntity
8
0
100
AcDbLine
62
7
6
CONTINUOUS
10
-0.0833139694
20
-0.7522532645
11
0.0611856929
21
-0.7863800823
0
LINE
5
2C5
100
AcDbEntity
8
0
100
AcDbLine
62
7
6
CONTINUOUS
10
-0.1632081808
20
-0.6311210754
11
-0.0187085185
21
-0.6652478932
0
LINE
5
2C6
100
AcDbEntity
8
0
100
AcDbLine
62
7
6
CONTINUOUS
10
-0.9706300266
20
0.2341732645
11
-0.8261303091
21
0.2000463854
0
LINE
5
2C7
100
AcDbEntity
8
0
100
AcDbLine
62
7
6
CONTINUOUS
10
-1.0505242380
20
0.3553054537
11
-0.9060245205
21
0.3211785745
0
LINE
5
2C8
100
AcDbEntity
8
0
100
AcDbLine
62
7
6
CONTINUOUS
10
0.0195277611
20
-0.4547290347
11
-0.0913010966
21
-0.3947774324
0
LINE
5
2C9
100
AcDbEntity
8
0
100
AcDbLine
62
7
6
CONTINUOUS
10
-0.8677882409
20
0.5316974330
11
-0.9786170986
21
0.5916490353
0
LINE
5
2CA
100
AcDbEntity
8
0
100
AcDbLine
62
7
6
CONTINUOUS
10
-0.2134323456
20
-0.6708575695
11
-0.0833139694
21
-0.7522532645
0
LINE
5
2CB
100
AcDbEntity
8
0
100
AcDbLine
62
7
6
CONTINUOUS
10
-0.2933265570
20
-0.5497253803
11
-0.1632081808
21
-0.6311210754
0
LINE
5
2CC
100
AcDbEntity
8
0
100
AcDbLine
62
7
6
CONTINUOUS
10
-1.1007483476
20
0.3155688982
11
-0.9706300266
21
0.2341732645
0
LINE
5
2CD
100
AcDbEntity
8
0
100
AcDbLine
62
7
6
CONTINUOUS
10
-1.1806425590
20
0.4367010873
11
-1.0505242380
21
0.3553054537
0
LINE
5
2CE
100
AcDbEntity
8
0
100
AcDbLine
62
7
6
CONTINUOUS
10
0.9696889051
20
-2.6486086568
11
-2.7338910060
21
1.4686497285
0
LINE
5
2CF
100
AcDbEntity
8
0
100
AcDbLine
62
7
6
CONTINUOUS
10
-1.2743536283
20
0.5085653543
11
-1.1007483476
21
0.3155688982
0
LINE
5
2D0
100
AcDbEntity
8
0
100
AcDbLine
62
7
6
CONTINUOUS
10
-0.6763797793
20
-0.1562003327
11
-0.2134323456
21
-0.6708575695
0
LINE
5
2D1
100
AcDbEntity
8
0
100
AcDbLine
62
7
6
CONTINUOUS
10
0.5581468393
20
-1.5286197740
11
0.6738837116
21
-1.6572840985
0
LINE
5
2D2
100
AcDbEntity
8
0
100
AcDbLine
62
7
6
CONTINUOUS
10
-1.3542478397
20
0.6296975435
11
-1.1806425590
21
0.4367010873
0
LINE
5
2D3
100
AcDbEntity
8
0
100
AcDbLine
62
7
6
CONTINUOUS
10
-0.7562739907
20
-0.0350681435
11
-0.2933265570
21
-0.5497253803
0
LINE
5
2D4
100
AcDbEntity
8
0
100
AcDbLine
62
7
6
CONTINUOUS
10
0.4782526280
20
-1.4074875849
11
0.5939895002
21
-1.5361519094
0
LINE
5
2D5
100
AcDbEntity
8
0
100
AcDbLine
62
7
6
CONTINUOUS
10
-0.0913010966
20
-0.3947774324
11
-0.4385117133
21
-0.0087844588
0
LINE
5
2D6
100
AcDbEntity
8
0
100
AcDbLine
62
7
6
CONTINUOUS
10
-0.9786170986
20
0.5916490353
11
-1.1522223794
21
0.7846454914
0
LINE
5
2D7
100
AcDbEntity
8
0
100
AcDbLine
62
7
6
CONTINUOUS
10
-0.5065389180
20
0.4463802056
11
-0.6222757902
21
0.5750445301
0
LINE
5
2D8
100
AcDbEntity
8
0
100
AcDbLine
62
7
6
CONTINUOUS
10
-1.2743536283
20
0.5085653543
11
-1.3542478397
21
0.6296975435
0
LINE
5
2D9
100
AcDbEntity
8
0
100
AcDbLine
62
7
6
CONTINUOUS
10
-1.1007483476
20
0.3155688982
11
-1.1806425590
21
0.4367010873
0
LINE
5
2DA
100
AcDbEntity
8
0
100
AcDbLine
62
7
6
CONTINUOUS
10
-0.9706300266
20
0.2341732645
11
-1.0505242380
21
0.3553054537
0
LINE
5
2DB
100
AcDbEntity
8
0
100
AcDbLine
62
7
6
CONTINUOUS
10
-0.6763797793
20
-0.1562003327
11
-0.7562739907
21
-0.0350681435
0
LINE
5
2DC
100
AcDbEntity
8
0
100
AcDbLine
62
7
6
CONTINUOUS
10
4.9961376899
20
-8.6597162901
11
1.4008981780
21
-3.2087677788
0
LINE
5
2DD
100
AcDbEntity
8
0
100
AcDbLine
62
7
6
CONTINUOUS
10
-0.8261303091
20
0.2000463854
11
-0.9060245205
21
0.3211785745
0
LINE
5
2DE
100
AcDbEntity
8
0
100
AcDbLine
62
7
6
CONTINUOUS
10
-0.2134323456
20
-0.6708575695
11
-0.2933265570
21
-0.5497253803
0
LINE
5
2DF
100
AcDbEntity
8
0
100
AcDbLine
62
7
6
CONTINUOUS
10
-1.1158151859
20
0.7751141839
11
-1.1957093972
21
0.8962463730
0
LINE
5
2E0
100
AcDbEntity
8
0
100
AcDbLine
62
7
6
CONTINUOUS
10
-0.0833139694
20
-0.7522532645
11
-0.1632081808
21
-0.6311210754
0
LINE
5
2E1
100
AcDbEntity
8
0
100
AcDbLine
62
7
6
CONTINUOUS
10
-1.1063417861
20
0.8910956742
11
-1.1862359975
21
1.0122278633
0
LINE
5
2E2
100
AcDbEntity
8
0
100
AcDbLine
62
7
6
CONTINUOUS
10
-0.6142887212
20
0.2175687571
11
-0.6941829325
21
0.3387009462
0
LINE
5
2E3
100
AcDbEntity
8
0
100
AcDbLine
62
7
6
CONTINUOUS
10
0.0611856929
20
-0.7863800823
11
-0.0187085185
21
-0.6652478932
0
LINE
5
2E4
100
AcDbEntity
8
0
100
AcDbLine
62
7
6
CONTINUOUS
10
0.5581468393
20
-1.5286197740
11
0.4782526280
21
-1.4074875849
0
LINE
5
2E5
100
AcDbEntity
8
0
100
AcDbLine
62
7
6
CONTINUOUS
10
0.6738837116
20
-1.6572840985
11
0.5939895002
21
-1.5361519094
0
LINE
5
2E6
100
AcDbEntity
8
0
100
AcDbLine
62
7
6
CONTINUOUS
10
-1.0439080298
20
1.0114577524
11
-1.1238022411
21
1.1325899416
0
LINE
5
2E7
100
AcDbEntity
8
0
100
AcDbLine
62
7
6
CONTINUOUS
10
0.2730272808
20
-0.7688577106
11
0.1931330694
21
-0.6477255215
0
LINE
5
2E8
100
AcDbEntity
8
0
100
AcDbLine
62
7
6
CONTINUOUS
10
-0.4266447067
20
0.3252480164
11
-0.5065389180
21
0.4463802056
0
LINE
5
2E9
100
AcDbEntity
8
0
100
AcDbLine
62
7
6
CONTINUOUS
10
-0.9285138794
20
1.1362004213
11
-1.0084080907
21
1.2573326105
0
LINE
5
2EA
100
AcDbEntity
8
0
100
AcDbLine
62
7
6
CONTINUOUS
10
0.4462898495
20
-0.7084471399
11
0.3663956381
21
-0.5873149507
0
LINE
5
2EB
100
AcDbEntity
8
0
100
AcDbLine
62
7
6
CONTINUOUS
10
0.6339338956
20
-0.6007679600
11
0.5540396843
21
-0.4796357708
0
LINE
5
2EC
100
AcDbEntity
8
0
100
AcDbLine
62
7
6
CONTINUOUS
10
-1.4170243287
20
0.7627424763
11
-1.3542478397
21
0.6296975435
0
LINE
5
2ED
100
AcDbEntity
8
0
100
AcDbLine
62
7
6
CONTINUOUS
10
-1.1522223794
20
0.7846454914
11
-1.1957093972
21
0.8962463730
0
LINE
5
2EE
100
AcDbEntity
8
0
100
AcDbLine
62
7
6
CONTINUOUS
10
-1.0945431388
20
0.7205236573
11
-1.1158151859
21
0.7751141839
0
LINE
5
2EF
100
AcDbEntity
8
0
100
AcDbLine
62
7
6
CONTINUOUS
10
0.1998647809
20
1.4955120862
11
0.2433518264
21
1.3839111740
0
LINE
5
2F0
100
AcDbEntity
8
0
100
AcDbLine
62
7
6
CONTINUOUS
10
13.5180084237
20
11.3869804160
11
14.8193763153
21
13.3883422780
0
LINE
5
2F1
100
AcDbEntity
8
0
100
AcDbLine
62
7
6
CONTINUOUS
10
13.8652190403
20
11.0009874424
11
15.1665869320
21
13.0023493043
0
LINE
5
2F2
100
AcDbEntity
8
0
100
AcDbLine
62
7
6
CONTINUOUS
10
7.5679623491
20
-5.4919092563
11
6.7449577448
21
-6.1442905444
0
LINE
5
2F3
100
AcDbEntity
8
0
100
AcDbLine
62
7
6
CONTINUOUS
10
23.1380062855
20
8.8392942135
11
24.1924714653
21
9.6480398813
0
LINE
5
2F4
100
AcDbEntity
8
0
100
AcDbLine
62
7
6
CONTINUOUS
10
23.1528346952
20
8.8168120123
11
24.1416903197
21
9.5752369632
0
LINE
5
2F5
100
AcDbEntity
8
0
100
AcDbLine
62
7
6
CONTINUOUS
10
15.4765062800
20
2.5769395328
11
18.7602617915
21
5.0954893100
0
LINE
5
2F6
100
AcDbEntity
8
0
100
AcDbLine
62
7
6
CONTINUOUS
10
-1.9892732374
20
-11.0403973066
11
1.9670587041
21
-8.0059999846
0
LINE
5
2F7
100
AcDbEntity
8
0
100
AcDbLine
62
7
6
CONTINUOUS
10
4.4726069485
20
-7.8659613522
11
7.5679623491
21
-5.4919092563
0
LINE
5
2F8
100
AcDbEntity
8
0
100
AcDbLine
62
7
6
CONTINUOUS
10
4.4818747046
20
-7.8800127280
11
6.7449577448
21
-6.1442905444
0
LINE
5
2F9
100
AcDbEntity
8
0
100
AcDbLine
62
7
6
CONTINUOUS
10
11.4532786634
20
-2.3498410752
11
11.8402454084
21
-2.0800726184
0
LINE
5
2FA
100
AcDbEntity
8
0
100
AcDbLine
62
7
6
CONTINUOUS
10
7.3733127682
20
-5.1967898798
11
7.7602795132
21
-4.9270214230
0
LINE
5
2FB
100
AcDbEntity
8
0
100
AcDbLine
62
7
6
CONTINUOUS
10
8.1895460976
20
-4.6277642245
11
8.5765128426
21
-4.3579957677
0
LINE
5
2FC
100
AcDbEntity
8
0
100
AcDbLine
62
7
6
CONTINUOUS
10
9.0057794269
20
-4.0587385692
11
9.3927461719
21
-3.7889701124
0
LINE
5
2FD
100
AcDbEntity
8
0
100
AcDbLine
62
7
6
CONTINUOUS
10
9.8220127563
20
-3.4897129139
11
10.2089795013
21
-3.2199444572
0
LINE
5
2FE
100
AcDbEntity
8
0
100
AcDbLine
62
7
6
CONTINUOUS
10
10.6382460856
20
-2.9206872587
11
11.0252128306
21
-2.6509188019
0
LINE
5
2FF
100
AcDbEntity
8
0
100
AcDbLine
62
7
6
CONTINUOUS
10
14.0978289839
20
-0.9397040140
11
12.0572456605
21
-2.3622681522
0
LINE
5
300
100
AcDbEntity
8
0
100
AcDbLine
62
7
6
CONTINUOUS
10
11.6491289958
20
-2.6467809799
11
11.2410123312
21
-2.9312938075
0
LINE
5
301
100
AcDbEntity
8
0
100
AcDbLine
62
7
6
CONTINUOUS
10
10.8328956665
20
-3.2158066351
11
10.4247790018
21
-3.5003194628
0
LINE
5
302
100
AcDbEntity
8
0
100
AcDbLine
62
7
6
CONTINUOUS
10
10.0166623371
20
-3.7848322904
11
9.6085456725
21
-4.0693451181
0
LINE
5
303
100
AcDbEntity
8
0
100
AcDbLine
62
7
6
CONTINUOUS
10
9.2004290078
20
-4.3538579457
11
8.7923123431
21
-4.6383707733
0
LINE
5
304
100
AcDbEntity
8
0
100
AcDbLine
62
7
6
CONTINUOUS
10
8.3841956785
20
-4.9228836010
11
7.9760790138
21
-5.2073964286
0
LINE
5
305
100
AcDbEntity
8
0
100
AcDbLine
62
7
6
CONTINUOUS
10
-1.9919569421
20
-11.0421662144
11
-1.9892732374
21
-11.0403973066
0
LINE
5
306
100
AcDbEntity
8
0
100
AcDbLine
62
7
6
CONTINUOUS
10
-25.8796636976
20
-25.7719040419
11
-8.1379387012
21
-14.4959147694
0
LINE
5
307
100
AcDbEntity
8
0
100
AcDbLine
62
7
6
CONTINUOUS
10
-8.1387350456
20
-14.4963910223
11
-1.9919569421
21
-11.0421662144
0
LINE
5
308
100
AcDbEntity
8
0
100
AcDbLine
62
7
6
CONTINUOUS
10
-0.0463331036
20
1.9589790095
11
-0.2581746383
21
1.9414566008
0
LINE
5
309
100
AcDbEntity
8
0
100
AcDbLine
62
7
6
CONTINUOUS
10
-0.1298853670
20
1.6400107771
11
-0.0046751186
21
1.6273279248
0
LINE
5
30A
100
AcDbEntity
8
0
100
AcDbLine
62
7
6
CONTINUOUS
10
-0.2097795784
20
1.7611429663
11
-0.0845693300
21
1.7484601140
0
LINE
5
30B
100
AcDbEntity
8
0
100
AcDbLine
62
7
6
CONTINUOUS
10
0.0981666326
20
1.9248520928
11
-0.0463331036
21
1.9589790095
0
LINE
5
30C
100
AcDbEntity
8
0
100
AcDbLine
62
7
6
CONTINUOUS
10
-0.0046751186
20
1.6273279248
11
0.1061537115
21
1.5673763532
0
LINE
5
30D
100
AcDbEntity
8
0
100
AcDbLine
62
7
6
CONTINUOUS
10
-0.0845693300
20
1.7484601140
11
0.0262595001
21
1.6885085424
0
LINE
5
30E
100
AcDbEntity
8
0
100
AcDbLine
62
7
6
CONTINUOUS
10
0.2282849369
20
1.8434564723
11
0.0981666326
21
1.9248520928
0
LINE
5
30F
100
AcDbEntity
8
0
100
AcDbLine
62
7
6
CONTINUOUS
10
0.2320493092
20
1.0478794417
11
0.3477861814
21
0.9192151172
0
LINE
5
310
100
AcDbEntity
8
0
100
AcDbLine
62
7
6
CONTINUOUS
10
0.1521550978
20
1.1690116308
11
0.2678919700
21
1.0403473063
0
LINE
5
311
100
AcDbEntity
8
0
100
AcDbLine
62
7
6
CONTINUOUS
10
0.1061537115
20
1.5673763532
11
0.2220797658
21
1.4385017156
0
LINE
5
312
100
AcDbEntity
8
0
100
AcDbLine
62
7
6
CONTINUOUS
10
0.8198643776
20
0.7739464030
11
1.1093957678
21
0.4520752479
0
LINE
5
313
100
AcDbEntity
8
0
100
AcDbLine
62
7
6
CONTINUOUS
10
0.0262595001
20
1.6885085424
11
0.1998647809
21
1.4955120862
0
LINE
5
314
100
AcDbEntity
8
0
100
AcDbLine
62
7
6
CONTINUOUS
10
0.7399701662
20
0.8950785922
11
1.0871807829
21
0.5090856185
0
LINE
5
315
100
AcDbEntity
8
0
100
AcDbLine
62
7
6
CONTINUOUS
10
1.6636933892
20
-0.1008792138
11
1.8763640103
21
-0.3373044884
0
LINE
5
316
100
AcDbEntity
8
0
100
AcDbLine
62
7
6
CONTINUOUS
10
2.0880619575
20
-0.5726484447
11
2.3966935432
21
-0.9157532283
0
LINE
5
317
100
AcDbEntity
8
0
100
AcDbLine
62
7
6
CONTINUOUS
10
1.5837991779
20
0.0202529754
11
1.8924308739
21
-0.3228519310
0
LINE
5
318
100
AcDbEntity
8
0
100
AcDbLine
62
7
6
CONTINUOUS
10
2.0081677461
20
-0.4515162555
11
2.3167993318
21
-0.7946210392
0
LINE
5
319
100
AcDbEntity
8
0
100
AcDbLine
62
7
6
CONTINUOUS
10
2.4851538625
20
-0.6654977643
11
1.7521537085
21
0.1493762503
0
LINE
5
31A
100
AcDbEntity
8
0
100
AcDbLine
62
7
6
CONTINUOUS
10
1.2892062196
20
0.6640335484
11
0.8262587859
21
1.1786907852
0
LINE
5
31B
100
AcDbEntity
8
0
100
AcDbLine
62
7
6
CONTINUOUS
10
0.4018902176
20
1.6504600161
11
0.2282849369
21
1.8434564723
0
LINE
5
31C
100
AcDbEntity
8
0
100
AcDbLine
62
7
6
CONTINUOUS
10
3.1497182329
20
-0.6933420331
11
0.2331490528
21
2.5489989453
0
LINE
5
31D
100
AcDbEntity
8
0
100
AcDbLine
62
7
6
CONTINUOUS
10
7.9760790138
20
-5.2073964286
11
7.7401567462
21
-4.9451223700
0
LINE
5
31E
100
AcDbEntity
8
0
100
AcDbLine
62
7
6
CONTINUOUS
10
4.3721938940
20
-0.6466216906
11
0.9926772251
21
3.1103765860
0
LINE
5
31F
100
AcDbEntity
8
0
100
AcDbLine
62
7
6
CONTINUOUS
10
-0.4234502403
20
1.5235702822
11
-0.5033444517
21
1.6447024713
0
LINE
5
320
100
AcDbEntity
8
0
100
AcDbLine
62
7
6
CONTINUOUS
10
-0.2694771417
20
1.6054248532
11
-0.3493713531
21
1.7265570423
0
LINE
5
321
100
AcDbEntity
8
0
100
AcDbLine
62
7
6
CONTINUOUS
10
0.2320493092
20
1.0478794417
11
0.1521550978
21
1.1690116308
0
LINE
5
322
100
AcDbEntity
8
0
100
AcDbLine
62
7
6
CONTINUOUS
10
-0.1298853670
20
1.6400107771
11
-0.2097795784
21
1.7611429663
0
LINE
5
323
100
AcDbEntity
8
0
100
AcDbLine
62
7
6
CONTINUOUS
10
0.3477861814
20
0.9192151172
11
0.2678919700
21
1.0403473063
0
LINE
5
324
100
AcDbEntity
8
0
100
AcDbLine
62
7
6
CONTINUOUS
10
1.1389975347
20
-0.2133980991
11
1.0591033233
21
-0.0922659099
0
LINE
5
325
100
AcDbEntity
8
0
100
AcDbLine
62
7
6
CONTINUOUS
10
-0.0046751186
20
1.6273279248
11
-0.0845693300
21
1.7484601140
0
LINE
5
326
100
AcDbEntity
8
0
100
AcDbLine
62
7
6
CONTINUOUS
10
0.1061537115
20
1.5673763532
11
0.0262595001
21
1.6885085424
0
LINE
5
327
100
AcDbEntity
8
0
100
AcDbLine
62
7
6
CONTINUOUS
10
0.4968513461
20
1.0697824980
11
0.4169571347
21
1.1909146872
0
LINE
5
328
100
AcDbEntity
8
0
100
AcDbLine
62
7
6
CONTINUOUS
10
1.2880626442
20
-0.0628306568
11
1.2081684328
21
0.0583015323
0
LINE
5
329
100
AcDbEntity
8
0
100
AcDbLine
62
7
6
CONTINUOUS
10
0.8198643776
20
0.7739464030
11
0.7399701662
21
0.8950785922
0
LINE
5
32A
100
AcDbEntity
8
0
100
AcDbLine
62
7
6
CONTINUOUS
10
0.5543770190
20
1.2588573752
11
0.4744828076
21
1.3799895644
0
LINE
5
32B
100
AcDbEntity
8
0
100
AcDbLine
62
7
6
CONTINUOUS
10
1.3841673480
20
0.0833560304
11
1.3042731367
21
0.2044882195
0
LINE
5
32C
100
AcDbEntity
8
0
100
AcDbLine
62
7
6
CONTINUOUS
10
0.5445609348
20
1.3962828811
11
0.4646667234
21
1.5174150702
0
LINE
5
32D
100
AcDbEntity
8
0
100
AcDbLine
62
7
6
CONTINUOUS
10
0.4817844290
20
1.5293278270
11
0.4018902176
21
1.6504600161
0
LINE
5
32E
100
AcDbEntity
8
0
100
AcDbLine
62
7
6
CONTINUOUS
10
1.6636933892
20
-0.1008792138
11
1.5837991779
21
0.0202529754
0
LINE
5
32F
100
AcDbEntity
8
0
100
AcDbLine
62
7
6
CONTINUOUS
10
1.4416930209
20
0.2724309075
11
1.3617988096
21
0.3935630967
0
LINE
5
330
100
AcDbEntity
8
0
100
AcDbLine
62
7
6
CONTINUOUS
10
1.4318769920
20
0.4098563521
11
1.3519827806
21
0.5309885412
0
LINE
5
331
100
AcDbEntity
8
0
100
AcDbLine
62
7
6
CONTINUOUS
10
2.0880619575
20
-0.5726484447
11
2.0081677461
21
-0.4515162555
0
LINE
5
332
100
AcDbEntity
8
0
100
AcDbLine
62
7
6
CONTINUOUS
10
1.3691004310
20
0.5429013593
11
1.2892062196
21
0.6640335484
0
LINE
5
333
100
AcDbEntity
8
0
100
AcDbLine
62
7
6
CONTINUOUS
10
2.3966935432
20
-0.9157532283
11
2.3167993318
21
-0.7946210392
0
LINE
5
334
100
AcDbEntity
8
0
100
AcDbLine
62
7
6
CONTINUOUS
10
2.5650480738
20
-0.7866299534
11
2.4851538625
21
-0.6654977643
0
LINE
5
335
100
AcDbEntity
8
0
100
AcDbLine
62
7
6
CONTINUOUS
10
0.4646667234
20
1.5174150702
11
0.4018902176
21
1.6504600161
0
LINE
5
336
100
AcDbEntity
8
0
100
AcDbLine
62
7
6
CONTINUOUS
10
0.5445609348
20
1.3962828811
11
0.4817844290
21
1.5293278270
0
LINE
5
337
100
AcDbEntity
8
0
100
AcDbLine
62
7
6
CONTINUOUS
10
1.3519827806
20
0.5309885412
11
1.2892062196
21
0.6640335484
0
LINE
5
338
100
AcDbEntity
8
0
100
AcDbLine
62
7
6
CONTINUOUS
10
1.4318769920
20
0.4098563521
11
1.3691004310
21
0.5429013593
0
LINE
5
339
100
AcDbEntity
8
0
100
AcDbLine
62
7
6
CONTINUOUS
10
1.0871807829
20
0.5090856185
11
1.1306678283
21
0.3974847063
0
LINE
5
33A
100
AcDbEntity
8
0
100
AcDbLine
62
7
6
CONTINUOUS
10
16.1722512682
20
9.6424712060
11
17.0183768876
21
10.9437201117
0
LINE
5
33B
100
AcDbEntity
8
0
100
AcDbLine
62
7
6
CONTINUOUS
10
22.2096669283
20
15.0805565760
11
23.1527066197
21
16.3078437472
0
LINE
5
33C
100
AcDbEntity
8
0
100
AcDbLine
62
7
6
CONTINUOUS
10
14.9902083181
20
-0.1248149276
11
16.2439327478
21
0.8367570810
0
LINE
5
33D
100
AcDbEntity
8
0
100
AcDbLine
62
7
6
CONTINUOUS
10
23.1973924493
20
6.0394098265
11
16.3133748711
21
0.7595584863
0
LINE
5
33E
100
AcDbEntity
8
0
100
AcDbLine
62
7
6
CONTINUOUS
10
15.0473486498
20
-0.2114486567
11
14.0978289839
21
-0.9397040140
0
LINE
5
33F
100
AcDbEntity
8
0
100
AcDbLine
62
9
6
CONTINUOUS
10
4.9961376899
20
-8.6597162901
11
3.4136049133
21
-9.8734752189
0
LINE
5
340
100
AcDbEntity
8
0
100
AcDbLine
62
7
6
CONTINUOUS
10
5.0689561013
20
-8.7991322489
11
3.4864233247
21
-10.0128911777
0
LINE
5
341
100
AcDbEntity
8
0
100
AcDbLine
62
7
6
CONTINUOUS
10
1.5916264493
20
3.1523682171
11
4.7396693738
21
-0.3473014104
0
LINE
5
342
100
AcDbEntity
8
0
100
AcDbLine
62
7
6
CONTINUOUS
10
1.3758269488
20
3.4327432227
11
4.7553436177
21
-0.3242550539
0
LINE
5
343
100
AcDbEntity
8
0
100
AcDbLine
62
7
6
CONTINUOUS
10
8.7923123431
20
-4.6383707733
11
8.5563900755
21
-4.3760967147
0
LINE
5
344
100
AcDbEntity
8
0
100
AcDbLine
62
7
6
CONTINUOUS
10
5.1384933413
20
-0.0018884171
11
1.7589766724
21
3.7551098594
0
LINE
5
345
100
AcDbEntity
8
0
100
AcDbLine
62
7
6
CONTINUOUS
10
2.3579258966
20
3.7971014906
11
5.5059688210
21
0.2974318631
0
LINE
5
346
100
AcDbEntity
8
0
100
AcDbLine
62
7
6
CONTINUOUS
10
2.1421263960
20
4.0774764962
11
5.5216430649
21
0.3204782196
0
LINE
5
347
100
AcDbEntity
8
0
100
AcDbLine
62
7
6
CONTINUOUS
10
9.6085456725
20
-4.0693451181
11
9.3726234049
21
-3.8070710595
0
LINE
5
348
100
AcDbEntity
8
0
100
AcDbLine
62
7
6
CONTINUOUS
10
5.9047927885
20
0.6428448564
11
2.5252761196
21
4.3998431329
0
LINE
5
349
100
AcDbEntity
8
0
100
AcDbLine
62
7
6
CONTINUOUS
10
3.1242253438
20
4.4418347641
11
6.2722682682
21
0.9421651366
0
LINE
5
34A
100
AcDbEntity
8
0
100
AcDbLine
62
7
6
CONTINUOUS
10
2.9084258432
20
4.7222097697
11
6.2879425121
21
0.9652114931
0
LINE
5
34B
100
AcDbEntity
8
0
100
AcDbLine
62
7
6
CONTINUOUS
10
10.4247790018
20
-3.5003194628
11
10.1888567342
21
-3.2380454042
0
LINE
5
34C
100
AcDbEntity
8
0
100
AcDbLine
62
7
6
CONTINUOUS
10
1.5701112787
20
3.1381776241
11
1.3758269488
21
3.4327432227
0
LINE
5
34D
100
AcDbEntity
8
0
100
AcDbLine
62
7
6
CONTINUOUS
10
7.5679623491
20
-5.4919092563
11
4.3721938940
21
-0.6466216906
0
LINE
5
34E
100
AcDbEntity
8
0
100
AcDbLine
62
7
6
CONTINUOUS
10
4.7396693738
20
-0.3473014104
11
7.7602795132
21
-4.9270214230
0
LINE
5
34F
100
AcDbEntity
8
0
100
AcDbLine
62
7
6
CONTINUOUS
10
7.9760790138
20
-5.2073964286
11
4.7553436177
21
-0.3242550539
0
LINE
5
350
100
AcDbEntity
8
0
100
AcDbLine
62
7
6
CONTINUOUS
10
2.3364107259
20
3.7829108976
11
2.1421263960
21
4.0774764962
0
LINE
5
351
100
AcDbEntity
8
0
100
AcDbLine
62
7
6
CONTINUOUS
10
8.3841956785
20
-4.9228836010
11
5.1384933413
21
-0.0018884171
0
LINE
5
352
100
AcDbEntity
8
0
100
AcDbLine
62
7
6
CONTINUOUS
10
5.5059688210
20
0.2974318631
11
8.5765128426
21
-4.3579957677
0
LINE
5
353
100
AcDbEntity
8
0
100
AcDbLine
62
7
6
CONTINUOUS
10
8.7923123431
20
-4.6383707733
11
5.5216430649
21
0.3204782196
0
LINE
5
354
100
AcDbEntity
8
0
100
AcDbLine
62
7
6
CONTINUOUS
10
3.1027101731
20
4.4276441711
11
2.9084258432
21
4.7222097697
0
LINE
5
355
100
AcDbEntity
8
0
100
AcDbLine
62
7
6
CONTINUOUS
10
9.2004290078
20
-4.3538579457
11
5.9047927885
21
0.6428448564
0
LINE
5
356
100
AcDbEntity
8
0
100
AcDbLine
62
7
6
CONTINUOUS
10
19.6021529373
20
11.4903583378
11
21.1885235766
21
11.7950165887
0
LINE
5
357
100
AcDbEntity
8
0
100
AcDbLine
62
7
6
CONTINUOUS
10
18.8382895806
20
12.3395428798
11
20.4246602200
21
12.6442011307
0
LINE
5
358
100
AcDbEntity
8
0
100
AcDbLine
62
7
6
CONTINUOUS
10
6.6710922357
20
1.2875781299
11
3.2915755668
21
5.0445764064
0
LINE
5
359
100
AcDbEntity
8
0
100
AcDbLine
62
7
6
CONTINUOUS
10
3.8905247910
20
5.0865680376
11
7.0385677155
21
1.5868984101
0
LINE
5
35A
100
AcDbEntity
8
0
100
AcDbLine
62
7
6
CONTINUOUS
10
3.6747252905
20
5.3669430432
11
7.0542419594
21
1.6099447666
0
LINE
5
35B
100
AcDbEntity
8
0
100
AcDbLine
62
7
6
CONTINUOUS
10
11.2410123312
20
-2.9312938075
11
11.0050900635
21
-2.6690197489
0
LINE
5
35C
100
AcDbEntity
8
0
100
AcDbLine
62
7
6
CONTINUOUS
10
7.4373916830
20
1.9323114034
11
4.0578750141
21
5.6893096799
0
LINE
5
35D
100
AcDbEntity
8
0
100
AcDbLine
62
7
6
CONTINUOUS
10
4.6568242383
20
5.7313013111
11
7.8048671627
21
2.2316316836
0
LINE
5
35E
100
AcDbEntity
8
0
100
AcDbLine
62
7
6
CONTINUOUS
10
4.4410247377
20
6.0116763167
11
7.8205414066
21
2.2546780401
0
LINE
5
35F
100
AcDbEntity
8
0
100
AcDbLine
62
7
6
CONTINUOUS
10
12.0572456605
20
-2.3622681522
11
11.8198811682
21
-2.0983907768
0
LINE
5
360
100
AcDbEntity
8
0
100
AcDbLine
62
7
6
CONTINUOUS
10
8.2036911302
20
2.5770446769
11
4.8241744613
21
6.3340429534
0
LINE
5
361
100
AcDbEntity
8
0
100
AcDbLine
62
7
6
CONTINUOUS
10
6.2722682682
20
0.9421651366
11
9.3927461719
21
-3.7889701124
0
LINE
5
362
100
AcDbEntity
8
0
100
AcDbLine
62
7
6
CONTINUOUS
10
9.6085456725
20
-4.0693451181
11
6.2879425121
21
0.9652114931
0
LINE
5
363
100
AcDbEntity
8
0
100
AcDbLine
62
7
6
CONTINUOUS
10
3.8690096204
20
5.0723774446
11
3.6747252905
21
5.3669430432
0
LINE
5
364
100
AcDbEntity
8
0
100
AcDbLine
62
7
6
CONTINUOUS
10
10.0166623371
20
-3.7848322904
11
6.6710922357
21
1.2875781299
0
LINE
5
365
100
AcDbEntity
8
0
100
AcDbLine
62
7
6
CONTINUOUS
10
7.0385677155
20
1.5868984101
11
10.2089795013
21
-3.2199444572
0
LINE
5
366
100
AcDbEntity
8
0
100
AcDbLine
62
7
6
CONTINUOUS
10
10.4247790018
20
-3.5003194628
11
7.0542419594
21
1.6099447666
0
LINE
5
367
100
AcDbEntity
8
0
100
AcDbLine
62
7
6
CONTINUOUS
10
4.6353090676
20
5.7171107181
11
4.4410247377
21
6.0116763167
0
LINE
5
368
100
AcDbEntity
8
0
100
AcDbLine
62
7
6
CONTINUOUS
10
10.8328956665
20
-3.2158066351
11
7.4373916830
21
1.9323114034
0
LINE
5
369
100
AcDbEntity
8
0
100
AcDbLine
62
7
6
CONTINUOUS
10
7.8048671627
20
2.2316316836
11
11.0252128306
21
-2.6509188019
0
LINE
5
36A
100
AcDbEntity
8
0
100
AcDbLine
62
7
6
CONTINUOUS
10
11.2410123312
20
-2.9312938075
11
7.8205414066
21
2.2546780401
0
LINE
5
36B
100
AcDbEntity
8
0
100
AcDbLine
62
7
6
CONTINUOUS
10
5.4028092664
20
6.3600234634
11
5.2073241849
21
6.6564095902
0
LINE
5
36C
100
AcDbEntity
8
0
100
AcDbLine
62
7
6
CONTINUOUS
10
24.1416903197
20
9.5752369632
11
24.1924714653
21
9.6480398813
0
LINE
5
36D
100
AcDbEntity
8
0
100
AcDbLine
62
7
6
CONTINUOUS
10
16.9864996251
20
14.3981720724
11
18.5728702644
21
14.7028303233
0
LINE
5
36E
100
AcDbEntity
8
0
100
AcDbLine
62
7
6
CONTINUOUS
10
16.2226362684
20
15.2473566144
11
17.8090069077
21
15.5520148653
0
LINE
5
36F
100
AcDbEntity
8
0
100
AcDbLine
62
7
6
CONTINUOUS
10
5.4243244370
20
6.3742140564
11
8.5723673615
21
2.8745444289
0
LINE
5
370
100
AcDbEntity
8
0
100
AcDbLine
62
7
6
CONTINUOUS
10
5.2073241849
20
6.6564095902
11
8.5868408538
21
2.8994113136
0
LINE
5
371
100
AcDbEntity
8
0
100
AcDbLine
62
7
6
CONTINUOUS
10
11.6491289958
20
-2.6467809799
11
8.2036911302
21
2.5770446769
0
LINE
5
372
100
AcDbEntity
8
0
100
AcDbLine
62
7
6
CONTINUOUS
10
8.5723673615
20
2.8745444289
11
11.8402454084
21
-2.0800726184
0
LINE
5
373
100
AcDbEntity
8
0
100
AcDbLine
62
7
6
CONTINUOUS
10
12.0572456605
20
-2.3622681522
11
8.5868408538
21
2.8994113136
0
LINE
5
374
100
AcDbEntity
8
0
100
AcDbLine
62
7
6
CONTINUOUS
10
10.5025894719
20
4.5112444973
11
7.1230728030
21
8.2682427739
0
LINE
5
375
100
AcDbEntity
8
0
100
AcDbLine
62
7
6
CONTINUOUS
10
8.0725924690
20
8.9964981312
11
8.1420345923
21
8.9192995365
0
LINE
5
376
100
AcDbEntity
8
0
100
AcDbLine
62
7
6
CONTINUOUS
10
11.4521091379
20
5.2394998546
11
11.3826670146
21
5.3166984493
0
LINE
5
377
100
AcDbEntity
8
0
100
AcDbLine
62
7
6
CONTINUOUS
10
16.3133748711
20
0.7595584863
11
16.2439327478
21
0.8367570810
0
LINE
5
378
100
AcDbEntity
8
0
100
AcDbLine
62
7
6
CONTINUOUS
10
15.0473486498
20
-0.2114486567
11
11.4521091379
21
5.2394998546
0
LINE
5
379
100
AcDbEntity
8
0
100
AcDbLine
62
7
6
CONTINUOUS
10
23.9848209748
20
7.5553899688
11
23.1973924493
21
6.0394098265
0
LINE
5
37A
100
AcDbEntity
8
0
100
AcDbLine
62
7
6
CONTINUOUS
10
22.5945872378
20
12.0706836641
11
23.6795502576
21
11.8709600967
0
LINE
5
37B
100
AcDbEntity
8
0
100
AcDbLine
62
7
6
CONTINUOUS
10
15.0135587911
20
3.0915968310
11
15.4765062800
21
2.5769395328
0
LINE
5
37C
100
AcDbEntity
8
0
100
AcDbLine
62
7
6
CONTINUOUS
10
11.3696814693
20
7.2636206739
11
10.2123127471
21
8.5502639193
0
LINE
5
37D
100
AcDbEntity
8
0
100
AcDbLine
62
7
6
CONTINUOUS
10
14.3344579944
20
4.1212204387
11
14.7974054833
21
3.6065631405
0
LINE
5
37E
100
AcDbEntity
8
0
100
AcDbLine
62
7
6
CONTINUOUS
10
9.3386186903
20
9.9675052742
11
9.4080608136
21
9.8903066795
0
LINE
5
37F
100
AcDbEntity
8
0
100
AcDbLine
62
7
6
CONTINUOUS
10
12.7181353592
20
6.2105069976
11
12.6486932358
21
6.2877055924
0
LINE
5
380
100
AcDbEntity
8
0
100
AcDbLine
62
7
6
CONTINUOUS
10
9.3951517112
20
9.8817923237
11
9.3386186903
21
9.9675052742
0
LINE
5
381
100
AcDbEntity
8
0
100
AcDbLine
62
7
6
CONTINUOUS
10
16.2439327478
20
0.8367570810
11
12.6486932358
21
6.2877055924
0
LINE
5
382
100
AcDbEntity
8
0
100
AcDbLine
62
7
6
CONTINUOUS
10
16.3133748711
20
0.7595584863
11
12.7181353592
21
6.2105069976
0
LINE
5
383
100
AcDbEntity
8
0
100
AcDbLine
62
7
6
CONTINUOUS
10
14.3344579944
20
4.1212204387
11
15.0135587911
21
3.0915968310
0
LINE
5
384
100
AcDbEntity
8
0
100
AcDbLine
62
7
6
CONTINUOUS
10
14.7974054833
20
3.6065631405
11
15.4765062800
21
2.5769395328
0
LINE
5
385
100
AcDbEntity
8
0
100
AcDbLine
62
7
6
CONTINUOUS
10
12.6298968804
20
9.4012355400
11
12.1904787178
21
10.0674625803
0
LINE
5
386
100
AcDbEntity
8
0
100
AcDbLine
62
7
6
CONTINUOUS
10
19.8676834501
20
15.2314303711
11
21.0244618547
21
15.1346656778
0
LINE
5
387
100
AcDbEntity
8
0
100
AcDbLine
62
7
6
CONTINUOUS
10
13.2532447222
20
8.7082616633
11
12.6298968804
21
9.4012355400
0
LINE
5
388
100
AcDbEntity
8
0
100
AcDbLine
62
7
6
CONTINUOUS
10
13.2996468491
20
8.7374616625
11
12.4301613520
21
9.7040660129
0
LINE
5
389
100
AcDbEntity
8
0
100
AcDbLine
62
7
6
CONTINUOUS
10
14.0422686734
20
8.0088333876
11
13.3478474401
21
8.7808193349
0
LINE
5
38A
100
AcDbEntity
8
0
100
AcDbLine
62
7
6
CONTINUOUS
10
12.1904787178
20
10.0674625803
11
11.4960574845
21
10.8394485275
0
LINE
5
38B
100
AcDbEntity
8
0
100
AcDbLine
62
9
6
CONTINUOUS
10
17.6182135059
20
6.6397702159
11
18.0811609948
21
6.1251129177
0
LINE
5
38C
100
AcDbEntity
8
0
100
AcDbLine
62
7
6
CONTINUOUS
10
13.5180084237
20
11.3869804160
11
13.9725269694
21
10.8816935480
0
LINE
5
38D
100
AcDbEntity
8
0
100
AcDbLine
62
7
6
CONTINUOUS
10
15.3697983792
20
9.3283512234
11
15.5301987322
21
9.1500346448
0
LINE
5
38E
100
AcDbEntity
8
0
100
AcDbLine
62
7
6
CONTINUOUS
10
14.0126941286
20
10.9178249416
11
15.1700628508
21
9.6311816962
0
LINE
5
38F
100
AcDbEntity
8
0
100
AcDbLine
62
7
6
CONTINUOUS
10
15.3697983792
20
9.3283512234
11
15.1700628508
21
9.6311816962
0
LINE
5
390
100
AcDbEntity
8
0
100
AcDbLine
62
7
6
CONTINUOUS
10
21.9046524012
20
12.9669382592
11
22.0139002178
21
14.0347100955
0
LINE
5
391
100
AcDbEntity
8
0
100
AcDbLine
62
7
6
CONTINUOUS
10
24.1924714653
20
9.6480398813
11
24.3735346668
21
10.8187705917
0
LINE
5
392
100
AcDbEntity
8
0
100
AcDbLine
62
7
6
CONTINUOUS
10
18.5897129318
20
6.6934128311
11
19.0526604207
21
6.1787555329
0
LINE
5
393
100
AcDbEntity
8
0
100
AcDbLine
62
7
6
CONTINUOUS
10
15.6090753848
20
11.6088417217
11
16.6780996118
21
10.4204107796
0
LINE
5
394
100
AcDbEntity
8
0
100
AcDbLine
62
7
6
CONTINUOUS
10
17.3655875042
20
10.5577271381
11
17.0183768876
21
10.9437201117
0
LINE
5
395
100
AcDbEntity
8
0
100
AcDbLine
62
7
6
CONTINUOUS
10
15.1665869320
20
13.0023493043
11
14.8193763153
21
13.3883422780
0
LINE
5
396
100
AcDbEntity
8
0
100
AcDbLine
62
7
6
CONTINUOUS
10
16.4794684119
20
12.2764091326
11
17.4088586649
21
11.2432088495
0
LINE
5
397
100
AcDbEntity
8
0
100
AcDbLine
62
7
6
CONTINUOUS
10
16.2597593306
20
12.6095226527
11
17.4561600238
21
11.2794876853
0
LINE
5
398
100
AcDbEntity
8
0
100
AcDbLine
62
7
6
CONTINUOUS
10
16.4794684119
20
12.2764091326
11
16.2597593306
21
12.6095226527
0
LINE
5
399
100
AcDbEntity
8
0
100
AcDbLine
62
7
6
CONTINUOUS
10
17.1301523577
20
13.2770900635
11
18.3265530510
21
11.9470550961
0
LINE
5
39A
100
AcDbEntity
8
0
100
AcDbLine
62
7
6
CONTINUOUS
10
18.3480536687
20
11.9635454760
11
17.0302845935
21
13.4285053000
0
LINE
5
39B
100
AcDbEntity
8
0
100
AcDbLine
62
7
6
CONTINUOUS
10
19.6021529373
20
11.4903583378
11
18.8382895806
21
12.3395428798
0
LINE
5
39C
100
AcDbEntity
8
0
100
AcDbLine
62
7
6
CONTINUOUS
10
16.9864996251
20
14.3981720724
11
16.2226362684
21
15.2473566144
0
LINE
5
39D
100
AcDbEntity
8
0
100
AcDbLine
62
7
6
CONTINUOUS
10
17.1301523577
20
13.2770900635
11
17.0302845935
21
13.4285053000
0
LINE
5
39E
100
AcDbEntity
8
0
100
AcDbLine
62
7
6
CONTINUOUS
10
18.6128173701
20
14.6422642287
11
20.4122674366
21
12.6418211297
0
LINE
5
39F
100
AcDbEntity
8
0
100
AcDbLine
62
7
6
CONTINUOUS
10
21.1885235766
20
11.7950165887
11
20.4246602200
21
12.6442011307
0
LINE
5
3A0
100
AcDbEntity
8
0
100
AcDbLine
62
7
6
CONTINUOUS
10
18.5728702644
20
14.7028303233
11
17.8090069077
21
15.5520148653
0
LINE
5
3A1
100
AcDbEntity
8
0
100
AcDbLine
62
7
6
CONTINUOUS
10
21.0244618547
20
15.1346656778
11
22.0139002178
21
14.0347100955
0
LINE
5
3A2
100
AcDbEntity
8
0
100
AcDbLine
62
7
6
CONTINUOUS
10
22.5945872378
20
12.0706836641
11
21.9046524012
21
12.9669382592
0
LINE
5
3A3
100
AcDbEntity
8
0
100
AcDbLine
62
7
6
CONTINUOUS
10
18.6128173701
20
14.6422642287
11
18.5728702644
21
14.7028303233
0
LINE
5
3A4
100
AcDbEntity
8
0
100
AcDbLine
62
7
6
CONTINUOUS
10
23.9848209748
20
7.5553899688
11
21.1885235766
21
11.7950165887
0
LINE
5
3A5
100
AcDbEntity
8
0
100
AcDbLine
62
7
6
CONTINUOUS
10
23.6795502576
20
11.8709600967
11
22.0139002178
21
14.0347100955
0
LINE
5
3A6
100
AcDbEntity
8
0
100
AcDbLine
62
7
6
CONTINUOUS
10
23.6795502576
20
11.8709600967
11
24.3735346668
21
10.8187705917
0
SPLINE
5
3A7
100
AcDbEntity
8
0
100
AcDbSpline
62
7
6
CONTINUOUS
70
0
71
3
72
8
73
4
74
2
42
0.0000001000
43
0.0000001000
44
0.0000000001
12
-0.0342237663
22
0.0435921841
32
0.0000000000
13
-0.0341490464
23
0.0436507076
33
0.0000000000
40
0.0000000000
40
0.0000000000
40
0.0000000000
40
0.0000000000
40
1.0000000000
40
1.0000000000
40
1.0000000000
40
1.0000000000
10
-28.6162993255
20
-13.8449687160
30
0.0000000000
10
-28.6277072476
20
-13.8304379880
30
0.0000000000
10
-28.6391026864
20
-13.8158974680
30
0.0000000000
10
-28.6504857019
20
-13.8013472321
30
0.0000000000
11
-28.6162993255
21
-13.8449687160
31
0.0000000000
11
-28.6504857019
21
-13.8013472321
31
0.0000000000
0
SPLINE
5
3A8
100
AcDbEntity
8
0
100
AcDbSpline
62
7
6
CONTINUOUS
70
0
71
3
72
8
73
4
74
2
42
0.0000001000
43
0.0000001000
44
0.0000000001
12
-0.1045450242
22
0.1336337253
32
0.0000000000
13
-0.1038515530
23
0.1341735481
33
0.0000000000
40
0.0000000000
40
0.0000000000
40
0.0000000000
40
0.0000000000
40
1.0000000000
40
1.0000000000
40
1.0000000000
40
1.0000000000
10
-28.6504857019
20
-13.8013472321
30
0.0000000000
10
-28.6853340433
20
-13.7568026570
30
0.0000000000
10
-28.7200659479
20
-13.7121670209
30
0.0000000000
10
-28.7546831322
20
-13.6674425048
30
0.0000000000
11
-28.6504857019
21
-13.8013472321
31
0.0000000000
11
-28.7546831322
21
-13.6674425048
31
0.0000000000
0
SPLINE
5
3A9
100
AcDbEntity
8
0
100
AcDbSpline
62
7
6
CONTINUOUS
70
0
71
3
72
8
73
4
74
2
42
0.0000001000
43
0.0000001000
44
0.0000000001
12
-0.1037846715
22
0.1340871389
32
0.0000000000
13
-0.1031023757
23
0.1346132005
33
0.0000000000
40
0.0000000000
40
0.0000000000
40
0.0000000000
40
0.0000000000
40
1.0000000000
40
1.0000000000
40
1.0000000000
40
1.0000000000
10
-28.7546831322
20
-13.6674425048
30
0.0000000000
10
-28.7892780227
20
-13.6227467919
30
0.0000000000
10
-28.8237583407
20
-13.5779623135
30
0.0000000000
10
-28.8581257993
20
-13.5330912467
30
0.0000000000
11
-28.7546831322
21
-13.6674425048
31
0.0000000000
11
-28.8581257993
21
-13.5330912467
31
0.0000000000
0
SPLINE
5
3AA
100
AcDbEntity
8
0
100
AcDbSpline
62
7
6
CONTINUOUS
70
0
71
3
72
8
73
4
74
2
42
0.0000001000
43
0.0000001000
44
0.0000000001
12
-0.0530711136
22
0.0692910556
32
0.0000000000
13
-0.0528903877
23
0.0694292329
33
0.0000000000
40
0.0000000000
40
0.0000000000
40
0.0000000000
40
0.0000000000
40
1.0000000000
40
1.0000000000
40
1.0000000000
40
1.0000000000
10
-28.8581257993
20
-13.5330912467
30
0.0000000000
10
-28.8758161705
20
-13.5099942281
30
0.0000000000
10
-28.8934766385
20
-13.4868742672
30
0.0000000000
10
-28.9111067677
20
-13.4637311895
30
0.0000000000
11
-28.8581257993
21
-13.5330912467
31
0.0000000000
11
-28.9111067677
21
-13.4637311895
31
0.0000000000
0
SPLINE
5
3AB
100
AcDbEntity
8
0
100
AcDbSpline
62
7
6
CONTINUOUS
70
0
71
3
72
8
73
4
74
2
42
0.0000001000
43
0.0000001000
44
0.0000000001
12
-0.1413269150
22
0.1806579053
32
0.0000000000
13
-0.1403053974
23
0.1814522156
33
0.0000000000
40
0.0000000000
40
0.0000000000
40
0.0000000000
40
0.0000000000
40
1.0000000000
40
1.0000000000
40
1.0000000000
40
1.0000000000
10
-23.8922255620
20
-10.2451966271
30
0.0000000000
10
-23.9393345337
20
-10.1849773254
30
0.0000000000
10
-23.9862708379
20
-10.1246229648
30
0.0000000000
10
-24.0330393037
20
-10.0641388929
30
0.0000000000
11
-23.8922255620
21
-10.2451966271
31
0.0000000000
11
-24.0330393037
21
-10.0641388929
31
0.0000000000
0
SPLINE
5
3AC
100
AcDbEntity
8
0
100
AcDbSpline
62
7
6
CONTINUOUS
70
0
71
3
72
8
73
4
74
2
42
0.0000001000
43
0.0000001000
44
0.0000000001
12
-0.2178715187
22
0.2817658516
32
0.0000000000
13
-0.2154189459
23
0.2836455721
33
0.0000000000
40
0.0000000000
40
0.0000000000
40
0.0000000000
40
0.0000000000
40
1.0000000000
40
1.0000000000
40
1.0000000000
40
1.0000000000
10
-24.0330393037
20
-10.0641388929
30
0.0000000000
10
-24.1056631433
20
-9.9702169424
30
0.0000000000
10
-24.1778822732
20
-9.8759822183
30
0.0000000000
10
-24.2496885885
20
-9.7814336943
30
0.0000000000
11
-24.0330393037
21
-10.0641388929
31
0.0000000000
11
-24.2496885885
21
-9.7814336943
31
0.0000000000
0
SPLINE
5
3AD
100
AcDbEntity
8
0
100
AcDbSpline
62
7
6
CONTINUOUS
70
0
71
3
72
9
73
5
74
3
42
0.0000001000
43
0.0000001000
44
0.0000000001
12
-0.1789873033
22
0.2317717073
32
0.0000000000
13
-0.1775952537
23
0.2328398117
33
0.0000000000
40
0.0000000000
40
0.0000000000
40
0.0000000000
40
0.0000000000
40
0.4890667280
40
1.0000000000
40
1.0000000000
40
1.0000000000
40
1.0000000000
10
-19.4769453487
20
-6.5703741046
30
0.0000000000
10
-19.5061242603
20
-6.5325901611
30
0.0000000000
10
-19.5656727747
20
-6.4552449651
30
0.0000000000
10
-19.6249906517
20
-6.3777228009
30
0.0000000000
10
-19.6552370931
20
-6.3380675986
30
0.0000000000
11
-19.4769453487
21
-6.5703741046
31
0.0000000000
11
-19.5643154892
21
-6.4568939088
31
0.0000000000
11
-19.6552370931
21
-6.3380675986
31
0.0000000000
0
SPLINE
5
3AE
100
AcDbEntity
8
0
100
AcDbSpline
62
7
6
CONTINUOUS
70
0
71
3
72
15
73
11
74
9
42
0.0000001000
43
0.0000001000
44
0.0000000001
12
0.5437237867
22
0.6562417184
32
0.0000000000
13
0.4664296103
23
-0.7071806430
33
0.0000000000
40
0.0000000000
40
0.0000000000
40
0.0000000000
40
0.0000000000
40
0.0049148206
40
0.0594226842
40
0.1649986219
40
0.3120114568
40
0.4862892431
40
0.6708974395
40
0.8478691206
40
1.0000000000
40
1.0000000000
40
1.0000000000
40
1.0000000000
10
-26.8795306078
20
-24.4655170472
30
0.0000000000
10
-26.8786398395
20
-24.4644419437
30
0.0000000000
10
-26.8671302673
20
-24.4532312487
30
0.0000000000
10
-26.8269356138
20
-24.5150454696
30
0.0000000000
10
-26.7716886972
20
-24.5576879412
30
0.0000000000
10
-26.6916221897
20
-24.6585646544
30
0.0000000000
10
-26.6024743913
20
-24.7664917716
30
0.0000000000
10
-26.5099921862
20
-24.8873732064
30
0.0000000000
10
-26.4242238627
20
-25.0040953695
30
0.0000000000
10
-26.3712483941
20
-25.0805327577
30
0.0000000000
10
-26.3475956119
20
-25.1163940954
30
0.0000000000
11
-26.8795306078
21
-24.4655170472
31
0.0000000000
11
-26.8767156465
21
-24.4628164625
31
0.0000000000
11
-26.8405584530
21
-24.4915376261
31
0.0000000000
11
-26.7788048848
21
-24.5562349735
31
0.0000000000
11
-26.6974998114
21
-24.6505754775
31
0.0000000000
11
-26.6046019399
21
-24.7653244323
31
0.0000000000
11
-26.5092047613
21
-24.8892494107
31
0.0000000000
11
-26.4206464160
21
-25.0102197723
31
0.0000000000
11
-26.3475956119
21
-25.1163940954
31
0.0000000000
0
SPLINE
5
3AF
100
AcDbEntity
8
0
100
AcDbSpline
62
7
6
CONTINUOUS
70
0
71
3
72
10
73
6
74
4
42
0.0000001000
43
0.0000001000
44
0.0000000001
12
-0.1813315250
22
0.3331901818
32
0.0000000000
13
0.2969367085
23
0.0992923856
33
0.0000000000
40
0.0000000000
40
0.0000000000
40
0.0000000000
40
0.0000000000
40
0.6633747086
40
0.9724486169
40
1.0000000000
40
1.0000000000
40
1.0000000000
40
1.0000000000
10
-21.4543545917
20
-3.7373048978
30
0.0000000000
10
-21.4944515075
20
-3.6636282512
30
0.0000000000
10
-21.5328793454
20
-3.5810337652
30
0.0000000000
10
-21.6089506529
20
-3.4067918372
30
0.0000000000
10
-21.5792985461
20
-3.3924148095
30
0.0000000000
10
-21.5765715404
20
-3.3915029286
30
0.0000000000
11
-21.4543545917
21
-3.7373048978
31
0.0000000000
11
-21.5634223568
21
-3.5105267665
31
0.0000000000
11
-21.5837821798
21
-3.3950648112
31
0.0000000000
11
-21.5765715404
21
-3.3915029286
31
0.0000000000
0
SPLINE
5
3B0
100
AcDbEntity
8
0
100
AcDbSpline
62
7
6
CONTINUOUS
70
0
71
3
72
9
73
5
74
3
42
0.0000001000
43
0.0000001000
44
0.0000000001
12
-0.0364880342
22
0.0910815543
32
0.0000000000
13
0.0820345444
23
0.0303516509
33
0.0000000000
40
0.0000000000
40
0.0000000000
40
0.0000000000
40
0.0000000000
40
0.9043104645
40
1.0000000000
40
1.0000000000
40
1.0000000000
40
1.0000000000
10
-30.2011724805
20
-11.5545232715
30
0.0000000000
10
-30.2121713175
20
-11.5270679373
30
0.0000000000
10
-30.2399043740
20
-11.4781576980
30
0.0000000000
10
-30.2162005952
20
-11.4650329852
30
0.0000000000
10
-30.2135839794
20
-11.4640648734
30
0.0000000000
11
-30.2011724805
21
-11.5545232715
31
0.0000000000
11
-30.2202660217
21
-11.4678724503
31
0.0000000000
11
-30.2135839794
21
-11.4640648734
31
0.0000000000
0
SPLINE
5
3B1
100
AcDbEntity
8
0
100
AcDbSpline
62
7
6
CONTINUOUS
70
0
71
3
72
17
73
13
74
11
42
0.0000001000
43
0.0000001000
44
0.0000000001
12
-2.2018301590
22
2.4477678092
32
0.0000000000
13
1.8683794892
23
0.6384257596
33
0.0000000000
40
0.0000000000
40
0.0000000000
40
0.0000000000
40
0.0000000000
40
0.1175216134
40
0.2553729102
40
0.4042369083
40
0.5540294549
40
0.6946019433
40
0.8164473011
40
0.9113767422
40
0.9731824730
40
0.9989203536
40
1.0000000000
40
1.0000000000
40
1.0000000000
40
1.0000000000
10
-32.7642866816
20
-18.2899617708
30
0.0000000000
10
-32.8505408925
20
-18.1940732300
30
0.0000000000
10
-33.0335210346
20
-17.9816987508
30
0.0000000000
10
-33.3145827126
20
-17.6384947476
30
0.0000000000
10
-33.6104893621
20
-17.2614416969
30
0.0000000000
10
-33.9005604972
20
-16.8774556168
30
0.0000000000
10
-34.1668714621
20
-16.5082707947
30
0.0000000000
10
-34.3858629460
20
-16.1930424086
30
0.0000000000
10
-34.5587164797
20
-15.9149924179
30
0.0000000000
10
-34.6404656773
20
-15.7801775590
30
0.0000000000
10
-34.6962369544
20
-15.6404796563
30
0.0000000000
10
-34.6807488811
20
-15.6334305090
30
0.0000000000
10
-34.6800764847
20
-15.6332007509
30
0.0000000000
11
-32.7642866816
21
-18.2899617708
31
0.0000000000
11
-33.0178061007
21
-17.9976648080
31
0.0000000000
11
-33.3057728458
21
-17.6468652943
31
0.0000000000
11
-33.6085624592
21
-17.2614696369
31
0.0000000000
11
-33.9055403290
21
-16.8677419129
31
0.0000000000
11
-34.1764679043
21
-16.4925140160
31
0.0000000000
11
-34.4028819186
21
-16.1613571074
31
0.0000000000
11
-34.5693526308
21
-15.8968389831
31
0.0000000000
11
-34.6645353371
21
-15.7169861160
31
0.0000000000
11
-34.6819434934
21
-15.6340551820
31
0.0000000000
11
-34.6800764847
21
-15.6332007509
31
0.0000000000
0
SPLINE
5
3B2
100
AcDbEntity
8
0
100
AcDbSpline
62
7
6
CONTINUOUS
70
0
71
3
72
8
73
4
74
2
42
0.0000001000
43
0.0000001000
44
0.0000000001
12
-0.0250468475
22
0.0068561682
32
0.0000000000
13
-0.0225121662
23
-0.0182152920
33
0.0000000000
40
0.0000000000
40
0.0000000000
40
0.0000000000
40
0.0000000000
40
1.0000000000
40
1.0000000000
40
1.0000000000
40
1.0000000000
10
-29.6862793306
20
-12.1269284010
30
0.0000000000
10
-29.6946282798
20
-12.1246430116
30
0.0000000000
10
-29.7026925125
20
-12.1288675598
30
0.0000000000
10
-29.7101965679
20
-12.1349393239
30
0.0000000000
11
-29.6862793306
21
-12.1269284010
31
0.0000000000
11
-29.7101965679
21
-12.1349393239
31
0.0000000000
0
SPLINE
5
3B3
100
AcDbEntity
8
0
100
AcDbSpline
62
7
6
CONTINUOUS
70
0
71
3
72
8
73
4
74
2
42
0.0000001000
43
0.0000001000
44
0.0000000001
12
0.0443706784
22
-0.0121457535
32
0.0000000000
13
0.0373028713
23
-0.0280921868
33
0.0000000000
40
0.0000000000
40
0.0000000000
40
0.0000000000
40
0.0000000000
40
1.0000000000
40
1.0000000000
40
1.0000000000
40
1.0000000000
10
-29.6862793306
20
-12.1269284010
30
0.0000000000
10
-29.6714891045
20
-12.1309769855
30
0.0000000000
10
-29.6582709922
20
-12.1387798320
30
0.0000000000
10
-29.6458367018
20
-12.1481438942
30
0.0000000000
11
-29.6862793306
21
-12.1269284010
31
0.0000000000
11
-29.6458367018
21
-12.1481438942
31
0.0000000000
0
SPLINE
5
3B4
100
AcDbEntity
8
0
100
AcDbSpline
62
7
6
CONTINUOUS
70
0
71
3
72
10
73
6
74
4
42
0.0000001000
43
0.0000001000
44
0.0000000001
12
0.3321186028
22
-0.2501131278
32
0.0000000000
13
0.2739137660
23
-0.3045090904
33
0.0000000000
40
0.0000000000
40
0.0000000000
40
0.0000000000
40
0.0000000000
40
0.0828512972
40
0.4577309951
40
1.0000000000
40
1.0000000000
40
1.0000000000
40
1.0000000000
10
-29.6458367018
20
-12.1481438942
30
0.0000000000
10
-29.6366645494
20
-12.1550512932
30
0.0000000000
10
-29.5883471805
20
-12.1979060619
30
0.0000000000
10
-29.4901303346
20
-12.2894809558
30
0.0000000000
10
-29.4051956134
20
-12.3828587336
30
0.0000000000
10
-29.3556839649
20
-12.4379006807
30
0.0000000000
11
-29.6458367018
21
-12.1481438942
31
0.0000000000
11
-29.6192833401
21
-12.1705343570
31
0.0000000000
11
-29.5074303263
21
-12.2757211034
31
0.0000000000
11
-29.3556839649
21
-12.4379006807
31
0.0000000000
0
SPLINE
5
3B5
100
AcDbEntity
8
0
100
AcDbSpline
62
7
6
CONTINUOUS
70
0
71
3
72
8
73
4
74
2
42
0.0000001000
43
0.0000001000
44
0.0000000001
12
-0.0250468475
22
0.0068561682
32
0.0000000000
13
-0.0225121662
23
-0.0182152920
33
0.0000000000
40
0.0000000000
40
0.0000000000
40
0.0000000000
40
0.0000000000
40
1.0000000000
40
1.0000000000
40
1.0000000000
40
1.0000000000
10
-24.9386810009
20
-8.4856516147
30
0.0000000000
10
-24.9470299500
20
-8.4833662253
30
0.0000000000
10
-24.9550941827
20
-8.4875907735
30
0.0000000000
10
-24.9625982381
20
-8.4936625375
30
0.0000000000
11
-24.9386810009
21
-8.4856516147
31
0.0000000000
11
-24.9625982381
21
-8.4936625375
31
0.0000000000
0
SPLINE
5
3B6
100
AcDbEntity
8
0
100
AcDbSpline
62
7
6
CONTINUOUS
70
0
71
3
72
8
73
4
74
2
42
0.0000001000
43
0.0000001000
44
0.0000000001
12
0.0443706784
22
-0.0121457535
32
0.0000000000
13
0.0373028713
23
-0.0280921868
33
0.0000000000
40
0.0000000000
40
0.0000000000
40
0.0000000000
40
0.0000000000
40
1.0000000000
40
1.0000000000
40
1.0000000000
40
1.0000000000
10
-24.9386810009
20
-8.4856516147
30
0.0000000000
10
-24.9238907747
20
-8.4897001992
30
0.0000000000
10
-24.9106726625
20
-8.4975030456
30
0.0000000000
10
-24.8982383720
20
-8.5068671079
30
0.0000000000
11
-24.9386810009
21
-8.4856516147
31
0.0000000000
11
-24.8982383720
21
-8.5068671079
31
0.0000000000
0
SPLINE
5
3B7
100
AcDbEntity
8
0
100
AcDbSpline
62
7
6
CONTINUOUS
70
0
71
3
72
10
73
6
74
4
42
0.0000001000
43
0.0000001000
44
0.0000000001
12
0.3321186028
22
-0.2501131278
32
0.0000000000
13
0.2739137660
23
-0.3045090904
33
0.0000000000
40
0.0000000000
40
0.0000000000
40
0.0000000000
40
0.0000000000
40
0.0828512972
40
0.4577309951
40
1.0000000000
40
1.0000000000
40
1.0000000000
40
1.0000000000
10
-24.8982383720
20
-8.5068671079
30
0.0000000000
10
-24.8890662196
20
-8.5137745069
30
0.0000000000
10
-24.8407488508
20
-8.5566292756
30
0.0000000000
10
-24.7425320048
20
-8.6482041695
30
0.0000000000
10
-24.6575972836
20
-8.7415819472
30
0.0000000000
10
-24.6080856352
20
-8.7966238944
30
0.0000000000
11
-24.8982383720
21
-8.5068671079
31
0.0000000000
11
-24.8716850104
21
-8.5292575706
31
0.0000000000
11
-24.7598319965
21
-8.6344443170
31
0.0000000000
11
-24.6080856352
21
-8.7966238944
31
0.0000000000
0
SPLINE
5
3B8
100
AcDbEntity
8
0
100
AcDbSpline
62
7
6
CONTINUOUS
70
0
71
3
72
9
73
5
74
3
42
0.0000001000
43
0.0000001000
44
0.0000000001
12
-0.0315624779
22
0.0086397164
32
0.0000000000
13
-0.0272053516
23
-0.0208502761
33
0.0000000000
40
0.0000000000
40
0.0000000000
40
0.0000000000
40
0.0000000000
40
0.7688573385
40
1.0000000000
40
1.0000000000
40
1.0000000000
40
1.0000000000
10
-20.3493359487
20
-4.9657507213
30
0.0000000000
10
-20.3574249630
20
-4.9635364848
30
0.0000000000
10
-20.3681103746
20
-4.9704108240
30
0.0000000000
10
-20.3774411780
20
-4.9773432506
30
0.0000000000
10
-20.3795372838
20
-4.9789497134
30
0.0000000000
11
-20.3493359487
21
-4.9657507213
31
0.0000000000
11
-20.3730553120
21
-4.9741415949
31
0.0000000000
11
-20.3795372838
21
-4.9789497134
31
0.0000000000
0
SPLINE
5
3B9
100
AcDbEntity
8
0
100
AcDbSpline
62
7
6
CONTINUOUS
70
0
71
3
72
8
73
4
74
2
42
0.0000001000
43
0.0000001000
44
0.0000000001
12
0.0443706784
22
-0.0121457535
32
0.0000000000
13
0.0373028713
23
-0.0280921868
33
0.0000000000
40
0.0000000000
40
0.0000000000
40
0.0000000000
40
0.0000000000
40
1.0000000000
40
1.0000000000
40
1.0000000000
40
1.0000000000
10
-20.3493359487
20
-4.9657507213
30
0.0000000000
10
-20.3345457226
20
-4.9697993057
30
0.0000000000
10
-20.3213276104
20
-4.9776021522
30
0.0000000000
10
-20.3088933199
20
-4.9869662144
30
0.0000000000
11
-20.3493359487
21
-4.9657507213
31
0.0000000000
11
-20.3088933199
21
-4.9869662144
31
0.0000000000
0
SPLINE
5
3BA
100
AcDbEntity
8
0
100
AcDbSpline
62
7
6
CONTINUOUS
70
0
71
3
72
10
73
6
74
4
42
0.0000001000
43
0.0000001000
44
0.0000000001
12
0.3321186028
22
-0.2501131278
32
0.0000000000
13
0.2739137660
23
-0.3045090904
33
0.0000000000
40
0.0000000000
40
0.0000000000
40
0.0000000000
40
0.0000000000
40
0.0828512972
40
0.4577309951
40
1.0000000000
40
1.0000000000
40
1.0000000000
40
1.0000000000
10
-20.3088933199
20
-4.9869662144
30
0.0000000000
10
-20.2997211675
20
-4.9938736134
30
0.0000000000
10
-20.2514037987
20
-5.0367283821
30
0.0000000000
10
-20.1531869527
20
-5.1283032760
30
0.0000000000
10
-20.0682522315
20
-5.2216810538
30
0.0000000000
10
-20.0187405831
20
-5.2767230009
30
0.0000000000
11
-20.3088933199
21
-4.9869662144
31
0.0000000000
11
-20.2823399583
21
-5.0093566772
31
0.0000000000
11
-20.1704869444
21
-5.1145434236
31
0.0000000000
11
-20.0187405831
21
-5.2767230009
31
0.0000000000
0
SPLINE
5
3BB
100
AcDbEntity
8
0
100
AcDbSpline
62
7
6
CONTINUOUS
70
0
71
3
72
9
73
5
74
3
42
0.0000001000
43
0.0000001000
44
0.0000000001
12
0.0329232681
22
0.0090458451
32
0.0000000000
13
0.0338337997
23
0.0045426218
33
0.0000000000
40
0.0000000000
40
0.0000000000
40
0.0000000000
40
0.0000000000
40
0.0432035990
40
1.0000000000
40
1.0000000000
40
1.0000000000
40
1.0000000000
10
-19.7217808819
20
-6.3470955245
30
0.0000000000
10
-19.7213067473
20
-6.3469652535
30
0.0000000000
10
-19.7103236545
20
-6.3439831183
30
0.0000000000
10
-19.6991447365
20
-6.3417698695
30
0.0000000000
10
-19.6883540505
20
-6.3403210814
30
0.0000000000
11
-19.7217808819
21
-6.3470955245
31
0.0000000000
11
-19.7203573635
21
-6.3467090107
31
0.0000000000
11
-19.6883540505
21
-6.3403210814
31
0.0000000000
0
SPLINE
5
3BC
100
AcDbEntity
8
0
100
AcDbSpline
62
7
6
CONTINUOUS
70
0
71
3
72
10
73
6
74
4
42
0.0000001000
43
0.0000001000
44
0.0000000001
12
0.2201089012
22
0.0295524447
32
0.0000000000
13
0.1906864334
23
-0.1125142118
33
0.0000000000
40
0.0000000000
40
0.0000000000
40
0.0000000000
40
0.0000000000
40
0.3088873977
40
0.8172863350
40
1.0000000000
40
1.0000000000
40
1.0000000000
40
1.0000000000
10
-19.6883540505
20
-6.3403210814
30
0.0000000000
10
-19.6656910953
20
-6.3372782888
30
0.0000000000
10
-19.6046214141
20
-6.3370334068
30
0.0000000000
10
-19.5330274717
20
-6.3592243969
30
0.0000000000
10
-19.4879353503
20
-6.3831706699
30
0.0000000000
10
-19.4763216779
20
-6.3900232979
30
0.0000000000
11
-19.6883540505
21
-6.3403210814
31
0.0000000000
11
-19.6198946495
21
-6.3397187799
31
0.0000000000
11
-19.5120845630
21
-6.3711108043
31
0.0000000000
11
-19.4763216779
21
-6.3900232979
31
0.0000000000
0
SPLINE
5
3BD
100
AcDbEntity
8
0
100
AcDbSpline
62
7
6
CONTINUOUS
70
0
71
3
72
9
73
5
74
3
42
0.0000001000
43
0.0000001000
44
0.0000000001
12
0.1496712732
22
-0.0883132850
32
0.0000000000
13
0.1161143033
23
-0.1291246482
33
0.0000000000
40
0.0000000000
40
0.0000000000
40
0.0000000000
40
0.0000000000
40
0.4942531811
40
1.0000000000
40
1.0000000000
40
1.0000000000
40
1.0000000000
10
-19.4763216779
20
-6.3900232979
30
0.0000000000
10
-19.4516631769
20
-6.4045730052
30
0.0000000000
10
-19.4045784554
20
-6.4387701787
30
0.0000000000
10
-19.3632077871
20
-6.4794632605
30
0.0000000000
10
-19.3436329739
20
-6.5012313872
30
0.0000000000
11
-19.4763216779
21
-6.3900232979
31
0.0000000000
11
-19.4065154945
21
-6.4399639896
31
0.0000000000
11
-19.3436329739
21
-6.5012313872
31
0.0000000000
0
SPLINE
5
3BE
100
AcDbEntity
8
0
100
AcDbSpline
62
7
6
CONTINUOUS
70
0
71
3
72
14
73
10
74
8
42
0.0000001000
43
0.0000001000
44
0.0000000001
12
0.4667938834
22
0.7454335224
32
0.0000000000
13
0.6587033452
23
-0.5774263364
33
0.0000000000
40
0.0000000000
40
0.0000000000
40
0.0000000000
40
0.0000000000
40
0.1501950288
40
0.3230294634
40
0.4952617486
40
0.6622168717
40
0.8127607026
40
0.9536705730
40
1.0000000000
40
1.0000000000
40
1.0000000000
40
1.0000000000
10
-24.8013411268
20
-9.9603964971
30
0.0000000000
10
-24.7779710866
20
-9.9230763606
30
0.0000000000
10
-24.7160205693
20
-9.8501079321
30
0.0000000000
10
-24.5905797939
20
-9.7728274220
30
0.0000000000
10
-24.4414171333
20
-9.7414319748
30
0.0000000000
10
-24.2973275602
20
-9.7597288496
30
0.0000000000
10
-24.1729382064
20
-9.8120161325
30
0.0000000000
10
-24.0910382607
20
-9.8676931697
30
0.0000000000
10
-24.0491027215
20
-9.9027931039
30
0.0000000000
10
-24.0389302720
20
-9.9117103810
30
0.0000000000
11
-24.8013411268
21
-9.9603964971
31
0.0000000000
11
-24.7160673981
21
-9.8600996948
31
0.0000000000
11
-24.5871343095
21
-9.7809334550
31
0.0000000000
11
-24.4396260902
21
-9.7497383474
31
0.0000000000
11
-24.2945069441
21
-9.7670758063
31
0.0000000000
11
-24.1725702945
21
-9.8170627401
31
0.0000000000
11
-24.0700673271
21
-9.8856826615
31
0.0000000000
11
-24.0389302720
21
-9.9117103810
31
0.0000000000
0
SPLINE
5
3BF
100
AcDbEntity
8
0
100
AcDbSpline
62
7
6
CONTINUOUS
70
0
71
3
72
9
73
5
74
3
42
0.0000001000
43
0.0000001000
44
0.0000000001
12
0.0904418993
22
-0.0792823279
32
0.0000000000
13
0.0803501710
23
-0.0894750197
33
0.0000000000
40
0.0000000000
40
0.0000000000
40
0.0000000000
40
0.0000000000
40
0.6737961907
40
1.0000000000
40
1.0000000000
40
1.0000000000
40
1.0000000000
10
-24.0389302720
20
-9.9117103810
30
0.0000000000
10
-24.0186171363
20
-9.9295170911
30
0.0000000000
10
-23.9896761707
20
-9.9573195729
30
0.0000000000
10
-23.9623820759
20
-9.9866881060
30
0.0000000000
10
-23.9536452320
20
-9.9964171367
30
0.0000000000
11
-24.0389302720
21
-9.9117103810
31
0.0000000000
11
-23.9803641930
21
-9.9676944931
31
0.0000000000
11
-23.9536452320
21
-9.9964171367
31
0.0000000000
0
SPLINE
5
3C0
100
AcDbEntity
8
0
100
AcDbSpline
62
7
6
CONTINUOUS
70
0
71
3
72
15
73
11
74
9
42
0.0000001000
43
0.0000001000
44
0.0000000001
12
0.4065259549
22
0.8337139370
32
0.0000000000
13
0.6946723611
23
-0.6089571571
33
0.0000000000
40
0.0000000000
40
0.0000000000
40
0.0000000000
40
0.0000000000
40
0.0282295322
40
0.1941965615
40
0.3580819074
40
0.5213962823
40
0.6797067380
40
0.8224556519
40
0.9560694361
40
1.0000000000
40
1.0000000000
40
1.0000000000
40
1.0000000000
10
-29.5722255506
20
-13.6436499010
30
0.0000000000
10
-29.5684002048
20
-13.6358047828
30
0.0000000000
10
-29.5405463133
20
-13.5825910333
30
0.0000000000
10
-29.4699090915
20
-13.4952599279
30
0.0000000000
10
-29.3381781237
20
-13.4141042083
30
0.0000000000
10
-29.1890154631
20
-13.3827087612
30
0.0000000000
10
-29.0449258900
20
-13.4010056359
30
0.0000000000
10
-28.9205365362
20
-13.4532929188
30
0.0000000000
10
-28.8386365905
20
-13.5089699560
30
0.0000000000
10
-28.7967010513
20
-13.5440698902
30
0.0000000000
10
-28.7865286018
20
-13.5529871673
30
0.0000000000
11
-29.5722255506
21
-13.6436499010
31
0.0000000000
11
-29.5600812861
21
-13.6204575267
31
0.0000000000
11
-29.4636657279
21
-13.5013764811
31
0.0000000000
11
-29.3347326393
21
-13.4222102413
31
0.0000000000
11
-29.1872244199
21
-13.3910151337
31
0.0000000000
11
-29.0421052738
21
-13.4083525926
31
0.0000000000
11
-28.9201686243
21
-13.4583395264
31
0.0000000000
11
-28.8176656568
21
-13.5269594479
31
0.0000000000
11
-28.7865286018
21
-13.5529871673
31
0.0000000000
0
SPLINE
5
3C1
100
AcDbEntity
8
0
100
AcDbSpline
62
7
6
CONTINUOUS
70
0
71
3
72
9
73
5
74
3
42
0.0000001000
43
0.0000001000
44
0.0000000001
12
0.0904418993
22
-0.0792823279
32
0.0000000000
13
0.0803501710
23
-0.0894750197
33
0.0000000000
40
0.0000000000
40
0.0000000000
40
0.0000000000
40
0.0000000000
40
0.6737961907
40
1.0000000000
40
1.0000000000
40
1.0000000000
40
1.0000000000
10
-28.7865286018
20
-13.5529871673
30
0.0000000000
10
-28.7662154660
20
-13.5707938775
30
0.0000000000
10
-28.7372745004
20
-13.5985963593
30
0.0000000000
10
-28.7099804057
20
-13.6279648923
30
0.0000000000
10
-28.7012435617
20
-13.6376939230
30
0.0000000000
11
-28.7865286018
21
-13.5529871673
31
0.0000000000
11
-28.7279625228
21
-13.6089712794
31
0.0000000000
11
-28.7012435617
21
-13.6376939230
31
0.0000000000
0
SPLINE
5
3C2
100
AcDbEntity
8
0
100
AcDbSpline
62
7
6
CONTINUOUS
70
0
71
3
72
10
73
6
74
4
42
0.0000001000
43
0.0000001000
44
0.0000000001
12
1.2260075084
22
-1.4986041435
32
0.0000000000
13
1.1635096762
23
-1.5479064159
33
0.0000000000
40
0.0000000000
40
0.0000000000
40
0.0000000000
40
0.0000000000
40
0.3902584722
40
0.7963730944
40
1.0000000000
40
1.0000000000
40
1.0000000000
40
1.0000000000
10
-18.0995442217
20
-3.4795794740
30
0.0000000000
10
-17.9400576160
20
-3.6745271284
30
0.0000000000
10
-17.6183398140
20
-4.0754339319
30
0.0000000000
10
-17.2225484561
20
-4.5851664588
30
0.0000000000
10
-16.9847331049
20
-4.8988634405
30
0.0000000000
10
-16.9057591466
20
-5.0039285717
30
0.0000000000
11
-18.0995442217
21
-3.4795794740
31
0.0000000000
11
-17.6263111510
21
-4.0686597310
31
0.0000000000
11
-17.1439649064
21
-4.6896639195
31
0.0000000000
11
-16.9057591466
21
-5.0039285717
31
0.0000000000
0
SPLINE
5
3C3
100
AcDbEntity
8
0
100
AcDbSpline
62
7
6
CONTINUOUS
70
0
71
3
72
9
73
5
74
3
42
0.0000001000
43
0.0000001000
44
0.0000000001
12
0.5355056223
22
-0.7124243188
32
0.0000000000
13
0.5214215694
23
-0.7229403033
33
0.0000000000
40
0.0000000000
40
0.0000000000
40
0.0000000000
40
0.0000000000
40
0.4355628608
40
1.0000000000
40
1.0000000000
40
1.0000000000
40
1.0000000000
10
-16.9057591466
20
-5.0039285717
30
0.0000000000
10
-16.8280103597
20
-5.1073637632
30
0.0000000000
10
-16.6505007680
20
-5.3455152390
30
0.0000000000
10
-16.4755404557
20
-5.5851277294
30
0.0000000000
10
-16.3774372227
20
-5.7211458482
30
0.0000000000
11
-16.9057591466
21
-5.0039285717
31
0.0000000000
11
-16.6738608251
21
-5.3151008158
31
0.0000000000
11
-16.3774372227
21
-5.7211458482
31
0.0000000000
0
SPLINE
5
3C4
100
AcDbEntity
8
0
100
AcDbSpline
62
7
6
CONTINUOUS
70
0
71
3
72
8
73
4
74
2
42
0.0000001000
43
0.0000001000
44
0.0000000001
12
0.1085205532
22
-0.1504615195
32
0.0000000000
13
0.1080138594
23
-0.1511373268
33
0.0000000000
40
0.0000000000
40
0.0000000000
40
0.0000000000
40
0.0000000000
40
1.0000000000
40
1.0000000000
40
1.0000000000
40
1.0000000000
10
-16.3774372227
20
-5.7211458482
30
0.0000000000
10
-16.3412637050
20
-5.7712996881
30
0.0000000000
10
-16.3051786797
20
-5.8215584804
30
0.0000000000
10
-16.2691740599
20
-5.8719375893
30
0.0000000000
11
-16.3774372227
21
-5.7211458482
31
0.0000000000
11
-16.2691740599
21
-5.8719375893
31
0.0000000000
0
SPLINE
5
3C5
100
AcDbEntity
8
0
100
AcDbSpline
62
7
6
CONTINUOUS
70
0
71
3
72
14
73
10
74
8
42
0.0000001000
43
0.0000001000
44
0.0000000001
12
1.2931408890
22
-1.8094146276
32
0.0000000000
13
-2.0177671082
23
-0.7902510696
33
0.0000000000
40
0.0000000000
40
0.0000000000
40
0.0000000000
40
0.0000000000
40
0.0250399486
40
0.3281334416
40
0.5859452807
40
0.7873021971
40
0.9238303680
40
0.9915743936
40
1.0000000000
40
1.0000000000
40
1.0000000000
40
1.0000000000
10
-16.2691740599
20
-5.8719375893
30
0.0000000000
10
-16.2583806661
20
-5.8870401391
30
0.0000000000
10
-16.1170344323
20
-6.0850916464
30
0.0000000000
10
-15.8667825572
20
-6.4421932021
30
0.0000000000
10
-15.5632885299
20
-6.9055388972
30
0.0000000000
10
-15.3104232580
20
-7.2986812367
30
0.0000000000
10
-15.2136674825
20
-7.5266988558
30
0.0000000000
10
-15.0926337863
20
-7.7260290661
30
0.0000000000
10
-15.1376305608
20
-7.7511627198
30
0.0000000000
10
-15.1432975313
20
-7.7533821680
30
0.0000000000
11
-16.2691740599
21
-5.8719375893
31
0.0000000000
11
-16.2368153380
21
-5.9172780899
31
0.0000000000
11
-15.8521832890
21
-6.4695296074
31
0.0000000000
11
-15.5369985921
21
-6.9473991760
31
0.0000000000
11
-15.3052179113
21
-7.3297262981
31
0.0000000000
11
-15.1671011948
21
-7.5995853782
31
0.0000000000
11
-15.1287567341
21
-7.7450364337
31
0.0000000000
11
-15.1432975313
21
-7.7533821680
31
0.0000000000
0
SPLINE
5
3C6
100
AcDbEntity
8
0
100
AcDbSpline
62
7
6
CONTINUOUS
70
0
71
3
72
12
73
8
74
6
42
0.0000001000
43
0.0000001000
44
0.0000000001
12
-0.2406839532
22
0.2087609699
32
0.0000000000
13
-0.2468517619
23
-0.2025870620
33
0.0000000000
40
0.0000000000
40
0.0000000000
40
0.0000000000
40
0.0000000000
40
0.1458366711
40
0.3660083920
40
0.6398769236
40
0.9385157114
40
1.0000000000
40
1.0000000000
40
1.0000000000
40
1.0000000000
10
-14.9580014933
20
-7.3393704355
30
0.0000000000
10
-14.9697016755
20
-7.3292221006
30
0.0000000000
10
-15.0116956076
20
-7.3221289525
30
0.0000000000
10
-15.0777491271
20
-7.3363991358
30
0.0000000000
10
-15.1559313853
20
-7.3697242212
30
0.0000000000
10
-15.2125615461
20
-7.4064824160
30
0.0000000000
10
-15.2426174199
20
-7.4302851374
30
0.0000000000
10
-15.2476765882
20
-7.4344371112
30
0.0000000000
11
-14.9580014933
21
-7.3393704355
31
0.0000000000
11
-15.0024981593
21
-7.3259915936
31
0.0000000000
11
-15.0717549216
21
-7.3371384861
31
0.0000000000
11
-15.1522689510
21
-7.3707708725
31
0.0000000000
11
-15.2322929141
21
-7.4222426047
31
0.0000000000
11
-15.2476765882
21
-7.4344371112
31
0.0000000000
0
SPLINE
5
3C7
100
AcDbEntity
8
0
100
AcDbSpline
62
7
6
CONTINUOUS
70
0
71
3
72
9
73
5
74
3
42
0.0000001000
43
0.0000001000
44
0.0000000001
12
0.1855525256
22
-0.1609418687
32
0.0000000000
13
0.2232076883
23
0.0874184705
33
0.0000000000
40
0.0000000000
40
0.0000000000
40
0.0000000000
40
0.0000000000
40
0.8124119440
40
1.0000000000
40
1.0000000000
40
1.0000000000
40
1.0000000000
10
-14.9580014933
20
-7.3393704355
30
0.0000000000
10
-14.9077531307
20
-7.3829541343
30
0.0000000000
10
-14.8583221981
20
-7.4664162045
30
0.0000000000
10
-14.7616213692
20
-7.4554086561
30
0.0000000000
10
-14.7476643371
20
-7.4499424358
30
0.0000000000
11
-14.9580014933
21
-7.3393704355
31
0.0000000000
11
-14.7962378167
21
-7.4562141076
31
0.0000000000
11
-14.7476643371
21
-7.4499424358
31
0.0000000000
0
SPLINE
5
3C8
100
AcDbEntity
8
0
100
AcDbSpline
62
7
6
CONTINUOUS
70
0
71
3
72
8
73
4
74
2
42
0.0000001000
43
0.0000001000
44
0.0000000001
12
0.1959751373
22
-0.2498868437
32
0.0000000000
13
0.1931130425
23
-0.2521115605
33
0.0000000000
40
0.0000000000
40
0.0000000000
40
0.0000000000
40
0.0000000000
40
1.0000000000
40
1.0000000000
40
1.0000000000
40
1.0000000000
10
-31.9208891280
20
-15.5314841562
30
0.0000000000
10
-31.8555640822
20
-15.6147797708
30
0.0000000000
10
-31.7906943409
20
-15.6984421419
30
0.0000000000
10
-31.7263233268
20
-15.7824793287
30
0.0000000000
11
-31.9208891280
21
-15.5314841562
31
0.0000000000
11
-31.7263233268
21
-15.7824793287
31
0.0000000000
0
SPLINE
5
3C9
100
AcDbEntity
8
0
100
AcDbSpline
62
7
6
CONTINUOUS
70
0
71
3
72
8
73
4
74
2
42
0.0000001000
43
0.0000001000
44
0.0000000001
12
0.0956595327
22
-0.1248847501
32
0.0000000000
13
0.0949094428
23
-0.1254395153
33
0.0000000000
40
0.0000000000
40
0.0000000000
40
0.0000000000
40
0.0000000000
40
1.0000000000
40
1.0000000000
40
1.0000000000
40
1.0000000000
10
-31.7263233268
20
-15.7824793287
30
0.0000000000
10
-31.6944368159
20
-15.8241075787
30
0.0000000000
10
-31.6626726810
20
-15.8658277999
30
0.0000000000
10
-31.6310362000
20
-15.9076409716
30
0.0000000000
11
-31.7263233268
21
-15.7824793287
31
0.0000000000
11
-31.6310362000
21
-15.9076409716
31
0.0000000000
0
SPLINE
5
3CA
100
AcDbEntity
8
0
100
AcDbSpline
62
7
6
CONTINUOUS
70
0
71
3
72
11
73
7
74
5
42
0.0000001000
43
0.0000001000
44
0.0000000001
12
0.8380992005
22
-1.1076954445
32
0.0000000000
13
0.7754730552
23
-1.1580342046
33
0.0000000000
40
0.0000000000
40
0.0000000000
40
0.0000000000
40
0.0000000000
40
0.3354935141
40
0.6476325699
40
0.9206407453
40
1.0000000000
40
1.0000000000
40
1.0000000000
40
1.0000000000
10
-31.6310362000
20
-15.9076409716
30
0.0000000000
10
-31.5373105847
20
-16.0315158507
30
0.0000000000
10
-31.3585466186
20
-16.2722172428
30
0.0000000000
10
-31.1088498433
20
-16.6181706204
30
0.0000000000
10
-30.9386918044
20
-16.8737115509
30
0.0000000000
10
-30.8455581357
20
-17.0086525979
30
0.0000000000
10
-30.8250444811
20
-17.0392861750
30
0.0000000000
11
-31.6310362000
21
-15.9076409716
31
0.0000000000
11
-31.3529354573
21
-16.2816117282
31
0.0000000000
11
-31.1007599561
21
-16.6343374194
31
0.0000000000
11
-30.8873614667
21
-16.9478418391
31
0.0000000000
11
-30.8250444811
21
-17.0392861750
31
0.0000000000
0
SPLINE
5
3CB
100
AcDbEntity
8
0
100
AcDbSpline
62
7
6
CONTINUOUS
70
0
71
3
72
8
73
4
74
2
42
0.0000001000
43
0.0000001000
44
0.0000000001
12
0.0572270048
22
-0.0854585837
32
0.0000000000
13
0.0533627564
23
-0.0873709013
33
0.0000000000
40
0.0000000000
40
0.0000000000
40
0.0000000000
40
0.0000000000
40
1.0000000000
40
1.0000000000
40
1.0000000000
40
1.0000000000
10
-30.8250444811
20
-17.0392861750
30
0.0000000000
10
-30.8059688129
20
-17.0677723695
30
0.0000000000
10
-30.7872923515
20
-17.0964682695
30
0.0000000000
10
-30.7695047660
20
-17.1255919033
30
0.0000000000
11
-30.8250444811
21
-17.0392861750
31
0.0000000000
11
-30.7695047660
21
-17.1255919033
31
0.0000000000
0
SPLINE
5
3CC
100
AcDbEntity
8
0
100
AcDbSpline
62
7
6
CONTINUOUS
70
0
71
3
72
11
73
7
74
5
42
0.0000001000
43
0.0000001000
44
0.0000000001
12
0.2349713983
22
-0.3847189357
32
0.0000000000
13
-0.3111828365
23
-0.3535475578
33
0.0000000000
40
0.0000000000
40
0.0000000000
40
0.0000000000
40
0.0000000000
40
0.2062141844
40
0.6878295116
40
0.9528986109
40
1.0000000000
40
1.0000000000
40
1.0000000000
40
1.0000000000
10
-30.7695047660
20
-17.1255919033
30
0.0000000000
10
-30.7533532876
20
-17.1520367372
30
0.0000000000
10
-30.7019243891
20
-17.2414200721
30
0.0000000000
10
-30.6476226501
20
-17.3732006573
30
0.0000000000
10
-30.5578873108
20
-17.4649433868
30
0.0000000000
10
-30.5812101938
20
-17.5257867756
30
0.0000000000
10
-30.5860959084
20
-17.5313376360
30
0.0000000000
11
-30.7695047660
21
-17.1255919033
31
0.0000000000
11
-30.7236155617
21
-17.2061476336
31
0.0000000000
11
-30.6178674064
21
-17.3960904951
31
0.0000000000
11
-30.5755064878
21
-17.5079900150
31
0.0000000000
11
-30.5860959084
21
-17.5313376360
31
0.0000000000
0
SPLINE
5
3CD
100
AcDbEntity
8
0
100
AcDbSpline
62
7
6
CONTINUOUS
70
0
71
3
72
8
73
4
74
2
42
0.0000001000
43
0.0000001000
44
0.0000000001
12
-0.0269847717
22
0.0113172354
32
0.0000000000
13
-0.0297472908
23
0.0001410504
33
0.0000000000
40
0.0000000000
40
0.0000000000
40
0.0000000000
40
0.0000000000
40
1.0000000000
40
1.0000000000
40
1.0000000000
40
1.0000000000
10
-29.7586214101
20
-17.0032583203
30
0.0000000000
10
-29.7676163339
20
-16.9994859085
30
0.0000000000
10
-29.7773178642
20
-16.9982682193
30
0.0000000000
10
-29.7872336277
20
-16.9982212025
30
0.0000000000
11
-29.7586214101
21
-17.0032583203
31
0.0000000000
11
-29.7872336277
21
-16.9982212025
31
0.0000000000
0
SPLINE
5
3CE
100
AcDbEntity
8
0
100
AcDbSpline
62
7
6
CONTINUOUS
70
0
71
3
72
15
73
11
74
9
42
0.0000001000
43
0.0000001000
44
0.0000000001
12
-0.8718321250
22
0.0041338978
32
0.0000000000
13
-0.5450002542
23
-0.6821721147
33
0.0000000000
40
0.0000000000
40
0.0000000000
40
0.0000000000
40
0.0000000000
40
0.0250086010
40
0.1331531670
40
0.2768104028
40
0.4454251511
40
0.6223973767
40
0.7972208975
40
0.9544067396
40
1.0000000000
40
1.0000000000
40
1.0000000000
40
1.0000000000
10
-29.7872336277
20
-16.9982212025
30
0.0000000000
10
-29.7945013950
20
-16.9981867415
30
0.0000000000
10
-29.8338099032
20
-17.0013517368
30
0.0000000000
10
-29.9108849236
20
-17.0128776255
30
0.0000000000
10
-30.0270593848
20
-17.0473704762
30
0.0000000000
10
-30.1562554642
20
-17.1010130775
30
0.0000000000
10
-30.2866654639
20
-17.1733456304
30
0.0000000000
10
-30.4047221924
20
-17.2595064140
30
0.0000000000
10
-30.4842671225
20
-17.3314521183
30
0.0000000000
10
-30.5221957780
20
-17.3771624485
30
0.0000000000
10
-30.5304785575
20
-17.3875299322
30
0.0000000000
11
-29.7872336277
21
-16.9982212025
31
0.0000000000
11
-29.8091883252
21
-16.9994595598
31
0.0000000000
11
-29.9008988780
21
-17.0132756604
31
0.0000000000
11
-30.0193526577
21
-17.0471468337
31
0.0000000000
11
-30.1529393260
21
-17.1025111098
31
0.0000000000
11
-30.2855441255
21
-17.1763408436
31
0.0000000000
11
-30.4068534143
21
-17.2644485049
31
0.0000000000
11
-30.5048977985
21
-17.3569648749
31
0.0000000000
11
-30.5304785575
21
-17.3875299322
31
0.0000000000
0
SPLINE
5
3CF
100
AcDbEntity
8
0
100
AcDbSpline
62
7
6
CONTINUOUS
70
0
71
3
72
9
73
5
74
3
42
0.0000001000
43
0.0000001000
44
0.0000000001
12
-0.0638414571
22
-0.0799098009
32
0.0000000000
13
-0.0493886540
23
-0.0815839124
33
0.0000000000
40
0.0000000000
40
0.0000000000
40
0.0000000000
40
0.0000000000
40
0.6982000204
40
1.0000000000
40
1.0000000000
40
1.0000000000
40
1.0000000000
10
-30.5304785575
20
-17.3875299322
30
0.0000000000
10
-30.5453365931
20
-17.4061276070
30
0.0000000000
10
-30.5654871063
20
-17.4331784547
30
0.0000000000
10
-30.5839824310
20
-17.4576521269
30
0.0000000000
10
-30.5889509293
20
-17.4658594679
30
0.0000000000
11
-30.5304785575
21
-17.3875299322
31
0.0000000000
11
-30.5726678939
21
-17.4426450819
31
0.0000000000
11
-30.5889509293
21
-17.4658594679
31
0.0000000000
0
SPLINE
5
3D0
100
AcDbEntity
8
0
100
AcDbSpline
62
7
6
CONTINUOUS
70
0
71
3
72
8
73
4
74
2
42
0.0000001000
43
0.0000001000
44
0.0000000001
12
0.0211957552
22
-0.0088893601
32
0.0000000000
13
0.0209007326
23
0.0155046889
33
0.0000000000
40
0.0000000000
40
0.0000000000
40
0.0000000000
40
0.0000000000
40
1.0000000000
40
1.0000000000
40
1.0000000000
40
1.0000000000
10
-29.7586214101
20
-17.0032583203
30
0.0000000000
10
-29.7515561583
20
-17.0062214403
30
0.0000000000
10
-29.7436320444
20
-17.0034773064
30
0.0000000000
10
-29.7366651335
20
-16.9983090768
30
0.0000000000
11
-29.7586214101
21
-17.0032583203
31
0.0000000000
11
-29.7366651335
21
-16.9983090768
31
0.0000000000
0
SPLINE
5
3D1
100
AcDbEntity
8
0
100
AcDbSpline
62
7
6
CONTINUOUS
70
0
71
3
72
9
73
5
74
3
42
0.0000001000
43
0.0000001000
44
0.0000000001
12
0.5243687750
22
-0.6513967690
32
0.0000000000
13
0.5083490376
23
-0.6641394789
33
0.0000000000
40
0.0000000000
40
0.0000000000
40
0.0000000000
40
0.0000000000
40
0.7468354696
40
1.0000000000
40
1.0000000000
40
1.0000000000
40
1.0000000000
10
-27.4523524787
20
-11.4671059752
30
0.0000000000
10
-27.3218134119
20
-11.6292680458
30
0.0000000000
10
-27.1491474379
20
-11.8480789624
30
0.0000000000
10
-26.9790454249
20
-12.0689725851
30
0.0000000000
10
-26.9361467764
20
-12.1250181049
30
0.0000000000
11
-27.4523524787
21
-11.4671059752
31
0.0000000000
11
-27.0653373475
21
-11.9572612100
31
0.0000000000
11
-26.9361467764
21
-12.1250181049
31
0.0000000000
0
SPLINE
5
3D2
100
AcDbEntity
8
0
100
AcDbSpline
62
7
6
CONTINUOUS
70
0
71
3
72
10
73
6
74
4
42
0.0000001000
43
0.0000001000
44
0.0000000001
12
0.9623755646
22
-1.2573085786
32
0.0000000000
13
0.8939260261
23
-1.2951792954
33
0.0000000000
40
0.0000000000
40
0.0000000000
40
0.0000000000
40
0.0000000000
40
0.2671792061
40
0.6522159470
40
1.0000000000
40
1.0000000000
40
1.0000000000
40
1.0000000000
10
-26.9361467764
20
-12.1250181049
30
0.0000000000
10
-26.8504378633
20
-12.2369936742
30
0.0000000000
10
-26.6428215599
20
-12.5115386714
30
0.0000000000
10
-26.3305798066
20
-12.9362122436
30
0.0000000000
10
-26.1086070276
20
-13.2549150568
30
0.0000000000
10
-26.0049759554
20
-13.4050626251
30
0.0000000000
11
-26.9361467764
21
-12.1250181049
31
0.0000000000
11
-26.6810042504
21
-12.4623359344
31
0.0000000000
11
-26.3208374696
21
-12.9541010706
31
0.0000000000
11
-26.0049759554
21
-13.4050626251
31
0.0000000000
0
SPLINE
5
3D3
100
AcDbEntity
8
0
100
AcDbSpline
62
7
6
CONTINUOUS
70
0
71
3
72
8
73
4
74
2
42
0.0000001000
43
0.0000001000
44
0.0000000001
12
0.0259030295
22
-0.0375300265
32
0.0000000000
13
0.0258231381
23
-0.0375136046
33
0.0000000000
40
0.0000000000
40
0.0000000000
40
0.0000000000
40
0.0000000000
40
1.0000000000
40
1.0000000000
40
1.0000000000
40
1.0000000000
10
-26.0049759554
20
-13.4050626251
30
0.0000000000
10
-25.9963416123
20
-13.4175726339
30
0.0000000000
10
-25.9877191631
20
-13.4300749840
30
0.0000000000
10
-25.9791114504
20
-13.4425795189
30
0.0000000000
11
-26.0049759554
21
-13.4050626251
31
0.0000000000
11
-25.9791114504
21
-13.4425795189
31
0.0000000000
0
SPLINE
5
3D4
100
AcDbEntity
8
0
100
AcDbSpline
62
7
6
CONTINUOUS
70
0
71
3
72
11
73
7
74
5
42
0.0000001000
43
0.0000001000
44
0.0000000001
12
0.5910380625
22
-0.8586085914
32
0.0000000000
13
-0.4528631432
23
-0.4832935199
33
0.0000000000
40
0.0000000000
40
0.0000000000
40
0.0000000000
40
0.0000000000
40
0.3955079627
40
0.7254918334
40
0.9291910267
40
1.0000000000
40
1.0000000000
40
1.0000000000
40
1.0000000000
10
-25.9791114504
20
-13.4425795189
30
0.0000000000
10
-25.9011913638
20
-13.5557750305
30
0.0000000000
10
-25.7604753724
20
-13.7637412763
30
0.0000000000
10
-25.5945408192
20
-14.0623381944
30
0.0000000000
10
-25.4906278897
20
-14.2106330287
30
0.0000000000
10
-25.4687343287
20
-14.3459283621
30
0.0000000000
10
-25.4794232534
20
-14.3573355348
30
0.0000000000
11
-25.9791114504
21
-13.4425795189
31
0.0000000000
11
-25.7510824748
21
-13.7900050706
31
0.0000000000
11
-25.5733515625
21
-14.0874072603
31
0.0000000000
11
-25.4817121983
21
-14.2806512941
31
0.0000000000
11
-25.4794232534
21
-14.3573355348
31
0.0000000000
0
SPLINE
5
3D5
100
AcDbEntity
8
0
100
AcDbSpline
62
7
6
CONTINUOUS
70
0
71
3
72
14
73
10
74
8
42
0.0000001000
43
0.0000001000
44
0.0000000001
12
-0.7393761558
22
0.5720695047
32
0.0000000000
13
-0.5184221094
23
-0.7802361874
33
0.0000000000
40
0.0000000000
40
0.0000000000
40
0.0000000000
40
0.0000000000
40
0.0801001649
40
0.2048732379
40
0.3632199147
40
0.5419427762
40
0.7242801440
40
0.8934182546
40
1.0000000000
40
1.0000000000
40
1.0000000000
40
1.0000000000
10
-24.7365648353
20
-13.7781033966
30
0.0000000000
10
-24.7563062192
20
-13.7628291094
30
0.0000000000
10
-24.8236532851
20
-13.7515589341
30
0.0000000000
10
-24.9352378051
20
-13.7616188535
30
0.0000000000
10
-25.0754334505
20
-13.7996209558
30
0.0000000000
10
-25.2237210018
20
-13.8655556175
30
0.0000000000
10
-25.3632826577
20
-13.9551515271
30
0.0000000000
10
-25.4708095730
20
-14.0503515402
30
0.0000000000
10
-25.5237844947
20
-14.1184253796
30
0.0000000000
10
-25.5422026058
20
-14.1461450245
30
0.0000000000
11
-24.7365648353
21
-13.7781033966
31
0.0000000000
11
-24.8082943315
21
-13.7566065552
31
0.0000000000
11
-24.9247228617
21
-13.7636906466
31
0.0000000000
11
-25.0679044418
21
-13.8012663545
31
0.0000000000
11
-25.2207190474
21
-13.8688162343
31
0.0000000000
11
-25.3640630659
21
-13.9610568023
31
0.0000000000
11
-25.4810730891
21
-14.0674056899
31
0.0000000000
11
-25.5422026058
21
-14.1461450245
31
0.0000000000
0
SPLINE
5
3D6
100
AcDbEntity
8
0
100
AcDbSpline
62
7
6
CONTINUOUS
70
0
71
3
72
9
73
5
74
3
42
0.0000001000
43
0.0000001000
44
0.0000000001
12
0.0957666154
22
-0.0740964660
32
0.0000000000
13
0.0589589704
23
0.0881724387
33
0.0000000000
40
0.0000000000
40
0.0000000000
40
0.0000000000
40
0.0000000000
40
0.9094605948
40
1.0000000000
40
1.0000000000
40
1.0000000000
40
1.0000000000
10
-24.7365648353
20
-13.7781033966
30
0.0000000000
10
-24.7075328476
20
-13.8005660019
30
0.0000000000
10
-24.6577664931
20
-13.8513453329
30
0.0000000000
10
-24.6357263627
20
-13.8271742851
30
0.0000000000
10
-24.6339469927
20
-13.8245132584
30
0.0000000000
11
-24.7365648353
21
-13.7781033966
31
0.0000000000
11
-24.6399446458
21
-13.8309367526
31
0.0000000000
11
-24.6339469927
21
-13.8245132584
31
0.0000000000
0
SPLINE
5
3D7
100
AcDbEntity
8
0
100
AcDbSpline
62
7
6
CONTINUOUS
70
0
71
3
72
9
73
5
74
3
42
0.0000001000
43
0.0000001000
44
0.0000000001
12
0.8542244178
22
-1.0435849933
32
0.0000000000
13
0.8191660000
23
-1.0716102675
33
0.0000000000
40
0.0000000000
40
0.0000000000
40
0.0000000000
40
0.0000000000
40
0.4898814967
40
1.0000000000
40
1.0000000000
40
1.0000000000
40
1.0000000000
10
-22.9644602406
20
-7.4320739107
30
0.0000000000
10
-22.8249706619
20
-7.6024849035
30
0.0000000000
10
-22.5435134288
20
-7.9530657459
30
0.0000000000
10
-22.2677768305
20
-8.3080607840
30
0.0000000000
10
-22.1284862526
20
-8.4902768593
30
0.0000000000
11
-22.9644602406
21
-7.4320739107
31
0.0000000000
11
-22.5505821408
21
-7.9470303749
31
0.0000000000
11
-22.1284862526
21
-8.4902768593
31
0.0000000000
0
SPLINE
5
3D8
100
AcDbEntity
8
0
100
AcDbSpline
62
7
6
CONTINUOUS
70
0
71
3
72
8
73
4
74
2
42
0.0000001000
43
0.0000001000
44
0.0000000001
12
0.0064283363
22
-0.0084093715
32
0.0000000000
13
0.0064263902
23
-0.0084109696
33
0.0000000000
40
0.0000000000
40
0.0000000000
40
0.0000000000
40
0.0000000000
40
1.0000000000
40
1.0000000000
40
1.0000000000
40
1.0000000000
10
-22.1284862526
20
-8.4902768593
30
0.0000000000
10
-22.1263434738
20
-8.4930799831
30
0.0000000000
10
-22.1242010187
20
-8.4958833736
30
0.0000000000
10
-22.1220588887
20
-8.4986870301
30
0.0000000000
11
-22.1284862526
21
-8.4902768593
31
0.0000000000
11
-22.1220588887
21
-8.4986870301
31
0.0000000000
0
SPLINE
5
3D9
100
AcDbEntity
8
0
100
AcDbSpline
62
7
6
CONTINUOUS
70
0
71
3
72
10
73
6
74
4
42
0.0000001000
43
0.0000001000
44
0.0000000001
12
0.9286210509
22
-1.2153951481
32
0.0000000000
13
0.8816412542
23
-1.2542583762
33
0.0000000000
40
0.0000000000
40
0.0000000000
40
0.0000000000
40
0.0000000000
40
0.4408756837
40
0.8667963958
40
1.0000000000
40
1.0000000000
40
1.0000000000
40
1.0000000000
10
-22.1220588887
20
-8.4986870301
30
0.0000000000
10
-21.9855900751
20
-8.6772997524
30
0.0000000000
10
-21.7198752311
20
-9.0305898439
30
0.0000000000
10
-21.4207665571
20
-9.4424180611
30
0.0000000000
10
-21.2554357469
20
-9.6757513195
30
0.0000000000
10
-21.2162898160
20
-9.7314418983
30
0.0000000000
11
-22.1220588887
21
-8.4986870301
31
0.0000000000
11
-21.7169590514
21
-9.0376375224
31
0.0000000000
11
-21.3343195846
21
-9.5647487494
31
0.0000000000
11
-21.2162898160
21
-9.7314418983
31
0.0000000000
0
SPLINE
5
3DA
100
AcDbEntity
8
0
100
AcDbSpline
62
7
6
CONTINUOUS
70
0
71
3
72
8
73
4
74
2
42
0.0000001000
43
0.0000001000
44
0.0000000001
12
0.0268321604
22
-0.0381725126
32
0.0000000000
13
0.0267516338
23
-0.0382019351
33
0.0000000000
40
0.0000000000
40
0.0000000000
40
0.0000000000
40
0.0000000000
40
1.0000000000
40
1.0000000000
40
1.0000000000
40
1.0000000000
10
-21.2162898160
20
-9.7314418983
30
0.0000000000
10
-21.2073457626
20
-9.7441660692
30
0.0000000000
10
-21.1984143338
20
-9.7568955737
30
0.0000000000
10
-21.1894971226
20
-9.7696295520
30
0.0000000000
11
-21.2162898160
21
-9.7314418983
31
0.0000000000
11
-21.1894971226
21
-9.7696295520
31
0.0000000000
0
SPLINE
5
3DB
100
AcDbEntity
8
0
100
AcDbSpline
62
7
6
CONTINUOUS
70
0
71
3
72
13
73
9
74
7
42
0.0000001000
43
0.0000001000
44
0.0000000001
12
0.9445574179
22
-1.3488492506
32
0.0000000000
13
-1.5209753860
23
-0.5295529507
33
0.0000000000
40
0.0000000000
40
0.0000000000
40
0.0000000000
40
0.0000000000
40
0.2062032395
40
0.5110264256
40
0.7489099075
40
0.9099115221
40
0.9893775693
40
1.0000000000
40
1.0000000000
40
1.0000000000
40
1.0000000000
10
-21.1894971226
20
-9.7696295520
30
0.0000000000
10
-21.1245735228
20
-9.8623419137
30
0.0000000000
10
-20.9655433360
20
-10.0926955181
30
0.0000000000
10
-20.7448008371
20
-10.4294272524
30
0.0000000000
10
-20.5239254261
20
-10.7737255146
30
0.0000000000
10
-20.4391482961
20
-10.9716458740
30
0.0000000000
10
-20.3342497647
20
-11.1473729400
30
0.0000000000
10
-20.3742736314
20
-11.1680853920
30
0.0000000000
10
-20.3796591166
20
-11.1699604385
30
0.0000000000
11
-21.1894971226
21
-9.7696295520
31
0.0000000000
11
-20.9976019950
21
-10.0481463141
31
0.0000000000
11
-20.7217963863
21
-10.4663109919
31
0.0000000000
11
-20.5191797331
21
-10.8006289586
31
0.0000000000
11
-20.3987681049
21
-11.0362223047
31
0.0000000000
11
-20.3659148297
21
-11.1626123300
31
0.0000000000
11
-20.3796591166
21
-11.1699604385
31
0.0000000000
0
SPLINE
5
3DC
100
AcDbEntity
8
0
100
AcDbSpline
62
7
6
CONTINUOUS
70
0
71
3
72
14
73
10
74
8
42
0.0000001000
43
0.0000001000
44
0.0000000001
12
-0.6613369339
22
0.5842519272
32
0.0000000000
13
-0.5430085071
23
-0.6957401781
33
0.0000000000
40
0.0000000000
40
0.0000000000
40
0.0000000000
40
0.0000000000
40
0.0952161738
40
0.2325212717
40
0.4030801731
40
0.5940437797
40
0.7882818908
40
0.9683623830
40
1.0000000000
40
1.0000000000
40
1.0000000000
40
1.0000000000
10
-19.7311925695
20
-10.5276524364
30
0.0000000000
10
-19.7521825603
20
-10.5091090254
30
0.0000000000
10
-19.8219304790
20
-10.4884713580
30
0.0000000000
10
-19.9403004643
20
-10.4927616768
30
0.0000000000
10
-20.0842576479
20
-10.5268270158
30
0.0000000000
10
-20.2350837140
20
-10.5916431610
30
0.0000000000
10
-20.3755439545
20
-10.6819867484
30
0.0000000000
10
-20.4639593440
20
-10.7636269773
30
0.0000000000
10
-20.5034001025
20
-10.8118475858
30
0.0000000000
10
-20.5091266009
20
-10.8191847729
30
0.0000000000
11
-19.7311925695
21
-10.5276524364
31
0.0000000000
11
-19.8090596944
21
-10.4960826547
31
0.0000000000
11
-19.9302244022
21
-10.4959378605
31
0.0000000000
11
-20.0769846676
21
-10.5293229120
31
0.0000000000
11
-20.2320262907
21
-10.5953504802
31
0.0000000000
11
-20.3759692314
21
-10.6884107022
31
0.0000000000
11
-20.4914636689
21
-10.7975621158
31
0.0000000000
11
-20.5091266009
21
-10.8191847729
31
0.0000000000
0
SPLINE
5
3DD
100
AcDbEntity
8
0
100
AcDbSpline
62
7
6
CONTINUOUS
70
0
71
3
72
9
73
5
74
3
42
0.0000001000
43
0.0000001000
44
0.0000000001
12
0.1779218975
22
-0.1571834358
32
0.0000000000
13
0.2146208001
23
0.0618801959
33
0.0000000000
40
0.0000000000
40
0.0000000000
40
0.0000000000
40
0.0000000000
40
0.8049781941
40
1.0000000000
40
1.0000000000
40
1.0000000000
40
1.0000000000
10
-19.7311925695
20
-10.5276524364
30
0.0000000000
10
-19.6834514869
20
-10.5698288492
30
0.0000000000
10
-19.6390043773
20
-10.6443282124
30
0.0000000000
10
-19.5423218907
20
-10.6450619318
30
0.0000000000
10
-19.5283699787
20
-10.6410392693
30
0.0000000000
11
-19.7311925695
21
-10.5276524364
31
0.0000000000
11
-19.5780455825
21
-10.6419701832
31
0.0000000000
11
-19.5283699787
21
-10.6410392693
31
0.0000000000
0
SPLINE
5
3DE
100
AcDbEntity
8
0
100
AcDbSpline
62
7
6
CONTINUOUS
70
0
71
3
72
9
73
5
74
3
42
0.0000001000
43
0.0000001000
44
0.0000000001
12
0.0285318741
22
-0.0775652157
32
0.0000000000
13
-0.0667501310
23
-0.0177920924
33
0.0000000000
40
0.0000000000
40
0.0000000000
40
0.0000000000
40
0.0000000000
40
0.8924907895
40
1.0000000000
40
1.0000000000
40
1.0000000000
40
1.0000000000
10
-28.0364339798
20
-15.8676667947
30
0.0000000000
10
-28.0279458348
20
-15.8907422082
30
0.0000000000
10
-28.0096070891
20
-15.9338579209
30
0.0000000000
10
-28.0287820569
20
-15.9428860508
30
0.0000000000
10
-28.0311741415
20
-15.9435236554
30
0.0000000000
11
-28.0364339798
21
-15.8676667947
31
0.0000000000
11
-28.0250926777
21
-15.9405508444
31
0.0000000000
11
-28.0311741415
21
-15.9435236554
31
0.0000000000
0
SPLINE
5
3DF
100
AcDbEntity
8
0
100
AcDbSpline
62
7
6
CONTINUOUS
70
0
71
3
72
11
73
7
74
5
42
0.0000001000
43
0.0000001000
44
0.0000000001
12
1.0367324331
22
-1.1525322542
32
0.0000000000
13
0.9505548414
23
-1.2245956849
33
0.0000000000
40
0.0000000000
40
0.0000000000
40
0.0000000000
40
0.0000000000
40
0.2344913750
40
0.5034211081
40
0.7966147043
40
1.0000000000
40
1.0000000000
40
1.0000000000
40
1.0000000000
10
-30.4451870344
20
-12.5926064338
30
0.0000000000
10
-30.3641520965
20
-12.6826927248
30
0.0000000000
10
-30.1933379115
20
-12.8789363363
30
0.0000000000
10
-29.9297047817
20
-13.1951021517
30
0.0000000000
10
-29.6816617063
20
-13.5032607162
30
0.0000000000
10
-29.5233106579
20
-13.7051794107
30
0.0000000000
10
-29.4588676988
20
-13.7882009958
30
0.0000000000
11
-30.4451870344
21
-12.5926064338
31
0.0000000000
11
-30.2059367390
21
-12.8662834424
31
0.0000000000
11
-29.9386247777
21
-13.1862013005
31
0.0000000000
11
-29.6534514392
21
-13.5401171943
31
0.0000000000
11
-29.4588676988
21
-13.7882009958
31
0.0000000000
0
SPLINE
5
3E0
100
AcDbEntity
8
0
100
AcDbSpline
62
7
6
CONTINUOUS
70
0
71
3
72
8
73
4
74
2
42
0.0000001000
43
0.0000001000
44
0.0000000001
12
0.0974069620
22
-0.1254889673
32
0.0000000000
13
0.0967830554
23
-0.1259713892
33
0.0000000000
40
0.0000000000
40
0.0000000000
40
0.0000000000
40
0.0000000000
40
1.0000000000
40
1.0000000000
40
1.0000000000
40
1.0000000000
10
-29.4588676988
20
-13.7882009958
30
0.0000000000
10
-29.4263987114
20
-13.8300306516
30
0.0000000000
10
-29.3940346556
20
-13.8719418315
30
0.0000000000
10
-29.3617736371
20
-13.9139322946
30
0.0000000000
11
-29.4588676988
21
-13.7882009958
31
0.0000000000
11
-29.3617736371
21
-13.9139322946
31
0.0000000000
0
SPLINE
5
3E1
100
AcDbEntity
8
0
100
AcDbSpline
62
7
6
CONTINUOUS
70
0
71
3
72
8
73
4
74
2
42
0.0000001000
43
0.0000001000
44
0.0000000001
12
0.2895441928
22
-0.3768664260
32
0.0000000000
13
0.2838229476
23
-0.3811864810
33
0.0000000000
40
0.0000000000
40
0.0000000000
40
0.0000000000
40
0.0000000000
40
1.0000000000
40
1.0000000000
40
1.0000000000
40
1.0000000000
10
-29.3617736371
20
-13.9139322946
30
0.0000000000
10
-29.2652589062
20
-14.0395544366
30
0.0000000000
10
-29.1696663769
20
-14.1658861755
30
0.0000000000
10
-29.0750587277
20
-14.2929483359
30
0.0000000000
11
-29.3617736371
21
-13.9139322946
31
0.0000000000
11
-29.0750587277
21
-14.2929483359
31
0.0000000000
0
SPLINE
5
3E2
100
AcDbEntity
8
0
100
AcDbSpline
62
7
6
CONTINUOUS
70
0
71
3
72
13
73
9
74
7
42
0.0000001000
43
0.0000001000
44
0.0000000001
12
2.0525731702
22
-2.2818392742
32
0.0000000000
13
1.8089084557
23
-2.4794550391
33
0.0000000000
40
0.0000000000
40
0.0000000000
40
0.0000000000
40
0.0000000000
40
0.1369103149
40
0.2932732359
40
0.4637710001
40
0.6425092069
40
0.8233285680
40
1.0000000000
40
1.0000000000
40
1.0000000000
40
1.0000000000
10
-25.9309639010
20
-8.5974961476
30
0.0000000000
10
-25.8372910880
20
-8.7016319255
30
0.0000000000
10
-25.6400367704
20
-8.9277602679
30
0.0000000000
10
-25.3354431183
20
-9.2915734918
30
0.0000000000
10
-25.0100075981
20
-9.6936550880
30
0.0000000000
10
-24.6750225754
20
-10.1201168794
30
0.0000000000
10
-24.3421273009
20
-10.5561832958
30
0.0000000000
10
-24.1242684331
20
-10.8499694147
30
0.0000000000
10
-24.0177409507
20
-10.9959857055
30
0.0000000000
11
-25.9309639010
21
-8.5974961476
31
0.0000000000
11
-25.6541316206
21
-8.9136188985
31
0.0000000000
11
-25.3457073692
21
-9.2812923172
31
0.0000000000
11
-25.0162840657
21
-9.6878761526
31
0.0000000000
11
-24.6773305845
21
-10.1192108920
31
0.0000000000
11
-24.3405945798
21
-10.5603421708
31
0.0000000000
11
-24.0177409507
21
-10.9959857055
31
0.0000000000
0
SPLINE
5
3E3
100
AcDbEntity
8
0
100
AcDbSpline
62
7
6
CONTINUOUS
70
0
71
3
72
13
73
9
74
7
42
0.0000001000
43
0.0000001000
44
0.0000000001
12
2.6487454932
22
-2.9446022104
32
0.0000000000
13
2.3125088948
23
-3.2154062693
33
0.0000000000
40
0.0000000000
40
0.0000000000
40
0.0000000000
40
0.0000000000
40
0.1373990247
40
0.2952762928
40
0.4674110934
40
0.6469874397
40
0.8268921435
40
1.0000000000
40
1.0000000000
40
1.0000000000
40
1.0000000000
10
-21.2662666632
20
-4.4692155186
30
0.0000000000
10
-21.1449549808
20
-4.6040773425
30
0.0000000000
10
-20.8889857994
20
-4.8981614671
30
0.0000000000
10
-20.4938005860
20
-5.3721369329
30
0.0000000000
10
-20.0719803942
20
-5.8962735455
30
0.0000000000
10
-19.6403641502
20
-6.4497423901
30
0.0000000000
10
-19.2161665240
20
-7.0105267440
30
0.0000000000
10
-18.9406811398
20
-7.3864697096
30
0.0000000000
10
-18.8072433205
20
-7.5720070719
30
0.0000000000
11
-21.2662666632
21
-4.4692155186
31
0.0000000000
11
-20.9081064155
21
-4.8789219496
31
0.0000000000
11
-20.5071926266
21
-5.3587746888
31
0.0000000000
11
-20.0794773691
21
-5.8896775027
31
0.0000000000
11
-19.6420133567
21
-6.4504620834
31
0.0000000000
11
-19.2122289068
21
-7.0187850959
31
0.0000000000
11
-18.8072433205
21
-7.5720070719
31
0.0000000000
0
SPLINE
5
3E4
100
AcDbEntity
8
0
100
AcDbSpline
62
7
6
CONTINUOUS
70
0
71
3
72
11
73
7
74
5
42
0.0000001000
43
0.0000001000
44
0.0000000001
12
-0.0953278589
22
-0.0253977173
32
0.0000000000
13
0.0877631724
23
-0.1330627716
33
0.0000000000
40
0.0000000000
40
0.0000000000
40
0.0000000000
40
0.0000000000
40
0.0081157017
40
0.1476444781
40
0.4894379378
40
1.0000000000
40
1.0000000000
40
1.0000000000
40
1.0000000000
10
-4.4208927631
20
0.3484509312
30
0.0000000000
10
-4.4211506473
20
0.3483822244
30
0.0000000000
10
-4.4254073655
20
0.3466472565
30
0.0000000000
10
-4.4105550207
20
0.3093037487
30
0.0000000000
10
-4.3890937768
20
0.2742196718
30
0.0000000000
10
-4.3630981807
20
0.2320345769
30
0.0000000000
10
-4.3481619986
20
0.2093889759
30
0.0000000000
11
-4.4208927631
21
0.3484509312
31
0.0000000000
11
-4.4215922138
21
0.3481626945
31
0.0000000000
11
-4.4170451395
21
0.3263917131
31
0.0000000000
11
-4.3915308237
21
0.2782537713
31
0.0000000000
11
-4.3481619986
21
0.2093889759
31
0.0000000000
0
SPLINE
5
3E5
100
AcDbEntity
8
0
100
AcDbSpline
62
7
6
CONTINUOUS
70
0
71
3
72
13
73
9
74
7
42
0.0000001000
43
0.0000001000
44
0.0000000001
12
-0.2628818772
22
0.4859199444
32
0.0000000000
13
0.5430878599
23
0.1096155245
33
0.0000000000
40
0.0000000000
40
0.0000000000
40
0.0000000000
40
0.0000000000
40
0.1123981477
40
0.2693663019
40
0.4617898040
40
0.6710990317
40
0.8762996837
40
1.0000000000
40
1.0000000000
40
1.0000000000
40
1.0000000000
10
-17.7686185726
20
-9.1467255308
30
0.0000000000
10
-17.7784677179
20
-9.1285200302
30
0.0000000000
10
-17.7795411240
20
-9.0745575132
30
0.0000000000
10
-17.7426974062
20
-8.9969898048
30
0.0000000000
10
-17.6771298352
20
-8.9164693381
30
0.0000000000
10
-17.5893298219
20
-8.8461746731
30
0.0000000000
10
-17.5008630595
20
-8.7997930963
30
0.0000000000
10
-17.4425827756
20
-8.7823297319
30
0.0000000000
10
-17.4201893956
20
-8.7778099069
30
0.0000000000
11
-17.7686185726
21
-9.1467255308
31
0.0000000000
11
-17.7754347044
21
-9.0850039496
31
0.0000000000
11
-17.7428765885
21
-9.0046272731
31
0.0000000000
11
-17.6765949023
21
-8.9215114076
31
0.0000000000
11
-17.5866522333
21
-8.8488317374
31
0.0000000000
11
-17.4858247742
21
-8.7970048183
31
0.0000000000
11
-17.4201893956
21
-8.7778099069
31
0.0000000000
0
SPLINE
5
3E6
100
AcDbEntity
8
0
100
AcDbSpline
62
7
6
CONTINUOUS
70
0
71
3
72
10
73
6
74
4
42
0.0000001000
43
0.0000001000
44
0.0000000001
12
0.1503000050
22
0.0303361852
32
0.0000000000
13
0.1045296688
23
-0.1128917359
33
0.0000000000
40
0.0000000000
40
0.0000000000
40
0.0000000000
40
0.0000000000
40
0.2033956464
40
0.7193707208
40
1.0000000000
40
1.0000000000
40
1.0000000000
40
1.0000000000
10
-17.4201893956
20
-8.7778099069
30
0.0000000000
10
-17.4099992734
20
-8.7757531576
30
0.0000000000
10
-17.3736116205
20
-8.7699788633
30
0.0000000000
10
-17.3215230026
20
-8.7701610934
30
0.0000000000
10
-17.2834609572
20
-8.7920990180
30
0.0000000000
10
-17.2736829287
20
-8.8026592602
30
0.0000000000
11
-17.4201893956
21
-8.7778099069
31
0.0000000000
11
-17.3893360980
21
-8.7729599886
31
0.0000000000
11
-17.3107040117
21
-8.7793468878
31
0.0000000000
11
-17.2736829287
21
-8.8026592602
31
0.0000000000
0
SPLINE
5
3E7
100
AcDbEntity
8
0
100
AcDbSpline
62
7
6
CONTINUOUS
70
0
71
3
72
10
73
6
74
4
42
0.0000001000
43
0.0000001000
44
0.0000000001
12
0.1749794227
22
-0.3234380106
32
0.0000000000
13
-0.3032058040
23
-0.0734723604
33
0.0000000000
40
0.0000000000
40
0.0000000000
40
0.0000000000
40
0.0000000000
40
0.6596564696
40
0.9638393888
40
1.0000000000
40
1.0000000000
40
1.0000000000
40
1.0000000000
10
-17.7686185726
20
-9.1467255308
30
0.0000000000
10
-17.7301431365
20
-9.2178448562
30
0.0000000000
10
-17.6920690203
20
-9.2968353150
30
0.0000000000
10
-17.6221170254
20
-9.4668380124
30
0.0000000000
10
-17.6521693758
20
-9.4792992211
30
0.0000000000
10
-17.6558240782
20
-9.4801848229
30
0.0000000000
11
-17.7686185726
21
-9.1467255308
31
0.0000000000
11
-17.6642798320
21
-9.3657193340
31
0.0000000000
11
-17.6463914080
21
-9.4761388024
31
0.0000000000
11
-17.6558240782
21
-9.4801848229
31
0.0000000000
0
SPLINE
5
3E8
100
AcDbEntity
8
0
100
AcDbSpline
62
7
6
CONTINUOUS
70
0
71
3
72
14
73
10
74
8
42
0.0000001000
43
0.0000001000
44
0.0000000001
12
-0.4400351279
22
0.8952073685
32
0.0000000000
13
1.0011155025
23
0.0434980721
33
0.0000000000
40
0.0000000000
40
0.0000000000
40
0.0000000000
40
0.0000000000
40
0.0849416655
40
0.2052445437
40
0.3569360190
40
0.5255162833
40
0.6983574593
40
0.8608879846
40
1.0000000000
40
1.0000000000
40
1.0000000000
40
1.0000000000
10
-22.9791162028
20
-12.5707041644
30
0.0000000000
10
-22.9915753083
20
-12.5453573627
30
0.0000000000
10
-22.9903212369
20
-12.4717583687
30
0.0000000000
10
-22.9438472171
20
-12.3623441506
30
0.0000000000
10
-22.8579158016
20
-12.2419808297
30
0.0000000000
10
-22.7379839369
20
-12.1289359941
30
0.0000000000
10
-22.5968475073
20
-12.0369712468
30
0.0000000000
10
-22.4502798816
20
-11.9757494505
30
0.0000000000
10
-22.3508516454
20
-11.9574758870
30
0.0000000000
10
-22.3044292470
20
-11.9554588522
30
0.0000000000
11
-22.9791162028
21
-12.5707041644
31
0.0000000000
11
-22.9861749983
21
-12.4862685061
31
0.0000000000
11
-22.9444838997
21
-12.3737400041
31
0.0000000000
11
-22.8577490382
21
-12.2497523410
31
0.0000000000
11
-22.7359532970
21
-12.1338050345
31
0.0000000000
11
-22.5913909295
21
-12.0398516703
31
0.0000000000
11
-22.4412310699
21
-11.9787220993
31
0.0000000000
11
-22.3044292470
21
-11.9554588522
31
0.0000000000
0
SPLINE
5
3E9
100
AcDbEntity
8
0
100
AcDbSpline
62
7
6
CONTINUOUS
70
0
71
3
72
9
73
5
74
3
42
0.0000001000
43
0.0000001000
44
0.0000000001
12
0.1632551200
22
0.0070933703
32
0.0000000000
13
0.1110453322
23
-0.1203097772
33
0.0000000000
40
0.0000000000
40
0.0000000000
40
0.0000000000
40
0.0000000000
40
0.6619725812
40
1.0000000000
40
1.0000000000
40
1.0000000000
40
1.0000000000
10
-22.3044292470
20
-11.9554588522
30
0.0000000000
10
-22.2684057759
20
-11.9538936466
30
0.0000000000
10
-22.2134707951
20
-11.9573604304
30
0.0000000000
10
-22.1632810602
20
-11.9874405932
30
0.0000000000
10
-22.1507689378
20
-12.0009965944
30
0.0000000000
11
-22.3044292470
21
-11.9554588522
31
0.0000000000
11
-22.1977542771
21
-11.9701456658
31
0.0000000000
11
-22.1507689378
21
-12.0009965944
31
0.0000000000
0
SPLINE
5
3EA
100
AcDbEntity
8
0
100
AcDbSpline
62
7
6
CONTINUOUS
70
0
71
3
72
9
73
5
74
3
42
0.0000001000
43
0.0000001000
44
0.0000000001
12
0.0918018784
22
-0.1867617214
32
0.0000000000
13
-0.1031378415
23
-0.1058715290
33
0.0000000000
40
0.0000000000
40
0.0000000000
40
0.0000000000
40
0.0000000000
40
0.7237845106
40
1.0000000000
40
1.0000000000
40
1.0000000000
40
1.0000000000
10
-22.9791162028
20
-12.5707041644
30
0.0000000000
10
-22.9569679436
20
-12.6157625781
30
0.0000000000
10
-22.9215627278
20
-12.6645929420
30
0.0000000000
10
-22.9183097204
20
-12.7589655694
30
0.0000000000
10
-22.9278058102
20
-12.7687133548
30
0.0000000000
11
-22.9791162028
21
-12.5707041644
31
0.0000000000
11
-22.9225598351
21
-12.7103058533
31
0.0000000000
11
-22.9278058102
21
-12.7687133548
31
0.0000000000
0
SPLINE
5
3EB
100
AcDbEntity
8
0
100
AcDbSpline
62
7
6
CONTINUOUS
70
0
71
3
72
14
73
10
74
8
42
0.0000001000
43
0.0000001000
44
0.0000000001
12
-0.3359933829
22
0.9134135099
32
0.0000000000
13
0.9653459304
23
0.1014449277
33
0.0000000000
40
0.0000000000
40
0.0000000000
40
0.0000000000
40
0.0000000000
40
0.0755007214
40
0.1951838150
40
0.3495127651
40
0.5215271743
40
0.6973384946
40
0.8616234703
40
1.0000000000
40
1.0000000000
40
1.0000000000
40
1.0000000000
10
-28.0364339798
20
-15.8676667947
30
0.0000000000
10
-28.0448898940
20
-15.8446790017
30
0.0000000000
10
-28.0300018310
20
-15.7772890039
30
0.0000000000
10
-27.9782191158
20
-15.6784387094
30
0.0000000000
10
-27.8874026516
20
-15.5635450668
30
0.0000000000
10
-27.7662551727
20
-15.4540137285
30
0.0000000000
10
-27.6260780010
20
-15.3633451738
30
0.0000000000
10
-27.4832156023
20
-15.3008083462
30
0.0000000000
10
-27.3862930401
20
-15.2798094767
30
0.0000000000
10
-27.3417659668
20
-15.2751302777
30
0.0000000000
11
-28.0364339798
21
-15.8676667947
31
0.0000000000
11
-28.0312726828
21
-15.7943671970
31
0.0000000000
11
-27.9804531925
21
-15.6895562288
31
0.0000000000
11
-27.8882563385
21
-15.5709814377
31
0.0000000000
11
-27.7644091094
21
-15.4583360153
31
0.0000000000
11
-27.6206639600
21
-15.3655167684
31
0.0000000000
11
-27.4735488643
21
-15.3028902589
31
0.0000000000
11
-27.3417659668
21
-15.2751302777
31
0.0000000000
0
SPLINE
5
3EC
100
AcDbEntity
8
0
100
AcDbSpline
62
7
6
CONTINUOUS
70
0
71
3
72
9
73
5
74
3
42
0.0000001000
43
0.0000001000
44
0.0000000001
12
0.1441129889
22
0.0151443449
32
0.0000000000
13
0.0986423149
23
-0.1062341906
33
0.0000000000
40
0.0000000000
40
0.0000000000
40
0.0000000000
40
0.0000000000
40
0.6877779843
40
1.0000000000
40
1.0000000000
40
1.0000000000
40
1.0000000000
10
-27.3417659668
20
-15.2751302777
30
0.0000000000
10
-27.3087267198
20
-15.2716582953
30
0.0000000000
10
-27.2605176070
20
-15.2705498327
30
0.0000000000
10
-27.2115802727
20
-15.2943678533
30
0.0000000000
10
-27.2013141720
20
-15.3054240710
30
0.0000000000
11
-27.3417659668
21
-15.2751302777
31
0.0000000000
11
-27.2420679101
21
-15.2819247306
31
0.0000000000
11
-27.2013141720
21
-15.3054240710
31
0.0000000000
0
SPLINE
5
3ED
100
AcDbEntity
8
0
100
AcDbSpline
62
7
6
CONTINUOUS
70
0
71
3
72
10
73
6
74
4
42
0.0000001000
43
0.0000001000
44
0.0000000001
12
0.0843430951
22
0.0224711025
32
0.0000000000
13
0.0943175049
23
-0.1048524798
33
0.0000000000
40
0.0000000000
40
0.0000000000
40
0.0000000000
40
0.0000000000
40
0.1113345522
40
0.4569295388
40
1.0000000000
40
1.0000000000
40
1.0000000000
40
1.0000000000
10
-2.8383599865
20
1.5622098599
30
0.0000000000
10
-2.8352298863
20
1.5630437966
30
0.0000000000
10
-2.8079321805
20
1.5503466210
30
0.0000000000
10
-2.7830067792
20
1.5184517555
30
0.0000000000
10
-2.7509646897
20
1.4876304900
30
0.0000000000
10
-2.7338910060
20
1.4686497285
30
0.0000000000
11
-2.8383599865
21
1.5622098599
31
0.0000000000
11
-2.8228717544
21
1.5567448508
31
0.0000000000
11
-2.7864329358
21
1.5243755344
31
0.0000000000
11
-2.7338910060
21
1.4686497285
31
0.0000000000
0
SPLINE
5
3EE
100
AcDbEntity
8
0
100
AcDbSpline
62
7
6
CONTINUOUS
70
0
71
3
72
17
73
13
74
11
42
0.0000001000
43
0.0000001000
44
0.0000000001
12
-0.9448338632
22
1.2508837636
32
0.0000000000
13
0.5837750860
23
-1.4567969824
33
0.0000000000
40
0.0000000000
40
0.0000000000
40
0.0000000000
40
0.0000000000
40
0.1419256889
40
0.2681477172
40
0.3810248447
40
0.4870158672
40
0.5886429464
40
0.6890820492
40
0.7809612760
40
0.8646022307
40
0.9432048127
40
1.0000000000
40
1.0000000000
40
1.0000000000
40
1.0000000000
10
-30.8744347093
20
-15.3115098784
30
0.0000000000
10
-30.9191334417
20
-15.2523323651
30
0.0000000000
10
-31.0139979449
20
-15.1474077847
30
0.0000000000
10
-31.1838519200
20
-15.0379186831
30
0.0000000000
10
-31.3627428645
20
-14.9943349648
30
0.0000000000
10
-31.5325841410
20
-15.0158276045
30
0.0000000000
10
-31.6781410511
20
-15.0918805919
30
0.0000000000
10
-31.7840038446
20
-15.2076330183
30
0.0000000000
10
-31.8407097725
20
-15.3430784530
30
0.0000000000
10
-31.8527436661
20
-15.4770263647
30
0.0000000000
10
-31.8346732616
20
-15.5909390431
30
0.0000000000
10
-31.8121399542
20
-15.6582223800
30
0.0000000000
10
-31.8010880824
20
-15.6858020658
30
0.0000000000
11
-30.8744347093
21
-15.3115098784
31
0.0000000000
11
-31.0264648224
21
-15.1490708514
31
0.0000000000
11
-31.1946388954
21
-15.0448157938
31
0.0000000000
11
-31.3669846226
21
-15.0047214252
31
0.0000000000
11
-31.5317890077
21
-15.0258501416
31
0.0000000000
11
-31.6729596384
21
-15.0996827544
31
0.0000000000
11
-31.7789740955
21
-15.2160933769
31
0.0000000000
11
-31.8347971374
21
-15.3488669721
31
0.0000000000
11
-31.8473830869
21
-15.4793784432
31
0.0000000000
11
-31.8290446093
21
-15.6012248535
31
0.0000000000
11
-31.8010880824
21
-15.6858020658
31
0.0000000000
0
SPLINE
5
3EF
100
AcDbEntity
8
0
100
AcDbSpline
62
7
6
CONTINUOUS
70
0
71
3
72
13
73
9
74
7
42
0.0000001000
43
0.0000001000
44
0.0000000001
12
0.8906936634
22
-1.1792065096
32
0.0000000000
13
0.2687609447
23
-1.4531451231
33
0.0000000000
40
0.0000000000
40
0.0000000000
40
0.0000000000
40
0.0000000000
40
0.2408800225
40
0.4649831624
40
0.6615377194
40
0.8207902251
40
0.9351251821
40
1.0000000000
40
1.0000000000
40
1.0000000000
40
1.0000000000
10
-30.8744347093
20
-15.3115098784
30
0.0000000000
10
-30.8029179394
20
-15.4061923086
30
0.0000000000
10
-30.6663652445
20
-15.5900813421
30
0.0000000000
10
-30.4766453757
20
-15.8551369196
30
0.0000000000
10
-30.3157958952
20
-16.0910103541
30
0.0000000000
10
-30.1899092477
20
-16.2860534971
30
0.0000000000
10
-30.1084830909
20
-16.4304456883
30
0.0000000000
10
-30.0684255306
20
-16.5109341904
30
0.0000000000
10
-30.0626135915
20
-16.5423583655
30
0.0000000000
11
-30.8744347093
21
-15.3115098784
31
0.0000000000
11
-30.6622976331
21
-15.5973639662
31
0.0000000000
11
-30.4698690611
21
-15.8669000428
31
0.0000000000
11
-30.3064925293
21
-16.1070641763
31
0.0000000000
11
-30.1804021365
21
-16.3057774238
31
0.0000000000
11
-30.0978280978
21
-16.4531885539
31
0.0000000000
11
-30.0626135915
21
-16.5423583655
31
0.0000000000
0
SPLINE
5
3F0
100
AcDbEntity
8
0
100
AcDbSpline
62
7
6
CONTINUOUS
70
0
71
3
72
16
73
12
74
10
42
0.0000001000
43
0.0000001000
44
0.0000000001
12
-0.8709913373
22
1.1531222202
32
0.0000000000
13
0.2867689683
23
-1.4192425668
33
0.0000000000
40
0.0000000000
40
0.0000000000
40
0.0000000000
40
0.0000000000
40
0.1539581294
40
0.2908812438
40
0.4133280787
40
0.5283050056
40
0.6385480145
40
0.7475023307
40
0.8471710657
40
0.9379030891
40
1.0000000000
40
1.0000000000
40
1.0000000000
40
1.0000000000
10
-26.1268363796
20
-11.6702330920
30
0.0000000000
10
-26.1715351119
20
-11.6110555787
30
0.0000000000
10
-26.2663996152
20
-11.5061309984
30
0.0000000000
10
-26.4362535903
20
-11.3966418967
30
0.0000000000
10
-26.6151445347
20
-11.3530581784
30
0.0000000000
10
-26.7849858113
20
-11.3745508181
30
0.0000000000
10
-26.9305427213
20
-11.4506038056
30
0.0000000000
10
-27.0364055149
20
-11.5663562320
30
0.0000000000
10
-27.0931114428
20
-11.7018016667
30
0.0000000000
10
-27.1041338983
20
-11.8244913758
30
0.0000000000
10
-27.0949194807
20
-11.8978901173
30
0.0000000000
10
-27.0889836583
20
-11.9272669771
30
0.0000000000
11
-26.1268363796
21
-11.6702330920
31
0.0000000000
11
-26.2788664927
21
-11.5077940650
31
0.0000000000
11
-26.4470405657
21
-11.4035390075
31
0.0000000000
11
-26.6193862929
21
-11.3634446389
31
0.0000000000
11
-26.7841906780
21
-11.3845733552
31
0.0000000000
11
-26.9253613087
21
-11.4584059681
31
0.0000000000
11
-27.0313757658
21
-11.5748165906
31
0.0000000000
11
-27.0871988076
21
-11.7075901857
31
0.0000000000
11
-27.0997847571
21
-11.8381016569
31
0.0000000000
11
-27.0889836583
21
-11.9272669771
31
0.0000000000
0
SPLINE
5
3F1
100
AcDbEntity
8
0
100
AcDbSpline
62
7
6
CONTINUOUS
70
0
71
3
72
13
73
9
74
7
42
0.0000001000
43
0.0000001000
44
0.0000000001
12
0.8906936634
22
-1.1792065096
32
0.0000000000
13
0.2687609447
23
-1.4531451231
33
0.0000000000
40
0.0000000000
40
0.0000000000
40
0.0000000000
40
0.0000000000
40
0.2408800225
40
0.4649831624
40
0.6615377194
40
0.8207902251
40
0.9351251821
40
1.0000000000
40
1.0000000000
40
1.0000000000
40
1.0000000000
10
-26.1268363796
20
-11.6702330920
30
0.0000000000
10
-26.0553196097
20
-11.7649155222
30
0.0000000000
10
-25.9187669147
20
-11.9488045557
30
0.0000000000
10
-25.7290470460
20
-12.2138601333
30
0.0000000000
10
-25.5681975654
20
-12.4497335678
30
0.0000000000
10
-25.4423109180
20
-12.6447767107
30
0.0000000000
10
-25.3608847612
20
-12.7891689020
30
0.0000000000
10
-25.3208272008
20
-12.8696574040
30
0.0000000000
10
-25.3150152617
20
-12.9010815791
30
0.0000000000
11
-26.1268363796
21
-11.6702330920
31
0.0000000000
11
-25.9146993033
21
-11.9560871799
31
0.0000000000
11
-25.7222707313
21
-12.2256232564
31
0.0000000000
11
-25.5588941995
21
-12.4657873899
31
0.0000000000
11
-25.4328038068
21
-12.6645006375
31
0.0000000000
11
-25.3502297680
21
-12.8119117676
31
0.0000000000
11
-25.3150152617
21
-12.9010815791
31
0.0000000000
0
SPLINE
5
3F2
100
AcDbEntity
8
0
100
AcDbSpline
62
7
6
CONTINUOUS
70
0
71
3
72
16
73
12
74
10
42
0.0000001000
43
0.0000001000
44
0.0000000001
12
-0.8192834335
22
1.0846651297
32
0.0000000000
13
0.0613983628
23
-1.3611345060
33
0.0000000000
40
0.0000000000
40
0.0000000000
40
0.0000000000
40
0.0000000000
40
0.1636749768
40
0.3092397980
40
0.4394146900
40
0.5616482214
40
0.6788490604
40
0.7946798727
40
0.9006390576
40
0.9970975030
40
1.0000000000
40
1.0000000000
40
1.0000000000
40
1.0000000000
10
-21.3792380498
20
-8.0289563057
30
0.0000000000
10
-21.4239367821
20
-7.9697787924
30
0.0000000000
10
-21.5188012854
20
-7.8648542121
30
0.0000000000
10
-21.6886552605
20
-7.7553651104
30
0.0000000000
10
-21.8675462050
20
-7.7117813921
30
0.0000000000
10
-22.0373874815
20
-7.7332740318
30
0.0000000000
10
-22.1829443915
20
-7.8093270192
30
0.0000000000
10
-22.2888071851
20
-7.9250794456
30
0.0000000000
10
-22.3455131130
20
-8.0605248804
30
0.0000000000
10
-22.3539439917
20
-8.1543680408
30
0.0000000000
10
-22.3520827577
20
-8.1994595396
30
0.0000000000
10
-22.3520233548
20
-8.2007764359
30
0.0000000000
11
-21.3792380498
21
-8.0289563057
31
0.0000000000
11
-21.5312681629
21
-7.8665172787
31
0.0000000000
11
-21.6994422359
21
-7.7622622211
31
0.0000000000
11
-21.8717879631
21
-7.7221678525
31
0.0000000000
11
-22.0365923482
21
-7.7432965689
31
0.0000000000
11
-22.1777629789
21
-7.8171291818
31
0.0000000000
11
-22.2837774360
21
-7.9335398043
31
0.0000000000
11
-22.3396004778
21
-8.0663133994
31
0.0000000000
11
-22.3521864273
21
-8.1968248706
31
0.0000000000
11
-22.3520233548
21
-8.2007764359
31
0.0000000000
0
SPLINE
5
3F3
100
AcDbEntity
8
0
100
AcDbSpline
62
7
6
CONTINUOUS
70
0
71
3
72
13
73
9
74
7
42
0.0000001000
43
0.0000001000
44
0.0000000001
12
0.8906936634
22
-1.1792065096
32
0.0000000000
13
0.2687609447
23
-1.4531451231
33
0.0000000000
40
0.0000000000
40
0.0000000000
40
0.0000000000
40
0.0000000000
40
0.2408800225
40
0.4649831624
40
0.6615377194
40
0.8207902251
40
0.9351251821
40
1.0000000000
40
1.0000000000
40
1.0000000000
40
1.0000000000
10
-21.3792380498
20
-8.0289563057
30
0.0000000000
10
-21.3077212799
20
-8.1236387359
30
0.0000000000
10
-21.1711685850
20
-8.3075277694
30
0.0000000000
10
-20.9814487162
20
-8.5725833470
30
0.0000000000
10
-20.8205992357
20
-8.8084567815
30
0.0000000000
10
-20.6947125882
20
-9.0034999244
30
0.0000000000
10
-20.6132864314
20
-9.1478921156
30
0.0000000000
10
-20.5732288711
20
-9.2283806177
30
0.0000000000
10
-20.5674169319
20
-9.2598047928
30
0.0000000000
11
-21.3792380498
21
-8.0289563057
31
0.0000000000
11
-21.1671009736
21
-8.3148103936
31
0.0000000000
11
-20.9746724016
21
-8.5843464701
31
0.0000000000
11
-20.8112958698
21
-8.8245106036
31
0.0000000000
11
-20.6852054770
21
-9.0232238512
31
0.0000000000
11
-20.6026314383
21
-9.1706349813
31
0.0000000000
11
-20.5674169319
21
-9.2598047928
31
0.0000000000
0
SPLINE
5
3F4
100
AcDbEntity
8
0
100
AcDbSpline
62
7
6
CONTINUOUS
70
0
71
3
72
14
73
10
74
8
42
0.0000001000
43
0.0000001000
44
0.0000000001
12
-0.3906105600
22
0.5374271784
32
0.0000000000
13
-0.2372495290
23
-0.6277762541
33
0.0000000000
40
0.0000000000
40
0.0000000000
40
0.0000000000
40
0.0000000000
40
0.1869079467
40
0.3588613780
40
0.5146409953
40
0.6581459898
40
0.7861309155
40
0.9057874553
40
1.0000000000
40
1.0000000000
40
1.0000000000
40
1.0000000000
10
-16.6055472138
20
-4.8414320193
30
0.0000000000
10
-16.6298832864
20
-4.8079488825
30
0.0000000000
10
-16.6799472166
20
-4.7459298664
30
0.0000000000
10
-16.7640809796
20
-4.6682485996
30
0.0000000000
10
-16.8540357129
20
-4.6135658532
30
0.0000000000
10
-16.9469121392
20
-4.5879313650
30
0.0000000000
10
-17.0358621487
20
-4.5988255893
30
0.0000000000
10
-17.1002111707
20
-4.6446997803
30
0.0000000000
10
-17.1239378690
20
-4.6868963404
30
0.0000000000
10
-17.1313884963
20
-4.7066111398
30
0.0000000000
11
-16.6055472138
21
-4.8414320193
31
0.0000000000
11
-16.6843671985
21
-4.7454752898
31
0.0000000000
11
-16.7691979805
21
-4.6689561328
31
0.0000000000
11
-16.8585260741
21
-4.6166858323
31
0.0000000000
11
-16.9510470766
21
-4.5936638794
31
0.0000000000
11
-17.0351650083
21
-4.6060913872
31
0.0000000000
11
-17.0998260306
21
-4.6523390364
31
0.0000000000
11
-17.1313884963
21
-4.7066111398
31
0.0000000000
0
SPLINE
5
3F5
100
AcDbEntity
8
0
100
AcDbSpline
62
7
6
CONTINUOUS
70
0
71
3
72
11
73
7
74
5
42
0.0000001000
43
0.0000001000
44
0.0000000001
12
0.5868219508
22
-0.8073874531
32
0.0000000000
13
0.4510148795
23
-0.8904044473
33
0.0000000000
40
0.0000000000
40
0.0000000000
40
0.0000000000
40
0.0000000000
40
0.3211547764
40
0.6027725668
40
0.8324097680
40
1.0000000000
40
1.0000000000
40
1.0000000000
40
1.0000000000
10
-16.6055472138
20
-4.8414320193
30
0.0000000000
10
-16.5427269897
20
-4.9278641316
30
0.0000000000
10
-16.4261947473
20
-5.0910885727
30
0.0000000000
10
-16.2700004038
20
-5.3198425320
30
0.0000000000
10
-16.1481675117
20
-5.5100119458
30
0.0000000000
10
-16.0815605364
20
-5.6243371287
30
0.0000000000
10
-16.0563653070
20
-5.6740781580
30
0.0000000000
11
-16.6055472138
21
-4.8414320193
31
0.0000000000
11
-16.4195240891
21
-5.1024826129
31
0.0000000000
11
-16.2615141371
21
-5.3349536834
31
0.0000000000
11
-16.1385971999
21
-5.5284119573
31
0.0000000000
11
-16.0563653070
21
-5.6740781580
31
0.0000000000
0
SPLINE
5
3F6
100
AcDbEntity
8
0
100
AcDbSpline
62
7
6
CONTINUOUS
70
0
71
3
72
10
73
6
74
4
42
0.0000001000
43
0.0000001000
44
0.0000000001
12
0.6389399272
22
-0.7103075500
32
0.0000000000
13
0.5897244587
23
-0.7516688826
33
0.0000000000
40
0.0000000000
40
0.0000000000
40
0.0000000000
40
0.0000000000
40
0.2930348644
40
0.6315524297
40
1.0000000000
40
1.0000000000
40
1.0000000000
40
1.0000000000
10
-20.0187405831
20
-5.2767230009
30
0.0000000000
10
-19.9563300248
20
-5.3461046265
30
0.0000000000
10
-19.8245292444
20
-5.4980716758
30
0.0000000000
10
-19.6213551325
20
-5.7433276913
30
0.0000000000
10
-19.4809429922
20
-5.9193410848
30
0.0000000000
10
-19.4085154776
20
-6.0116579426
30
0.0000000000
11
-20.0187405831
21
-5.2767230009
31
0.0000000000
11
-19.8347716049
21
-5.4877571329
31
0.0000000000
11
-19.6281755341
21
-5.7365892537
31
0.0000000000
11
-19.4085154776
21
-6.0116579426
31
0.0000000000
0
SPLINE
5
3F7
100
AcDbEntity
8
0
100
AcDbSpline
62
7
6
CONTINUOUS
70
0
71
3
72
19
73
15
74
13
42
0.0000001000
43
0.0000001000
44
0.0000000001
12
3.7911878217
22
1.6246417080
32
0.0000000000
13
-2.7804707298
23
3.0910407504
33
0.0000000000
40
0.0000000000
40
0.0000000000
40
0.0000000000
40
0.0000000000
40
0.0030688891
40
0.0265184043
40
0.0731818686
40
0.1416997851
40
0.2292572318
40
0.3321089054
40
0.4458087153
40
0.5654233128
40
0.6857556312
40
0.8015766741
40
0.9078583869
40
1.0000000000
40
1.0000000000
40
1.0000000000
40
1.0000000000
10
28.0513316935
20
14.0265522699
30
0.0000000000
10
28.0552099385
20
14.0282142183
30
0.0000000000
10
28.0846075296
20
14.0458890869
30
0.0000000000
10
28.0055544386
20
14.1718529443
30
0.0000000000
10
27.9439123957
20
14.3194421082
30
0.0000000000
10
27.7825578121
20
14.5690914494
30
0.0000000000
10
27.5895951905
20
14.8641362718
30
0.0000000000
10
27.3464322123
20
15.2110881389
30
0.0000000000
10
27.0732031602
20
15.5876084189
30
0.0000000000
10
26.7785818680
20
15.9795526395
30
0.0000000000
10
26.4763765372
20
16.3690785459
30
0.0000000000
10
26.1795270478
20
16.7393908420
30
0.0000000000
10
25.9011055685
20
17.0742902050
30
0.0000000000
10
25.7207004198
20
17.2818830034
30
0.0000000000
10
25.6353014005
20
17.3768208303
30
0.0000000000
11
28.0513316935
21
14.0265522699
31
0.0000000000
11
28.0612367562
21
14.0326797193
31
0.0000000000
11
28.0356154916
21
14.1267463191
31
0.0000000000
11
27.9469901082
21
14.2993280755
31
0.0000000000
11
27.7992339605
21
14.5428823377
31
0.0000000000
11
27.5988047012
21
14.8467646157
31
0.0000000000
11
27.3544620506
21
15.1976937958
31
0.0000000000
11
27.0768849551
21
15.5803325888
31
0.0000000000
11
26.7782048658
21
15.9779578434
31
0.0000000000
11
26.4714755356
21
16.3731914280
31
0.0000000000
11
26.1701025084
21
16.7487597383
31
0.0000000000
11
25.8872572314
21
17.0882486371
31
0.0000000000
11
25.6353014005
21
17.3768208303
31
0.0000000000
0
SPLINE
5
3F8
100
AcDbEntity
8
0
100
AcDbSpline
62
7
6
CONTINUOUS
70
0
71
3
72
10
73
6
74
4
42
0.0000001000
43
0.0000001000
44
0.0000000001
12
0.6389399272
22
-0.7103075500
32
0.0000000000
13
0.5897244587
23
-0.7516688826
33
0.0000000000
40
0.0000000000
40
0.0000000000
40
0.0000000000
40
0.0000000000
40
0.2930348644
40
0.6315524297
40
1.0000000000
40
1.0000000000
40
1.0000000000
40
1.0000000000
10
-24.6080856352
20
-8.7966238944
30
0.0000000000
10
-24.5456750769
20
-8.8660055199
30
0.0000000000
10
-24.4138742965
20
-9.0179725693
30
0.0000000000
10
-24.2107001846
20
-9.2632285847
30
0.0000000000
10
-24.0702880443
20
-9.4392419782
30
0.0000000000
10
-23.9978605297
20
-9.5315588361
30
0.0000000000
11
-24.6080856352
21
-8.7966238944
31
0.0000000000
11
-24.4241166570
21
-9.0076580264
31
0.0000000000
11
-24.2175205862
21
-9.2564901471
31
0.0000000000
11
-23.9978605297
21
-9.5315588361
31
0.0000000000
0
SPLINE
5
3F9
100
AcDbEntity
8
0
100
AcDbSpline
62
7
6
CONTINUOUS
70
0
71
3
72
10
73
6
74
4
42
0.0000001000
43
0.0000001000
44
0.0000000001
12
0.6389399272
22
-0.7103075500
32
0.0000000000
13
0.5897244587
23
-0.7516688826
33
0.0000000000
40
0.0000000000
40
0.0000000000
40
0.0000000000
40
0.0000000000
40
0.2930348644
40
0.6315524297
40
1.0000000000
40
1.0000000000
40
1.0000000000
40
1.0000000000
10
-29.3556839649
20
-12.4379006807
30
0.0000000000
10
-29.2932734066
20
-12.5072823063
30
0.0000000000
10
-29.1614726263
20
-12.6592493556
30
0.0000000000
10
-28.9582985143
20
-12.9045053711
30
0.0000000000
10
-28.8178863741
20
-13.0805187646
30
0.0000000000
10
-28.7454588595
20
-13.1728356224
30
0.0000000000
11
-29.3556839649
21
-12.4379006807
31
0.0000000000
11
-29.1717149868
21
-12.6489348127
31
0.0000000000
11
-28.9651189159
21
-12.8977669334
31
0.0000000000
11
-28.7454588595
21
-13.1728356224
31
0.0000000000
0
SPLINE
5
3FA
100
AcDbEntity
8
0
100
AcDbSpline
62
7
6
CONTINUOUS
70
0
71
3
72
11
73
7
74
5
42
0.0000001000
43
0.0000001000
44
0.0000000001
12
0.6189638582
22
0.2652452337
32
0.0000000000
13
0.4539503110
23
-0.5046551631
33
0.0000000000
40
0.0000000000
40
0.0000000000
40
0.0000000000
40
0.0000000000
40
0.0403768014
40
0.2227742163
40
0.5464781218
40
1.0000000000
40
1.0000000000
40
1.0000000000
40
1.0000000000
10
25.1367321804
20
17.8199168513
30
0.0000000000
10
25.1450627740
20
17.8234867694
30
0.0000000000
10
25.2031475650
20
17.8334202714
30
0.0000000000
10
25.2867719039
20
17.7190502850
30
0.0000000000
10
25.4500391413
20
17.5900377539
30
0.0000000000
10
25.5666759346
20
17.4531115495
30
0.0000000000
10
25.6353014005
20
17.3768208303
30
0.0000000000
11
25.1367321804
21
17.8199168513
31
0.0000000000
11
25.1653297442
21
17.8252296832
31
0.0000000000
11
25.2662735121
21
17.7535436509
31
0.0000000000
11
25.4252466945
21
17.6018643285
31
0.0000000000
11
25.6353014005
21
17.3768208303
31
0.0000000000
0
SPLINE
5
3FB
100
AcDbEntity
8
0
100
AcDbSpline
62
7
6
CONTINUOUS
70
0
71
3
72
12
73
8
74
6
42
0.0000001000
43
0.0000001000
44
0.0000000001
12
0.3216483396
22
0.2550635469
32
0.0000000000
13
-0.1956603956
23
0.3595189681
33
0.0000000000
40
0.0000000000
40
0.0000000000
40
0.0000000000
40
0.0000000000
40
0.0860681897
40
0.3676331266
40
0.6276826644
40
0.8439811524
40
1.0000000000
40
1.0000000000
40
1.0000000000
40
1.0000000000
10
-21.6277941482
20
-4.0851870431
30
0.0000000000
10
-21.6185662514
20
-4.0778694238
30
0.0000000000
10
-21.5801516993
20
-4.0453222696
30
0.0000000000
10
-21.5220244208
20
-3.9818315120
30
0.0000000000
10
-21.4681256036
20
-3.8924829073
30
0.0000000000
10
-21.4407913257
20
-3.8102457712
30
0.0000000000
10
-21.4441790219
20
-3.7560021429
30
0.0000000000
10
-21.4543545917
20
-3.7373048978
30
0.0000000000
11
-21.6277941482
21
-4.0851870431
31
0.0000000000
11
-21.6008189439
21
-4.0623756333
31
0.0000000000
11
-21.5231777616
21
-3.9772053814
31
0.0000000000
11
-21.4689736405
21
-3.8855990369
31
0.0000000000
11
-21.4447607376
21
-3.8004406302
31
0.0000000000
11
-21.4543545917
21
-3.7373048978
31
0.0000000000
0
SPLINE
5
3FC
100
AcDbEntity
8
0
100
AcDbSpline
62
7
6
CONTINUOUS
70
0
71
3
72
14
73
10
74
8
42
0.0000001000
43
0.0000001000
44
0.0000000001
12
0.7433128997
22
-0.0065240461
32
0.0000000000
13
-0.4559536417
23
0.5811632184
33
0.0000000000
40
0.0000000000
40
0.0000000000
40
0.0000000000
40
0.0000000000
40
0.0939754717
40
0.2224011513
40
0.3506754359
40
0.4890747754
40
0.6425395165
40
0.8137167165
40
1.0000000000
40
1.0000000000
40
1.0000000000
40
1.0000000000
10
-19.5444433500
20
-6.5783235683
30
0.0000000000
10
-19.5211589565
20
-6.5785279350
30
0.0000000000
10
-19.4659965276
20
-6.5722370089
30
0.0000000000
10
-19.3860100797
20
-6.5339221686
30
0.0000000000
10
-19.3201348861
20
-6.4588672273
30
0.0000000000
10
-19.2860830640
20
-6.3585183525
30
0.0000000000
10
-19.2899729984
20
-6.2424325856
30
0.0000000000
10
-19.3319367037
20
-6.1222452201
30
0.0000000000
10
-19.3802032971
20
-6.0477449401
30
0.0000000000
10
-19.4085154776
20
-6.0116579426
30
0.0000000000
11
-19.5444433500
21
-6.5783235683
31
0.0000000000
11
-19.4753330056
21
-6.5699960727
31
0.0000000000
11
-19.3899180873
21
-6.5287202972
31
0.0000000000
11
-19.3271097724
21
-6.4577744864
31
0.0000000000
11
-19.2931744949
21
-6.3613386229
31
0.0000000000
11
-19.2951731451
21
-6.2479952960
31
0.0000000000
11
-19.3350317763
21
-6.1279971201
31
0.0000000000
11
-19.4085154776
21
-6.0116579426
31
0.0000000000
0
SPLINE
5
3FD
100
AcDbEntity
8
0
100
AcDbSpline
62
7
6
CONTINUOUS
70
0
71
3
72
14
73
10
74
8
42
0.0000001000
43
0.0000001000
44
0.0000000001
12
0.8436624286
22
0.3183546070
32
0.0000000000
13
-0.4044998132
23
0.8053088452
33
0.0000000000
40
0.0000000000
40
0.0000000000
40
0.0000000000
40
0.0000000000
40
0.0474309556
40
0.2239392707
40
0.4139745795
40
0.6001029235
40
0.7681634516
40
0.9033400722
40
1.0000000000
40
1.0000000000
40
1.0000000000
40
1.0000000000
10
-26.2519457668
20
-8.2579241464
30
0.0000000000
10
-26.2386071950
20
-8.2528908586
30
0.0000000000
10
-26.1765432321
20
-8.2267773998
30
0.0000000000
10
-26.0698661943
20
-8.1609014209
30
0.0000000000
10
-25.9462135845
20
-8.0488975588
30
0.0000000000
10
-25.8453420977
20
-7.9192877962
30
0.0000000000
10
-25.7767276447
20
-7.7878701531
30
0.0000000000
10
-25.7436865187
20
-7.6723736244
30
0.0000000000
10
-25.7469405997
20
-7.5985702213
30
0.0000000000
10
-25.7599735739
20
-7.5726231897
30
0.0000000000
11
-26.2519457668
21
-8.2579241464
31
0.0000000000
11
-26.2125120186
21
-8.2414018877
31
0.0000000000
11
-26.0762379444
21
-8.1593541897
31
0.0000000000
11
-25.9490247672
21
-8.0446979763
31
0.0000000000
11
-25.8464082696
21
-7.9120121731
31
0.0000000000
11
-25.7774807670
21
-7.7771514029
31
0.0000000000
11
-25.7481226016
21
-7.6589221831
31
0.0000000000
11
-25.7599735739
21
-7.5726231897
31
0.0000000000
0
SPLINE
5
3FE
100
AcDbEntity
8
0
100
AcDbSpline
62
7
6
CONTINUOUS
70
0
71
3
72
17
73
13
74
11
42
0.0000001000
43
0.0000001000
44
0.0000000001
12
1.3082733151
22
-0.5280414828
32
0.0000000000
13
-0.8665815369
23
1.1045537724
33
0.0000000000
40
0.0000000000
40
0.0000000000
40
0.0000000000
40
0.0000000000
40
0.1128212875
40
0.2271969434
40
0.3398330479
40
0.4514437366
40
0.5598280294
40
0.6569738216
40
0.7446949070
40
0.8290839104
40
0.9143254674
40
1.0000000000
40
1.0000000000
40
1.0000000000
40
1.0000000000
10
-24.4537222825
20
-10.4116322821
30
0.0000000000
10
-24.4045219226
20
-10.4314903888
30
0.0000000000
10
-24.2995449303
20
-10.4576730137
30
0.0000000000
10
-24.1378003948
20
-10.4406999306
30
0.0000000000
10
-23.9934643388
20
-10.3673430924
30
0.0000000000
10
-23.8853266213
20
-10.2510135867
30
0.0000000000
10
-23.8253746436
20
-10.1121984228
30
0.0000000000
10
-23.8114852665
20
-9.9739040288
30
0.0000000000
10
-23.8299599499
20
-9.8482918993
30
0.0000000000
10
-23.8701254636
20
-9.7341377938
30
0.0000000000
10
-23.9267796080
20
-9.6285279160
30
0.0000000000
10
-23.9731125403
20
-9.5631028788
30
0.0000000000
10
-23.9978605297
20
-9.5315588361
30
0.0000000000
11
-24.4537222825
21
-10.4116322821
31
0.0000000000
11
-24.2994843818
21
-10.4482393126
31
0.0000000000
11
-24.1398369338
21
-10.4310074909
31
0.0000000000
11
-23.9987496962
21
-10.3595911865
31
0.0000000000
11
-23.8919819025
21
-10.2449033022
31
0.0000000000
11
-23.8313476543
21
-10.1053427032
31
0.0000000000
11
-23.8169594262
21
-9.9697184744
31
0.0000000000
11
-23.8340988258
21
-9.8477632206
31
0.0000000000
11
-23.8727563220
21
-9.7357717002
31
0.0000000000
11
-23.9287742320
21
-9.6300194371
31
0.0000000000
11
-23.9978605297
21
-9.5315588361
31
0.0000000000
0
SPLINE
5
3FF
100
AcDbEntity
8
0
100
AcDbSpline
62
7
6
CONTINUOUS
70
0
71
3
72
14
73
10
74
8
42
0.0000001000
43
0.0000001000
44
0.0000000001
12
0.9170586946
22
0.2697337124
32
0.0000000000
13
-0.3552509010
23
0.8867784985
33
0.0000000000
40
0.0000000000
40
0.0000000000
40
0.0000000000
40
0.0000000000
40
0.1265644073
40
0.2919309961
40
0.4700416223
40
0.6437710743
40
0.7991368117
40
0.9209084804
40
1.0000000000
40
1.0000000000
40
1.0000000000
40
1.0000000000
10
-30.7843000664
20
-12.2427570819
30
0.0000000000
10
-30.7456110696
20
-12.2313775194
30
0.0000000000
10
-30.6584966224
20
-12.1971177472
30
0.0000000000
10
-30.5324453904
20
-12.1147648579
30
0.0000000000
10
-30.4100037345
20
-12.0035839622
30
0.0000000000
10
-30.3086488231
20
-11.8772636497
30
0.0000000000
10
-30.2366137529
20
-11.7514862769
30
0.0000000000
10
-30.1988781466
20
-11.6457573031
30
0.0000000000
10
-30.1918067026
20
-11.5779021579
30
0.0000000000
10
-30.2011724805
20
-11.5545232715
30
0.0000000000
11
-30.7843000664
21
-12.2427570819
31
0.0000000000
11
-30.6717346423
21
-12.1984972445
31
0.0000000000
11
-30.5383655922
21
-12.1138320839
31
0.0000000000
11
-30.4122941954
21
-11.9995687174
31
0.0000000000
11
-30.3086531594
21
-11.8699464446
31
0.0000000000
11
-30.2359358034
21
-11.7405613874
31
0.0000000000
11
-30.1995781795
21
-11.6300618001
31
0.0000000000
11
-30.2011724805
21
-11.5545232715
31
0.0000000000
0
SPLINE
5
400
100
AcDbEntity
8
0
100
AcDbSpline
62
7
6
CONTINUOUS
70
0
71
3
72
18
73
14
74
12
42
0.0000001000
43
0.0000001000
44
0.0000000001
12
1.2877252156
22
-0.7887111439
32
0.0000000000
13
-0.9291907469
23
1.1843561177
33
0.0000000000
40
0.0000000000
40
0.0000000000
40
0.0000000000
40
0.0000000000
40
0.0563893966
40
0.1725997114
40
0.2792686940
40
0.3843153369
40
0.4884056569
40
0.5894869766
40
0.6800870501
40
0.7618974569
40
0.8406002986
40
0.9200982486
40
1.0000000000
40
1.0000000000
40
1.0000000000
40
1.0000000000
10
-29.2919933685
20
-14.0069500401
30
0.0000000000
10
-29.2677886859
20
-14.0217750219
30
0.0000000000
10
-29.1908960955
20
-14.0624639215
30
0.0000000000
10
-29.0527523879
20
-14.0995384084
30
0.0000000000
10
-28.8853987245
20
-14.0819767169
30
0.0000000000
10
-28.7410626686
20
-14.0086198787
30
0.0000000000
10
-28.6329249511
20
-13.8922903730
30
0.0000000000
10
-28.5729729734
20
-13.7534752091
30
0.0000000000
10
-28.5590835963
20
-13.6151808151
30
0.0000000000
10
-28.5775582797
20
-13.4895686857
30
0.0000000000
10
-28.6177237934
20
-13.3754145802
30
0.0000000000
10
-28.6743779377
20
-13.2698047023
30
0.0000000000
10
-28.7207108701
20
-13.2043796651
30
0.0000000000
10
-28.7454588595
20
-13.1728356224
30
0.0000000000
11
-29.2919933685
21
-14.0069500401
31
0.0000000000
11
-29.2166403447
21
-14.0464643706
31
0.0000000000
11
-29.0470827116
21
-14.0895160990
31
0.0000000000
11
-28.8874352635
21
-14.0722842773
31
0.0000000000
11
-28.7463480260
21
-14.0008679728
31
0.0000000000
11
-28.6395802322
21
-13.8861800885
31
0.0000000000
11
-28.5789459841
21
-13.7466194895
31
0.0000000000
11
-28.5645577559
21
-13.6109952608
31
0.0000000000
11
-28.5816971555
21
-13.4890400069
31
0.0000000000
11
-28.6203546518
21
-13.3770484865
31
0.0000000000
11
-28.6763725618
21
-13.2712962234
31
0.0000000000
11
-28.7454588595
21
-13.1728356224
31
0.0000000000
0
SPLINE
5
401
100
AcDbEntity
8
0
100
AcDbSpline
62
7
6
CONTINUOUS
70
0
71
3
72
9
73
5
74
3
42
0.0000001000
43
0.0000001000
44
0.0000000001
12
0.0239263079
22
-0.0399228466
32
0.0000000000
13
-0.0104810508
23
-0.0455757417
33
0.0000000000
40
0.0000000000
40
0.0000000000
40
0.0000000000
40
0.0000000000
40
0.6315028292
40
1.0000000000
40
1.0000000000
40
1.0000000000
40
1.0000000000
10
-19.0863528255
20
-1.6398906844
30
0.0000000000
10
-19.0813163151
20
-1.6482944813
30
0.0000000000
10
-19.0783833711
20
-1.6653930793
30
0.0000000000
10
-19.0804673126
20
-1.6810339070
30
0.0000000000
10
-19.0817547251
20
-1.6866320843
30
0.0000000000
11
-19.0863528255
21
-1.6398906844
31
0.0000000000
11
-19.0796127032
21
-1.6693087547
31
0.0000000000
11
-19.0817547251
21
-1.6866320843
31
0.0000000000
0
SPLINE
5
402
100
AcDbEntity
8
0
100
AcDbSpline
62
7
6
CONTINUOUS
70
0
71
3
72
9
73
5
74
3
42
0.0000001000
43
0.0000001000
44
0.0000000001
12
-0.0276746702
22
-0.1203403781
32
0.0000000000
13
-0.0819840743
23
-0.0909297336
33
0.0000000000
40
0.0000000000
40
0.0000000000
40
0.0000000000
40
0.0000000000
40
0.3481442466
40
1.0000000000
40
1.0000000000
40
1.0000000000
40
1.0000000000
10
-19.0817547251
20
-1.6866320843
30
0.0000000000
10
-19.0849663175
20
-1.7005973544
30
0.0000000000
10
-19.1034770219
20
-1.7377538686
30
0.0000000000
10
-19.1279417188
20
-1.7705831244
30
0.0000000000
10
-19.1457556490
20
-1.7903408143
30
0.0000000000
11
-19.0817547251
21
-1.6866320843
31
0.0000000000
11
-19.0985767581
21
-1.7259445248
31
0.0000000000
11
-19.1457556490
21
-1.7903408143
31
0.0000000000
0
SPLINE
5
403
100
AcDbEntity
8
0
100
AcDbSpline
62
7
6
CONTINUOUS
70
0
71
3
72
12
73
8
74
6
42
0.0000001000
43
0.0000001000
44
0.0000000001
12
-0.2621268913
22
-0.2907287617
32
0.0000000000
13
-0.2957918816
23
0.2565596886
33
0.0000000000
40
0.0000000000
40
0.0000000000
40
0.0000000000
40
0.0000000000
40
0.2363357968
40
0.4793362593
40
0.7021813235
40
0.8813336379
40
1.0000000000
40
1.0000000000
40
1.0000000000
40
1.0000000000
10
-19.1457556490
20
-1.7903408143
30
0.0000000000
10
-19.1664056382
20
-1.8132440189
30
0.0000000000
10
-19.2133748498
20
-1.8552205046
30
0.0000000000
10
-19.2904567964
20
-1.9052537938
30
0.0000000000
10
-19.3686390545
20
-1.9385788792
30
0.0000000000
10
-19.4346925741
20
-1.9528490625
30
0.0000000000
10
-19.4766865062
20
-1.9457559144
30
0.0000000000
10
-19.4883866883
20
-1.9356075795
30
0.0000000000
11
-19.1457556490
21
-1.7903408143
31
0.0000000000
11
-19.2140952676
21
-1.8527354103
31
0.0000000000
11
-19.2941192306
21
-1.9042071425
31
0.0000000000
11
-19.3746332601
21
-1.9378395289
31
0.0000000000
11
-19.4438900224
21
-1.9489864214
31
0.0000000000
11
-19.4883866883
21
-1.9356075795
31
0.0000000000
0
SPLINE
5
404
100
AcDbEntity
8
0
100
AcDbSpline
62
7
6
CONTINUOUS
70
0
71
3
72
9
73
5
74
3
42
0.0000001000
43
0.0000001000
44
0.0000000001
12
0.0660369726
22
-0.0999207173
32
0.0000000000
13
0.0538232288
23
-0.1070135914
33
0.0000000000
40
0.0000000000
40
0.0000000000
40
0.0000000000
40
0.0000000000
40
0.3331755505
40
1.0000000000
40
1.0000000000
40
1.0000000000
40
1.0000000000
10
-21.7248878889
20
-7.9868910702
30
0.0000000000
10
-21.7175539207
20
-7.9979881169
30
0.0000000000
10
-21.6961127628
20
-8.0316744943
30
0.0000000000
10
-21.6765725792
20
-8.0665406833
30
0.0000000000
10
-21.6646090309
20
-8.0903271097
30
0.0000000000
11
-21.7248878889
21
-7.9868910702
31
0.0000000000
11
-21.7034776010
21
-8.0205660377
31
0.0000000000
11
-21.6646090309
21
-8.0903271097
31
0.0000000000
0
SPLINE
5
405
100
AcDbEntity
8
0
100
AcDbSpline
62
7
6
CONTINUOUS
70
0
71
3
72
14
73
10
74
8
42
0.0000001000
43
0.0000001000
44
0.0000000001
12
0.3850675361
22
-0.7656073568
32
0.0000000000
13
-0.8095995692
23
-0.2924330226
33
0.0000000000
40
0.0000000000
40
0.0000000000
40
0.0000000000
40
0.0000000000
40
0.0465067383
40
0.1861756845
40
0.3300646243
40
0.4831523282
40
0.6513344357
40
0.8352046400
40
1.0000000000
40
1.0000000000
40
1.0000000000
40
1.0000000000
10
-21.6646090309
20
-8.0903271097
30
0.0000000000
10
-21.6586396192
20
-8.1021957434
30
0.0000000000
10
-21.6358056517
20
-8.1502432446
30
0.0000000000
10
-21.6036468671
20
-8.2392651101
30
0.0000000000
10
-21.5840260326
20
-8.3633392785
30
0.0000000000
10
-21.5961406078
20
-8.4972873811
30
0.0000000000
10
-21.6529389382
20
-8.6327057757
30
0.0000000000
10
-21.7547097056
20
-8.7438337145
30
0.0000000000
10
-21.8435223000
20
-8.7924067041
30
0.0000000000
10
-21.8879950508
20
-8.8084705725
30
0.0000000000
11
-21.6646090309
21
-8.0903271097
31
0.0000000000
11
-21.6475246963
21
-8.1263354620
31
0.0000000000
11
-21.6076695279
21
-8.2391205165
31
0.0000000000
11
-21.5893877787
21
-8.3609909766
31
0.0000000000
11
-21.6020499251
21
-8.4914904786
31
0.0000000000
11
-21.6579612705
21
-8.6242362588
31
0.0000000000
11
-21.7640716594
21
-8.7405947989
31
0.0000000000
11
-21.8879950508
21
-8.8084705725
31
0.0000000000
0
SPLINE
5
406
100
AcDbEntity
8
0
100
AcDbSpline
62
7
6
CONTINUOUS
70
0
71
3
72
8
73
4
74
2
42
0.0000001000
43
0.0000001000
44
0.0000000001
12
0.0292442931
22
-0.0458534813
32
0.0000000000
13
0.0060373166
23
-0.0556085144
33
0.0000000000
40
0.0000000000
40
0.0000000000
40
0.0000000000
40
0.0000000000
40
1.0000000000
40
1.0000000000
40
1.0000000000
40
1.0000000000
10
-23.4058232894
20
-5.4387282352
30
0.0000000000
10
-23.3960751917
20
-5.4540127290
30
0.0000000000
10
-23.3909618584
20
-5.4729086186
30
0.0000000000
10
-23.3889494195
20
-5.4914447901
30
0.0000000000
11
-23.4058232894
21
-5.4387282352
31
0.0000000000
11
-23.3889494195
21
-5.4914447901
31
0.0000000000
0
SPLINE
5
407
100
AcDbEntity
8
0
100
AcDbSpline
62
7
6
CONTINUOUS
70
0
71
3
72
8
73
4
74
2
42
0.0000001000
43
0.0000001000
44
0.0000000001
12
0.0116954008
22
-0.1077239952
32
0.0000000000
13
-0.0332640459
23
-0.0998583118
33
0.0000000000
40
0.0000000000
40
0.0000000000
40
0.0000000000
40
0.0000000000
40
1.0000000000
40
1.0000000000
40
1.0000000000
40
1.0000000000
10
-23.3889494195
20
-5.4914447901
30
0.0000000000
10
-23.3850509526
20
-5.5273527885
30
0.0000000000
10
-23.3927891714
20
-5.5619108772
30
0.0000000000
10
-23.4038771867
20
-5.5951969811
30
0.0000000000
11
-23.3889494195
21
-5.4914447901
31
0.0000000000
11
-23.4038771867
21
-5.5951969811
31
0.0000000000
0
SPLINE
5
408
100
AcDbEntity
8
0
100
AcDbSpline
62
7
6
CONTINUOUS
70
0
71
3
72
14
73
10
74
8
42
0.0000001000
43
0.0000001000
44
0.0000000001
12
-0.3147581549
22
-0.9449006328
32
0.0000000000
13
-0.7480739155
23
0.6512781300
33
0.0000000000
40
0.0000000000
40
0.0000000000
40
0.0000000000
40
0.0000000000
40
0.1395239107
40
0.3025879710
40
0.4771588894
40
0.6468671006
40
0.7980571444
40
0.9178744553
40
1.0000000000
40
1.0000000000
40
1.0000000000
40
1.0000000000
10
-23.4038771867
20
-5.5951969811
30
0.0000000000
10
-23.4185159496
20
-5.6391423916
30
0.0000000000
10
-23.4629258838
20
-5.7296393412
30
0.0000000000
10
-23.5606991811
20
-5.8546961688
30
0.0000000000
10
-23.6859021714
20
-5.9675415328
30
0.0000000000
10
-23.8251072623
20
-6.0553574598
30
0.0000000000
10
-23.9619534096
20
-6.1091339700
30
0.0000000000
10
-24.0772625218
20
-6.1281041522
30
0.0000000000
10
-24.1476450525
20
-6.1117937926
30
0.0000000000
10
-24.1681237118
20
-6.0939649355
30
0.0000000000
11
-23.4038771867
21
-5.5951969811
31
0.0000000000
11
-23.4632114010
21
-5.7202192835
31
0.0000000000
11
-23.5616390956
21
-5.8485568456
31
0.0000000000
11
-23.6901272634
21
-5.9646233102
31
0.0000000000
11
-23.8329624499
21
-6.0536838091
31
0.0000000000
11
-23.9730463852
21
-6.1072011526
31
0.0000000000
11
-24.0911337269
21
-6.1205682228
31
0.0000000000
11
-24.1681237118
21
-6.0939649355
31
0.0000000000
0
SPLINE
5
409
100
AcDbEntity
8
0
100
AcDbSpline
62
7
6
CONTINUOUS
70
0
71
3
72
13
73
9
74
7
42
0.0000001000
43
0.0000001000
44
0.0000000001
12
0.4730732791
22
-0.5259141079
32
0.0000000000
13
0.3894736887
23
-0.5905033633
33
0.0000000000
40
0.0000000000
40
0.0000000000
40
0.0000000000
40
0.0000000000
40
0.1419738971
40
0.3128082428
40
0.4948957433
40
0.6782614694
40
0.8528028019
40
1.0000000000
40
1.0000000000
40
1.0000000000
40
1.0000000000
10
0.9696889051
20
-2.6486086568
30
0.0000000000
10
0.9920769241
20
-2.6734973486
30
0.0000000000
10
1.0402462125
20
-2.7293741193
30
0.0000000000
10
1.1141915464
20
-2.8196574598
30
0.0000000000
10
1.1922796670
20
-2.9191295659
30
0.0000000000
10
1.2689894191
20
-3.0207653156
30
0.0000000000
10
1.3388048745
20
-3.1172661877
30
0.0000000000
10
1.3817883661
20
-3.1797942986
30
0.0000000000
10
1.4008981780
20
-3.2087677788
30
0.0000000000
11
0.9696889051
21
-2.6486086568
31
0.0000000000
11
1.0355072695
21
-2.7244636256
31
0.0000000000
11
1.1121953049
21
-2.8178570845
31
0.0000000000
11
1.1917712770
21
-2.9191404724
31
0.0000000000
11
1.2698825553
21
-3.0226925529
31
0.0000000000
11
1.3421467026
21
-3.1228021384
31
0.0000000000
11
1.4008981780
21
-3.2087677788
31
0.0000000000
0
SPLINE
5
40A
100
AcDbEntity
8
0
100
AcDbSpline
62
7
6
CONTINUOUS
70
0
71
3
72
9
73
5
74
3
42
0.0000001000
43
0.0000001000
44
0.0000000001
12
0.0660369726
22
-0.0999207173
32
0.0000000000
13
0.0538232288
23
-0.1070135914
33
0.0000000000
40
0.0000000000
40
0.0000000000
40
0.0000000000
40
0.0000000000
40
0.3331755505
40
1.0000000000
40
1.0000000000
40
1.0000000000
40
1.0000000000
10
-26.4724862187
20
-11.6281678565
30
0.0000000000
10
-26.4651522504
20
-11.6392649032
30
0.0000000000
10
-26.4437110925
20
-11.6729512806
30
0.0000000000
10
-26.4241709090
20
-11.7078174696
30
0.0000000000
10
-26.4122073607
20
-11.7316038960
30
0.0000000000
11
-26.4724862187
21
-11.6281678565
31
0.0000000000
11
-26.4510759307
21
-11.6618428240
31
0.0000000000
11
-26.4122073607
21
-11.7316038960
31
0.0000000000
0
SPLINE
5
40B
100
AcDbEntity
8
0
100
AcDbSpline
62
7
6
CONTINUOUS
70
0
71
3
72
15
73
11
74
9
42
0.0000001000
43
0.0000001000
44
0.0000000001
12
0.4061245120
22
-0.8074737157
32
0.0000000000
13
-0.8812247079
23
-0.2191663057
33
0.0000000000
40
0.0000000000
40
0.0000000000
40
0.0000000000
40
0.0000000000
40
0.0440954303
40
0.1765227411
40
0.3129512449
40
0.4581015700
40
0.6175636754
40
0.7919004722
40
0.9683416338
40
1.0000000000
40
1.0000000000
40
1.0000000000
40
1.0000000000
10
-26.4122073607
20
-11.7316038960
30
0.0000000000
10
-26.4062379489
20
-11.7434725297
30
0.0000000000
10
-26.3834039815
20
-11.7915200309
30
0.0000000000
10
-26.3512451968
20
-11.8805418964
30
0.0000000000
10
-26.3316243624
20
-12.0046160649
30
0.0000000000
10
-26.3437389375
20
-12.1385641674
30
0.0000000000
10
-26.4005372679
20
-12.2739825621
30
0.0000000000
10
-26.5065010224
20
-12.3896890063
30
0.0000000000
10
-26.6106669761
20
-12.4440152712
30
0.0000000000
10
-26.6713149659
20
-12.4611194988
30
0.0000000000
10
-26.6806143441
20
-12.4634323145
30
0.0000000000
11
-26.4122073607
21
-11.7316038960
31
0.0000000000
11
-26.3951230260
21
-11.7676122483
31
0.0000000000
11
-26.3552678577
21
-11.8803973029
31
0.0000000000
11
-26.3369861085
21
-12.0022677629
31
0.0000000000
11
-26.3496482548
21
-12.1327672649
31
0.0000000000
11
-26.4055596003
21
-12.2655130451
31
0.0000000000
11
-26.5116699892
21
-12.3818715852
31
0.0000000000
11
-26.6529539112
21
-12.4556270347
31
0.0000000000
11
-26.6806143441
21
-12.4634323145
31
0.0000000000
0
SPLINE
5
40C
100
AcDbEntity
8
0
100
AcDbSpline
62
7
6
CONTINUOUS
70
0
71
3
72
11
73
7
74
5
42
0.0000001000
43
0.0000001000
44
0.0000000001
12
0.0877631724
22
-0.1330627716
32
0.0000000000
13
-0.0953278589
23
-0.0253977173
33
0.0000000000
40
0.0000000000
40
0.0000000000
40
0.0000000000
40
0.0000000000
40
0.5105620622
40
0.8523555219
40
0.9918842983
40
1.0000000000
40
1.0000000000
40
1.0000000000
40
1.0000000000
10
4.9961376899
20
-8.6597162901
30
0.0000000000
10
5.0110738720
20
-8.6823618911
30
0.0000000000
10
5.0370694681
20
-8.7245469860
30
0.0000000000
10
5.0585307120
20
-8.7596310629
30
0.0000000000
10
5.0733830568
20
-8.7969745707
30
0.0000000000
10
5.0691263386
20
-8.7987095386
30
0.0000000000
10
5.0688684544
20
-8.7987782454
30
0.0000000000
11
4.9961376899
21
-8.6597162901
31
0.0000000000
11
5.0395065151
21
-8.7285810855
31
0.0000000000
11
5.0650208309
21
-8.7767190273
31
0.0000000000
11
5.0695679051
21
-8.7984900087
31
0.0000000000
11
5.0688684544
21
-8.7987782454
31
0.0000000000
0
SPLINE
5
40D
100
AcDbEntity
8
0
100
AcDbSpline
62
7
6
CONTINUOUS
70
0
71
3
72
8
73
4
74
2
42
0.0000001000
43
0.0000001000
44
0.0000000001
12
0.0247365095
22
-0.0390722866
32
0.0000000000
13
0.0024045596
23
-0.0489118062
33
0.0000000000
40
0.0000000000
40
0.0000000000
40
0.0000000000
40
0.0000000000
40
1.0000000000
40
1.0000000000
40
1.0000000000
40
1.0000000000
10
-27.8977705255
20
-9.4675649052
30
0.0000000000
10
-27.8895250223
20
-9.4805890008
30
0.0000000000
10
-27.8862534905
20
-9.4976180508
30
0.0000000000
10
-27.8854519706
20
-9.5139219862
30
0.0000000000
11
-27.8977705255
21
-9.4675649052
31
0.0000000000
11
-27.8854519706
21
-9.5139219862
31
0.0000000000
0
SPLINE
5
40E
100
AcDbEntity
8
0
100
AcDbSpline
62
7
6
CONTINUOUS
70
0
71
3
72
8
73
4
74
2
42
0.0000001000
43
0.0000001000
44
0.0000000001
12
0.0051209850
22
-0.1041673619
32
0.0000000000
13
-0.0360093858
23
-0.0917476521
33
0.0000000000
40
0.0000000000
40
0.0000000000
40
0.0000000000
40
0.0000000000
40
1.0000000000
40
1.0000000000
40
1.0000000000
40
1.0000000000
10
-27.8854519706
20
-9.5139219862
30
0.0000000000
10
-27.8837449756
20
-9.5486444402
30
0.0000000000
10
-27.8932409975
20
-9.5800780552
30
0.0000000000
10
-27.9052441261
20
-9.6106606058
30
0.0000000000
11
-27.8854519706
21
-9.5139219862
31
0.0000000000
11
-27.9052441261
21
-9.6106606058
31
0.0000000000
0
SPLINE
5
40F
100
AcDbEntity
8
0
100
AcDbSpline
62
7
6
CONTINUOUS
70
0
71
3
72
14
73
10
74
8
42
0.0000001000
43
0.0000001000
44
0.0000000001
12
-0.3545725411
22
-0.9034088585
32
0.0000000000
13
-0.7803085440
23
0.5800492920
33
0.0000000000
40
0.0000000000
40
0.0000000000
40
0.0000000000
40
0.0000000000
40
0.1389712764
40
0.3034664579
40
0.4805568377
40
0.6530447675
40
0.8065288239
40
0.9256723748
40
1.0000000000
40
1.0000000000
40
1.0000000000
40
1.0000000000
10
-27.9052441261
20
-9.6106606058
30
0.0000000000
10
-27.9216692590
20
-9.6525098999
30
0.0000000000
10
-27.9677877147
20
-9.7404146811
30
0.0000000000
10
-28.0659403821
20
-9.8622446571
30
0.0000000000
10
-28.1900081721
20
-9.9745708722
30
0.0000000000
10
-28.3267768792
20
-10.0640899484
30
0.0000000000
10
-28.4603707336
20
-10.1227441894
30
0.0000000000
10
-28.5683199257
20
-10.1480279646
30
0.0000000000
10
-28.6366831228
20
-10.1433682288
30
0.0000000000
10
-28.6560159498
20
-10.1289970000
30
0.0000000000
11
-27.9052441261
21
-9.6106606058
31
0.0000000000
11
-27.9672356821
21
-9.7307205337
31
0.0000000000
11
-28.0663062965
21
-9.8562777467
31
0.0000000000
11
-28.1938577921
21
-9.9719383814
31
0.0000000000
11
-28.3345229148
21
-10.0632571563
31
0.0000000000
11
-28.4716279399
21
-10.1221799002
31
0.0000000000
11
-28.5853612073
21
-10.1441799219
31
0.0000000000
11
-28.6560159498
21
-10.1289970000
31
0.0000000000
0
SPLINE
5
410
100
AcDbEntity
8
0
100
AcDbSpline
62
7
6
CONTINUOUS
70
0
71
3
72
9
73
5
74
3
42
0.0000001000
43
0.0000001000
44
0.0000000001
12
0.0660369726
22
-0.0999207173
32
0.0000000000
13
0.0538232288
23
-0.1070135914
33
0.0000000000
40
0.0000000000
40
0.0000000000
40
0.0000000000
40
0.0000000000
40
0.3331755505
40
1.0000000000
40
1.0000000000
40
1.0000000000
40
1.0000000000
10
-31.2200845484
20
-15.2694446429
30
0.0000000000
10
-31.2127505802
20
-15.2805416895
30
0.0000000000
10
-31.1913094223
20
-15.3142280670
30
0.0000000000
10
-31.1717692387
20
-15.3490942560
30
0.0000000000
10
-31.1598056904
20
-15.3728806824
30
0.0000000000
11
-31.2200845484
21
-15.2694446429
31
0.0000000000
11
-31.1986742605
21
-15.3031196103
31
0.0000000000
11
-31.1598056904
21
-15.3728806824
31
0.0000000000
0
SPLINE
5
411
100
AcDbEntity
8
0
100
AcDbSpline
62
7
6
CONTINUOUS
70
0
71
3
72
15
73
11
74
9
42
0.0000001000
43
0.0000001000
44
0.0000000001
12
0.4283245452
22
-0.8516127489
32
0.0000000000
13
-0.9489498872
23
-0.1310251293
33
0.0000000000
40
0.0000000000
40
0.0000000000
40
0.0000000000
40
0.0000000000
40
0.0418099670
40
0.1673735790
40
0.2967310023
40
0.4343581955
40
0.5855553904
40
0.7508563224
40
0.9181525501
40
1.0000000000
40
1.0000000000
40
1.0000000000
40
1.0000000000
10
-31.1598056904
20
-15.3728806824
30
0.0000000000
10
-31.1538362787
20
-15.3847493160
30
0.0000000000
10
-31.1310023112
20
-15.4327968173
30
0.0000000000
10
-31.0988435266
20
-15.5218186828
30
0.0000000000
10
-31.0792226921
20
-15.6458928512
30
0.0000000000
10
-31.0913372673
20
-15.7798409538
30
0.0000000000
10
-31.1481355977
20
-15.9152593484
30
0.0000000000
10
-31.2540993522
20
-16.0309657926
30
0.0000000000
10
-31.3731541534
20
-16.0930571233
30
0.0000000000
10
-31.4510487720
20
-16.1105225609
30
0.0000000000
10
-31.4769384815
20
-16.1140972518
30
0.0000000000
11
-31.1598056904
21
-15.3728806824
31
0.0000000000
11
-31.1427213558
21
-15.4088890346
31
0.0000000000
11
-31.1028661875
21
-15.5216740892
31
0.0000000000
11
-31.0845844382
21
-15.6435445493
31
0.0000000000
11
-31.0972465846
21
-15.7740440513
31
0.0000000000
11
-31.1531579300
21
-15.9067898315
31
0.0000000000
11
-31.2592683189
21
-16.0231483715
31
0.0000000000
11
-31.4005522409
21
-16.0969038211
31
0.0000000000
11
-31.4769384815
21
-16.1140972518
31
0.0000000000
0
SPLINE
5
412
100
AcDbEntity
8
0
100
AcDbSpline
62
7
6
CONTINUOUS
70
0
71
3
72
9
73
5
74
3
42
0.0000001000
43
0.0000001000
44
0.0000000001
12
0.0227068576
22
-0.0357385331
32
0.0000000000
13
-0.0076829455
23
-0.0447817098
33
0.0000000000
40
0.0000000000
40
0.0000000000
40
0.0000000000
40
0.0000000000
40
0.5762723103
40
1.0000000000
40
1.0000000000
40
1.0000000000
40
1.0000000000
10
-32.3748772485
20
-13.5187432666
30
0.0000000000
10
-32.3705154707
20
-13.5256083089
30
0.0000000000
10
-32.3693062466
20
-13.5437802836
30
0.0000000000
10
-32.3709282152
20
-13.5594735568
30
0.0000000000
10
-32.3720133741
20
-13.5657986402
30
0.0000000000
11
-32.3748772485
21
-13.5187432666
31
0.0000000000
11
-32.3700619961
21
-13.5457291691
31
0.0000000000
11
-32.3720133741
21
-13.5657986402
31
0.0000000000
0
SPLINE
5
413
100
AcDbEntity
8
0
100
AcDbSpline
62
7
6
CONTINUOUS
70
0
71
3
72
9
73
5
74
3
42
0.0000001000
43
0.0000001000
44
0.0000000001
12
-0.0217760487
22
-0.1269264098
32
0.0000000000
13
-0.0601051088
23
-0.1098989142
33
0.0000000000
40
0.0000000000
40
0.0000000000
40
0.0000000000
40
0.0000000000
40
0.4396358342
40
1.0000000000
40
1.0000000000
40
1.0000000000
40
1.0000000000
10
-32.3720133741
20
-13.5657986402
30
0.0000000000
10
-32.3752045512
20
-13.5843991063
30
0.0000000000
10
-32.3902899688
20
-13.6203229460
30
0.0000000000
10
-32.4086464381
20
-13.6575718967
30
0.0000000000
10
-32.4198733545
20
-13.6780997012
30
0.0000000000
11
-32.3720133741
21
-13.5657986402
31
0.0000000000
11
-32.3891009593
21
-13.6162420378
31
0.0000000000
11
-32.4198733545
21
-13.6780997012
31
0.0000000000
0
SPLINE
5
414
100
AcDbEntity
8
0
100
AcDbSpline
62
7
6
CONTINUOUS
70
0
71
3
72
15
73
11
74
9
42
0.0000001000
43
0.0000001000
44
0.0000000001
12
-0.4357636810
22
-0.7967701312
32
0.0000000000
13
-0.8697401800
23
0.2267943097
33
0.0000000000
40
0.0000000000
40
0.0000000000
40
0.0000000000
40
0.0000000000
40
0.0436302829
40
0.1934724525
40
0.3607065373
40
0.5318616724
40
0.6958122490
40
0.8371552411
40
0.9436086602
40
1.0000000000
40
1.0000000000
40
1.0000000000
40
1.0000000000
10
-32.4198733545
20
-13.6780997012
30
0.0000000000
10
-32.4262108521
20
-13.6896874699
30
0.0000000000
10
-32.4556426992
20
-13.7405840939
30
0.0000000000
10
-32.5209323649
20
-13.8264225459
30
0.0000000000
10
-32.6227647876
20
-13.9321560303
30
0.0000000000
10
-32.7401630324
20
-14.0270422243
30
0.0000000000
10
-32.8610277079
20
-14.1029338259
30
0.0000000000
10
-32.9729850686
20
-14.1576841778
30
0.0000000000
10
-33.0582404397
20
-14.1843713057
30
0.0000000000
10
-33.1082039944
20
-14.1976382593
30
0.0000000000
10
-33.1245525991
20
-14.1933751810
30
0.0000000000
11
-32.4198733545
21
-13.6780997012
31
0.0000000000
11
-32.4397694594
21
-13.7123961055
31
0.0000000000
11
-32.5197365585
21
-13.8207677462
31
0.0000000000
11
-32.6240238030
21
-13.9290195156
31
0.0000000000
11
-32.7435929564
21
-14.0258153095
31
0.0000000000
11
-32.8683678245
21
-14.1042179633
31
0.0000000000
11
-32.9831461546
21
-14.1586762610
31
0.0000000000
11
-33.0741187016
21
-14.1883275689
31
0.0000000000
11
-33.1245525991
21
-14.1933751810
31
0.0000000000
0
SPLINE
5
415
100
AcDbEntity
8
0
100
AcDbSpline
62
7
6
CONTINUOUS
70
0
71
3
72
13
73
9
74
7
42
0.0000001000
43
0.0000001000
44
0.0000000001
12
0.2706531152
22
0.2050494567
32
0.0000000000
13
-0.1534268029
23
0.3028988929
33
0.0000000000
40
0.0000000000
40
0.0000000000
40
0.0000000000
40
0.0000000000
40
0.1530483959
40
0.3858350825
40
0.5823371547
40
0.7357668118
40
0.8642672538
40
1.0000000000
40
1.0000000000
40
1.0000000000
40
1.0000000000
10
-16.2216305401
20
-5.9387591573
30
0.0000000000
10
-16.2078228651
20
-5.9282983272
30
0.0000000000
10
-16.1734762024
20
-5.9013610382
30
0.0000000000
10
-16.1231755498
20
-5.8586457931
30
0.0000000000
10
-16.0770471062
20
-5.8113958487
30
0.0000000000
10
-16.0469391296
20
-5.7653520965
30
0.0000000000
10
-16.0390363814
20
-5.7169415857
30
0.0000000000
10
-16.0494236266
20
-5.6877825909
30
0.0000000000
10
-16.0563653070
20
-5.6740781580
30
0.0000000000
11
-16.2216305401
21
-5.9387591573
31
0.0000000000
11
-16.1807348108
21
-5.9067133518
31
0.0000000000
11
-16.1209523240
21
-5.8550079960
31
0.0000000000
11
-16.0754283831
21
-5.8062312047
31
0.0000000000
11
-16.0490450065
21
-5.7613105883
31
0.0000000000
11
-16.0428122555
21
-5.7181269998
31
0.0000000000
11
-16.0563653070
21
-5.6740781580
31
0.0000000000
0
SPLINE
5
416
100
AcDbEntity
8
0
100
AcDbSpline
62
7
6
CONTINUOUS
70
0
71
3
72
9
73
5
74
3
42
0.0000001000
43
0.0000001000
44
0.0000000001
12
0.0397135813
22
0.0335933084
32
0.0000000000
13
-0.0088008595
23
0.0475847636
33
0.0000000000
40
0.0000000000
40
0.0000000000
40
0.0000000000
40
0.0000000000
40
0.1264182814
40
1.0000000000
40
1.0000000000
40
1.0000000000
40
1.0000000000
10
-20.5924294489
20
-9.3014340834
30
0.0000000000
10
-20.5907559414
20
-9.3000184806
30
0.0000000000
10
-20.5775733819
20
-9.2884472768
30
0.0000000000
10
-20.5648541753
20
-9.2736611860
30
0.0000000000
10
-20.5674169319
20
-9.2598047928
30
0.0000000000
11
-20.5924294489
21
-9.3014340834
31
0.0000000000
11
-20.5874303135
21
-9.2970414782
31
0.0000000000
11
-20.5674169319
21
-9.2598047928
31
0.0000000000
0
SPLINE
5
417
100
AcDbEntity
8
0
100
AcDbSpline
62
7
6
CONTINUOUS
70
0
71
3
72
9
73
5
74
3
42
0.0000001000
43
0.0000001000
44
0.0000000001
12
0.0397135813
22
0.0335933084
32
0.0000000000
13
-0.0088008595
23
0.0475847636
33
0.0000000000
40
0.0000000000
40
0.0000000000
40
0.0000000000
40
0.0000000000
40
0.1264182814
40
1.0000000000
40
1.0000000000
40
1.0000000000
40
1.0000000000
10
-25.3400277787
20
-12.9427108697
30
0.0000000000
10
-25.3383542711
20
-12.9412952670
30
0.0000000000
10
-25.3251717116
20
-12.9297240631
30
0.0000000000
10
-25.3124525051
20
-12.9149379723
30
0.0000000000
10
-25.3150152617
20
-12.9010815791
30
0.0000000000
11
-25.3400277787
21
-12.9427108697
31
0.0000000000
11
-25.3350286432
21
-12.9383182646
31
0.0000000000
11
-25.3150152617
21
-12.9010815791
31
0.0000000000
0
SPLINE
5
418
100
AcDbEntity
8
0
100
AcDbSpline
62
7
6
CONTINUOUS
70
0
71
3
72
9
73
5
74
3
42
0.0000001000
43
0.0000001000
44
0.0000000001
12
0.0397135813
22
0.0335933084
32
0.0000000000
13
-0.0088008595
23
0.0475847636
33
0.0000000000
40
0.0000000000
40
0.0000000000
40
0.0000000000
40
0.0000000000
40
0.1264182814
40
1.0000000000
40
1.0000000000
40
1.0000000000
40
1.0000000000
10
-30.0876261085
20
-16.5839876561
30
0.0000000000
10
-30.0859526009
20
-16.5825720533
30
0.0000000000
10
-30.0727700414
20
-16.5710008494
30
0.0000000000
10
-30.0600508348
20
-16.5562147586
30
0.0000000000
10
-30.0626135915
20
-16.5423583655
30
0.0000000000
11
-30.0876261085
21
-16.5839876561
31
0.0000000000
11
-30.0826269730
21
-16.5795950509
31
0.0000000000
11
-30.0626135915
21
-16.5423583655
31
0.0000000000
0
SPLINE
5
419
100
AcDbEntity
8
0
100
AcDbSpline
62
7
6
CONTINUOUS
70
0
71
3
72
16
73
12
74
10
42
0.0000001000
43
0.0000001000
44
0.0000000001
12
2.5300252471
22
0.6625769717
32
0.0000000000
13
-1.9096068421
23
2.1229040475
33
0.0000000000
40
0.0000000000
40
0.0000000000
40
0.0000000000
40
0.0000000000
40
0.0033585672
40
0.0439279146
40
0.1268446345
40
0.2461763198
40
0.3924711737
40
0.5539879071
40
0.7177220206
40
0.8704859599
40
1.0000000000
40
1.0000000000
40
1.0000000000
40
1.0000000000
10
-32.5218177671
20
-18.4383311758
30
0.0000000000
10
-32.5189853472
20
-18.4375894060
30
0.0000000000
10
-32.4859188168
20
-18.4249299810
30
0.0000000000
10
-32.6012044235
20
-18.2659204192
30
0.0000000000
10
-32.6746878728
20
-18.1033818207
30
0.0000000000
10
-32.8798489117
20
-17.8107122494
30
0.0000000000
10
-33.1075257834
20
-17.4852919943
30
0.0000000000
10
-33.3781734961
20
-17.1234767323
30
0.0000000000
10
-33.6568729921
20
-16.7648614719
30
0.0000000000
10
-33.9249705856
20
-16.4354131351
30
0.0000000000
10
-34.0999686345
20
-16.2315140402
30
0.0000000000
10
-34.1824089335
20
-16.1398654135
30
0.0000000000
11
-32.5218177671
21
-18.4383311758
31
0.0000000000
11
-32.5143557323
21
-18.4354057229
31
0.0000000000
11
-32.5546357878
21
-18.3267924751
31
0.0000000000
11
-32.6733897735
21
-18.1219680319
31
0.0000000000
11
-32.8609969477
21
-17.8375260514
31
0.0000000000
11
-33.1022584929
21
-17.4965103314
31
0.0000000000
11
-33.3776288337
21
-17.1265479372
31
0.0000000000
11
-33.6647991026
21
-16.7576110219
31
0.0000000000
11
-33.9405044723
21
-16.4195886602
31
0.0000000000
11
-34.1824089335
21
-16.1398654135
31
0.0000000000
0
SPLINE
5
41A
100
AcDbEntity
8
0
100
AcDbSpline
62
7
6
CONTINUOUS
70
0
71
3
72
10
73
6
74
4
42
0.0000001000
43
0.0000001000
44
0.0000000001
12
-0.2971588726
22
-0.0729704744
32
0.0000000000
13
-0.2529959151
23
0.2444104321
33
0.0000000000
40
0.0000000000
40
0.0000000000
40
0.0000000000
40
0.0000000000
40
0.1557714725
40
0.7081738213
40
1.0000000000
40
1.0000000000
40
1.0000000000
40
1.0000000000
10
-17.1457803990
20
-9.1615239765
30
0.0000000000
10
-17.1612100240
20
-9.1653128826
30
0.0000000000
10
-17.2657534196
20
-9.1508009929
30
0.0000000000
10
-17.3380408175
20
-9.0609032774
30
0.0000000000
10
-17.4076561227
20
-8.9910746934
30
0.0000000000
10
-17.4322663998
20
-8.9672995726
30
0.0000000000
11
-17.1457803990
21
-9.1615239765
31
0.0000000000
11
-17.2046198966
21
-9.1565506417
31
0.0000000000
11
-17.3605541959
21
-9.0400750457
31
0.0000000000
11
-17.4322663998
21
-8.9672995726
31
0.0000000000
0
SPLINE
5
41B
100
AcDbEntity
8
0
100
AcDbSpline
62
7
6
CONTINUOUS
70
0
71
3
72
8
73
4
74
2
42
0.0000001000
43
0.0000001000
44
0.0000000001
12
-0.1349750165
22
0.1303946038
32
0.0000000000
13
-0.1371300797
23
0.1297595658
33
0.0000000000
40
0.0000000000
40
0.0000000000
40
0.0000000000
40
0.0000000000
40
1.0000000000
40
1.0000000000
40
1.0000000000
40
1.0000000000
10
-17.4322663998
20
-8.9672995726
30
0.0000000000
10
-17.4772580720
20
-8.9238347047
30
0.0000000000
10
-17.5240752956
20
-8.8815819382
30
0.0000000000
10
-17.5697853222
20
-8.8383287496
30
0.0000000000
11
-17.4322663998
21
-8.9672995726
31
0.0000000000
11
-17.5697853222
21
-8.8383287496
31
0.0000000000
0
SPLINE
5
41C
100
AcDbEntity
8
0
100
AcDbSpline
62
7
6
CONTINUOUS
70
0
71
3
72
9
73
5
74
3
42
0.0000001000
43
0.0000001000
44
0.0000000001
12
-0.0925069647
22
-0.0669472308
32
0.0000000000
13
-0.1202498891
23
0.1041467132
33
0.0000000000
40
0.0000000000
40
0.0000000000
40
0.0000000000
40
0.0000000000
40
0.4242409554
40
1.0000000000
40
1.0000000000
40
1.0000000000
40
1.0000000000
10
-22.0769988542
20
-12.2394374486
30
0.0000000000
10
-22.0900806019
20
-12.2489047010
30
0.0000000000
10
-22.1616082597
20
-12.2142237677
30
0.0000000000
10
-22.2070815587
20
-12.1801923864
30
0.0000000000
10
-22.2301598792
20
-12.1602045824
30
0.0000000000
11
-22.0769988542
21
-12.2394374486
31
0.0000000000
11
-22.1460812520
21
-12.2195954630
31
0.0000000000
11
-22.2301598792
21
-12.1602045824
31
0.0000000000
0
SPLINE
5
41D
100
AcDbEntity
8
0
100
AcDbSpline
62
7
6
CONTINUOUS
70
0
71
3
72
8
73
4
74
2
42
0.0000001000
43
0.0000001000
44
0.0000000001
12
-0.0526759008
22
0.0456218460
32
0.0000000000
13
-0.0492087551
23
0.0477949901
33
0.0000000000
40
0.0000000000
40
0.0000000000
40
0.0000000000
40
0.0000000000
40
1.0000000000
40
1.0000000000
40
1.0000000000
40
1.0000000000
10
-22.2301598792
20
-12.1602045824
30
0.0000000000
10
-22.2477185128
20
-12.1449973004
30
0.0000000000
10
-22.2634807474
20
-12.1295619892
30
0.0000000000
10
-22.2798836658
20
-12.1136303258
30
0.0000000000
11
-22.2301598792
21
-12.1602045824
31
0.0000000000
11
-22.2798836658
21
-12.1136303258
31
0.0000000000
0
SPLINE
5
41E
100
AcDbEntity
8
0
100
AcDbSpline
62
7
6
CONTINUOUS
70
0
71
3
72
8
73
4
74
2
42
0.0000001000
43
0.0000001000
44
0.0000000001
12
-0.1349562773
22
0.1310789906
32
0.0000000000
13
-0.1478979011
23
0.1454191088
33
0.0000000000
40
0.0000000000
40
0.0000000000
40
0.0000000000
40
0.0000000000
40
1.0000000000
40
1.0000000000
40
1.0000000000
40
1.0000000000
10
-22.2798836658
20
-12.1136303258
30
0.0000000000
10
-22.3248690915
20
-12.0699373289
30
0.0000000000
10
-22.3746733860
20
-12.0225110451
30
0.0000000000
10
-22.4239726864
20
-11.9740380089
30
0.0000000000
11
-22.2798836658
21
-12.1136303258
31
0.0000000000
11
-22.4239726864
21
-11.9740380089
31
0.0000000000
0
SPLINE
5
41F
100
AcDbEntity
8
0
100
AcDbSpline
62
7
6
CONTINUOUS
70
0
71
3
72
10
73
6
74
4
42
0.0000001000
43
0.0000001000
44
0.0000000001
12
-0.2038297087
22
-0.0600955539
32
0.0000000000
13
-0.1640964080
23
0.1600196490
33
0.0000000000
40
0.0000000000
40
0.0000000000
40
0.0000000000
40
0.0000000000
40
0.1432557598
40
0.7172528080
40
1.0000000000
40
1.0000000000
40
1.0000000000
40
1.0000000000
10
-27.1816245268
20
-15.4111108318
30
0.0000000000
10
-27.1913577868
20
-15.4139805099
30
0.0000000000
10
-27.2594137780
20
-15.4114205852
30
0.0000000000
10
-27.3069940262
20
-15.3489718738
30
0.0000000000
10
-27.3528949582
20
-15.3020124423
30
0.0000000000
10
-27.3683608911
20
-15.2869307402
30
0.0000000000
11
-27.1816245268
21
-15.4111108318
31
0.0000000000
11
-27.2171897425
21
-15.4112732518
31
0.0000000000
11
-27.3231575154
21
-15.3337206912
31
0.0000000000
11
-27.3683608911
21
-15.2869307402
31
0.0000000000
0
SPLINE
5
420
100
AcDbEntity
8
0
100
AcDbSpline
62
7
6
CONTINUOUS
70
0
71
3
72
8
73
4
74
2
42
0.0000001000
43
0.0000001000
44
0.0000000001
12
-0.0101142662
22
0.0098629906
32
0.0000000000
13
-0.0101972612
23
0.0097535707
33
0.0000000000
40
0.0000000000
40
0.0000000000
40
0.0000000000
40
0.0000000000
40
1.0000000000
40
1.0000000000
40
1.0000000000
40
1.0000000000
10
-27.3683608911
20
-15.2869307402
30
0.0000000000
10
-27.3717323131
20
-15.2836430766
30
0.0000000000
10
-27.3751188212
20
-15.2803751858
30
0.0000000000
10
-27.3785179083
20
-15.2771239955
30
0.0000000000
11
-27.3683608911
21
-15.2869307402
31
0.0000000000
11
-27.3785179083
21
-15.2771239955
31
0.0000000000
0
SPLINE
5
421
100
AcDbEntity
8
0
100
AcDbSpline
62
7
6
CONTINUOUS
70
0
71
3
72
18
73
14
74
12
42
0.0000001000
43
0.0000001000
44
0.0000000001
12
4.2248262821
22
5.0074525852
32
0.0000000000
13
-4.3409205519
23
4.8257880135
33
0.0000000000
40
0.0000000000
40
0.0000000000
40
0.0000000000
40
0.0000000000
40
0.0066329646
40
0.0397630804
40
0.0992738457
40
0.1826450219
40
0.2858440134
40
0.4037706014
40
0.5305605016
40
0.6598950716
40
0.7853257267
40
0.9006033160
40
1.0000000000
40
1.0000000000
40
1.0000000000
40
1.0000000000
10
-5.1419353464
20
-0.0770850081
30
0.0000000000
10
-5.1325943054
20
-0.0660135895
30
0.0000000000
10
-5.0860020265
20
0.0211604846
30
0.0000000000
10
-5.2515799078
20
0.2164992885
30
0.0000000000
10
-5.3938595805
20
0.5470607663
30
0.0000000000
10
-5.7025071422
20
0.9952609112
30
0.0000000000
10
-6.0664396160
20
1.5392644959
30
0.0000000000
10
-6.5073105383
20
2.1513245370
30
0.0000000000
10
-6.9895074792
20
2.8007744181
30
0.0000000000
10
-7.4932980528
20
3.4549898942
30
0.0000000000
10
-7.9921640593
20
4.0812230540
30
0.0000000000
10
-8.4613899182
20
4.6481372536
30
0.0000000000
10
-8.7656829699
20
4.9991557886
30
0.0000000000
10
-8.9095073393
20
5.1590448973
30
0.0000000000
11
-5.1419353464
21
-0.0770850081
31
0.0000000000
11
-5.1201919323
21
-0.0371787794
31
0.0000000000
11
-5.1973961105
21
0.1635289545
31
0.0000000000
11
-5.3856242455
21
0.5008438341
31
0.0000000000
11
-5.6754377927
21
0.9578514828
31
0.0000000000
11
-6.0523042905
21
1.5116356289
31
0.0000000000
11
-6.4973260792
21
2.1344272227
31
0.0000000000
11
-6.9881879081
21
2.7949968934
31
0.0000000000
11
-7.5002759153
21
3.4602209192
31
0.0000000000
11
-8.0079118699
21
4.0967421898
31
0.0000000000
11
-8.4856407855
21
4.6726428708
31
0.0000000000
11
-8.9095073393
21
5.1590448973
31
0.0000000000
0
SPLINE
5
422
100
AcDbEntity
8
0
100
AcDbSpline
62
7
6
CONTINUOUS
70
0
71
3
72
10
73
6
74
4
42
0.0000001000
43
0.0000001000
44
0.0000000001
12
0.4103580472
22
0.1074668297
32
0.0000000000
13
0.3097291364
23
-0.3443249273
33
0.0000000000
40
0.0000000000
40
0.0000000000
40
0.0000000000
40
0.0000000000
40
0.0691450491
40
0.4085144907
40
1.0000000000
40
1.0000000000
40
1.0000000000
40
1.0000000000
10
-34.5247456122
20
-15.8400807720
30
0.0000000000
10
-34.5152875364
20
-15.8376038390
30
0.0000000000
10
-34.4393636550
20
-15.8378663510
30
0.0000000000
10
-34.3530271594
20
-15.9846764886
30
0.0000000000
10
-34.2434756988
20
-16.0719776785
30
0.0000000000
10
-34.1824089335
20
-16.1398654135
30
0.0000000000
11
-34.5247456122
21
-15.8400807720
31
0.0000000000
11
-34.4907505217
21
-15.8394033720
31
0.0000000000
11
-34.3709148254
21
-15.9411027957
31
0.0000000000
11
-34.1824089335
21
-16.1398654135
31
0.0000000000
0
SPLINE
5
423
100
AcDbEntity
8
0
100
AcDbSpline
62
7
6
CONTINUOUS
70
0
71
3
72
11
73
7
74
5
42
0.0000001000
43
0.0000001000
44
0.0000000001
12
0.7727956188
22
0.2635584210
32
0.0000000000
13
0.6796156330
23
-0.7555266070
33
0.0000000000
40
0.0000000000
40
0.0000000000
40
0.0000000000
40
0.0000000000
40
0.0589837940
40
0.2481565858
40
0.5653431739
40
1.0000000000
40
1.0000000000
40
1.0000000000
40
1.0000000000
10
-22.0160202570
20
-3.8010936275
30
0.0000000000
10
-22.0008261179
20
-3.7959117356
30
0.0000000000
10
-21.8937576425
20
-3.8134454945
30
0.0000000000
10
-21.7765760058
20
-3.9567033616
30
0.0000000000
10
-21.5316744522
20
-4.1685911828
30
0.0000000000
10
-21.3647331879
20
-4.3597505862
30
0.0000000000
10
-21.2662666632
20
-4.4692155186
30
0.0000000000
11
-22.0160202570
21
-3.8010936275
31
0.0000000000
11
-21.9530713200
21
-3.8068088755
31
0.0000000000
11
-21.7993660097
21
-3.9222695169
31
0.0000000000
11
-21.5673593320
21
-4.1460325119
31
0.0000000000
11
-21.2662666632
21
-4.4692155186
31
0.0000000000
0
SPLINE
5
424
100
AcDbEntity
8
0
100
AcDbSpline
62
7
6
CONTINUOUS
70
0
71
3
72
10
73
6
74
4
42
0.0000001000
43
0.0000001000
44
0.0000000001
12
-0.1787996454
22
-0.0622467770
32
0.0000000000
13
0.1031646317
23
-0.2028134671
33
0.0000000000
40
0.0000000000
40
0.0000000000
40
0.0000000000
40
0.0000000000
40
0.0635697939
40
0.6944408464
40
1.0000000000
40
1.0000000000
40
1.0000000000
40
1.0000000000
10
-23.6247842244
20
-5.3105124500
30
0.0000000000
10
-23.6285729766
20
-5.3118314550
30
0.0000000000
10
-23.6651448445
20
-5.3300530739
30
0.0000000000
10
-23.6142748836
20
-5.4217500743
30
0.0000000000
10
-23.5792597163
20
-5.4893874846
30
0.0000000000
10
-23.5687520838
20
-5.5100446551
30
0.0000000000
11
-23.6247842244
21
-5.3105124500
31
0.0000000000
11
-23.6346661380
21
-5.3155484189
31
0.0000000000
11
-23.6034545590
21
-5.4433059751
31
0.0000000000
11
-23.5687520838
21
-5.5100446551
31
0.0000000000
0
SPLINE
5
425
100
AcDbEntity
8
0
100
AcDbSpline
62
7
6
CONTINUOUS
70
0
71
3
72
8
73
4
74
2
42
0.0000001000
43
0.0000001000
44
0.0000000001
12
0.0451912719
22
-0.0888424490
32
0.0000000000
13
0.0376371221
23
-0.0760845646
33
0.0000000000
40
0.0000000000
40
0.0000000000
40
0.0000000000
40
0.0000000000
40
1.0000000000
40
1.0000000000
40
1.0000000000
40
1.0000000000
10
-23.5687520838
20
-5.5100446551
30
0.0000000000
10
-23.5536883265
20
-5.5396588048
30
0.0000000000
10
-23.5405110299
20
-5.5663688162
30
0.0000000000
10
-23.5279653225
20
-5.5917303378
30
0.0000000000
11
-23.5687520838
21
-5.5100446551
31
0.0000000000
11
-23.5279653225
21
-5.5917303378
31
0.0000000000
0
SPLINE
5
426
100
AcDbEntity
8
0
100
AcDbSpline
62
7
6
CONTINUOUS
70
0
71
3
72
9
73
5
74
3
42
0.0000001000
43
0.0000001000
44
0.0000000001
12
0.0646309179
22
-0.1306533279
32
0.0000000000
13
0.0710822428
23
-0.1287410524
33
0.0000000000
40
0.0000000000
40
0.0000000000
40
0.0000000000
40
0.0000000000
40
0.7486210149
40
1.0000000000
40
1.0000000000
40
1.0000000000
40
1.0000000000
10
-23.5279653225
20
-5.5917303378
30
0.0000000000
10
-23.5118373014
20
-5.6243336134
30
0.0000000000
10
-23.4916879247
20
-5.6649078686
30
0.0000000000
10
-23.4686439913
20
-5.7074028644
30
0.0000000000
10
-23.4626877973
20
-5.7181904628
30
0.0000000000
11
-23.5279653225
21
-5.5917303378
31
0.0000000000
11
-23.4800466014
21
-5.6861595408
31
0.0000000000
11
-23.4626877973
21
-5.7181904628
31
0.0000000000
0
SPLINE
5
427
100
AcDbEntity
8
0
100
AcDbSpline
62
7
6
CONTINUOUS
70
0
71
3
72
8
73
4
74
2
42
0.0000001000
43
0.0000001000
44
0.0000000001
12
0.1859973058
22
-0.2479009581
32
0.0000000000
13
0.1877726725
23
-0.2466357590
33
0.0000000000
40
0.0000000000
40
0.0000000000
40
0.0000000000
40
0.0000000000
40
1.0000000000
40
1.0000000000
40
1.0000000000
40
1.0000000000
10
-22.0606188717
20
-7.7525317466
30
0.0000000000
10
-21.9986197698
20
-7.8351653993
30
0.0000000000
10
-21.9363098174
20
-7.9175951773
30
0.0000000000
10
-21.8737189266
20
-7.9998070969
30
0.0000000000
11
-22.0606188717
21
-7.7525317466
31
0.0000000000
11
-21.8737189266
21
-7.9998070969
31
0.0000000000
0
SPLINE
5
428
100
AcDbEntity
8
0
100
AcDbSpline
62
7
6
CONTINUOUS
70
0
71
3
72
8
73
4
74
2
42
0.0000001000
43
0.0000001000
44
0.0000000001
12
0.0483798676
22
-0.0635460167
32
0.0000000000
13
0.0484902320
23
-0.0634585251
33
0.0000000000
40
0.0000000000
40
0.0000000000
40
0.0000000000
40
0.0000000000
40
1.0000000000
40
1.0000000000
40
1.0000000000
40
1.0000000000
10
-21.8737189266
20
-7.9998070969
30
0.0000000000
10
-21.8575923040
20
-8.0209891025
30
0.0000000000
10
-21.8414470316
20
-8.0421566457
30
0.0000000000
10
-21.8252836210
20
-8.0633094874
30
0.0000000000
11
-21.8737189266
21
-7.9998070969
31
0.0000000000
11
-21.8252836210
21
-8.0633094874
31
0.0000000000
0
SPLINE
5
429
100
AcDbEntity
8
0
100
AcDbSpline
62
7
6
CONTINUOUS
70
0
71
3
72
8
73
4
74
2
42
0.0000001000
43
0.0000001000
44
0.0000000001
12
0.0213434405
22
-0.0279318782
32
0.0000000000
13
0.0213643943
23
-0.0279147273
33
0.0000000000
40
0.0000000000
40
0.0000000000
40
0.0000000000
40
0.0000000000
40
1.0000000000
40
1.0000000000
40
1.0000000000
40
1.0000000000
10
-21.8252836210
20
-8.0633094874
30
0.0000000000
10
-21.8181691408
20
-8.0726201135
30
0.0000000000
10
-21.8110511465
20
-8.0819278912
30
0.0000000000
10
-21.8039296817
20
-8.0912328004
30
0.0000000000
11
-21.8252836210
21
-8.0633094874
31
0.0000000000
11
-21.8039296817
21
-8.0912328004
31
0.0000000000
0
SPLINE
5
42A
100
AcDbEntity
8
0
100
AcDbSpline
62
7
6
CONTINUOUS
70
0
71
3
72
8
73
4
74
2
42
0.0000001000
43
0.0000001000
44
0.0000000001
12
0.2132940143
22
-0.2786900565
32
0.0000000000
13
0.2154161959
23
-0.2769660549
33
0.0000000000
40
0.0000000000
40
0.0000000000
40
0.0000000000
40
0.0000000000
40
1.0000000000
40
1.0000000000
40
1.0000000000
40
1.0000000000
10
-21.8039296817
20
-8.0912328004
30
0.0000000000
10
-21.7328316770
20
-8.1841294859
30
0.0000000000
10
-21.6613877597
20
-8.2767402427
30
0.0000000000
10
-21.5895823611
20
-8.3690622610
30
0.0000000000
11
-21.8039296817
21
-8.0912328004
31
0.0000000000
11
-21.5895823611
21
-8.3690622610
31
0.0000000000
0
SPLINE
5
42B
100
AcDbEntity
8
0
100
AcDbSpline
62
7
6
CONTINUOUS
70
0
71
3
72
9
73
5
74
3
42
0.0000001000
43
0.0000001000
44
0.0000000001
12
0.1937536363
22
0.0781477814
32
0.0000000000
13
0.1654082140
23
-0.1440054921
33
0.0000000000
40
0.0000000000
40
0.0000000000
40
0.0000000000
40
0.0000000000
40
0.1957220365
40
1.0000000000
40
1.0000000000
40
1.0000000000
40
1.0000000000
10
-24.3559452914
20
-5.9954828901
30
0.0000000000
10
-24.3433046726
20
-5.9903844758
30
0.0000000000
10
-24.2559120451
20
-5.9819723775
30
0.0000000000
10
-24.2124684389
20
-6.0553581209
30
0.0000000000
10
-24.1681237118
20
-6.0939649355
30
0.0000000000
11
-24.3559452914
21
-5.9954828901
31
0.0000000000
11
-24.3107789068
21
-5.9902250492
31
0.0000000000
11
-24.1681237118
21
-6.0939649355
31
0.0000000000
0
SPLINE
5
42C
100
AcDbEntity
8
0
100
AcDbSpline
62
7
6
CONTINUOUS
70
0
71
3
72
12
73
8
74
6
42
0.0000001000
43
0.0000001000
44
0.0000000001
12
0.3574187387
22
0.5330549224
32
0.0000000000
13
0.5695311673
23
-0.6331460453
33
0.0000000000
40
0.0000000000
40
0.0000000000
40
0.0000000000
40
0.0000000000
40
0.0077031403
40
0.0933488015
40
0.2886483958
40
0.5938465904
40
1.0000000000
40
1.0000000000
40
1.0000000000
40
1.0000000000
10
-26.5545347215
20
-8.0393241938
30
0.0000000000
10
-26.5536169726
20
-8.0379554616
30
0.0000000000
10
-26.5409449887
20
-8.0237197800
30
0.0000000000
10
-26.4383034700
20
-8.0811566154
30
0.0000000000
10
-26.3362058742
20
-8.1769463533
30
0.0000000000
10
-26.1409153098
20
-8.3653561265
30
0.0000000000
10
-26.0080695762
20
-8.5117780059
30
0.0000000000
10
-25.9309639010
20
-8.5974961476
30
0.0000000000
11
-26.5545347215
21
-8.0393241938
31
0.0000000000
11
-26.5513858419
21
-8.0358294317
31
0.0000000000
11
-26.4820320803
21
-8.0584085972
31
0.0000000000
11
-26.3522078895
21
-8.1623687874
31
0.0000000000
11
-26.1664118675
21
-8.3441185250
31
0.0000000000
11
-25.9309639010
21
-8.5974961476
31
0.0000000000
0
SPLINE
5
42D
100
AcDbEntity
8
0
100
AcDbSpline
62
7
6
CONTINUOUS
70
0
71
3
72
9
73
5
74
3
42
0.0000001000
43
0.0000001000
44
0.0000000001
12
-0.0939748612
22
-0.1620001125
32
0.0000000000
13
0.1151628784
23
-0.1716130645
33
0.0000000000
40
0.0000000000
40
0.0000000000
40
0.0000000000
40
0.0000000000
40
0.1968469655
40
1.0000000000
40
1.0000000000
40
1.0000000000
40
1.0000000000
10
-28.0128431226
20
-9.4107415139
30
0.0000000000
10
-28.0190093447
20
-9.4213712574
30
0.0000000000
10
-28.0356195461
20
-9.5055535514
30
0.0000000000
10
-27.9918715304
20
-9.5600420678
30
0.0000000000
10
-27.9610403920
20
-9.6059859190
30
0.0000000000
11
-28.0128431226
21
-9.4107415139
31
0.0000000000
11
-28.0232098760
21
-9.4533627195
31
0.0000000000
11
-27.9610403920
21
-9.6059859190
31
0.0000000000
0
SPLINE
5
42E
100
AcDbEntity
8
0
100
AcDbSpline
62
7
6
CONTINUOUS
70
0
71
3
72
8
73
4
74
2
42
0.0000001000
43
0.0000001000
44
0.0000000001
12
0.0374781985
22
-0.0558491467
32
0.0000000000
13
0.0339503758
23
-0.0576279750
33
0.0000000000
40
0.0000000000
40
0.0000000000
40
0.0000000000
40
0.0000000000
40
1.0000000000
40
1.0000000000
40
1.0000000000
40
1.0000000000
10
-27.9610403920
20
-9.6059859190
30
0.0000000000
10
-27.9485476592
20
-9.6246023013
30
0.0000000000
10
-27.9367617815
20
-9.6435768113
30
0.0000000000
10
-27.9254449896
20
-9.6627861363
30
0.0000000000
11
-27.9610403920
21
-9.6059859190
31
0.0000000000
11
-27.9254449896
21
-9.6627861363
31
0.0000000000
0
SPLINE
5
42F
100
AcDbEntity
8
0
100
AcDbSpline
62
7
6
CONTINUOUS
70
0
71
3
72
9
73
5
74
3
42
0.0000001000
43
0.0000001000
44
0.0000000001
12
0.2094890412
22
-0.2804523398
32
0.0000000000
13
0.2122443520
23
-0.2783931701
33
0.0000000000
40
0.0000000000
40
0.0000000000
40
0.0000000000
40
0.0000000000
40
0.4268426258
40
1.0000000000
40
1.0000000000
40
1.0000000000
40
1.0000000000
10
-26.7636611205
20
-11.3794667427
30
0.0000000000
10
-26.7338548364
20
-11.4193697470
30
0.0000000000
10
-26.6638315672
20
-11.5127086506
30
0.0000000000
10
-26.5933429469
20
-11.6057022145
30
0.0000000000
10
-26.5527931418
20
-11.6588899139
30
0.0000000000
11
-26.7636611205
21
-11.3794667427
31
0.0000000000
11
-26.6739922198
21
-11.4989888734
31
0.0000000000
11
-26.5527931418
21
-11.6588899139
31
0.0000000000
0
SPLINE
5
430
100
AcDbEntity
8
0
100
AcDbSpline
62
7
6
CONTINUOUS
70
0
71
3
72
8
73
4
74
2
42
0.0000001000
43
0.0000001000
44
0.0000000001
12
0.0148513537
22
-0.0194799786
32
0.0000000000
13
0.0148646316
23
-0.0194699473
33
0.0000000000
40
0.0000000000
40
0.0000000000
40
0.0000000000
40
0.0000000000
40
1.0000000000
40
1.0000000000
40
1.0000000000
40
1.0000000000
10
-26.5527931418
20
-11.6588899139
30
0.0000000000
10
-26.5478426906
20
-11.6653832401
30
0.0000000000
10
-26.5428900226
20
-11.6718748933
30
0.0000000000
10
-26.5379351454
20
-11.6783648758
30
0.0000000000
11
-26.5527931418
21
-11.6588899139
31
0.0000000000
11
-26.5379351454
21
-11.6783648758
31
0.0000000000
0
SPLINE
5
431
100
AcDbEntity
8
0
100
AcDbSpline
62
7
6
CONTINUOUS
70
0
71
3
72
8
73
4
74
2
42
0.0000001000
43
0.0000001000
44
0.0000000001
12
0.1916698597
22
-0.2510524419
32
0.0000000000
13
0.1938253094
23
-0.2493997285
33
0.0000000000
40
0.0000000000
40
0.0000000000
40
0.0000000000
40
0.0000000000
40
1.0000000000
40
1.0000000000
40
1.0000000000
40
1.0000000000
10
-26.5379351454
20
-11.6783648758
30
0.0000000000
10
-26.4740451921
20
-11.7620490231
30
0.0000000000
10
-26.4097879232
20
-11.8454553778
30
0.0000000000
10
-26.3451794867
20
-11.9285886206
30
0.0000000000
11
-26.5379351454
21
-11.6783648758
31
0.0000000000
11
-26.3451794867
21
-11.9285886206
31
0.0000000000
0
SPLINE
5
432
100
AcDbEntity
8
0
100
AcDbSpline
62
7
6
CONTINUOUS
70
0
71
3
72
9
73
5
74
3
42
0.0000001000
43
0.0000001000
44
0.0000000001
12
0.0387928798
22
0.0604414771
32
0.0000000000
13
0.0863916730
23
-0.0642200181
33
0.0000000000
40
0.0000000000
40
0.0000000000
40
0.0000000000
40
0.0000000000
40
0.0748834795
40
1.0000000000
40
1.0000000000
40
1.0000000000
40
1.0000000000
10
-28.7502473219
20
-10.0917273209
30
0.0000000000
10
-28.7492790066
20
-10.0902186316
30
0.0000000000
10
-28.7339102947
20
-10.0735168855
30
0.0000000000
10
-28.6826567378
20
-10.1091933335
30
0.0000000000
10
-28.6560159498
20
-10.1289970000
30
0.0000000000
11
-28.7502473219
21
-10.0917273209
31
0.0000000000
11
-28.7467760558
21
-10.0880109744
31
0.0000000000
11
-28.6560159498
21
-10.1289970000
31
0.0000000000
0
SPLINE
5
433
100
AcDbEntity
8
0
100
AcDbSpline
62
7
6
CONTINUOUS
70
0
71
3
72
11
73
7
74
5
42
0.0000001000
43
0.0000001000
44
0.0000000001
12
0.5005732277
22
0.1938023787
32
0.0000000000
13
0.4543236657
23
-0.5050702204
33
0.0000000000
40
0.0000000000
40
0.0000000000
40
0.0000000000
40
0.0000000000
40
0.0595911045
40
0.2489162566
40
0.5655981152
40
1.0000000000
40
1.0000000000
40
1.0000000000
40
1.0000000000
10
-30.9465518437
20
-12.1453904750
30
0.0000000000
10
-30.9366086066
20
-12.1415408424
30
0.0000000000
10
-30.8637035473
20
-12.1559373473
30
0.0000000000
10
-30.7864851564
20
-12.2492193548
30
0.0000000000
10
-30.6222509263
20
-12.3922996037
30
0.0000000000
10
-30.5109733866
20
-12.5194719486
30
0.0000000000
10
-30.4451870344
20
-12.5926064338
30
0.0000000000
11
-30.9465518437
21
-12.1453904750
31
0.0000000000
11
-30.9039320774
21
-12.1499617186
31
0.0000000000
11
-30.8011725249
21
-12.2273096254
31
0.0000000000
11
-30.6463461208
21
-12.3766816885
31
0.0000000000
11
-30.4451870344
21
-12.5926064338
31
0.0000000000
0
SPLINE
5
434
100
AcDbEntity
8
0
100
AcDbSpline
62
7
6
CONTINUOUS
70
0
71
3
72
9
73
5
74
3
42
0.0000001000
43
0.0000001000
44
0.0000000001
12
-0.0975951135
22
-0.0791357407
32
0.0000000000
13
0.0781014540
23
-0.1046575016
33
0.0000000000
40
0.0000000000
40
0.0000000000
40
0.0000000000
40
0.0000000000
40
0.1309496237
40
1.0000000000
40
1.0000000000
40
1.0000000000
40
1.0000000000
10
-32.4056342674
20
-13.5186825310
30
0.0000000000
10
-32.4098942819
20
-13.5221367961
30
0.0000000000
10
-32.4391479159
20
-13.5550073224
30
0.0000000000
10
-32.4174340088
20
-13.5905683330
30
0.0000000000
10
-32.3948093095
20
-13.6208858800
30
0.0000000000
11
-32.4056342674
21
-13.5186825310
31
0.0000000000
11
-32.4166818052
21
-13.5307916981
31
0.0000000000
11
-32.3948093095
21
-13.6208858800
31
0.0000000000
0
SPLINE
5
435
100
AcDbEntity
8
0
100
AcDbSpline
62
7
6
CONTINUOUS
70
0
71
3
72
8
73
4
74
2
42
0.0000001000
43
0.0000001000
44
0.0000000001
12
0.1846699986
22
-0.2484798193
32
0.0000000000
13
0.1872127862
23
-0.2464487410
33
0.0000000000
40
0.0000000000
40
0.0000000000
40
0.0000000000
40
0.0000000000
40
1.0000000000
40
1.0000000000
40
1.0000000000
40
1.0000000000
10
-31.4633535845
20
-15.0105626523
30
0.0000000000
10
-31.4017969183
20
-15.0933892588
30
0.0000000000
10
-31.3398813996
20
-15.1758555528
30
0.0000000000
10
-31.2774771376
20
-15.2580051331
30
0.0000000000
11
-31.4633535845
21
-15.0105626523
31
0.0000000000
11
-31.2774771376
21
-15.2580051331
31
0.0000000000
0
SPLINE
5
436
100
AcDbEntity
8
0
100
AcDbSpline
62
7
6
CONTINUOUS
70
0
71
3
72
8
73
4
74
2
42
0.0000001000
43
0.0000001000
44
0.0000000001
12
0.0265929504
22
-0.0350072197
32
0.0000000000
13
0.0266517103
23
-0.0349686916
33
0.0000000000
40
0.0000000000
40
0.0000000000
40
0.0000000000
40
0.0000000000
40
1.0000000000
40
1.0000000000
40
1.0000000000
40
1.0000000000
10
-31.2774771376
20
-15.2580051331
30
0.0000000000
10
-31.2686128208
20
-15.2696742064
30
0.0000000000
10
-31.2597386425
20
-15.2813368892
30
0.0000000000
10
-31.2508547391
20
-15.2929931197
30
0.0000000000
11
-31.2774771376
21
-15.2580051331
31
0.0000000000
11
-31.2508547391
21
-15.2929931197
31
0.0000000000
0
SPLINE
5
437
100
AcDbEntity
8
0
100
AcDbSpline
62
7
6
CONTINUOUS
70
0
71
3
72
8
73
4
74
2
42
0.0000001000
43
0.0000001000
44
0.0000000001
12
0.0769108639
22
-0.1009118082
32
0.0000000000
13
0.0773869626
23
-0.1005849513
33
0.0000000000
40
0.0000000000
40
0.0000000000
40
0.0000000000
40
0.0000000000
40
1.0000000000
40
1.0000000000
40
1.0000000000
40
1.0000000000
10
-31.2508547391
20
-15.2929931197
30
0.0000000000
10
-31.2252177844
20
-15.3266303891
30
0.0000000000
10
-31.1994998416
20
-15.3602139258
30
0.0000000000
10
-31.1737041874
20
-15.3937422429
30
0.0000000000
11
-31.2508547391
21
-15.2929931197
31
0.0000000000
11
-31.1737041874
21
-15.3937422429
31
0.0000000000
0
SPLINE
5
438
100
AcDbEntity
8
0
100
AcDbSpline
62
7
6
CONTINUOUS
70
0
71
3
72
8
73
4
74
2
42
0.0000001000
43
0.0000001000
44
0.0000000001
12
0.0512741203
22
-0.0666443638
32
0.0000000000
13
0.0514759512
23
-0.0664976191
33
0.0000000000
40
0.0000000000
40
0.0000000000
40
0.0000000000
40
0.0000000000
40
1.0000000000
40
1.0000000000
40
1.0000000000
40
1.0000000000
10
-31.1737041874
20
-15.3937422429
30
0.0000000000
10
-31.1566128140
20
-15.4159570308
30
0.0000000000
10
-31.1394873255
20
-15.4381475775
30
0.0000000000
10
-31.1223286751
20
-15.4603134506
30
0.0000000000
11
-31.1737041874
21
-15.3937422429
31
0.0000000000
11
-31.1223286751
21
-15.4603134506
31
0.0000000000
0
SPLINE
5
439
100
AcDbEntity
8
0
100
AcDbSpline
62
7
6
CONTINUOUS
70
0
71
3
72
8
73
4
74
2
42
0.0000001000
43
0.0000001000
44
0.0000000001
12
0.0111423890
22
0.0145913659
32
0.0000000000
13
0.0163785612
23
-0.0042708898
33
0.0000000000
40
0.0000000000
40
0.0000000000
40
0.0000000000
40
0.0000000000
40
1.0000000000
40
1.0000000000
40
1.0000000000
40
1.0000000000
10
-33.1383049245
20
-14.1995933102
30
0.0000000000
10
-33.1345907948
20
-14.1947295216
30
0.0000000000
10
-33.1300121195
20
-14.1919515511
30
0.0000000000
10
-33.1245525991
20
-14.1933751810
30
0.0000000000
11
-33.1383049245
21
-14.1995933102
31
0.0000000000
11
-33.1245525991
21
-14.1933751810
31
0.0000000000
0
SPLINE
5
43A
100
AcDbEntity
8
0
100
AcDbSpline
62
7
6
CONTINUOUS
70
0
71
3
72
11
73
7
74
5
42
0.0000001000
43
0.0000001000
44
0.0000000001
12
0.6915103086
22
0.8196088671
32
0.0000000000
13
0.7105123643
23
-0.7898744080
33
0.0000000000
40
0.0000000000
40
0.0000000000
40
0.0000000000
40
0.0000000000
40
0.0214876429
40
0.1893367169
40
0.5196926191
40
1.0000000000
40
1.0000000000
40
1.0000000000
40
1.0000000000
10
-9.6810464056
20
5.8527177099
30
0.0000000000
10
-9.6760934300
20
5.8585881974
30
0.0000000000
10
-9.6285639889
20
5.9017184514
30
0.0000000000
10
-9.4540790755
20
5.6940284876
30
0.0000000000
10
-9.2252525550
20
5.5197936887
30
0.0000000000
10
-9.0232621169
20
5.2855057334
30
0.0000000000
10
-8.9095073393
20
5.1590448973
30
0.0000000000
11
-9.6810464056
21
5.8527177099
31
0.0000000000
11
-9.6650987012
21
5.8668477456
31
0.0000000000
11
-9.5144022762
21
5.7715029365
31
0.0000000000
11
-9.2582570925
21
5.5315580407
31
0.0000000000
11
-8.9095073393
21
5.1590448973
31
0.0000000000
0
SPLINE
5
43B
100
AcDbEntity
8
0
100
AcDbSpline
62
7
6
CONTINUOUS
70
0
71
3
72
10
73
6
74
4
42
0.0000001000
43
0.0000001000
44
0.0000000001
12
-0.1899839382
22
-0.0744065109
32
0.0000000000
13
0.1147854834
23
-0.2123523408
33
0.0000000000
40
0.0000000000
40
0.0000000000
40
0.0000000000
40
0.0000000000
40
0.0894860465
40
0.8089766934
40
1.0000000000
40
1.0000000000
40
1.0000000000
40
1.0000000000
10
-19.3030906504
20
-1.5215958470
30
0.0000000000
10
-19.3087576209
20
-1.5238152952
30
0.0000000000
10
-19.3537543953
20
-1.5489489489
30
0.0000000000
10
-19.3001760694
20
-1.6371870125
30
0.0000000000
10
-19.2632837840
20
-1.7040359913
30
0.0000000000
10
-19.2559748831
20
-1.7175574067
30
0.0000000000
11
-19.3030906504
21
-1.5215958470
31
0.0000000000
11
-19.3176314476
21
-1.5299415813
31
0.0000000000
11
-19.2792869868
21
-1.6753926368
31
0.0000000000
11
-19.2559748831
21
-1.7175574067
31
0.0000000000
0
SPLINE
5
43C
100
AcDbEntity
8
0
100
AcDbSpline
62
7
6
CONTINUOUS
70
0
71
3
72
8
73
4
74
2
42
0.0000001000
43
0.0000001000
44
0.0000000001
12
0.0176843019
22
-0.0327158348
32
0.0000000000
13
0.0161476183
23
-0.0308940339
33
0.0000000000
40
0.0000000000
40
0.0000000000
40
0.0000000000
40
0.0000000000
40
1.0000000000
40
1.0000000000
40
1.0000000000
40
1.0000000000
10
-19.2559748831
20
-1.7175574067
30
0.0000000000
10
-19.2500801158
20
-1.7284626850
30
0.0000000000
10
-19.2444657013
20
-1.7390405703
30
0.0000000000
10
-19.2390831619
20
-1.7493385816
30
0.0000000000
11
-19.2559748831
21
-1.7175574067
31
0.0000000000
11
-19.2390831619
21
-1.7493385816
31
0.0000000000
0
SPLINE
5
43D
100
AcDbEntity
8
0
100
AcDbSpline
62
7
6
CONTINUOUS
70
0
71
3
72
8
73
4
74
2
42
0.0000001000
43
0.0000001000
44
0.0000000001
12
0.0498788596
22
-0.0954295025
32
0.0000000000
13
0.0408906141
23
-0.0836085837
33
0.0000000000
40
0.0000000000
40
0.0000000000
40
0.0000000000
40
0.0000000000
40
1.0000000000
40
1.0000000000
40
1.0000000000
40
1.0000000000
10
-19.2390831619
20
-1.7493385816
30
0.0000000000
10
-19.2224568753
20
-1.7811484158
30
0.0000000000
10
-19.2080430218
20
-1.8102878353
30
0.0000000000
10
-19.1944128171
20
-1.8381573632
30
0.0000000000
11
-19.2390831619
21
-1.7493385816
31
0.0000000000
11
-19.1944128171
21
-1.8381573632
31
0.0000000000
0
SPLINE
5
43E
100
AcDbEntity
8
0
100
AcDbSpline
62
7
6
CONTINUOUS
70
0
71
3
72
9
73
5
74
3
42
0.0000001000
43
0.0000001000
44
0.0000000001
12
0.2232076883
22
0.0874184705
32
0.0000000000
13
0.1855525256
23
-0.1609418687
33
0.0000000000
40
0.0000000000
40
0.0000000000
40
0.0000000000
40
0.0000000000
40
0.1875880560
40
1.0000000000
40
1.0000000000
40
1.0000000000
40
1.0000000000
10
-19.6987238445
20
-1.8250355792
30
0.0000000000
10
-19.6847668124
20
-1.8195693589
30
0.0000000000
10
-19.5880659836
20
-1.8085618105
30
0.0000000000
10
-19.5386350510
20
-1.8920238807
30
0.0000000000
10
-19.4883866883
20
-1.9356075795
30
0.0000000000
11
-19.6987238445
21
-1.8250355792
31
0.0000000000
11
-19.6501503650
21
-1.8187639074
31
0.0000000000
11
-19.4883866883
21
-1.9356075795
31
0.0000000000
0
SPLINE
5
43F
100
AcDbEntity
8
0
100
AcDbSpline
62
7
6
CONTINUOUS
70
0
71
3
72
16
73
12
74
10
42
0.0000001000
43
0.0000001000
44
0.0000000001
12
1.0739558383
22
-1.6282859482
32
0.0000000000
13
1.2234547478
23
0.2480843830
33
0.0000000000
40
0.0000000000
40
0.0000000000
40
0.0000000000
40
0.0000000000
40
0.1244802137
40
0.2680925246
40
0.4211242737
40
0.5732073947
40
0.7140396694
40
0.8341026396
40
0.9253459971
40
0.9818807479
40
1.0000000000
40
1.0000000000
40
1.0000000000
40
1.0000000000
10
-27.1114589685
20
-24.2672095535
30
0.0000000000
10
-27.0668968845
20
-24.3347726810
30
0.0000000000
10
-26.9680936762
20
-24.4784199544
30
0.0000000000
10
-26.8076041221
20
-24.7002593715
30
0.0000000000
10
-26.6317066917
20
-24.9331596492
30
0.0000000000
10
-26.4531330624
20
-25.1612188493
30
0.0000000000
10
-26.2814405781
20
-25.3690722740
30
0.0000000000
10
-26.1365133567
20
-25.5422907529
30
0.0000000000
10
-26.0067485279
20
-25.6705418988
30
0.0000000000
10
-25.9487706982
20
-25.7436907715
30
0.0000000000
10
-25.8872560299
20
-25.7723524248
30
0.0000000000
10
-25.8798666683
20
-25.7708540570
30
0.0000000000
11
-27.1114589685
21
-24.2672095535
31
0.0000000000
11
-26.9744189073
21
-24.4676466297
31
0.0000000000
11
-26.8104364275
21
-24.6947582515
31
0.0000000000
11
-26.6306866642
21
-24.9330671371
31
0.0000000000
11
-26.4474192666
21
-25.1663329297
31
0.0000000000
11
-26.2731236051
21
-25.3786589511
31
0.0000000000
11
-26.1196776409
21
-25.5555755339
31
0.0000000000
11
-25.9975384630
21
-25.6850261052
31
0.0000000000
11
-25.9150296544
21
-25.7581888226
31
0.0000000000
11
-25.8798666683
21
-25.7708540570
31
0.0000000000
0
SPLINE
5
440
100
AcDbEntity
8
0
100
AcDbSpline
62
7
6
CONTINUOUS
70
0
71
3
72
13
73
9
74
7
42
0.0000001000
43
0.0000001000
44
0.0000000001
12
0.9878177690
22
0.7576289445
32
0.0000000000
13
-0.8363140444
23
0.9314784246
33
0.0000000000
40
0.0000000000
40
0.0000000000
40
0.0000000000
40
0.0000000000
40
0.1942849725
40
0.3839581508
40
0.5625671978
40
0.7263236560
40
0.8757737423
40
1.0000000000
40
1.0000000000
40
1.0000000000
40
1.0000000000
10
18.7602617915
20
5.0954893100
30
0.0000000000
10
18.8242345075
20
5.1445546163
30
0.0000000000
10
18.9410263381
20
5.2548641706
30
0.0000000000
10
19.0753242521
20
5.4478733088
30
0.0000000000
10
19.1588506224
20
5.6545517043
30
0.0000000000
10
19.1842651682
20
5.8598624314
30
0.0000000000
10
19.1484126629
20
6.0416395539
30
0.0000000000
10
19.0871488579
20
6.1403146280
30
0.0000000000
10
19.0525181366
20
6.1788859876
30
0.0000000000
11
18.7602617915
21
5.0954893100
31
0.0000000000
11
18.9359942918
21
5.2616738531
31
0.0000000000
11
19.0699816362
21
5.4561021034
31
0.0000000000
11
19.1513689669
21
5.6630226405
31
0.0000000000
11
19.1735627663
21
5.8656719931
31
0.0000000000
11
19.1347650249
21
6.0476327158
31
0.0000000000
11
19.0525181366
21
6.1788859876
31
0.0000000000
0
SPLINE
5
441
100
AcDbEntity
8
0
100
AcDbSpline
62
7
6
CONTINUOUS
70
0
71
3
72
18
73
14
74
12
42
0.0000001000
43
0.0000001000
44
0.0000000001
12
4.2253094095
22
5.0064153598
32
0.0000000000
13
-4.3409301657
23
4.8257987011
33
0.0000000000
40
0.0000000000
40
0.0000000000
40
0.0000000000
40
0.0000000000
40
0.0066351646
40
0.0397652070
40
0.0992758405
40
0.1826468320
40
0.2858455950
40
0.4037719218
40
0.5305615413
40
0.6598958248
40
0.7853262021
40
0.9006035362
40
1.0000000000
40
1.0000000000
40
1.0000000000
40
1.0000000000
10
-16.2196741398
20
-8.5734085983
30
0.0000000000
10
-16.2103289320
20
-8.5623358017
30
0.0000000000
10
-16.1637277688
20
-8.4751563747
30
0.0000000000
10
-16.3293093439
20
-8.2798132129
30
0.0000000000
10
-16.4715890166
20
-7.9492517352
30
0.0000000000
10
-16.7802365783
20
-7.5010515902
30
0.0000000000
10
-17.1441690521
20
-6.9570480056
30
0.0000000000
10
-17.5850399744
20
-6.3449879645
30
0.0000000000
10
-18.0672369153
20
-5.6955380833
30
0.0000000000
10
-18.5710274889
20
-5.0413226073
30
0.0000000000
10
-19.0698934954
20
-4.4150894475
30
0.0000000000
10
-19.5391193543
20
-3.8481752478
30
0.0000000000
10
-19.8434124060
20
-3.4971567128
30
0.0000000000
10
-19.9872367754
20
-3.3372676041
30
0.0000000000
11
-16.2196741398
21
-8.5734085983
31
0.0000000000
11
-16.1979213684
21
-8.5334912808
31
0.0000000000
11
-16.2751255466
21
-8.3327835469
31
0.0000000000
11
-16.4633536816
21
-7.9954686673
31
0.0000000000
11
-16.7531672288
21
-7.5384610186
31
0.0000000000
11
-17.1300337266
21
-6.9846768726
31
0.0000000000
11
-17.5750555153
21
-6.3618852787
31
0.0000000000
11
-18.0659173442
21
-5.7013156081
31
0.0000000000
11
-18.5780053514
21
-5.0360915823
31
0.0000000000
11
-19.0856413060
21
-4.3995703117
31
0.0000000000
11
-19.5633702216
21
-3.8236696307
31
0.0000000000
11
-19.9872367754
21
-3.3372676041
31
0.0000000000
0
SPLINE
5
442
100
AcDbEntity
8
0
100
AcDbSpline
62
7
6
CONTINUOUS
70
0
71
3
72
8
73
4
74
2
42
0.0000001000
43
0.0000001000
44
0.0000000001
12
-0.0359677888
22
-0.0275658384
32
0.0000000000
13
-0.0306502002
23
-0.0289174014
33
0.0000000000
40
0.0000000000
40
0.0000000000
40
0.0000000000
40
0.0000000000
40
1.0000000000
40
1.0000000000
40
1.0000000000
40
1.0000000000
10
-20.3795372838
20
-4.9789497134
30
0.0000000000
10
-20.3915265467
20
-4.9881383262
30
0.0000000000
10
-20.4015318885
20
-4.9974605256
30
0.0000000000
10
-20.4117486219
20
-5.0070996594
30
0.0000000000
11
-20.3795372838
21
-4.9789497134
31
0.0000000000
11
-20.4117486219
21
-5.0070996594
31
0.0000000000
0
SPLINE
5
443
100
AcDbEntity
8
0
100
AcDbSpline
62
7
6
CONTINUOUS
70
0
71
3
72
11
73
7
74
5
42
0.0000001000
43
0.0000001000
44
0.0000000001
12
-0.2109535252
22
-0.1990273382
32
0.0000000000
13
-0.2400461838
23
-0.1758401889
33
0.0000000000
40
0.0000000000
40
0.0000000000
40
0.0000000000
40
0.0000000000
40
0.2505479999
40
0.5511972681
40
0.8659045632
40
1.0000000000
40
1.0000000000
40
1.0000000000
40
1.0000000000
10
-20.4117486219
20
-5.0070996594
30
0.0000000000
10
-20.4293666165
20
-5.0237216265
30
0.0000000000
10
-20.4695085248
20
-5.0623627597
30
0.0000000000
10
-20.5326401818
20
-5.1200174825
30
0.0000000000
10
-20.5906157904
20
-5.1669252724
30
0.0000000000
10
-20.6260207271
20
-5.1938895362
30
0.0000000000
10
-20.6367504264
20
-5.2017493251
30
0.0000000000
11
-20.4117486219
21
-5.0070996594
31
0.0000000000
11
-20.4658691026
21
-5.0584494899
31
0.0000000000
11
-20.5322687503
21
-5.1184948059
31
0.0000000000
11
-20.6049251210
21
-5.1776759861
31
0.0000000000
11
-20.6367504264
21
-5.2017493251
31
0.0000000000
0
SPLINE
5
444
100
AcDbEntity
8
0
100
AcDbSpline
62
7
6
CONTINUOUS
70
0
71
3
72
8
73
4
74
2
42
0.0000001000
43
0.0000001000
44
0.0000000001
12
0.0557682489
22
-0.0621014878
32
0.0000000000
13
0.0514930103
23
-0.0656335225
33
0.0000000000
40
0.0000000000
40
0.0000000000
40
0.0000000000
40
0.0000000000
40
1.0000000000
40
1.0000000000
40
1.0000000000
40
1.0000000000
10
-28.7012435617
20
-13.6376939230
30
0.0000000000
10
-28.6826541454
20
-13.6583944190
30
0.0000000000
10
-28.6648189195
20
-13.6797690190
30
0.0000000000
10
-28.6476545827
20
-13.7016468599
30
0.0000000000
11
-28.7012435617
21
-13.6376939230
31
0.0000000000
11
-28.6476545827
21
-13.7016468599
31
0.0000000000
0
SPLINE
5
445
100
AcDbEntity
8
0
100
AcDbSpline
62
7
6
CONTINUOUS
70
0
71
3
72
9
73
5
74
3
42
0.0000001000
43
0.0000001000
44
0.0000000001
12
-0.0508565099
22
-0.0411495798
32
0.0000000000
13
-0.0361836373
23
-0.0436876612
33
0.0000000000
40
0.0000000000
40
0.0000000000
40
0.0000000000
40
0.0000000000
40
0.1912147742
40
1.0000000000
40
1.0000000000
40
1.0000000000
40
1.0000000000
10
-24.9625982381
20
-8.4936625375
30
0.0000000000
10
-24.9658397435
20
-8.4962853401
30
0.0000000000
10
-24.9822452683
20
-8.5118044594
30
0.0000000000
10
-24.9951847388
20
-8.5264716866
30
0.0000000000
10
-25.0049396692
20
-8.5382496649
30
0.0000000000
11
-24.9625982381
21
-8.4936625375
31
0.0000000000
11
-24.9719869713
21
-8.5021891621
31
0.0000000000
11
-25.0049396692
21
-8.5382496649
31
0.0000000000
0
SPLINE
5
446
100
AcDbEntity
8
0
100
AcDbSpline
62
7
6
CONTINUOUS
70
0
71
3
72
14
73
10
74
8
42
0.0000001000
43
0.0000001000
44
0.0000000001
12
-0.4601276875
22
-0.5555522892
32
0.0000000000
13
-0.6602309727
23
-0.3229263934
33
0.0000000000
40
0.0000000000
40
0.0000000000
40
0.0000000000
40
0.0000000000
40
0.0436350426
40
0.2010634413
40
0.3879292364
40
0.5902453074
40
0.7907931390
40
0.9692166900
40
1.0000000000
40
1.0000000000
40
1.0000000000
40
1.0000000000
10
-25.0049396692
20
-8.5382496649
30
0.0000000000
10
-25.0116322330
20
-8.5463301809
30
0.0000000000
10
-25.0409299188
20
-8.5833803192
30
0.0000000000
10
-25.1043565067
20
-8.6594838302
30
0.0000000000
10
-25.1967461901
20
-8.7578803530
30
0.0000000000
10
-25.3069864534
20
-8.8555823045
30
0.0000000000
10
-25.4240681669
20
-8.9400719447
30
0.0000000000
10
-25.5135195990
20
-8.9910549937
30
0.0000000000
10
-25.5593144612
20
-9.0139984260
30
0.0000000000
10
-25.5660891595
20
-9.0173120070
30
0.0000000000
11
-25.0049396692
21
-8.5382496649
31
0.0000000000
11
-25.0245171106
21
-8.5625242819
31
0.0000000000
11
-25.0999410161
21
-8.6525450952
31
0.0000000000
11
-25.1957417425
21
-8.7538124967
31
0.0000000000
11
-25.3087886393
21
-8.8538103670
31
0.0000000000
11
-25.4303165660
21
-8.9410668780
31
0.0000000000
11
-25.5458403656
21
-9.0071796663
31
0.0000000000
11
-25.5660891595
21
-9.0173120070
31
0.0000000000
0
SPLINE
5
447
100
AcDbEntity
8
0
100
AcDbSpline
62
7
6
CONTINUOUS
70
0
71
3
72
9
73
5
74
3
42
0.0000001000
43
0.0000001000
44
0.0000000001
12
-0.0508565099
22
-0.0411495798
32
0.0000000000
13
-0.0361836373
23
-0.0436876612
33
0.0000000000
40
0.0000000000
40
0.0000000000
40
0.0000000000
40
0.0000000000
40
0.1912147742
40
1.0000000000
40
1.0000000000
40
1.0000000000
40
1.0000000000
10
-29.7101965679
20
-12.1349393239
30
0.0000000000
10
-29.7134380732
20
-12.1375621264
30
0.0000000000
10
-29.7298435980
20
-12.1530812457
30
0.0000000000
10
-29.7427830686
20
-12.1677484730
30
0.0000000000
10
-29.7525379990
20
-12.1795264513
30
0.0000000000
11
-29.7101965679
21
-12.1349393239
31
0.0000000000
11
-29.7195853010
21
-12.1434659484
31
0.0000000000
11
-29.7525379990
21
-12.1795264513
31
0.0000000000
0
SPLINE
5
448
100
AcDbEntity
8
0
100
AcDbSpline
62
7
6
CONTINUOUS
70
0
71
3
72
13
73
9
74
7
42
0.0000001000
43
0.0000001000
44
0.0000000001
12
-0.4459634343
22
-0.5384505508
32
0.0000000000
13
-0.6362238069
23
-0.3251906870
33
0.0000000000
40
0.0000000000
40
0.0000000000
40
0.0000000000
40
0.0000000000
40
0.0450209360
40
0.2074494211
40
0.4002502643
40
0.6089921000
40
0.8159095351
40
1.0000000000
40
1.0000000000
40
1.0000000000
40
1.0000000000
10
-29.7525379990
20
-12.1795264513
30
0.0000000000
10
-29.7592305627
20
-12.1876069672
30
0.0000000000
10
-29.7885282486
20
-12.2246571055
30
0.0000000000
10
-29.8519548364
20
-12.3007606165
30
0.0000000000
10
-29.9443445198
20
-12.3991571393
30
0.0000000000
10
-30.0545847832
20
-12.4968590909
30
0.0000000000
10
-30.1716664967
20
-12.5813487310
30
0.0000000000
10
-30.2543977832
20
-12.6285016177
30
0.0000000000
10
-30.2934386953
20
-12.6484564526
30
0.0000000000
11
-29.7525379990
21
-12.1795264513
31
0.0000000000
11
-29.7721154404
21
-12.2038010683
31
0.0000000000
11
-29.8475393459
21
-12.2938218815
31
0.0000000000
11
-29.9433400722
21
-12.3950892831
31
0.0000000000
11
-30.0563869690
21
-12.4950871534
31
0.0000000000
11
-30.1779148957
21
-12.5823436643
31
0.0000000000
11
-30.2934386953
21
-12.6484564526
31
0.0000000000
0
SPLINE
5
449
100
AcDbEntity
8
0
100
AcDbSpline
62
7
6
CONTINUOUS
70
0
71
3
72
8
73
4
74
2
42
0.0000001000
43
0.0000001000
44
0.0000000001
12
-0.0705872157
22
-0.0360789787
32
0.0000000000
13
-0.0750833853
23
-0.0317548965
33
0.0000000000
40
0.0000000000
40
0.0000000000
40
0.0000000000
40
0.0000000000
40
1.0000000000
40
1.0000000000
40
1.0000000000
40
1.0000000000
10
-30.2934386953
20
-12.6484564526
30
0.0000000000
10
-30.3169677673
20
-12.6604827788
30
0.0000000000
10
-30.3405295971
20
-12.6716935964
30
0.0000000000
10
-30.3655573922
20
-12.6822785619
30
0.0000000000
11
-30.2934386953
21
-12.6484564526
31
0.0000000000
11
-30.3655573922
21
-12.6822785619
31
0.0000000000
0
SPLINE
5
44A
100
AcDbEntity
8
0
100
AcDbSpline
62
7
6
CONTINUOUS
70
0
71
3
72
8
73
4
74
2
42
0.0000001000
43
0.0000001000
44
0.0000000001
12
-0.0592533229
22
0.0748277695
32
0.0000000000
13
-0.0589146564
23
0.0750932293
33
0.0000000000
40
0.0000000000
40
0.0000000000
40
0.0000000000
40
0.0000000000
40
1.0000000000
40
1.0000000000
40
1.0000000000
40
1.0000000000
10
-23.8409735105
20
-10.1353318580
30
0.0000000000
10
-23.8607246181
20
-10.1103892681
30
0.0000000000
10
-23.8804180341
20
-10.0854011500
30
0.0000000000
10
-23.9000562530
20
-10.0603700735
30
0.0000000000
11
-23.8409735105
21
-10.1353318580
31
0.0000000000
11
-23.9000562530
21
-10.0603700735
31
0.0000000000
0
SPLINE
5
44B
100
AcDbEntity
8
0
100
AcDbSpline
62
7
6
CONTINUOUS
70
0
71
3
72
11
73
7
74
5
42
0.0000001000
43
0.0000001000
44
0.0000000001
12
0.8082655424
22
0.2702751515
32
0.0000000000
13
0.6905458072
23
-0.7676776479
33
0.0000000000
40
0.0000000000
40
0.0000000000
40
0.0000000000
40
0.0000000000
40
0.0568741358
40
0.2453696766
40
0.5632964798
40
1.0000000000
40
1.0000000000
40
1.0000000000
40
1.0000000000
10
-21.5765715404
20
-3.3915029286
30
0.0000000000
10
-21.5612484057
20
-3.3863790401
30
0.0000000000
10
-21.4542614127
20
-3.4003459696
30
0.0000000000
10
-21.3349301971
20
-3.5487480976
30
0.0000000000
10
-21.0857060693
20
-3.7623076006
30
0.0000000000
10
-20.9153656115
20
-3.9579553129
30
0.0000000000
10
-20.8148443499
20
-4.0697044899
30
0.0000000000
11
-21.5765715404
21
-3.3915029286
31
0.0000000000
11
-21.5146067819
21
-3.3955764810
31
0.0000000000
11
-21.3586724825
21
-3.5120520770
31
0.0000000000
11
-21.1222535353
21
-3.7398087242
31
0.0000000000
11
-20.8148443499
21
-4.0697044899
31
0.0000000000
0
SPLINE
5
44C
100
AcDbEntity
8
0
100
AcDbSpline
62
7
6
CONTINUOUS
70
0
71
3
72
8
73
4
74
2
42
0.0000001000
43
0.0000001000
44
0.0000000001
12
0.0481498355
22
-0.0637464954
32
0.0000000000
13
0.0440686920
23
-0.0666804540
33
0.0000000000
40
0.0000000000
40
0.0000000000
40
0.0000000000
40
0.0000000000
40
1.0000000000
40
1.0000000000
40
1.0000000000
40
1.0000000000
10
-31.2662770626
20
-15.2042493902
30
0.0000000000
10
-31.2502271174
20
-15.2254982220
30
0.0000000000
10
-31.2347741124
20
-15.2472178249
30
0.0000000000
10
-31.2200845484
20
-15.2694446429
30
0.0000000000
11
-31.2662770626
21
-15.2042493902
31
0.0000000000
11
-31.2200845484
21
-15.2694446429
31
0.0000000000
0
SPLINE
5
44D
100
AcDbEntity
8
0
100
AcDbSpline
62
7
6
CONTINUOUS
70
0
71
3
72
12
73
8
74
6
42
0.0000001000
43
0.0000001000
44
0.0000000001
12
0.3973563704
22
0.4675376792
32
0.0000000000
13
0.5875080431
23
-0.6531308828
33
0.0000000000
40
0.0000000000
40
0.0000000000
40
0.0000000000
40
0.0000000000
40
0.0046289095
40
0.0868029472
40
0.2810908637
40
0.5885760771
40
1.0000000000
40
1.0000000000
40
1.0000000000
40
1.0000000000
10
-25.8233364719
20
-7.3547425581
30
0.0000000000
10
-25.8227233630
20
-7.3540211615
30
0.0000000000
10
-25.8102183037
20
-7.3418707768
30
0.0000000000
10
-25.7051305776
20
-7.3927436714
30
0.0000000000
10
-25.6013463620
20
-7.4955733856
30
0.0000000000
10
-25.3973882681
20
-7.6886544877
30
0.0000000000
10
-25.2591650001
20
-7.8420732099
30
0.0000000000
10
-25.1785933788
20
-7.9316444333
30
0.0000000000
11
-25.8233364719
21
-7.3547425581
31
0.0000000000
11
-25.8213329341
21
-7.3528045104
31
0.0000000000
11
-25.7518355306
21
-7.3723334466
31
0.0000000000
11
-25.6180331169
21
-7.4782985838
31
0.0000000000
11
-25.4246895600
21
-7.6669374605
31
0.0000000000
11
-25.1785933788
21
-7.9316444333
31
0.0000000000
0
SPLINE
5
44E
100
AcDbEntity
8
0
100
AcDbSpline
62
7
6
CONTINUOUS
70
0
71
3
72
8
73
4
74
2
42
0.0000001000
43
0.0000001000
44
0.0000000001
12
0.0566455414
22
-0.1127742314
32
0.0000000000
13
0.0427487196
23
-0.1248424726
33
0.0000000000
40
0.0000000000
40
0.0000000000
40
0.0000000000
40
0.0000000000
40
1.0000000000
40
1.0000000000
40
1.0000000000
40
1.0000000000
10
-22.1379432087
20
-12.0193057199
30
0.0000000000
10
-22.1190613616
20
-12.0568971304
30
0.0000000000
10
-22.0996570772
20
-12.0877834471
30
0.0000000000
10
-22.0854075040
20
-12.1293976046
30
0.0000000000
11
-22.1379432087
21
-12.0193057199
31
0.0000000000
11
-22.0854075040
21
-12.1293976046
31
0.0000000000
0
SPLINE
5
44F
100
AcDbEntity
8
0
100
AcDbSpline
62
7
6
CONTINUOUS
70
0
71
3
72
10
73
6
74
4
42
0.0000001000
43
0.0000001000
44
0.0000000001
12
0.0363741853
22
-0.1062264150
32
0.0000000000
13
-0.0590042011
23
-0.0427013023
33
0.0000000000
40
0.0000000000
40
0.0000000000
40
0.0000000000
40
0.0000000000
40
0.3630790112
40
0.9928650450
40
1.0000000000
40
1.0000000000
40
1.0000000000
40
1.0000000000
10
-22.0854075040
20
-12.1293976046
30
0.0000000000
10
-22.0810052696
20
-12.1422537985
30
0.0000000000
10
-22.0703124029
20
-12.1802098729
30
0.0000000000
10
-22.0645088520
20
-12.2300217180
30
0.0000000000
10
-22.0768585234
20
-12.2393358913
30
0.0000000000
10
-22.0769988542
20
-12.2394374486
30
0.0000000000
11
-22.0854075040
21
-12.1293976046
31
0.0000000000
11
-22.0738441347
21
-12.1715518931
31
0.0000000000
11
-22.0765838486
21
-12.2391243992
31
0.0000000000
11
-22.0769988542
21
-12.2394374486
31
0.0000000000
0
SPLINE
5
450
100
AcDbEntity
8
0
100
AcDbSpline
62
7
6
CONTINUOUS
70
0
71
3
72
8
73
4
74
2
42
0.0000001000
43
0.0000001000
44
0.0000000001
12
-0.1496684453
22
0.1981489397
32
0.0000000000
13
-0.1473160070
23
0.1999105198
33
0.0000000000
40
0.0000000000
40
0.0000000000
40
0.0000000000
40
0.0000000000
40
1.0000000000
40
1.0000000000
40
1.0000000000
40
1.0000000000
10
-26.5186787328
20
-11.5629726039
30
0.0000000000
10
-26.5685682146
20
-11.4969229574
30
0.0000000000
10
-26.6180795969
20
-11.4305913055
30
0.0000000000
10
-26.6671849326
20
-11.3639544656
30
0.0000000000
11
-26.5186787328
21
-11.5629726039
31
0.0000000000
11
-26.6671849326
21
-11.3639544656
31
0.0000000000
0
SPLINE
5
451
100
AcDbEntity
8
0
100
AcDbSpline
62
7
6
CONTINUOUS
70
0
71
3
72
8
73
4
74
2
42
0.0000001000
43
0.0000001000
44
0.0000000001
12
-0.0592533229
22
0.0748277695
32
0.0000000000
13
-0.0589146564
23
0.0750932293
33
0.0000000000
40
0.0000000000
40
0.0000000000
40
0.0000000000
40
0.0000000000
40
1.0000000000
40
1.0000000000
40
1.0000000000
40
1.0000000000
10
-28.5885718402
20
-13.7766086443
30
0.0000000000
10
-28.6083229479
20
-13.7516660545
30
0.0000000000
10
-28.6280163639
20
-13.7266779363
30
0.0000000000
10
-28.6476545827
20
-13.7016468599
30
0.0000000000
11
-28.5885718402
21
-13.7766086443
31
0.0000000000
11
-28.6476545827
21
-13.7016468599
31
0.0000000000
0
SPLINE
5
452
100
AcDbEntity
8
0
100
AcDbSpline
62
7
6
CONTINUOUS
70
0
71
3
72
11
73
7
74
5
42
0.0000001000
43
0.0000001000
44
0.0000000001
12
0.5905781859
22
0.2185057902
32
0.0000000000
13
0.4723978794
23
-0.5251632682
33
0.0000000000
40
0.0000000000
40
0.0000000000
40
0.0000000000
40
0.0000000000
40
0.0498294460
40
0.2357307157
40
0.5558888715
40
1.0000000000
40
1.0000000000
40
1.0000000000
40
1.0000000000
10
-30.2135839794
20
-11.4640648734
30
0.0000000000
10
-30.2037745848
20
-11.4604355326
30
0.0000000000
10
-30.1342040081
20
-11.4623999495
30
0.0000000000
10
-30.0525378761
20
-11.5695861224
30
0.0000000000
10
-29.8808662872
20
-11.7119333877
30
0.0000000000
10
-29.7627488973
20
-11.8490111022
30
0.0000000000
10
-29.6928165122
20
-11.9267547194
30
0.0000000000
11
-30.2135839794
21
-11.4640648734
31
0.0000000000
11
-30.1759236997
21
-11.4632092305
31
0.0000000000
11
-30.0699559267
21
-11.5407617911
31
0.0000000000
11
-29.9067652342
21
-11.6973262536
31
0.0000000000
11
-29.6928165122
21
-11.9267547194
31
0.0000000000
0
SPLINE
5
453
100
AcDbEntity
8
0
100
AcDbSpline
62
7
6
CONTINUOUS
70
0
71
3
72
8
73
4
74
2
42
0.0000001000
43
0.0000001000
44
0.0000000001
12
0.0329965112
22
-0.0823660026
32
0.0000000000
13
-0.0509537671
23
-0.0448963375
33
0.0000000000
40
0.0000000000
40
0.0000000000
40
0.0000000000
40
0.0000000000
40
1.0000000000
40
1.0000000000
40
1.0000000000
40
1.0000000000
10
-27.1919409617
20
-15.3199592108
30
0.0000000000
10
-27.1809421246
20
-15.3474145450
30
0.0000000000
10
-27.1558628314
20
-15.3916445862
30
0.0000000000
10
-27.1728474205
20
-15.4066100320
30
0.0000000000
11
-27.1919409617
21
-15.3199592108
31
0.0000000000
11
-27.1728474205
21
-15.4066100320
31
0.0000000000
0
SPLINE
5
454
100
AcDbEntity
8
0
100
AcDbSpline
62
7
6
CONTINUOUS
70
0
71
3
72
8
73
4
74
2
42
0.0000001000
43
0.0000001000
44
0.0000000001
12
-0.0067842230
22
-0.0059777084
32
0.0000000000
13
-0.0105258100
23
-0.0031033473
33
0.0000000000
40
0.0000000000
40
0.0000000000
40
0.0000000000
40
0.0000000000
40
1.0000000000
40
1.0000000000
40
1.0000000000
40
1.0000000000
10
-27.1728474205
20
-15.4066100320
30
0.0000000000
10
-27.1751088281
20
-15.4086026015
30
0.0000000000
10
-27.1781159235
20
-15.4100763827
30
0.0000000000
10
-27.1816245268
20
-15.4111108318
30
0.0000000000
11
-27.1728474205
21
-15.4066100320
31
0.0000000000
11
-27.1816245268
21
-15.4111108318
31
0.0000000000
0
SPLINE
5
455
100
AcDbEntity
8
0
100
AcDbSpline
62
7
6
CONTINUOUS
70
0
71
3
72
8
73
4
74
2
42
0.0000001000
43
0.0000001000
44
0.0000000001
12
-0.0589944575
22
0.0521181016
32
0.0000000000
13
-0.0564215659
23
0.0564800346
33
0.0000000000
40
0.0000000000
40
0.0000000000
40
0.0000000000
40
0.0000000000
40
1.0000000000
40
1.0000000000
40
1.0000000000
40
1.0000000000
10
-23.4191258834
20
-5.4229996868
30
0.0000000000
10
-23.4387907026
20
-5.4056269863
30
0.0000000000
10
-23.4564259526
20
-5.3852352535
30
0.0000000000
10
-23.4752331412
20
-5.3664085753
30
0.0000000000
11
-23.4191258834
21
-5.4229996868
31
0.0000000000
11
-23.4752331412
21
-5.3664085753
31
0.0000000000
0
SPLINE
5
456
100
AcDbEntity
8
0
100
AcDbSpline
62
7
6
CONTINUOUS
70
0
71
3
72
9
73
5
74
3
42
0.0000001000
43
0.0000001000
44
0.0000000001
12
-0.1160472261
22
0.1161674839
32
0.0000000000
13
-0.1388674017
23
-0.0483448844
33
0.0000000000
40
0.0000000000
40
0.0000000000
40
0.0000000000
40
0.0000000000
40
0.6941602196
40
1.0000000000
40
1.0000000000
40
1.0000000000
40
1.0000000000
10
-23.4752331412
20
-5.3664085753
30
0.0000000000
10
-23.5020849305
20
-5.3395289599
30
0.0000000000
10
-23.5442088081
20
-5.3054023431
30
0.0000000000
10
-23.6106271659
20
-5.3055838538
30
0.0000000000
10
-23.6247842244
20
-5.3105124500
30
0.0000000000
11
-23.4752331412
21
-5.3664085753
31
0.0000000000
11
-23.5722728703
21
-5.3086819400
31
0.0000000000
11
-23.6247842244
21
-5.3105124500
31
0.0000000000
0
SPLINE
5
457
100
AcDbEntity
8
0
100
AcDbSpline
62
7
6
CONTINUOUS
70
0
71
3
72
11
73
7
74
5
42
0.0000001000
43
0.0000001000
44
0.0000000001
12
0.6915784965
22
0.8194261939
32
0.0000000000
13
0.7105027505
23
-0.7898637204
33
0.0000000000
40
0.0000000000
40
0.0000000000
40
0.0000000000
40
0.0000000000
40
0.0214744026
40
0.1893257478
40
0.5196861201
40
1.0000000000
40
1.0000000000
40
1.0000000000
40
1.0000000000
10
-20.7587664844
20
-2.6435837027
30
0.0000000000
10
-20.7538160728
20
-2.6377181401
30
0.0000000000
10
-20.7062888821
20
-2.5945994575
30
0.0000000000
10
-20.5318085116
20
-2.8022840139
30
0.0000000000
10
-20.3029819911
20
-2.9765188128
30
0.0000000000
10
-20.1009915530
20
-3.2108067681
30
0.0000000000
10
-19.9872367754
20
-3.3372676041
30
0.0000000000
11
-20.7587664844
21
-2.6435837027
31
0.0000000000
11
-20.7428281373
21
-2.6294647559
31
0.0000000000
11
-20.5921317123
21
-2.7248095650
31
0.0000000000
11
-20.3359865286
21
-2.9647544607
31
0.0000000000
11
-19.9872367754
21
-3.3372676041
31
0.0000000000
0
SPLINE
5
458
100
AcDbEntity
8
0
100
AcDbSpline
62
7
6
CONTINUOUS
70
0
71
3
72
8
73
4
74
2
42
0.0000001000
43
0.0000001000
44
0.0000000001
12
0.0481498355
22
-0.0637464954
32
0.0000000000
13
0.0440686920
23
-0.0666804540
33
0.0000000000
40
0.0000000000
40
0.0000000000
40
0.0000000000
40
0.0000000000
40
1.0000000000
40
1.0000000000
40
1.0000000000
40
1.0000000000
10
-26.5186787328
20
-11.5629726039
30
0.0000000000
10
-26.5026287876
20
-11.5842214357
30
0.0000000000
10
-26.4871757827
20
-11.6059410385
30
0.0000000000
10
-26.4724862187
20
-11.6281678565
30
0.0000000000
11
-26.5186787328
21
-11.5629726039
31
0.0000000000
11
-26.4724862187
21
-11.6281678565
31
0.0000000000
0
SPLINE
5
459
100
AcDbEntity
8
0
100
AcDbSpline
62
7
6
CONTINUOUS
70
0
71
3
72
13
73
9
74
7
42
0.0000001000
43
0.0000001000
44
0.0000000001
12
-0.7127816160
22
0.7938892108
32
0.0000000000
13
-0.8419066383
23
-0.6457191374
33
0.0000000000
40
0.0000000000
40
0.0000000000
40
0.0000000000
40
0.0000000000
40
0.0196819782
40
0.1865776138
40
0.3655960884
40
0.5621124952
40
0.7753755537
40
1.0000000000
40
1.0000000000
40
1.0000000000
40
1.0000000000
10
19.0525181366
20
6.1788859876
30
0.0000000000
10
19.0478418192
20
6.1840944243
30
0.0000000000
10
19.0023329116
20
6.2323934563
30
0.0000000000
10
18.8917660664
20
6.3057156316
30
0.0000000000
10
18.7009205269
20
6.3478723697
30
0.0000000000
10
18.4908333516
20
6.3299515702
30
0.0000000000
10
18.2771089958
20
6.2555467268
30
0.0000000000
10
18.1441985989
20
6.1734610190
30
0.0000000000
10
18.0811609948
20
6.1251129177
30
0.0000000000
11
19.0525181366
21
6.1788859876
31
0.0000000000
11
19.0381189048
21
6.1941634330
31
0.0000000000
11
18.8914541000
21
6.2933930975
31
0.0000000000
11
18.7066525208
21
6.3372827120
31
0.0000000000
11
18.4986856919
21
6.3222766009
31
0.0000000000
11
18.2844018490
21
6.2495904701
31
0.0000000000
11
18.0811609948
21
6.1251129177
31
0.0000000000
0
SPLINE
5
45A
100
AcDbEntity
8
0
100
AcDbSpline
62
7
6
CONTINUOUS
70
0
71
3
72
8
73
4
74
2
42
0.0000001000
43
0.0000001000
44
0.0000000001
12
-0.1496684453
22
0.1981489397
32
0.0000000000
13
-0.1473160070
23
0.1999105198
33
0.0000000000
40
0.0000000000
40
0.0000000000
40
0.0000000000
40
0.0000000000
40
1.0000000000
40
1.0000000000
40
1.0000000000
40
1.0000000000
10
-21.7710804031
20
-7.9216958176
30
0.0000000000
10
-21.8209698848
20
-7.8556461710
30
0.0000000000
10
-21.8704812672
20
-7.7893145192
30
0.0000000000
10
-21.9195866028
20
-7.7226776793
30
0.0000000000
11
-21.7710804031
21
-7.9216958176
31
0.0000000000
11
-21.9195866028
21
-7.7226776793
31
0.0000000000
0
SPLINE
5
45B
100
AcDbEntity
8
0
100
AcDbSpline
62
7
6
CONTINUOUS
70
0
71
3
72
8
73
4
74
2
42
0.0000001000
43
0.0000001000
44
0.0000000001
12
-0.0159497609
22
0.0066892246
32
0.0000000000
13
-0.0165462618
23
-0.0085043727
33
0.0000000000
40
0.0000000000
40
0.0000000000
40
0.0000000000
40
0.0000000000
40
1.0000000000
40
1.0000000000
40
1.0000000000
40
1.0000000000
10
-32.3820903619
20
-13.5125009483
30
0.0000000000
10
-32.3874069488
20
-13.5102712068
30
0.0000000000
10
-32.3932098692
20
-13.5112732153
30
0.0000000000
10
-32.3987252898
20
-13.5141080062
30
0.0000000000
11
-32.3820903619
21
-13.5125009483
31
0.0000000000
11
-32.3987252898
21
-13.5141080062
31
0.0000000000
0
SPLINE
5
45C
100
AcDbEntity
8
0
100
AcDbSpline
62
7
6
CONTINUOUS
70
0
71
3
72
8
73
4
74
2
42
0.0000001000
43
0.0000001000
44
0.0000000001
12
-0.0071311298
22
-0.0036652258
32
0.0000000000
13
-0.0066248781
23
-0.0053718328
33
0.0000000000
40
0.0000000000
40
0.0000000000
40
0.0000000000
40
0.0000000000
40
1.0000000000
40
1.0000000000
40
1.0000000000
40
1.0000000000
10
-32.3987252898
20
-13.5141080062
30
0.0000000000
10
-32.4011023330
20
-13.5153297481
30
0.0000000000
10
-32.4034259747
20
-13.5168919200
30
0.0000000000
10
-32.4056342674
20
-13.5186825310
30
0.0000000000
11
-32.3987252898
21
-13.5141080062
31
0.0000000000
11
-32.4056342674
21
-13.5186825310
31
0.0000000000
0
SPLINE
5
45D
100
AcDbEntity
8
0
100
AcDbSpline
62
7
6
CONTINUOUS
70
0
71
3
72
13
73
9
74
7
42
0.0000001000
43
0.0000001000
44
0.0000000001
12
-0.7145083495
22
0.7936853717
32
0.0000000000
13
-0.8425681684
23
-0.6462265127
33
0.0000000000
40
0.0000000000
40
0.0000000000
40
0.0000000000
40
0.0000000000
40
0.0885924228
40
0.2447669560
40
0.4132587831
40
0.5967770062
40
0.7938595022
40
1.0000000000
40
1.0000000000
40
1.0000000000
40
1.0000000000
10
18.5897129649
20
6.6933087214
30
0.0000000000
10
18.5686129563
20
6.7167468914
30
0.0000000000
10
18.5034864811
20
6.7753933971
30
0.0000000000
10
18.3686847154
20
6.8392442303
30
0.0000000000
10
18.1877288497
20
6.8620235376
30
0.0000000000
10
17.9933595326
20
6.8348564951
30
0.0000000000
10
17.7978092829
20
6.7607028662
30
0.0000000000
10
17.6761093131
20
6.6841747009
30
0.0000000000
10
17.6182135059
20
6.6397702159
30
0.0000000000
11
18.5897129649
21
6.6933087214
31
0.0000000000
11
18.5195407383
21
6.7564719774
31
0.0000000000
11
18.3704569794
21
6.8291013922
31
0.0000000000
11
18.1932488695
21
6.8537446265
31
0.0000000000
11
17.9999928484
21
6.8287222847
31
0.0000000000
11
17.8038589945
21
6.7557395980
31
0.0000000000
11
17.6182135059
21
6.6397702159
31
0.0000000000
0
SPLINE
5
45E
100
AcDbEntity
8
0
100
AcDbSpline
62
7
6
CONTINUOUS
70
0
71
3
72
19
73
15
74
13
42
0.0000001000
43
0.0000001000
44
0.0000000001
12
1.8705549959
22
3.4626975659
32
0.0000000000
13
2.8087922719
23
-4.2585708135
33
0.0000000000
40
0.0000000000
40
0.0000000000
40
0.0000000000
40
0.0000000000
40
0.0018830457
40
0.0205959800
40
0.0628139119
40
0.1277781380
40
0.2128816794
40
0.3145013798
40
0.4282509282
40
0.5491975881
40
0.6720873803
40
0.7915798647
40
0.9024858358
40
1.0000000000
40
1.0000000000
40
1.0000000000
40
1.0000000000
10
-11.7865553861
20
-9.7366010946
30
0.0000000000
10
-11.7853812726
20
-9.7344276220
30
0.0000000000
10
-11.7702697398
20
-9.7144646453
30
0.0000000000
10
-11.6397947468
20
-9.8065169711
30
0.0000000000
10
-11.5126636360
20
-9.9249998427
30
0.0000000000
10
-11.2696535815
20
-10.1734586215
30
0.0000000000
10
-10.9908720761
20
-10.4874186449
30
0.0000000000
10
-10.6579263297
20
-10.8788154354
30
0.0000000000
10
-10.2971236595
20
-11.3214034328
30
0.0000000000
10
-9.9204128206
20
-11.7990994502
30
0.0000000000
10
-9.5454819600
20
-12.2901029235
30
0.0000000000
10
-9.1883486719
20
-12.7732440383
30
0.0000000000
10
-8.8646681470
20
-13.2273184729
30
0.0000000000
10
-8.6649317457
20
-13.5201449308
30
0.0000000000
10
-8.5736327355
20
-13.6585685886
30
0.0000000000
11
-11.7865553861
21
-9.7366010946
31
0.0000000000
11
-11.7823867506
21
-9.7311964508
31
0.0000000000
11
-11.6947526855
21
-9.7690574517
31
0.0000000000
11
-11.5314097820
21
-9.9094297727
31
0.0000000000
11
-11.2994969088
21
-10.1461784697
31
0.0000000000
11
-11.0091497713
21
-10.4689564886
31
0.0000000000
11
-10.6730579326
21
-10.8636568812
31
0.0000000000
11
-10.3059102188
21
-11.3130293462
31
0.0000000000
11
-9.9237527469
21
-11.7974341507
31
0.0000000000
11
-9.5432876320
21
-12.2957004803
31
0.0000000000
11
-9.1811430254
21
-12.7860517054
31
0.0000000000
11
-8.8531463842
21
-13.2470571245
31
0.0000000000
11
-8.5736327355
21
-13.6585685886
31
0.0000000000
0
SPLINE
5
45F
100
AcDbEntity
8
0
100
AcDbSpline
62
7
6
CONTINUOUS
70
0
71
3
72
15
73
11
74
9
42
0.0000001000
43
0.0000001000
44
0.0000000001
12
0.4664296103
22
-0.7071806430
32
0.0000000000
13
0.5437237867
23
0.6562417184
33
0.0000000000
40
0.0000000000
40
0.0000000000
40
0.0000000000
40
0.0000000000
40
0.1521308794
40
0.3291025605
40
0.5137107569
40
0.6879885432
40
0.8350013781
40
0.9405773158
40
0.9950851794
40
1.0000000000
40
1.0000000000
40
1.0000000000
40
1.0000000000
10
-26.8105431008
20
-24.6017367973
30
0.0000000000
10
-26.7868903185
20
-24.6375981350
30
0.0000000000
10
-26.7339148500
20
-24.7140355232
30
0.0000000000
10
-26.6481465264
20
-24.8307576862
30
0.0000000000
10
-26.5556643213
20
-24.9516391210
30
0.0000000000
10
-26.4665165229
20
-25.0595662383
30
0.0000000000
10
-26.3864500154
20
-25.1604429514
30
0.0000000000
10
-26.3312030988
20
-25.2030854230
30
0.0000000000
10
-26.2910084453
20
-25.2648996440
30
0.0000000000
10
-26.2794988732
20
-25.2536889489
30
0.0000000000
10
-26.2786081049
20
-25.2526138455
30
0.0000000000
11
-26.8105431008
21
-24.6017367973
31
0.0000000000
11
-26.7374922967
21
-24.7079111203
31
0.0000000000
11
-26.6489339513
21
-24.8288814820
31
0.0000000000
11
-26.5535367727
21
-24.9528064604
31
0.0000000000
11
-26.4606389012
21
-25.0675554152
31
0.0000000000
11
-26.3793338279
21
-25.1618959192
31
0.0000000000
11
-26.3175802597
21
-25.2265932666
31
0.0000000000
11
-26.2814230661
21
-25.2553144302
31
0.0000000000
11
-26.2786081049
21
-25.2526138455
31
0.0000000000
0
SPLINE
5
460
100
AcDbEntity
8
0
100
AcDbSpline
62
7
6
CONTINUOUS
70
0
71
3
72
8
73
4
74
2
42
0.0000001000
43
0.0000001000
44
0.0000000001
12
0.0481498355
22
-0.0637464954
32
0.0000000000
13
0.0440686920
23
-0.0666804540
33
0.0000000000
40
0.0000000000
40
0.0000000000
40
0.0000000000
40
0.0000000000
40
1.0000000000
40
1.0000000000
40
1.0000000000
40
1.0000000000
10
-21.7710804031
20
-7.9216958176
30
0.0000000000
10
-21.7550304579
20
-7.9429446494
30
0.0000000000
10
-21.7395774529
20
-7.9646642522
30
0.0000000000
10
-21.7248878889
20
-7.9868910702
30
0.0000000000
11
-21.7710804031
21
-7.9216958176
31
0.0000000000
11
-21.7248878889
21
-7.9868910702
31
0.0000000000
0
SPLINE
5
461
100
AcDbEntity
8
0
100
AcDbSpline
62
7
6
CONTINUOUS
70
0
71
3
72
10
73
6
74
4
42
0.0000001000
43
0.0000001000
44
0.0000000001
12
-0.0861752892
22
0.1306552909
32
0.0000000000
13
0.1004557891
23
0.1212440604
33
0.0000000000
40
0.0000000000
40
0.0000000000
40
0.0000000000
40
0.0000000000
40
0.6094202905
40
0.9481854915
40
1.0000000000
40
1.0000000000
40
1.0000000000
40
1.0000000000
10
-26.8105431008
20
-24.6017367973
30
0.0000000000
10
-26.8280487573
20
-24.5751954688
30
0.0000000000
10
-26.8438706953
20
-24.5332876361
30
0.0000000000
10
-26.8925945786
20
-24.4876251594
30
0.0000000000
10
-26.8812656302
20
-24.4676111143
30
0.0000000000
10
-26.8795306078
20
-24.4655170472
30
0.0000000000
11
-26.8105431008
21
-24.6017367973
31
0.0000000000
11
-26.8609356420
21
-24.5207515953
31
0.0000000000
11
-26.8837371473
21
-24.4728829102
31
0.0000000000
11
-26.8795306078
21
-24.4655170472
31
0.0000000000
0
SPLINE
5
462
100
AcDbEntity
8
0
100
AcDbSpline
62
7
6
CONTINUOUS
70
0
71
3
72
18
73
14
74
12
42
0.0000001000
43
0.0000001000
44
0.0000000001
12
2.2534983517
22
2.6700881919
32
0.0000000000
13
-2.3151627550
23
2.5737593073
33
0.0000000000
40
0.0000000000
40
0.0000000000
40
0.0000000000
40
0.0000000000
40
0.0066351646
40
0.0397652070
40
0.0992758405
40
0.1826468320
40
0.2858455950
40
0.4037719218
40
0.5305615413
40
0.6598958248
40
0.7853262021
40
0.9006035362
40
1.0000000000
40
1.0000000000
40
1.0000000000
40
1.0000000000
10
24.6393910091
20
11.9144300642
30
0.0000000000
10
24.6443751199
20
11.9203355558
30
0.0000000000
10
24.6692290736
20
11.9668312502
30
0.0000000000
10
24.5809189002
20
12.0710142698
30
0.0000000000
10
24.5050364081
20
12.2473137246
30
0.0000000000
10
24.3404243752
20
12.4863538019
30
0.0000000000
10
24.1463270558
20
12.7764890470
30
0.0000000000
10
23.9111958973
20
13.1029210689
30
0.0000000000
10
23.6540241954
20
13.4492943389
30
0.0000000000
10
23.3853358895
20
13.7982092595
30
0.0000000000
10
23.1192740194
20
14.1322002780
30
0.0000000000
10
22.8690202280
20
14.4345545178
30
0.0000000000
10
22.7067306004
20
14.6217644032
30
0.0000000000
10
22.6300242700
20
14.7070385945
30
0.0000000000
11
24.6393910091
21
11.9144300642
31
0.0000000000
11
24.6509924871
21
11.9357193002
31
0.0000000000
11
24.6098169254
21
12.0427634250
31
0.0000000000
11
24.5094285867
21
12.2226646941
31
0.0000000000
11
24.3548613616
21
12.4664021067
31
0.0000000000
11
24.1538658961
21
12.7617536513
31
0.0000000000
11
23.9165209421
21
13.0939091680
31
0.0000000000
11
23.6547279667
21
13.4462129924
31
0.0000000000
11
23.3816143628
21
13.8009991395
31
0.0000000000
11
23.1108751870
21
14.1404771505
31
0.0000000000
11
22.8560864321
21
14.4476241803
31
0.0000000000
11
22.6300242700
21
14.7070385945
31
0.0000000000
0
SPLINE
5
463
100
AcDbEntity
8
0
100
AcDbSpline
62
7
6
CONTINUOUS
70
0
71
3
72
16
73
12
74
10
42
0.0000001000
43
0.0000001000
44
0.0000000001
12
1.1134264504
22
0.3719153211
32
0.0000000000
13
1.0747968569
23
-1.6295610647
33
0.0000000000
40
0.0000000000
40
0.0000000000
40
0.0000000000
40
0.0000000000
40
0.0188875647
40
0.0753780776
40
0.1665500380
40
0.2865190601
40
0.4272411348
40
0.5792052521
40
0.7321172553
40
0.8756171909
40
1.0000000000
40
1.0000000000
40
1.0000000000
40
1.0000000000
10
-27.2791871018
20
-23.9475191525
30
0.0000000000
10
-27.2721771304
20
-23.9451776276
30
0.0000000000
10
-27.2096416936
20
-23.9740948286
30
0.0000000000
10
-27.1513901847
20
-24.0475889939
30
0.0000000000
10
-27.0216253559
20
-24.1758401397
30
0.0000000000
10
-26.8766981345
20
-24.3490586186
30
0.0000000000
10
-26.7050056502
20
-24.5569120434
30
0.0000000000
10
-26.5264320209
20
-24.7849712435
30
0.0000000000
10
-26.3505345905
20
-25.0178715212
30
0.0000000000
10
-26.1900450365
20
-25.2397109382
30
0.0000000000
10
-26.0912418282
20
-25.3833582116
30
0.0000000000
10
-26.0466797441
20
-25.4509213392
30
0.0000000000
11
-27.2791871018
21
-23.9475191525
31
0.0000000000
11
-27.2431090583
21
-23.9599420701
31
0.0000000000
11
-27.1606002497
21
-24.0331047875
31
0.0000000000
11
-27.0384610717
21
-24.1625553588
31
0.0000000000
11
-26.8850151076
21
-24.3394719415
31
0.0000000000
11
-26.7107194460
21
-24.5517979630
31
0.0000000000
11
-26.5274520485
21
-24.7850637556
31
0.0000000000
11
-26.3477022851
21
-25.0233726412
31
0.0000000000
11
-26.1837198053
21
-25.2504842629
31
0.0000000000
11
-26.0466797441
21
-25.4509213392
31
0.0000000000
0
SPLINE
5
464
100
AcDbEntity
8
0
100
AcDbSpline
62
7
6
CONTINUOUS
70
0
71
3
72
16
73
12
74
10
42
0.0000001000
43
0.0000001000
44
0.0000000001
12
-1.9096068421
22
2.1229040475
32
0.0000000000
13
2.5300252471
23
0.6625769717
33
0.0000000000
40
0.0000000000
40
0.0000000000
40
0.0000000000
40
0.0000000000
40
0.1295140401
40
0.2822779794
40
0.4460120929
40
0.6075288263
40
0.7538236802
40
0.8731553655
40
0.9560720854
40
0.9966414328
40
1.0000000000
40
1.0000000000
40
1.0000000000
40
1.0000000000
10
-32.8641544458
20
-18.1385465343
30
0.0000000000
10
-32.9465947449
20
-18.0468979077
30
0.0000000000
10
-33.1215927937
20
-17.8429988128
30
0.0000000000
10
-33.3896903873
20
-17.5135504759
30
0.0000000000
10
-33.6683898833
20
-17.1549352156
30
0.0000000000
10
-33.9390375959
20
-16.7931199535
30
0.0000000000
10
-34.1667144677
20
-16.4676996984
30
0.0000000000
10
-34.3718755066
20
-16.1750301272
30
0.0000000000
10
-34.4453589558
20
-16.0124915286
30
0.0000000000
10
-34.5606445625
20
-15.8534819668
30
0.0000000000
10
-34.5275780322
20
-15.8408225418
30
0.0000000000
10
-34.5247456122
20
-15.8400807720
30
0.0000000000
11
-32.8641544458
21
-18.1385465343
31
0.0000000000
11
-33.1060589070
21
-17.8588232876
31
0.0000000000
11
-33.3817642768
21
-17.5208009259
31
0.0000000000
11
-33.6689345457
21
-17.1518640106
31
0.0000000000
11
-33.9443048864
21
-16.7819016165
31
0.0000000000
11
-34.1855664317
21
-16.4408858964
31
0.0000000000
11
-34.3731736059
21
-16.1564439159
31
0.0000000000
11
-34.4919275916
21
-15.9516194727
31
0.0000000000
11
-34.5322076470
21
-15.8430062249
31
0.0000000000
11
-34.5247456122
21
-15.8400807720
31
0.0000000000
0
SPLINE
5
465
100
AcDbEntity
8
0
100
AcDbSpline
62
7
6
CONTINUOUS
70
0
71
3
72
19
73
15
74
13
42
0.0000001000
43
0.0000001000
44
0.0000000001
12
4.8284457418
22
1.6424574982
32
0.0000000000
13
3.7395755946
23
-5.6697847120
33
0.0000000000
40
0.0000000000
40
0.0000000000
40
0.0000000000
40
0.0000000000
40
0.0108304533
40
0.0428126697
40
0.0953713706
40
0.1667975053
40
0.2544591031
40
0.3550463216
40
0.4647320251
40
0.5793304051
40
0.6944631530
40
0.8057310595
40
0.9088862443
40
1.0000000000
40
1.0000000000
40
1.0000000000
40
1.0000000000
10
-6.8571478219
20
-4.6948351277
30
0.0000000000
10
-6.8397164032
20
-4.6889056080
30
0.0000000000
10
-6.7153501202
20
-4.7232270059
30
0.0000000000
10
-6.5847943420
20
-4.8728616332
30
0.0000000000
10
-6.3139292891
20
-5.1153564140
30
0.0000000000
10
-5.9973029924
20
-5.4701329755
30
0.0000000000
10
-5.6080416097
20
-5.9125336317
30
0.0000000000
10
-5.1768129098
20
-6.4307213671
30
0.0000000000
10
-4.7149119021
20
-7.0032945462
30
0.0000000000
10
-4.2418628297
20
-7.6088607295
30
0.0000000000
10
-3.7753441079
20
-8.2240255952
30
0.0000000000
10
-3.3333948206
20
-8.8251971196
30
0.0000000000
10
-2.9329068950
20
-9.3892418954
30
0.0000000000
10
-2.6853961209
20
-9.7528711765
30
0.0000000000
10
-2.5718205285
20
-9.9250696361
30
0.0000000000
11
-6.8571478219
21
-4.6948351277
31
0.0000000000
11
-6.7810020404
21
-4.7083726563
31
0.0000000000
11
-6.6085123535
21
-4.8404061525
31
0.0000000000
11
-6.3520581130
21
-5.0887284495
31
0.0000000000
11
-6.0214947116
21
-5.4437966606
31
0.0000000000
11
-5.6295255155
21
-5.8919657137
31
0.0000000000
11
-5.1912136810
21
-6.4160127233
31
0.0000000000
11
-4.7234032862
21
-6.9957988568
31
0.0000000000
11
-4.2440720220
21
-7.6090432583
31
0.0000000000
11
-3.7716403203
21
-8.2321792892
31
0.0000000000
11
-3.3242634664
21
-8.8412601813
31
0.0000000000
11
-2.9191339018
21
-9.4128792977
31
0.0000000000
11
-2.5718205285
21
-9.9250696361
31
0.0000000000
0
SPLINE
5
466
100
AcDbEntity
8
0
100
AcDbSpline
62
7
6
CONTINUOUS
70
0
71
3
72
8
73
4
74
2
42
0.0000001000
43
0.0000001000
44
0.0000000001
12
-0.0612949765
22
0.0531651511
32
0.0000000000
13
-0.0596127461
23
0.0597332249
33
0.0000000000
40
0.0000000000
40
0.0000000000
40
0.0000000000
40
0.0000000000
40
1.0000000000
40
1.0000000000
40
1.0000000000
40
1.0000000000
10
-19.0927534942
20
-1.6321678473
30
0.0000000000
10
-19.1131851530
20
-1.6144461303
30
0.0000000000
10
-19.1319485733
20
-1.5927197007
30
0.0000000000
10
-19.1518194887
20
-1.5728086258
30
0.0000000000
11
-19.0927534942
21
-1.6321678473
31
0.0000000000
11
-19.1518194887
21
-1.5728086258
31
0.0000000000
0
SPLINE
5
467
100
AcDbEntity
8
0
100
AcDbSpline
62
7
6
CONTINUOUS
70
0
71
3
72
9
73
5
74
3
42
0.0000001000
43
0.0000001000
44
0.0000000001
12
-0.1208473215
22
0.1210915569
32
0.0000000000
13
-0.1494737956
23
-0.0585408625
33
0.0000000000
40
0.0000000000
40
0.0000000000
40
0.0000000000
40
0.0000000000
40
0.7198766771
40
1.0000000000
40
1.0000000000
40
1.0000000000
40
1.0000000000
10
-19.1518194887
20
-1.5728086258
30
0.0000000000
10
-19.1808178781
20
-1.5437516299
30
0.0000000000
10
-19.2243767094
20
-1.5087582855
30
0.0000000000
10
-19.2891336183
20
-1.5161296267
30
0.0000000000
10
-19.3030906504
20
-1.5215958470
30
0.0000000000
11
-19.1518194887
21
-1.5728086258
31
0.0000000000
11
-19.2545171709
21
-1.5153241752
31
0.0000000000
11
-19.3030906504
21
-1.5215958470
31
0.0000000000
0
SPLINE
5
468
100
AcDbEntity
8
0
100
AcDbSpline
62
7
6
CONTINUOUS
70
0
71
3
72
8
73
4
74
2
42
0.0000001000
43
0.0000001000
44
0.0000000001
12
-0.0218778960
22
0.0334754018
32
0.0000000000
13
-0.0161921794
23
0.0366926218
33
0.0000000000
40
0.0000000000
40
0.0000000000
40
0.0000000000
40
0.0000000000
40
1.0000000000
40
1.0000000000
40
1.0000000000
40
1.0000000000
10
-18.1152938348
20
-3.4580803239
30
0.0000000000
10
-18.1225864668
20
-3.4469218566
30
0.0000000000
10
-18.1290069352
20
-3.4351444673
30
0.0000000000
10
-18.1344043284
20
-3.4229135934
30
0.0000000000
11
-18.1152938348
21
-3.4580803239
31
0.0000000000
11
-18.1344043284
21
-3.4229135934
31
0.0000000000
0
SPLINE
5
469
100
AcDbEntity
8
0
100
AcDbSpline
62
7
6
CONTINUOUS
70
0
71
3
72
15
73
11
74
9
42
0.0000001000
43
0.0000001000
44
0.0000000001
12
-0.2872799823
22
0.6509967232
32
0.0000000000
13
0.4466314488
23
-0.5459377167
33
0.0000000000
40
0.0000000000
40
0.0000000000
40
0.0000000000
40
0.0000000000
40
0.0445989785
40
0.1800227370
40
0.3125174634
40
0.4464705431
40
0.5821741998
40
0.7190125829
40
0.8587269651
40
1.0000000000
40
1.0000000000
40
1.0000000000
40
1.0000000000
10
-18.1344043284
20
-3.4229135934
30
0.0000000000
10
-18.1386751263
20
-3.4132356637
30
0.0000000000
10
-18.1533285106
20
-3.3730248464
30
0.0000000000
10
-18.1585339562
20
-3.2975066658
30
0.0000000000
10
-18.1251517266
20
-3.2063434850
30
0.0000000000
10
-18.0601741608
20
-3.1346870950
30
0.0000000000
10
-17.9732531232
20
-3.0901986791
30
0.0000000000
10
-17.8746125811
20
-3.0794335462
30
0.0000000000
10
-17.7776928715
20
-3.1071740359
30
0.0000000000
10
-17.7249433543
20
-3.1504309824
30
0.0000000000
10
-17.7039110275
20
-3.1761397418
30
0.0000000000
11
-18.1344043284
21
-3.4229135934
31
0.0000000000
11
-18.1452202874
21
-3.3931099734
31
0.0000000000
11
-18.1517564628
21
-3.2978118436
31
0.0000000000
11
-18.1201003894
21
-3.2098805216
31
0.0000000000
11
-18.0569798317
21
-3.1395730086
31
0.0000000000
11
-17.9717768381
21
-3.0959535012
31
0.0000000000
11
-17.8757955200
21
-3.0857719570
31
0.0000000000
11
-17.7811272652
21
-3.1131528834
31
0.0000000000
11
-17.7039110275
21
-3.1761397418
31
0.0000000000
0
SPLINE
5
46A
100
AcDbEntity
8
0
100
AcDbSpline
62
7
6
CONTINUOUS
70
0
71
3
72
16
73
12
74
10
42
0.0000001000
43
0.0000001000
44
0.0000000001
12
-0.8118732693
22
1.2355457700
32
0.0000000000
13
0.9329786487
23
-1.1372311541
33
0.0000000000
40
0.0000000000
40
0.0000000000
40
0.0000000000
40
0.0000000000
40
0.0846346465
40
0.2005388047
40
0.3171157252
40
0.4344193184
40
0.5519479205
40
0.6664246187
40
0.7764878404
40
0.8861190377
40
1.0000000000
40
1.0000000000
40
1.0000000000
40
1.0000000000
10
-22.9952631788
20
-7.3901491265
30
0.0000000000
10
-23.0181673811
20
-7.3552924667
30
0.0000000000
10
-23.0622540431
20
-7.2655258581
30
0.0000000000
10
-23.0834618683
20
-7.1079152675
30
0.0000000000
10
-23.0432389572
20
-6.9375513543
30
0.0000000000
10
-22.9504999647
20
-6.7891151210
30
0.0000000000
10
-22.8193299145
20
-6.6751415934
30
0.0000000000
10
-22.6632755212
20
-6.6064329217
30
0.0000000000
10
-22.4962885813
20
-6.5934441592
30
0.0000000000
10
-22.3364076835
20
-6.6444512269
30
0.0000000000
10
-22.2508785810
20
-6.7179390026
30
0.0000000000
10
-22.2154624123
20
-6.7611086621
30
0.0000000000
11
-22.9952631788
21
-7.3901491265
31
0.0000000000
11
-23.0499160233
21
-7.2777589365
31
0.0000000000
11
-23.0729075973
21
-7.1088251233
31
0.0000000000
11
-23.0346695962
21
-6.9416619685
31
0.0000000000
11
-22.9440196668
21
-6.7948423735
31
0.0000000000
11
-22.8133795251
21
-6.6816130161
31
0.0000000000
11
-22.6587234311
21
-6.6150009252
31
0.0000000000
11
-22.4971981131
21
-6.6040020155
31
0.0000000000
11
-22.3436409578
21
-6.6532588544
31
0.0000000000
11
-22.2154624123
21
-6.7611086621
31
0.0000000000
0
SPLINE
5
46B
100
AcDbEntity
8
0
100
AcDbSpline
62
7
6
CONTINUOUS
70
0
71
3
72
12
73
8
74
6
42
0.0000001000
43
0.0000001000
44
0.0000000001
12
0.9066370122
22
0.3084041612
32
0.0000000000
13
-0.7021799199
23
1.0646151880
33
0.0000000000
40
0.0000000000
40
0.0000000000
40
0.0000000000
40
0.0000000000
40
0.0070794025
40
0.0946895162
40
0.2919876922
40
0.5972566338
40
1.0000000000
40
1.0000000000
40
1.0000000000
40
1.0000000000
10
-1.9900731463
20
-11.0380457592
30
0.0000000000
10
-1.9879336635
20
-11.0373179868
30
0.0000000000
10
-1.9621442343
20
-11.0246395929
30
0.0000000000
10
-2.0178171435
20
-10.8513524393
30
0.0000000000
10
-2.1142095666
20
-10.6681885837
30
0.0000000000
10
-2.3172505942
20
-10.3144481842
30
0.0000000000
10
-2.4775544270
20
-10.0679918709
30
0.0000000000
10
-2.5718205285
20
-9.9250696361
30
0.0000000000
11
-1.9900731463
21
-11.0380457592
31
0.0000000000
11
-1.9843224764
21
-11.0351789527
31
0.0000000000
11
-1.9961664951
21
-10.9240768311
31
0.0000000000
11
-2.1012958249
21
-10.6954714578
31
0.0000000000
11
-2.2956704048
21
-10.3581480091
31
0.0000000000
11
-2.5718205285
21
-9.9250696361
31
0.0000000000
0
SPLINE
5
46C
100
AcDbEntity
8
0
100
AcDbSpline
62
7
6
CONTINUOUS
70
0
71
3
72
20
73
16
74
14
42
0.0000001000
43
0.0000001000
44
0.0000000001
12
6.1642128142
22
3.0503434443
32
0.0000000000
13
3.7401067614
23
-5.6705900442
33
0.0000000000
40
0.0000000000
40
0.0000000000
40
0.0000000000
40
0.0000000000
40
0.0055263769
40
0.0292589666
40
0.0714518605
40
0.1311061277
40
0.2063273221
40
0.2946192675
40
0.3930149189
40
0.4981918703
40
0.6065915285
40
0.7145435113
40
0.8183929505
40
0.9146273790
40
1.0000000000
40
1.0000000000
40
1.0000000000
40
1.0000000000
10
-2.8968888035
20
-1.6676364728
30
0.0000000000
10
-2.8855335492
20
-1.6620173570
30
0.0000000000
10
-2.8111738385
20
-1.6444729640
30
0.0000000000
10
-2.6930214738
20
-1.7892262563
30
0.0000000000
10
-2.4781954623
20
-1.9546138243
30
0.0000000000
10
-2.2043094224
20
-2.2576506014
30
0.0000000000
10
-1.8660543586
20
-2.6292490827
30
0.0000000000
10
-1.4813338076
20
-3.0819727460
30
0.0000000000
10
-1.0611588741
20
-3.5916830782
30
0.0000000000
10
-0.6206338553
20
-4.1440600548
30
0.0000000000
10
-0.1745629874
20
-4.7194345519
30
0.0000000000
10
0.2617956218
20
-5.2984954536
30
0.0000000000
10
0.6736313196
20
-5.8614500080
30
0.0000000000
10
1.0469613033
20
-6.3891285023
30
0.0000000000
10
1.2780771739
20
-6.7293012693
30
0.0000000000
10
1.3845114129
20
-6.8906723141
30
0.0000000000
11
-2.8968888035
21
-1.6676364728
31
0.0000000000
11
-2.8583704499
21
-1.6581303923
31
0.0000000000
11
-2.7230596570
21
-1.7457713476
31
0.0000000000
11
-2.5109309437
21
-1.9385115866
31
0.0000000000
11
-2.2292080990
21
-2.2297875716
31
0.0000000000
11
-1.8874848565
21
-2.6096802483
31
0.0000000000
11
-1.4973981913
21
-3.0652528272
31
0.0000000000
11
-1.0722320369
21
-3.5809913306
31
0.0000000000
11
-0.6264649169
21
-4.1393329022
31
0.0000000000
11
-0.1752768958
21
-4.7212638895
31
0.0000000000
11
0.2659673594
21
-5.3069673307
31
0.0000000000
11
0.6822418049
21
-5.8764977976
31
0.0000000000
11
1.0593707136
21
-6.4104606132
31
0.0000000000
11
1.3845114129
21
-6.8906723141
31
0.0000000000
0
SPLINE
5
46D
100
AcDbEntity
8
0
100
AcDbSpline
62
7
6
CONTINUOUS
70
0
71
3
72
16
73
12
74
10
42
0.0000001000
43
0.0000001000
44
0.0000000001
12
-0.8361811016
22
1.2721715423
32
0.0000000000
13
0.9521027826
23
-1.1789136407
33
0.0000000000
40
0.0000000000
40
0.0000000000
40
0.0000000000
40
0.0000000000
40
0.0898858954
40
0.2084704549
40
0.3241750052
40
0.4383285010
40
0.5517400173
40
0.6625018604
40
0.7705247839
40
0.8811434331
40
1.0000000000
40
1.0000000000
40
1.0000000000
40
1.0000000000
10
-27.4856670426
20
-11.4213966830
30
0.0000000000
10
-27.5107206716
20
-11.3832799236
30
0.0000000000
10
-27.5585963706
20
-11.2877083565
30
0.0000000000
10
-27.5845409834
20
-11.1223923653
30
0.0000000000
10
-27.5468828159
20
-10.9466017959
30
0.0000000000
10
-27.4549806385
20
-10.7960888724
30
0.0000000000
10
-27.3236660729
20
-10.6825308953
30
0.0000000000
10
-27.1662122088
20
-10.6162121115
30
0.0000000000
10
-26.9961031522
20
-10.6080943146
30
0.0000000000
10
-26.8315070074
20
-10.6670468785
30
0.0000000000
10
-26.7430080287
20
-10.7465040653
30
0.0000000000
10
-26.7052868060
20
-10.7932112746
30
0.0000000000
11
-27.4856670426
21
-11.4213966830
31
0.0000000000
11
-27.5462070120
21
-11.2988684201
31
0.0000000000
11
-27.5734809988
21
-11.1212511197
31
0.0000000000
11
-27.5374167270
21
-10.9496653406
31
0.0000000000
11
-27.4478873539
21
-10.8016514657
31
0.0000000000
11
-27.3177119784
21
-10.6894451638
31
0.0000000000
11
-27.1625343883
21
-10.6254779403
31
0.0000000000
11
-26.9989764512
21
-10.6187959940
31
0.0000000000
11
-26.8409655892
21
-10.6747572573
31
0.0000000000
11
-26.7052868060
21
-10.7932112746
31
0.0000000000
0
SPLINE
5
46E
100
AcDbEntity
8
0
100
AcDbSpline
62
7
6
CONTINUOUS
70
0
71
3
72
8
73
4
74
2
42
0.0000001000
43
0.0000001000
44
0.0000000001
12
-0.0870959630
22
0.0673878161
32
0.0000000000
13
-0.0669829902
23
-0.0474331495
33
0.0000000000
40
0.0000000000
40
0.0000000000
40
0.0000000000
40
0.0000000000
40
1.0000000000
40
1.0000000000
40
1.0000000000
40
1.0000000000
10
-27.9089502771
20
-9.4551022994
30
0.0000000000
10
-27.9379822648
20
-9.4326396940
30
0.0000000000
10
-27.9832428032
20
-9.3864578935
30
0.0000000000
10
-28.0055704666
20
-9.4022689433
30
0.0000000000
11
-27.9089502771
21
-9.4551022994
31
0.0000000000
11
-28.0055704666
21
-9.4022689433
31
0.0000000000
0
SPLINE
5
46F
100
AcDbEntity
8
0
100
AcDbSpline
62
7
6
CONTINUOUS
70
0
71
3
72
8
73
4
74
2
42
0.0000001000
43
0.0000001000
44
0.0000000001
12
-0.0083099571
22
-0.0058845900
32
0.0000000000
13
-0.0062569375
23
-0.0107861248
33
0.0000000000
40
0.0000000000
40
0.0000000000
40
0.0000000000
40
0.0000000000
40
1.0000000000
40
1.0000000000
40
1.0000000000
40
1.0000000000
10
-28.0055704666
20
-9.4022689433
30
0.0000000000
10
-28.0083404523
20
-9.4042304733
30
0.0000000000
10
-28.0107574767
20
-9.4071461389
30
0.0000000000
10
-28.0128431226
20
-9.4107415139
30
0.0000000000
11
-28.0055704666
21
-9.4022689433
31
0.0000000000
11
-28.0128431226
21
-9.4107415139
31
0.0000000000
0
SPLINE
5
470
100
AcDbEntity
8
0
100
AcDbSpline
62
7
6
CONTINUOUS
70
0
71
3
72
19
73
15
74
13
42
0.0000001000
43
0.0000001000
44
0.0000000001
12
3.7908128722
22
1.6249379511
32
0.0000000000
13
-2.7804673359
23
3.0910369773
33
0.0000000000
40
0.0000000000
40
0.0000000000
40
0.0000000000
40
0.0000000000
40
0.0030676722
40
0.0265172161
40
0.0731807373
40
0.1416987374
40
0.2292562910
40
0.3321080901
40
0.4458080388
40
0.5654227824
40
0.6857552477
40
0.8015764319
40
0.9078582745
40
1.0000000000
40
1.0000000000
40
1.0000000000
40
1.0000000000
10
26.0731703502
20
12.5093555922
30
0.0000000000
10
26.0770466740
20
12.5110171845
30
0.0000000000
10
26.1064402403
20
12.5286925269
30
0.0000000000
10
26.0273884678
20
12.6546542833
30
0.0000000000
10
25.9657464249
20
12.8022434472
30
0.0000000000
10
25.8043918413
20
13.0518927885
30
0.0000000000
10
25.6114292198
20
13.3469376108
30
0.0000000000
10
25.3682662415
20
13.6938894779
30
0.0000000000
10
25.0950371895
20
14.0704097579
30
0.0000000000
10
24.8004158972
20
14.4623539785
30
0.0000000000
10
24.4982105664
20
14.8518798849
30
0.0000000000
10
24.2013610770
20
15.2221921811
30
0.0000000000
10
23.9229395977
20
15.5570915441
30
0.0000000000
10
23.7425344491
20
15.7646843424
30
0.0000000000
10
23.6571354297
20
15.8596221693
30
0.0000000000
11
26.0731703502
21
12.5093555922
31
0.0000000000
11
26.0830707855
21
12.5154810584
31
0.0000000000
11
26.0574495209
21
12.6095476581
31
0.0000000000
11
25.9688241375
21
12.7821294145
31
0.0000000000
11
25.8210679898
21
13.0256836767
31
0.0000000000
11
25.6206387304
21
13.3295659547
31
0.0000000000
11
25.3762960799
21
13.6804951348
31
0.0000000000
11
25.0987189844
21
14.0631339278
31
0.0000000000
11
24.8000388950
21
14.4607591824
31
0.0000000000
11
24.4933095649
21
14.8559927670
31
0.0000000000
11
24.1919365376
21
15.2315610773
31
0.0000000000
11
23.9090912606
21
15.5710499761
31
0.0000000000
11
23.6571354297
21
15.8596221693
31
0.0000000000
0
SPLINE
5
471
100
AcDbEntity
8
0
100
AcDbSpline
62
7
6
CONTINUOUS
70
0
71
3
72
17
73
13
74
11
42
0.0000001000
43
0.0000001000
44
0.0000000001
12
-0.8809073008
22
1.3388682620
32
0.0000000000
13
0.9890830105
23
-1.2543632374
33
0.0000000000
40
0.0000000000
40
0.0000000000
40
0.0000000000
40
0.0000000000
40
0.0865133658
40
0.1991189085
40
0.3030873068
40
0.4022313663
40
0.4995343923
40
0.5943227906
40
0.6888480104
40
0.7839974288
40
0.8866426246
40
1.0000000000
40
1.0000000000
40
1.0000000000
40
1.0000000000
10
-31.9589310014
20
-15.4786455778
30
0.0000000000
10
-31.9843344199
20
-15.4400355779
30
0.0000000000
10
-32.0347545396
20
-15.3456412333
30
0.0000000000
10
-32.0736379082
20
-15.1863019197
30
0.0000000000
10
-32.0584443564
20
-15.0157782754
30
0.0000000000
10
-31.9932042686
20
-14.8668593377
30
0.0000000000
10
-31.8897500597
20
-14.7482419172
30
0.0000000000
10
-31.7581853544
20
-14.6664307081
30
0.0000000000
10
-31.6083834436
20
-14.6295671489
30
0.0000000000
10
-31.4503416820
20
-14.6461825603
30
0.0000000000
10
-31.2989876514
20
-14.7210622117
30
0.0000000000
10
-31.2158001755
20
-14.8032128154
30
0.0000000000
10
-31.1784268908
20
-14.8506099235
30
0.0000000000
11
-31.9589310014
21
-15.4786455778
31
0.0000000000
11
-32.0234518423
21
-15.3560686532
31
0.0000000000
11
-32.0644172126
21
-15.1809185123
31
0.0000000000
11
-32.0492159356
21
-15.0155357093
31
0.0000000000
11
-31.9858964506
21
-14.8703709311
31
0.0000000000
11
-31.8837405927
21
-14.7532236564
31
0.0000000000
11
-31.7548569028
21
-14.6737521354
31
0.0000000000
11
-31.6080510631
21
-14.6384302019
31
0.0000000000
11
-31.4568757915
21
-14.6541699562
31
0.0000000000
11
-31.3091399544
21
-14.7252969976
31
0.0000000000
11
-31.1784268908
21
-14.8506099235
31
0.0000000000
0
SPLINE
5
472
100
AcDbEntity
8
0
100
AcDbSpline
62
7
6
CONTINUOUS
70
0
71
3
72
11
73
7
74
5
42
0.0000001000
43
0.0000001000
44
0.0000000001
12
0.0953278589
22
0.0253977173
32
0.0000000000
13
-0.0877631724
23
0.1330627716
33
0.0000000000
40
0.0000000000
40
0.0000000000
40
0.0000000000
40
0.0000000000
40
0.0081157017
40
0.1476444781
40
0.4894379378
40
1.0000000000
40
1.0000000000
40
1.0000000000
40
1.0000000000
10
3.4863356778
20
-10.0125371741
30
0.0000000000
10
3.4865935620
20
-10.0124684674
30
0.0000000000
10
3.4908502802
20
-10.0107334995
30
0.0000000000
10
3.4759979354
20
-9.9733899916
30
0.0000000000
10
3.4545366915
20
-9.9383059148
30
0.0000000000
10
3.4285410954
20
-9.8961208199
30
0.0000000000
10
3.4136049133
20
-9.8734752189
30
0.0000000000
11
3.4863356778
21
-10.0125371741
31
0.0000000000
11
3.4870351286
21
-10.0122489375
31
0.0000000000
11
3.4824880543
21
-9.9904779561
31
0.0000000000
11
3.4569737385
21
-9.9423400143
31
0.0000000000
11
3.4136049133
21
-9.8734752189
31
0.0000000000
0
SPLINE
5
473
100
AcDbEntity
8
0
100
AcDbSpline
62
7
6
CONTINUOUS
70
0
71
3
72
11
73
7
74
5
42
0.0000001000
43
0.0000001000
44
0.0000000001
12
0.3922233746
22
0.5717550887
32
0.0000000000
13
-0.5237748970
23
0.7941251161
33
0.0000000000
40
0.0000000000
40
0.0000000000
40
0.0000000000
40
0.0000000000
40
0.0636050538
40
0.2552440442
40
0.5714049853
40
1.0000000000
40
1.0000000000
40
1.0000000000
40
1.0000000000
10
-8.1396862519
20
-14.4947159515
30
0.0000000000
10
-8.1313704556
20
-14.4825937804
30
0.0000000000
10
-8.1323439651
20
-14.3745988734
30
0.0000000000
10
-8.2287177878
20
-14.2381504483
30
0.0000000000
10
-8.3678794296
20
-13.9657725071
30
0.0000000000
10
-8.4988036323
20
-13.7720212772
30
0.0000000000
10
-8.5736327355
20
-13.6585685886
30
0.0000000000
11
-8.1396862519
21
-14.4947159515
31
0.0000000000
11
-8.1344684563
21
-14.4316919110
31
0.0000000000
11
-8.2062659253
21
-14.2641187048
31
0.0000000000
11
-8.3548181670
21
-14.0026010722
31
0.0000000000
11
-8.5736327355
21
-13.6585685886
31
0.0000000000
0
SPLINE
5
474
100
AcDbEntity
8
0
100
AcDbSpline
62
7
6
CONTINUOUS
70
0
71
3
72
11
73
7
74
5
42
0.0000001000
43
0.0000001000
44
0.0000000001
12
0.3688418648
22
0.4370273034
32
0.0000000000
13
0.3789348003
23
-0.4212606509
33
0.0000000000
40
0.0000000000
40
0.0000000000
40
0.0000000000
40
0.0000000000
40
0.0214744026
40
0.1893257478
40
0.5196861201
40
1.0000000000
40
1.0000000000
40
1.0000000000
40
1.0000000000
10
22.2185417586
20
15.0770033419
30
0.0000000000
10
22.2211819781
20
15.0801316420
30
0.0000000000
10
22.2465298132
20
15.1031282727
30
0.0000000000
10
22.3395860108
20
14.9923631759
30
0.0000000000
10
22.4616268217
20
14.8994379499
30
0.0000000000
10
22.5693550553
20
14.7744843737
30
0.0000000000
10
22.6300242700
20
14.7070385945
30
0.0000000000
11
22.2185417586
21
15.0770033419
31
0.0000000000
11
22.2270422104
21
15.0845334469
31
0.0000000000
11
22.3074136371
21
15.0336828820
31
0.0000000000
11
22.4440244017
21
14.9057122709
31
0.0000000000
11
22.6300242700
21
14.7070385945
31
0.0000000000
0
SPLINE
5
475
100
AcDbEntity
8
0
100
AcDbSpline
62
7
6
CONTINUOUS
70
0
71
3
72
13
73
9
74
7
42
0.0000001000
43
0.0000001000
44
0.0000000001
12
0.5241934023
22
0.5508637910
32
0.0000000000
13
0.6251816822
23
0.5288347293
33
0.0000000000
40
0.0000000000
40
0.0000000000
40
0.0000000000
40
0.0000000000
40
0.1325895046
40
0.3343646055
40
0.5425659329
40
0.7385785720
40
0.8989354092
40
1.0000000000
40
1.0000000000
40
1.0000000000
40
1.0000000000
10
-21.2141571721
20
-9.7348651065
30
0.0000000000
10
-21.1909896576
20
-9.7105188542
30
0.0000000000
10
-21.1300987531
20
-9.6509044023
30
0.0000000000
10
-21.0247385949
20
-9.5621368994
30
0.0000000000
10
-20.8981802651
20
-9.4737365025
30
0.0000000000
10
-20.7744724553
20
-9.4025591980
30
0.0000000000
10
-20.6708334825
20
-9.3459914763
30
0.0000000000
10
-20.6134906926
20
-9.3192495719
30
0.0000000000
10
-20.5924294489
20
-9.3014340834
30
0.0000000000
11
-21.2141571721
21
-9.7348651065
31
0.0000000000
11
-21.1420629933
21
-9.6640117157
31
0.0000000000
11
-21.0245309424
21
-9.5649488708
31
0.0000000000
11
-20.8945330950
21
-9.4740822795
31
0.0000000000
11
-20.7658566741
21
-9.3983238006
31
0.0000000000
11
-20.6581096633
21
-9.3407611295
31
0.0000000000
11
-20.5924294489
21
-9.3014340834
31
0.0000000000
0
SPLINE
5
476
100
AcDbEntity
8
0
100
AcDbSpline
62
7
6
CONTINUOUS
70
0
71
3
72
10
73
6
74
4
42
0.0000001000
43
0.0000001000
44
0.0000000001
12
0.3097291364
22
-0.3443249273
32
0.0000000000
13
0.4103580472
23
0.1074668297
33
0.0000000000
40
0.0000000000
40
0.0000000000
40
0.0000000000
40
0.0000000000
40
0.5914855093
40
0.9308549509
40
1.0000000000
40
1.0000000000
40
1.0000000000
40
1.0000000000
10
-32.8641544458
20
-18.1385465343
30
0.0000000000
10
-32.8030876805
20
-18.2064342693
30
0.0000000000
10
-32.6935362199
20
-18.2937354593
30
0.0000000000
10
-32.6071997244
20
-18.4405455968
30
0.0000000000
10
-32.5312758429
20
-18.4408081089
30
0.0000000000
10
-32.5218177671
20
-18.4383311758
30
0.0000000000
11
-32.8641544458
21
-18.1385465343
31
0.0000000000
11
-32.6756485539
21
-18.3373091521
31
0.0000000000
11
-32.5558128576
21
-18.4390085758
31
0.0000000000
11
-32.5218177671
21
-18.4383311758
31
0.0000000000
0
SPLINE
5
477
100
AcDbEntity
8
0
100
AcDbSpline
62
7
6
CONTINUOUS
70
0
71
3
72
14
73
10
74
8
42
0.0000001000
43
0.0000001000
44
0.0000000001
12
0.5403036910
22
0.6064720128
32
0.0000000000
13
0.6691892443
23
0.5660602716
33
0.0000000000
40
0.0000000000
40
0.0000000000
40
0.0000000000
40
0.0000000000
40
0.0397308254
40
0.1896325930
40
0.3781384575
40
0.5726479437
40
0.7557703004
40
0.9055816700
40
1.0000000000
40
1.0000000000
40
1.0000000000
40
1.0000000000
10
-25.9978646725
20
-13.4154939839
30
0.0000000000
10
-25.9907091020
20
-13.4074621060
30
0.0000000000
10
-25.9564104116
20
-13.3693999694
30
0.0000000000
10
-25.8831079742
20
-13.2967399452
30
0.0000000000
10
-25.7723369246
20
-13.2034136857
30
0.0000000000
10
-25.6457785949
20
-13.1150132889
30
0.0000000000
10
-25.5220707851
20
-13.0438359844
30
0.0000000000
10
-25.4184318122
20
-12.9872682626
30
0.0000000000
10
-25.3610890223
20
-12.9605263582
30
0.0000000000
10
-25.3400277787
20
-12.9427108697
30
0.0000000000
11
-25.9978646725
21
-13.4154939839
31
0.0000000000
11
-25.9762288774
21
-13.3915842302
31
0.0000000000
11
-25.8896613231
21
-13.3052885020
31
0.0000000000
11
-25.7721292722
21
-13.2062256571
31
0.0000000000
11
-25.6421314248
21
-13.1153590659
31
0.0000000000
11
-25.5134550038
21
-13.0396005869
31
0.0000000000
11
-25.4057079931
21
-12.9820379159
31
0.0000000000
11
-25.3400277787
21
-12.9427108697
31
0.0000000000
0
SPLINE
5
478
100
AcDbEntity
8
0
100
AcDbSpline
62
7
6
CONTINUOUS
70
0
71
3
72
8
73
4
74
2
42
0.0000001000
43
0.0000001000
44
0.0000000001
12
-0.1496684453
22
0.1981489397
32
0.0000000000
13
-0.1473160070
23
0.1999105198
33
0.0000000000
40
0.0000000000
40
0.0000000000
40
0.0000000000
40
0.0000000000
40
1.0000000000
40
1.0000000000
40
1.0000000000
40
1.0000000000
10
-31.2662770626
20
-15.2042493902
30
0.0000000000
10
-31.3161665443
20
-15.1381997437
30
0.0000000000
10
-31.3656779267
20
-15.0718680919
30
0.0000000000
10
-31.4147832624
20
-15.0052312519
30
0.0000000000
11
-31.2662770626
21
-15.2042493902
31
0.0000000000
11
-31.4147832624
21
-15.0052312519
31
0.0000000000
0
SPLINE
5
479
100
AcDbEntity
8
0
100
AcDbSpline
62
7
6
CONTINUOUS
70
0
71
3
72
16
73
12
74
10
42
0.0000001000
43
0.0000001000
44
0.0000000001
12
0.9282313347
22
-1.2517374757
32
0.0000000000
13
-1.0478323684
23
1.1623729205
33
0.0000000000
40
0.0000000000
40
0.0000000000
40
0.0000000000
40
0.0000000000
40
0.1234905317
40
0.2346544460
40
0.3417821197
40
0.4491720235
40
0.5592603647
40
0.6707669948
40
0.7857512376
40
0.9078638807
40
1.0000000000
40
1.0000000000
40
1.0000000000
40
1.0000000000
10
-28.2305657096
20
-13.7452407519
30
0.0000000000
10
-28.1923564493
20
-13.7967666607
30
0.0000000000
10
-28.1337729778
20
-13.9069221149
30
0.0000000000
10
-28.1123362202
20
-14.0874449947
30
0.0000000000
10
-28.1588822437
20
-14.2544218876
30
0.0000000000
10
-28.2611094492
20
-14.3927201988
30
0.0000000000
10
-28.4044434602
20
-14.4912524889
30
0.0000000000
10
-28.5758064339
20
-14.5397522350
30
0.0000000000
10
-28.7603665671
20
-14.5265644897
30
0.0000000000
10
-28.9186354741
20
-14.4527449397
30
0.0000000000
10
-29.0027215725
20
-14.3776508719
30
0.0000000000
10
-29.0349026418
20
-14.3419520285
30
0.0000000000
11
-28.2305657096
21
-13.7452407519
31
0.0000000000
11
-28.1428444062
21
-13.9165264040
31
0.0000000000
11
-28.1237242437
21
-14.0887004756
31
0.0000000000
11
-28.1680469262
21
-14.2496518040
31
0.0000000000
11
-28.2666633114
21
-14.3848599656
31
0.0000000000
11
-28.4078424017
21
-14.4823281557
31
0.0000000000
11
-28.5751500607
21
-14.5292638693
31
0.0000000000
11
-28.7538765211
21
-14.5164405749
31
0.0000000000
11
-28.9269036388
21
-14.4372345538
31
0.0000000000
11
-29.0349026418
21
-14.3419520285
31
0.0000000000
0
SPLINE
5
47A
100
AcDbEntity
8
0
100
AcDbSpline
62
7
6
CONTINUOUS
70
0
71
3
72
11
73
7
74
5
42
0.0000001000
43
0.0000001000
44
0.0000000001
12
0.6189080252
22
0.2652959068
32
0.0000000000
13
0.4539537049
23
-0.5046589362
33
0.0000000000
40
0.0000000000
40
0.0000000000
40
0.0000000000
40
0.0000000000
40
0.0403839759
40
0.2227800272
40
0.5464815125
40
1.0000000000
40
1.0000000000
40
1.0000000000
40
1.0000000000
10
23.1585615823
20
16.3027162071
30
0.0000000000
10
23.1668929045
20
16.3062874416
30
0.0000000000
10
23.2249804502
20
16.3162231752
30
0.0000000000
10
23.3086059332
20
16.2018516240
30
0.0000000000
10
23.4718731705
20
16.0728390930
30
0.0000000000
10
23.5885099638
20
15.9359128885
30
0.0000000000
10
23.6571354297
20
15.8596221693
30
0.0000000000
11
23.1585615823
21
16.3027162071
31
0.0000000000
11
23.1871637734
21
16.3080310222
31
0.0000000000
11
23.2881075414
21
16.2363449899
31
0.0000000000
11
23.4470807238
21
16.0846656675
31
0.0000000000
11
23.6571354297
21
15.8596221693
31
0.0000000000
0
SPLINE
5
47B
100
AcDbEntity
8
0
100
AcDbSpline
62
7
6
CONTINUOUS
70
0
71
3
72
15
73
11
74
9
42
0.0000001000
43
0.0000001000
44
0.0000000001
12
0.5921120014
22
0.6662070731
32
0.0000000000
13
0.7203687817
23
0.6093525138
33
0.0000000000
40
0.0000000000
40
0.0000000000
40
0.0000000000
40
0.0000000000
40
0.0107966122
40
0.1079543983
40
0.2472061998
40
0.4223194199
40
0.6030097266
40
0.7731219172
40
0.9122897431
40
1.0000000000
40
1.0000000000
40
1.0000000000
40
1.0000000000
10
-30.7869874031
20
-17.1036895901
30
0.0000000000
10
-30.7848564685
20
-17.1012919969
30
0.0000000000
10
-30.7635314622
20
-17.0773314637
30
0.0000000000
10
-30.7165814342
20
-17.0231392632
30
0.0000000000
10
-30.6307063040
20
-16.9380167315
30
0.0000000000
10
-30.5199352544
20
-16.8446904720
30
0.0000000000
10
-30.3933769246
20
-16.7562900752
30
0.0000000000
10
-30.2696691148
20
-16.6851127707
30
0.0000000000
10
-30.1660301420
20
-16.6285450489
30
0.0000000000
10
-30.1086873521
20
-16.6018031446
30
0.0000000000
10
-30.0876261085
20
-16.5839876561
30
0.0000000000
11
-30.7869874031
21
-17.1036895901
31
0.0000000000
11
-30.7805992262
21
-17.0965023197
31
0.0000000000
11
-30.7238272072
21
-17.0328610165
31
0.0000000000
11
-30.6372596528
21
-16.9465652883
31
0.0000000000
11
-30.5197276020
21
-16.8475024435
31
0.0000000000
11
-30.3897297545
21
-16.7566358522
31
0.0000000000
11
-30.2610533336
21
-16.6808773733
31
0.0000000000
11
-30.1533063228
21
-16.6233147022
31
0.0000000000
11
-30.0876261085
21
-16.5839876561
31
0.0000000000
0
SPLINE
5
47C
100
AcDbEntity
8
0
100
AcDbSpline
62
7
6
CONTINUOUS
70
0
71
3
72
11
73
7
74
5
42
0.0000001000
43
0.0000001000
44
0.0000000001
12
1.1094113754
22
-1.2333292106
32
0.0000000000
13
1.0153825250
23
-1.3118482305
33
0.0000000000
40
0.0000000000
40
0.0000000000
40
0.0000000000
40
0.0000000000
40
0.2341652176
40
0.5033670311
40
0.7967815412
40
1.0000000000
40
1.0000000000
40
1.0000000000
40
1.0000000000
10
-29.6928165122
20
-11.9267547194
30
0.0000000000
10
-29.6062213268
20
-12.0230223204
30
0.0000000000
10
-29.4235363239
20
-12.2330762605
30
0.0000000000
10
-29.1416163048
20
-12.5716896041
30
0.0000000000
10
-28.8764094211
20
-12.9018645277
30
0.0000000000
10
-28.7072118006
20
-13.1181760522
30
0.0000000000
10
-28.6384303099
20
-13.2070399774
30
0.0000000000
11
-29.6928165122
21
-11.9267547194
31
0.0000000000
11
-29.4372435870
21
-12.2192920233
31
0.0000000000
11
-29.1511526980
21
-12.5621925118
31
0.0000000000
11
-28.8461469385
21
-12.9415179620
31
0.0000000000
11
-28.6384303099
21
-13.2070399774
31
0.0000000000
0
SPLINE
5
47D
100
AcDbEntity
8
0
100
AcDbSpline
62
7
6
CONTINUOUS
70
0
71
3
72
9
73
5
74
3
42
0.0000001000
43
0.0000001000
44
0.0000000001
12
0.4133384928
22
-0.5340227520
32
0.0000000000
13
0.4022377227
23
-0.5424251615
33
0.0000000000
40
0.0000000000
40
0.0000000000
40
0.0000000000
40
0.0000000000
40
0.2510888130
40
1.0000000000
40
1.0000000000
40
1.0000000000
40
1.0000000000
10
-28.6384303099
20
-13.2070399774
30
0.0000000000
10
-28.6038354194
20
-13.2517356904
30
0.0000000000
10
-28.4665122248
20
-13.4300967964
30
0.0000000000
10
-28.3309791531
20
-13.6098313281
30
0.0000000000
10
-28.2305657096
20
-13.7452407519
30
0.0000000000
11
-28.6384303099
21
-13.2070399774
31
0.0000000000
11
-28.5349876429
21
-13.3413912356
31
0.0000000000
11
-28.2305657096
21
-13.7452407519
31
0.0000000000
0
SPLINE
5
47E
100
AcDbEntity
8
0
100
AcDbSpline
62
7
6
CONTINUOUS
70
0
71
3
72
16
73
12
74
10
42
0.0000001000
43
0.0000001000
44
0.0000000001
12
0.8842266391
22
-1.2152288370
32
0.0000000000
13
-1.0110770355
23
1.1214978640
33
0.0000000000
40
0.0000000000
40
0.0000000000
40
0.0000000000
40
0.0000000000
40
0.1176411154
40
0.2276477311
40
0.3372095757
40
0.4490081345
40
0.5639627520
40
0.6793145245
40
0.7953469675
40
0.9143169676
40
1.0000000000
40
1.0000000000
40
1.0000000000
40
1.0000000000
10
-23.1765679566
20
-10.4445872611
30
0.0000000000
10
-23.1418941539
20
-10.4922408864
30
0.0000000000
10
-23.0895040298
20
-10.5969533124
30
0.0000000000
10
-23.0759856624
20
-10.7695028405
30
0.0000000000
10
-23.1273747335
20
-10.9314048140
30
0.0000000000
10
-23.2320432879
20
-11.0672836347
30
0.0000000000
10
-23.3758775271
20
-11.1654625045
30
0.0000000000
10
-23.5451059832
20
-11.2155085950
30
0.0000000000
10
-23.7240916530
20
-11.2069531790
30
0.0000000000
10
-23.8745456933
20
-11.1411576097
30
0.0000000000
10
-23.9527519425
20
-11.0725022052
30
0.0000000000
10
-23.9816293246
20
-11.0404710926
30
0.0000000000
11
-23.1765679566
21
-10.4445872611
31
0.0000000000
11
-23.0993006685
21
-10.6036093713
31
0.0000000000
11
-23.0867246256
21
-10.7684567216
31
0.0000000000
11
-23.1354949100
21
-10.9257262090
31
0.0000000000
11
-23.2370812401
21
-11.0595572465
31
0.0000000000
11
-23.3796227163
21
-11.1571730369
31
0.0000000000
11
-23.5460528790
21
-11.2056963042
31
0.0000000000
11
-23.7202015207
21
-11.1966694288
31
0.0000000000
11
-23.8841441876
21
-11.1253164448
31
0.0000000000
11
-23.9816293246
21
-11.0404710926
31
0.0000000000
0
SPLINE
5
47F
100
AcDbEntity
8
0
100
AcDbSpline
62
7
6
CONTINUOUS
70
0
71
3
72
15
73
11
74
9
42
0.0000001000
43
0.0000001000
44
0.0000000001
12
2.9276749932
22
0.8441171692
32
0.0000000000
13
-1.9622190449
23
2.5773366118
33
0.0000000000
40
0.0000000000
40
0.0000000000
40
0.0000000000
40
0.0000000000
40
0.0050856813
40
0.0456951520
40
0.1298106615
40
0.2550297410
40
0.4160123257
40
0.6055944948
40
0.8152482575
40
1.0000000000
40
1.0000000000
40
1.0000000000
40
1.0000000000
10
-19.5283699787
20
-10.6410392693
30
0.0000000000
10
-19.5234069048
20
-10.6396082990
30
0.0000000000
10
-19.4843883476
20
-10.6220145421
30
0.0000000000
10
-19.5869736250
20
-10.4370967231
30
0.0000000000
10
-19.6762121757
20
-10.2374581150
30
0.0000000000
10
-19.9041316078
20
-9.8781675020
30
0.0000000000
10
-20.1809117324
20
-9.4574579939
30
0.0000000000
10
-20.5298821222
20
-8.9592179778
30
0.0000000000
10
-20.9000238898
20
-8.4501396339
30
0.0000000000
10
-21.1557583971
20
-8.1095675030
30
0.0000000000
10
-21.2765995263
20
-7.9508450263
30
0.0000000000
11
-19.5283699787
21
-10.6410392693
31
0.0000000000
11
-19.5156523149
21
-10.6351037044
31
0.0000000000
11
-19.5468638939
21
-10.5073461482
31
0.0000000000
11
-19.6702718515
21
-10.2644925824
31
0.0000000000
11
-19.8802719640
21
-9.9175765478
31
0.0000000000
11
-20.1673188158
21
-9.4823683776
31
0.0000000000
11
-20.5183603847
21
-8.9786569901
31
0.0000000000
11
-20.9174329145
21
-8.4293479682
31
0.0000000000
11
-21.2765995263
21
-7.9508450263
31
0.0000000000
0
SPLINE
5
480
100
AcDbEntity
8
0
100
AcDbSpline
62
7
6
CONTINUOUS
70
0
71
3
72
8
73
4
74
2
42
0.0000001000
43
0.0000001000
44
0.0000000001
12
-0.0696747302
22
0.0915164051
32
0.0000000000
13
-0.0699022313
23
0.0913342873
33
0.0000000000
40
0.0000000000
40
0.0000000000
40
0.0000000000
40
0.0000000000
40
1.0000000000
40
1.0000000000
40
1.0000000000
40
1.0000000000
10
-21.2765995263
20
-7.9508450263
30
0.0000000000
10
-21.2998244364
20
-7.9203395580
30
0.0000000000
10
-21.3230880274
20
-7.8898640853
30
0.0000000000
10
-21.3463887711
20
-7.8594193229
30
0.0000000000
11
-21.2765995263
21
-7.9508450263
31
0.0000000000
11
-21.3463887711
21
-7.8594193229
31
0.0000000000
0
SPLINE
5
481
100
AcDbEntity
8
0
100
AcDbSpline
62
7
6
CONTINUOUS
70
0
71
3
72
9
73
5
74
3
42
0.0000001000
43
0.0000001000
44
0.0000000001
12
-0.8513994858
22
1.1124389569
32
0.0000000000
13
-0.8883546914
23
1.0828378896
33
0.0000000000
40
0.0000000000
40
0.0000000000
40
0.0000000000
40
0.0000000000
40
0.5107924619
40
1.0000000000
40
1.0000000000
40
1.0000000000
40
1.0000000000
10
-21.3463887711
20
-7.8594193229
30
0.0000000000
10
-21.4913515843
20
-7.6700108451
30
0.0000000000
10
-21.7779666836
20
-7.3015249407
30
0.0000000000
10
-22.0705991417
20
-6.9376861481
30
0.0000000000
10
-22.2154624123
20
-6.7611086621
30
0.0000000000
11
-21.3463887711
21
-7.8594193229
31
0.0000000000
11
-21.7857232314
21
-7.2947836736
31
0.0000000000
11
-22.2154624123
21
-6.7611086621
31
0.0000000000
0
SPLINE
5
482
100
AcDbEntity
8
0
100
AcDbSpline
62
7
6
CONTINUOUS
70
0
71
3
72
13
73
9
74
7
42
0.0000001000
43
0.0000001000
44
0.0000000001
12
2.1494959637
22
-2.3895880454
32
0.0000000000
13
1.8910377744
23
-2.5989305610
33
0.0000000000
40
0.0000000000
40
0.0000000000
40
0.0000000000
40
0.0000000000
40
0.1369783259
40
0.2936097500
40
0.4644066727
40
0.6433053761
40
0.8239689780
40
1.0000000000
40
1.0000000000
40
1.0000000000
40
1.0000000000
10
-25.1785933788
20
-7.9316444333
30
0.0000000000
10
-25.0804485926
20
-8.0407516900
30
0.0000000000
10
-24.8736915534
20
-8.2778731943
30
0.0000000000
10
-24.5544271182
20
-8.6595133700
30
0.0000000000
10
-24.2133589801
20
-9.0813705500
30
0.0000000000
10
-23.8626556542
20
-9.5284626574
30
0.0000000000
10
-23.5148380450
20
-9.9848721278
30
0.0000000000
10
-23.2875283940
20
-10.2920897935
30
0.0000000000
10
-23.1765679566
20
-10.4445872611
30
0.0000000000
11
-25.1785933788
21
-7.9316444333
31
0.0000000000
11
-24.8885997211
21
-8.2629068840
31
0.0000000000
11
-24.5652035617
21
-8.6487259590
31
0.0000000000
11
-24.2198471863
21
-9.0754401725
31
0.0000000000
11
-23.8648774789
21
-9.5277900167
31
0.0000000000
11
-23.5129404292
21
-9.9896555889
31
0.0000000000
11
-23.1765679566
21
-10.4445872611
31
0.0000000000
0
SPLINE
5
483
100
AcDbEntity
8
0
100
AcDbSpline
62
7
6
CONTINUOUS
70
0
71
3
72
15
73
11
74
9
42
0.0000001000
43
0.0000001000
44
0.0000000001
12
1.3144229757
22
1.9657039197
32
0.0000000000
13
-1.6366515659
23
2.1467361253
33
0.0000000000
40
0.0000000000
40
0.0000000000
40
0.0000000000
40
0.0000000000
40
0.0159625306
40
0.0770118832
40
0.1820135388
40
0.3267267127
40
0.5045939199
40
0.7073881151
40
0.9256717691
40
1.0000000000
40
1.0000000000
40
1.0000000000
40
1.0000000000
10
-24.6339469927
20
-13.8245132584
30
0.0000000000
10
-24.6269531537
20
-13.8140540554
30
0.0000000000
10
-24.6093201537
20
-13.7283688257
30
0.0000000000
10
-24.7140762470
20
-13.5978942424
30
0.0000000000
10
-24.8333254384
20
-13.3449256578
30
0.0000000000
10
-25.0501671369
20
-13.0257074708
30
0.0000000000
10
-25.3134297900
20
-12.6335294607
30
0.0000000000
10
-25.6278565964
20
-12.1955591249
30
0.0000000000
10
-25.8931231226
20
-11.8373322066
30
0.0000000000
10
-26.0521721655
20
-11.6275034815
30
0.0000000000
10
-26.0927219706
20
-11.5743157820
30
0.0000000000
11
-24.6339469927
21
-13.8245132584
31
0.0000000000
11
-24.6223052364
21
-13.7798429764
31
0.0000000000
11
-24.6844747204
21
-13.6272197769
31
0.0000000000
11
-24.8235355665
21
-13.3802299304
31
0.0000000000
11
-25.0329614865
21
-13.0504651679
31
0.0000000000
11
-25.3029230427
21
-12.6534031248
31
0.0000000000
11
-25.6207491722
21
-12.2076804632
31
0.0000000000
11
-25.9715228927
21
-11.7342168226
31
0.0000000000
11
-26.0927219706
21
-11.5743157820
31
0.0000000000
0
SPLINE
5
484
100
AcDbEntity
8
0
100
AcDbSpline
62
7
6
CONTINUOUS
70
0
71
3
72
9
73
5
74
3
42
0.0000001000
43
0.0000001000
44
0.0000000001
12
-0.6018462960
22
0.7894198206
32
0.0000000000
13
-0.6236921640
23
0.7722687226
33
0.0000000000
40
0.0000000000
40
0.0000000000
40
0.0000000000
40
0.0000000000
40
0.4059062320
40
1.0000000000
40
1.0000000000
40
1.0000000000
40
1.0000000000
10
-26.0927219706
20
-11.5743157820
30
0.0000000000
10
-26.1741530247
20
-11.4675056404
30
0.0000000000
10
-26.3762461460
20
-11.2054809015
30
0.0000000000
10
-26.5817762634
20
-10.9461446197
30
0.0000000000
10
-26.7052868060
20
-10.7932112746
30
0.0000000000
11
-26.0927219706
21
-11.5743157820
31
0.0000000000
11
-26.3387810185
21
-11.2552336413
31
0.0000000000
11
-26.7052868060
21
-10.7932112746
31
0.0000000000
0
SPLINE
5
485
100
AcDbEntity
8
0
100
AcDbSpline
62
7
6
CONTINUOUS
70
0
71
3
72
15
73
11
74
9
42
0.0000001000
43
0.0000001000
44
0.0000000001
12
0.5184597791
22
-0.7217187707
32
0.0000000000
13
-0.5988866891
23
0.6632995094
33
0.0000000000
40
0.0000000000
40
0.0000000000
40
0.0000000000
40
0.0000000000
40
0.1275430527
40
0.2526982393
40
0.3779315481
40
0.5071167746
40
0.6385226527
40
0.7702299829
40
0.9033523373
40
1.0000000000
40
1.0000000000
40
1.0000000000
40
1.0000000000
10
-18.3034968347
20
-7.2401037660
30
0.0000000000
10
-18.2814548537
20
-7.2707871711
30
0.0000000000
10
-18.2494653689
20
-7.3413594703
30
0.0000000000
10
-18.2506361766
20
-7.4567058695
30
0.0000000000
10
-18.2982293895
20
-7.5618050296
30
0.0000000000
10
-18.3818740278
20
-7.6432640774
30
0.0000000000
10
-18.4901478238
20
-7.6917356249
30
0.0000000000
10
-18.6101108789
20
-7.6988800009
30
0.0000000000
10
-18.7140539621
20
-7.6629429042
30
0.0000000000
10
-18.7676181736
20
-7.6185597198
30
0.0000000000
10
-18.7869118398
20
-7.5971909374
30
0.0000000000
11
-18.3034968347
21
-7.2401037660
31
0.0000000000
11
-18.2575117392
21
-7.3436955294
31
0.0000000000
11
-18.2582860368
21
-7.4549105614
31
0.0000000000
11
-18.3033686693
21
-7.5566572367
31
0.0000000000
11
-18.3851841540
21
-7.6371869295
31
0.0000000000
11
-18.4918207127
21
-7.6847728739
31
0.0000000000
11
-18.6086864398
21
-7.6911614375
31
0.0000000000
11
-18.7203442609
21
-7.6520862875
31
0.0000000000
11
-18.7869118398
21
-7.5971909374
31
0.0000000000
0
SPLINE
5
486
100
AcDbEntity
8
0
100
AcDbSpline
62
7
6
CONTINUOUS
70
0
71
3
72
11
73
7
74
5
42
0.0000001000
43
0.0000001000
44
0.0000000001
12
0.5263102446
22
0.3904301712
32
0.0000000000
13
-0.3283569532
23
0.4889999367
33
0.0000000000
40
0.0000000000
40
0.0000000000
40
0.0000000000
40
0.0000000000
40
0.0278952152
40
0.2347249287
40
0.6324558274
40
1.0000000000
40
1.0000000000
40
1.0000000000
40
1.0000000000
10
-29.7366651335
20
-16.9983090768
30
0.0000000000
10
-29.7317712877
20
-16.9946786989
30
0.0000000000
10
-29.6945661456
20
-16.9540661358
30
0.0000000000
10
-29.8045104138
20
-16.8335417524
30
0.0000000000
10
-29.8636146437
20
-16.6753771714
30
0.0000000000
10
-29.9431061379
20
-16.5500248560
30
0.0000000000
10
-29.9833346995
20
-16.4901151636
30
0.0000000000
11
-29.7366651335
21
-16.9983090768
31
0.0000000000
11
-29.7240299667
21
-16.9849675705
31
0.0000000000
11
-29.7633262601
21
-16.8718925094
31
0.0000000000
11
-29.8743535822
21
-16.6702389092
31
0.0000000000
11
-29.9833346995
21
-16.4901151636
31
0.0000000000
0
SPLINE
5
487
100
AcDbEntity
8
0
100
AcDbSpline
62
7
6
CONTINUOUS
70
0
71
3
72
11
73
7
74
5
42
0.0000001000
43
0.0000001000
44
0.0000000001
12
-0.8578921329
22
1.2776010821
32
0.0000000000
13
-0.9144094286
23
1.2037375062
33
0.0000000000
40
0.0000000000
40
0.0000000000
40
0.0000000000
40
0.0000000000
40
0.0777972299
40
0.3509643872
40
0.6640464200
40
1.0000000000
40
1.0000000000
40
1.0000000000
40
1.0000000000
10
-29.9833346995
20
-16.4901151636
30
0.0000000000
10
-30.0055819100
20
-16.4569838886
30
0.0000000000
10
-30.1087743070
20
-16.3079255876
30
0.0000000000
10
-30.2920067316
20
-16.0325393583
30
0.0000000000
10
-30.5655492049
20
-15.6546244457
30
0.0000000000
10
-30.7608349273
20
-15.3925541103
30
0.0000000000
10
-30.8632346344
20
-15.2577541355
30
0.0000000000
11
-29.9833346995
21
-16.4901151636
31
0.0000000000
11
-30.0510186124
21
-16.3910737432
31
0.0000000000
11
-30.2836258225
21
-16.0497178280
31
0.0000000000
11
-30.5594095634
21
-15.6649050242
31
0.0000000000
11
-30.8632346344
21
-15.2577541355
31
0.0000000000
0
SPLINE
5
488
100
AcDbEntity
8
0
100
AcDbSpline
62
7
6
CONTINUOUS
70
0
71
3
72
8
73
4
74
2
42
0.0000001000
43
0.0000001000
44
0.0000000001
12
-0.3113555942
22
0.4098715463
32
0.0000000000
13
-0.3188100797
23
0.4043175743
33
0.0000000000
40
0.0000000000
40
0.0000000000
40
0.0000000000
40
0.0000000000
40
1.0000000000
40
1.0000000000
40
1.0000000000
40
1.0000000000
10
-30.8632346344
20
-15.2577541355
30
0.0000000000
10
-30.9670198324
20
-15.1211302867
30
0.0000000000
10
-31.0721568642
20
-14.9853824483
30
0.0000000000
10
-31.1784268908
20
-14.8506099235
30
0.0000000000
11
-30.8632346344
21
-15.2577541355
31
0.0000000000
11
-31.1784268908
21
-14.8506099235
31
0.0000000000
0
SPLINE
5
489
100
AcDbEntity
8
0
100
AcDbSpline
62
7
6
CONTINUOUS
70
0
71
3
72
13
73
9
74
7
42
0.0000001000
43
0.0000001000
44
0.0000000001
12
-0.3894736887
22
0.5905033633
32
0.0000000000
13
-0.4730732791
23
0.5259141079
33
0.0000000000
40
0.0000000000
40
0.0000000000
40
0.0000000000
40
0.0000000000
40
0.1471971981
40
0.3217385306
40
0.5051042567
40
0.6871917572
40
0.8580261029
40
1.0000000000
40
1.0000000000
40
1.0000000000
40
1.0000000000
10
-0.1816345986
20
-4.4225267075
30
0.0000000000
10
-0.2007444105
20
-4.3935532274
30
0.0000000000
10
-0.2437279021
20
-4.3310251165
30
0.0000000000
10
-0.3135433575
20
-4.2345242444
30
0.0000000000
10
-0.3902531096
20
-4.1328884946
30
0.0000000000
10
-0.4683412302
20
-4.0334163885
30
0.0000000000
10
-0.5422865640
20
-3.9431330481
30
0.0000000000
10
-0.5904558525
20
-3.8872562774
30
0.0000000000
10
-0.6128438715
20
-3.8623675856
30
0.0000000000
11
-0.1816345986
21
-4.4225267075
31
0.0000000000
11
-0.2403860740
21
-4.3365610672
31
0.0000000000
11
-0.3126502213
21
-4.2364514817
31
0.0000000000
11
-0.3907614996
21
-4.1328994012
31
0.0000000000
11
-0.4703374717
21
-4.0316160133
31
0.0000000000
11
-0.5470255071
21
-3.9382225544
31
0.0000000000
11
-0.6128438715
21
-3.8623675856
31
0.0000000000
0
SPLINE
5
48A
100
AcDbEntity
8
0
100
AcDbSpline
62
7
6
CONTINUOUS
70
0
71
3
72
13
73
9
74
7
42
0.0000001000
43
0.0000001000
44
0.0000000001
12
2.7059471612
22
-3.0081931285
32
0.0000000000
13
2.3606548668
23
-3.2861351976
33
0.0000000000
40
0.0000000000
40
0.0000000000
40
0.0000000000
40
0.0000000000
40
0.1374512857
40
0.2954579971
40
0.4677276423
40
0.6473688268
40
0.8271916888
40
1.0000000000
40
1.0000000000
40
1.0000000000
40
1.0000000000
10
-20.8148443499
20
-4.0697044899
30
0.0000000000
10
-20.6908657111
20
-4.2075311610
30
0.0000000000
10
-20.4292329277
20
-4.5081736654
30
0.0000000000
10
-20.0253156658
20
-4.9927762182
30
0.0000000000
10
-19.5942217137
20
-5.5286698872
30
0.0000000000
10
-19.1533396084
20
-6.0943361936
30
0.0000000000
10
-18.7204355783
20
-6.6670398209
30
0.0000000000
10
-18.4394770949
20
-7.0508132748
30
0.0000000000
10
-18.3034968347
20
-7.2401037660
30
0.0000000000
11
-20.8148443499
21
-4.0697044899
31
0.0000000000
11
-20.4488381749
21
-4.4884425071
31
0.0000000000
11
-20.0390051016
21
-4.9791222417
31
0.0000000000
11
-19.6018264969
21
-5.5220084350
31
0.0000000000
11
-19.1549111892
21
-6.0952332139
31
0.0000000000
11
-18.7162494846
21
-6.6757200832
31
0.0000000000
11
-18.3034968347
21
-7.2401037660
31
0.0000000000
0
SPLINE
5
48B
100
AcDbEntity
8
0
100
AcDbSpline
62
7
6
CONTINUOUS
70
0
71
3
72
10
73
6
74
4
42
0.0000001000
43
0.0000001000
44
0.0000000001
12
-0.0943175049
22
0.1048524798
32
0.0000000000
13
-0.0843430951
23
-0.0224711025
33
0.0000000000
40
0.0000000000
40
0.0000000000
40
0.0000000000
40
0.0000000000
40
0.5430704612
40
0.8886654478
40
1.0000000000
40
1.0000000000
40
1.0000000000
40
1.0000000000
10
-4.3164237826
20
0.2548907997
30
0.0000000000
10
-4.3334974662
20
0.2738715612
30
0.0000000000
10
-4.3655395558
20
0.3046928267
30
0.0000000000
10
-4.3904649571
20
0.3365876922
30
0.0000000000
10
-4.4177626629
20
0.3492848679
30
0.0000000000
10
-4.4208927631
20
0.3484509312
30
0.0000000000
11
-4.3164237826
21
0.2548907997
31
0.0000000000
11
-4.3689657124
21
0.3106166056
31
0.0000000000
11
-4.4054045310
21
0.3429859220
31
0.0000000000
11
-4.4208927631
21
0.3484509312
31
0.0000000000
0
SPLINE
5
48C
100
AcDbEntity
8
0
100
AcDbSpline
62
7
6
CONTINUOUS
70
0
71
3
72
17
73
13
74
11
42
0.0000001000
43
0.0000001000
44
0.0000000001
12
2.0770907796
22
0.4083461035
32
0.0000000000
13
-2.2036957271
23
2.4498417555
33
0.0000000000
40
0.0000000000
40
0.0000000000
40
0.0000000000
40
0.0000000000
40
0.0019252958
40
0.0276413876
40
0.0893947960
40
0.1842438733
40
0.3059860812
40
0.4464395661
40
0.5961053039
40
0.7448432791
40
0.8825778761
40
1.0000000000
40
1.0000000000
40
1.0000000000
40
1.0000000000
10
-32.3681584785
20
-18.6456537666
30
0.0000000000
10
-32.3668254738
20
-18.6453917042
30
0.0000000000
10
-32.3497932249
20
-18.6392678702
30
0.0000000000
10
-32.4060977020
20
-18.4982343888
30
0.0000000000
10
-32.4878468996
20
-18.3634195299
30
0.0000000000
10
-32.6607004333
20
-18.0853695392
30
0.0000000000
10
-32.8796919173
20
-17.7701411531
30
0.0000000000
10
-33.1460028821
20
-17.4009563311
30
0.0000000000
10
-33.4360740172
20
-17.0169702509
30
0.0000000000
10
-33.7319806667
20
-16.6399172003
30
0.0000000000
10
-34.0130423448
20
-16.2967131970
30
0.0000000000
10
-34.1960224868
20
-16.0843387178
30
0.0000000000
10
-34.2822766977
20
-15.9884501771
30
0.0000000000
11
-32.3681584785
21
-18.6456537666
31
0.0000000000
11
-32.3646198860
21
-18.6443567658
31
0.0000000000
11
-32.3820280422
21
-18.5614258318
31
0.0000000000
11
-32.4772107485
21
-18.3815729648
31
0.0000000000
11
-32.6436814608
21
-18.1170548404
31
0.0000000000
11
-32.8700954750
21
-17.7858979318
31
0.0000000000
11
-33.1410230503
21
-17.4106700350
31
0.0000000000
11
-33.4380009202
21
-17.0169423110
31
0.0000000000
11
-33.7407905336
21
-16.6315466536
31
0.0000000000
11
-34.0287572787
21
-16.2807471399
31
0.0000000000
11
-34.2822766977
21
-15.9884501771
31
0.0000000000
0
SPLINE
5
48D
100
AcDbEntity
8
0
100
AcDbSpline
62
7
6
CONTINUOUS
70
0
71
3
72
12
73
8
74
6
42
0.0000001000
43
0.0000001000
44
0.0000000001
12
0.7002368745
22
-1.0616692257
32
0.0000000000
13
-1.1540871399
23
-0.5710967884
33
0.0000000000
40
0.0000000000
40
0.0000000000
40
0.0000000000
40
0.0000000000
40
0.3826840572
40
0.6794351409
40
0.8810704332
40
0.9842017706
40
1.0000000000
40
1.0000000000
40
1.0000000000
40
1.0000000000
10
1.3845114129
20
-6.8906723141
30
0.0000000000
10
1.4738345756
20
-7.0261002764
30
0.0000000000
10
1.6247008528
20
-7.2647122735
30
0.0000000000
10
1.8318245300
20
-7.5982078664
30
0.0000000000
10
1.9136616967
20
-7.8007221177
30
0.0000000000
10
2.0083608013
20
-7.9658308309
30
0.0000000000
10
1.9684092294
20
-7.9934423308
30
0.0000000000
10
1.9623317183
20
-7.9964497702
30
0.0000000000
11
1.3845114129
21
-6.8906723141
31
0.0000000000
11
1.6465916263
21
-7.3007798670
31
0.0000000000
11
1.8366865263
21
-7.6268175510
31
0.0000000000
11
1.9483226593
21
-7.8576825437
31
0.0000000000
11
1.9776983905
21
-7.9855130147
31
0.0000000000
11
1.9623317183
21
-7.9964497702
31
0.0000000000
0
SPLINE
5
48E
100
AcDbEntity
8
0
100
AcDbSpline
62
7
6
CONTINUOUS
70
0
71
3
72
15
73
11
74
9
42
0.0000001000
43
0.0000001000
44
0.0000000001
12
2.9458364976
22
1.1537260339
32
0.0000000000
13
-1.9448958153
23
2.5936828788
33
0.0000000000
40
0.0000000000
40
0.0000000000
40
0.0000000000
40
0.0000000000
40
0.0057711660
40
0.0521728135
40
0.1456885442
40
0.2836090850
40
0.4601987394
40
0.6678043147
40
0.8973319003
40
1.0000000000
40
1.0000000000
40
1.0000000000
40
1.0000000000
10
-14.7476643371
20
-7.4499424358
30
0.0000000000
10
-14.7419973666
20
-7.4477229876
30
0.0000000000
10
-14.6970005922
20
-7.4225893339
30
0.0000000000
10
-14.8180342884
20
-7.2232591236
30
0.0000000000
10
-14.9147900639
20
-6.9952415046
30
0.0000000000
10
-15.1676553358
20
-6.6020991650
30
0.0000000000
10
-15.4711493630
20
-6.1387534699
30
0.0000000000
10
-15.8538244138
20
-5.5926882071
30
0.0000000000
10
-16.1960285219
20
-5.1214005472
30
0.0000000000
10
-16.4103449024
20
-4.8335019031
30
0.0000000000
10
-16.4769044882
20
-4.7447390723
30
0.0000000000
11
-14.7476643371
21
-7.4499424358
31
0.0000000000
11
-14.7331235399
21
-7.4415967015
31
0.0000000000
11
-14.7714680007
21
-7.2961456460
31
0.0000000000
11
-14.9095847171
21
-7.0262865659
31
0.0000000000
11
-15.1413653980
21
-6.6439594438
31
0.0000000000
11
-15.4565500949
21
-6.1660898752
31
0.0000000000
11
-15.8411821439
21
-5.6138383577
31
0.0000000000
11
-16.2782276309
21
-5.0116610836
31
0.0000000000
11
-16.4769044882
21
-4.7447390723
31
0.0000000000
0
SPLINE
5
48F
100
AcDbEntity
8
0
100
AcDbSpline
62
7
6
CONTINUOUS
70
0
71
3
72
10
73
6
74
4
42
0.0000001000
43
0.0000001000
44
0.0000000001
12
-1.1948449345
22
1.5934266633
32
0.0000000000
13
-1.2610413787
23
1.5414276196
33
0.0000000000
40
0.0000000000
40
0.0000000000
40
0.0000000000
40
0.0000000000
40
0.2257515021
40
0.6205835707
40
1.0000000000
40
1.0000000000
40
1.0000000000
40
1.0000000000
10
-16.4769044882
20
-4.7447390723
30
0.0000000000
10
-16.5668171678
20
-4.6248329181
30
0.0000000000
10
-16.8156052961
20
-4.2962926270
30
0.0000000000
10
-17.2227066199
20
-3.7719941997
30
0.0000000000
10
-17.5444244218
20
-3.3710873962
30
0.0000000000
10
-17.7039110275
20
-3.1761397418
30
0.0000000000
11
-16.4769044882
21
-4.7447390723
31
0.0000000000
11
-16.7483317122
21
-4.3862241873
31
0.0000000000
11
-17.2306779568
21
-3.7652199988
31
0.0000000000
11
-17.7039110275
21
-3.1761397418
31
0.0000000000
0
SPLINE
5
490
100
AcDbEntity
8
0
100
AcDbSpline
62
7
6
CONTINUOUS
70
0
71
3
72
8
73
4
74
2
42
0.0000001000
43
0.0000001000
44
0.0000000001
12
0.0557682489
22
-0.0621014878
32
0.0000000000
13
0.0514930103
23
-0.0656335225
33
0.0000000000
40
0.0000000000
40
0.0000000000
40
0.0000000000
40
0.0000000000
40
1.0000000000
40
1.0000000000
40
1.0000000000
40
1.0000000000
10
-23.9536452320
20
-9.9964171367
30
0.0000000000
10
-23.9350558157
20
-10.0171176327
30
0.0000000000
10
-23.9172205897
20
-10.0384922327
30
0.0000000000
10
-23.9000562530
20
-10.0603700735
30
0.0000000000
11
-23.9536452320
21
-9.9964171367
31
0.0000000000
11
-23.9000562530
21
-10.0603700735
31
0.0000000000
0
SPLINE
5
491
100
AcDbEntity
8
0
100
AcDbSpline
62
7
6
CONTINUOUS
70
0
71
3
72
8
73
4
74
2
42
0.0000001000
43
0.0000001000
44
0.0000000001
12
0.0507111948
22
-0.0931800038
32
0.0000000000
13
0.0427462076
23
-0.0876768698
33
0.0000000000
40
0.0000000000
40
0.0000000000
40
0.0000000000
40
0.0000000000
40
1.0000000000
40
1.0000000000
40
1.0000000000
40
1.0000000000
10
-17.2648720868
20
-8.8148222249
30
0.0000000000
10
-17.2479683552
20
-8.8458822261
30
0.0000000000
10
-17.2335318822
20
-8.8738617195
30
0.0000000000
10
-17.2192831463
20
-8.9030873427
30
0.0000000000
11
-17.2648720868
21
-8.8148222249
31
0.0000000000
11
-17.2192831463
21
-8.9030873427
31
0.0000000000
0
SPLINE
5
492
100
AcDbEntity
8
0
100
AcDbSpline
62
7
6
CONTINUOUS
70
0
71
3
72
10
73
6
74
4
42
0.0000001000
43
0.0000001000
44
0.0000000001
12
0.1116522919
22
-0.2290103381
32
0.0000000000
13
-0.2336972185
23
-0.0573868004
33
0.0000000000
40
0.0000000000
40
0.0000000000
40
0.0000000000
40
0.0000000000
40
0.5253004094
40
0.9484186653
40
1.0000000000
40
1.0000000000
40
1.0000000000
40
1.0000000000
10
-17.2192831463
20
-8.9030873427
30
0.0000000000
10
-17.1997328148
20
-8.9431870842
30
0.0000000000
10
-17.1650732226
20
-9.0198218748
30
0.0000000000
10
-17.1095056455
20
-9.1470998471
30
0.0000000000
10
-17.1417622608
20
-9.1605372806
30
0.0000000000
10
-17.1457803990
20
-9.1615239765
30
0.0000000000
11
-17.2192831463
21
-8.9030873427
31
0.0000000000
11
-17.1558043217
21
-9.0416003562
31
0.0000000000
11
-17.1354444987
21
-9.1570623115
31
0.0000000000
11
-17.1457803990
21
-9.1615239765
31
0.0000000000
0
ENDSEC
0
SECTION
2
OBJECTS
0
DICTIONARY
5
493
100
AcDbDictionary
3
ACAD_GROUP
350
494
3
ACAD_MLINESTYLE
350
495
0
DICTIONARY
5
494
102
{ACAD_REACTORS
330
493
102
}
100
AcDbDictionary
0
DICTIONARY
5
495
102
{ACAD_REACTORS
330
493
102
}
100
AcDbDictionary
3
STANDARD
350
496
0
MLINESTYLE
5
496
102
{ACAD_REACTORS
330
495
102
}
100
AcDbMlineStyle
2
STANDARD
70
0
3

62
256
51
90.0
52
90.0
71
2
49
0.5
62
256
6
BYLAYER
49
-0.5
62
256
6
BYLAYER
0
ENDSEC
0
EOF
