0
SECTION
2
HEADER
9
$ACADVER
1
AC1014
9
$HANDSEED
5
       369
9
$EXTMAX
10
297.0000000000
20
210.0000000000
9
$EXTMIN
10
0.0000000000
20
0.0000000000
9
$LIMMIN
10
0.0000000000
20
0.0000000000
9
$LIMMAX
10
297.0000000000
20
210.0000000000
9
$VIEWCTR
10
148.5000000000
20
105.0000000000
9
$VIEWSIZE
40
210.0000000000
9
$CLAYER
8
0
9
$LTSCALE
40
16.3350000000
9
$CELTYPE
6
BYLAYER
9
$DIMSCALE
40
1
9
$DIMASZ
40
3.0000000000
9
$DIMEXO
40
1.8562500000
9
$DIMDLI
40
11.2860000000
9
$DIMEXE
40
5.3460000000
9
$DIMCEN
40
2.6730000000
9
$DIMLFAC
40
1.0000000000
9
$DIMTXT
40
3.0000000000
9
$DIMTOL
70
1
9
$DIMLIM
70
0
9
$DIMTFAC
40
1.0000000000
9
$DIMTP
40
0.0100000000
9
$DIMTM
40
0.0100000000
9
$MEASUREMENT
70
1
0
ENDSEC
0
SECTION
2
CLASSES
0
ENDSEC
0
SECTION
2
TABLES
0
TABLE
2
VPORT
5
8
100
AcDbSymbolTable
70
2
0
VPORT
5
1F4
100
AcDbSymbolTableRecord
100
AcDbViewportTableRecord
2
*ACTIVE
70
0
10
0.0
20
0.0
11
1.0
21
1.0
12
148.5000000000
22
105.0000000000
13
0.0
23
0.0
14
1.0
24
1.0
15
0.0
25
0.0
16
0.0
26
0.0
36
1.0
17
0.0
27
0.0
37
0.0
40
210.0000000000
41
1.4142857143
42
50.0
43
0.0
44
0.0
50
0.0
51
0.0
71
0
72
100
73
1
74
1
75
0
76
0
77
0
78
0
0
ENDTAB
0
TABLE
2
LTYPE
5
5
100
AcDbSymbolTable
70
6
0
LTYPE
5
14
100
AcDbSymbolTableRecord
100
AcDbLinetypeTableRecord
2
BYBLOCK
70
0
3

72
65
73
0
40
0.0
0
LTYPE
5
15
100
AcDbSymbolTableRecord
100
AcDbLinetypeTableRecord
2
BYLAYER
70
0
3

72
65
73
0
40
0.0
0
LTYPE
5
16
100
AcDbSymbolTableRecord
100
AcDbLinetypeTableRecord
2
CONTINUOUS
70
64
3
Solid line
72
65
73
0
40
0
0
LTYPE
5
1F5
100
AcDbSymbolTableRecord
100
AcDbLinetypeTableRecord
2
CENTER
70
64
3
____ _ ____ _ ____ _ ____ _ ____ _ ____ _ ____
72
65
73
4
40
0.6
49
0.375
74
0
49
-0.075
74
0
49
0.075
74
0
49
-0.075
74
0
0
LTYPE
5
1F6
100
AcDbSymbolTableRecord
100
AcDbLinetypeTableRecord
2
HIDDEN
70
64
3
- - - - - - - - - - - - - - - - - - - -
72
65
73
2
40
0.2
49
0.1
74
0
49
-0.1
74
0
0
LTYPE
5
1F7
100
AcDbSymbolTableRecord
100
AcDbLinetypeTableRecord
2
PHANTOM
70
64
3
_____ _ _ _____ _ _ _____ _ _ _____
72
65
73
6
40
0.8
49
0.45
74
0
49
-0.05
74
0
49
0.1
74
0
49
-0.05
74
0
49
0.1
74
0
49
-0.05
74
0
0
LTYPE
5
1F8
100
AcDbSymbolTableRecord
100
AcDbLinetypeTableRecord
2
DOT
70
64
3
. . . . . . . . . . . . . . . . . . . .
72
65
73
2
40
0.2
49
0.1
74
0
49
-0.1
74
0
0
LTYPE
5
1F9
100
AcDbSymbolTableRecord
100
AcDbLinetypeTableRecord
2
DASHED
70
64
3
- - - - - - - - - - - - - - - - - - - -
72
65
73
2
40
0.2
49
0.1
74
0
49
-0.1
74
0
0
ENDTAB
0
TABLE
2
LAYER
5
2
100
AcDbSymbolTable
70
36
0
LAYER
5
10
100
AcDbSymbolTableRecord
100
AcDbLayerTableRecord
2
0
70
0
62
7
6
CONTINUOUS
0
LAYER
5
1FA
100
AcDbSymbolTableRecord
100
AcDbLayerTableRecord
2
DEFAULT_1
70
0
62
7
6
CENTER
0
LAYER
5
1FB
100
AcDbSymbolTableRecord
100
AcDbLayerTableRecord
2
DEFAULT_2
70
0
62
8
6
HIDDEN
0
LAYER
5
1FC
100
AcDbSymbolTableRecord
100
AcDbLayerTableRecord
2
DEFAULT_3
70
0
62
7
6
PHANTOM
0
LAYER
5
1FD
100
AcDbSymbolTableRecord
100
AcDbLayerTableRecord
2
ASSI
70
0
62
7
6
CONTINUOUS
0
LAYER
5
1FE
100
AcDbSymbolTableRecord
100
AcDbLayerTableRecord
2
COORDINATE
70
0
62
7
6
CONTINUOUS
0
LAYER
5
1FF
100
AcDbSymbolTableRecord
100
AcDbLayerTableRecord
2
COORD_ORIGINE
70
0
62
7
6
CONTINUOUS
0
LAYER
5
200
100
AcDbSymbolTableRecord
100
AcDbLayerTableRecord
2
CURVE
70
0
62
7
6
CONTINUOUS
0
LAYER
5
201
100
AcDbSymbolTableRecord
100
AcDbLayerTableRecord
2
NOTE
70
0
62
7
6
CONTINUOUS
0
LAYER
5
202
100
AcDbSymbolTableRecord
100
AcDbLayerTableRecord
2
PIANI
70
0
62
7
6
CONTINUOUS
0
LAYER
5
203
100
AcDbSymbolTableRecord
100
AcDbLayerTableRecord
2
PIANI_ORIGINE
70
0
62
7
6
CONTINUOUS
0
LAYER
5
204
100
AcDbSymbolTableRecord
100
AcDbLayerTableRecord
2
SMUSSO
70
0
62
7
6
CONTINUOUS
0
LAYER
5
205
100
AcDbSymbolTableRecord
100
AcDbLayerTableRecord
2
TRASH
70
0
62
7
6
CONTINUOUS
0
ENDTAB
0
TABLE
2
STYLE
5
3
100
AcDbSymbolTable
70
1
0
STYLE
5
11
100
AcDbSymbolTableRecord
100
AcDbTextStyleTableRecord
2
STANDARD
70
0
40
0.0
41
0.8000000000
50
0.0
71
0
42
0.2
3
txt
4

0
ENDTAB
0
TABLE
2
VIEW
5
6
100
AcDbSymbolTable
70
0
0
ENDTAB
0
TABLE
2
UCS
5
7
100
AcDbSymbolTable
70
0
0
ENDTAB
0
TABLE
2
APPID
5
9
100
AcDbSymbolTable
70
1
0
APPID
5
206
100
AcDbSymbolTableRecord
100
AcDbRegAppTableRecord
2
ACAD
70
0
0
ENDTAB
0
TABLE
2
DIMSTYLE
5
A
100
AcDbSymbolTable
70
1
0
DIMSTYLE
105
207
100
AcDbSymbolTableRecord
100
AcDbDimStyleTableRecord
2
STANDARD
70
0
3

4

5

6

7

40
1.0
41
3.0000000000
42
0.0625
43
0.38
44
0.18
45
0.0
46
0.0
47
0.0100000000
48
0.0100000000
140
3.0000000000
141
0.09
142
0.0
143
25.4
144
1.0000000000
145
0.0
146
1.0000000000
147
0.09
71
1
72
0
73
0
74
0
75
0
76
0
77
1
78
8
170
0
171
2
172
0
173
0
174
0
175
0
176
0
177
0
178
0
270
2
271
2
272
2
273
2
274
2
340
11
275
0
280
0
281
0
282
0
283
1
284
8
285
0
286
0
287
3
288
0
0
ENDTAB
0
TABLE
2
BLOCK_RECORD
5
1
100
AcDbSymbolTable
70
0
0
BLOCK_RECORD
5
1B
100
AcDbSymbolTableRecord
100
AcDbBlockTableRecord
2
*MODEL_SPACE
0
BLOCK_RECORD
5
1C
100
AcDbSymbolTableRecord
100
AcDbBlockTableRecord
2
*PAPER_SPACE
0
ENDTAB
0
ENDSEC
0
SECTION
2
BLOCKS
0
BLOCK
5
1E
100
AcDbEntity
8
0
100
AcDbBlockBegin
2
*MODEL_SPACE
70
0
10
0.0
20
0.0
30
0.0
3
*MODEL_SPACE
1

0
ENDBLK
5
1F
100
AcDbEntity
8
0
100
AcDbBlockEnd
0
BLOCK
5
20
100
AcDbEntity
8
0
100
AcDbBlockBegin
2
*PAPER_SPACE
70
0
10
0.0
20
0.0
30
0.0
3
*PAPER_SPACE
1

0
ENDBLK
5
21
100
AcDbEntity
8
0
100
AcDbBlockEnd
0
ENDSEC
0
SECTION
2
ENTITIES
0
LINE
5
208
100
AcDbEntity
8
0
100
AcDbLine
62
7
6
CONTINUOUS
10
-15.8341106920
20
-2.8939434031
11
-18.2530878081
21
-6.2935460227
0
LINE
5
209
100
AcDbEntity
8
0
100
AcDbLine
62
7
6
CONTINUOUS
10
-15.8328622576
20
-2.8926003669
11
-15.8341106920
21
-2.8939434031
0
LINE
5
20A
100
AcDbEntity
8
0
100
AcDbLine
62
7
6
CONTINUOUS
10
-8.0968921787
20
3.4361168485
11
-15.8328622576
21
-2.8926003669
0
LINE
5
20B
100
AcDbEntity
8
0
100
AcDbLine
62
7
6
CONTINUOUS
10
9.3957596234
20
17.7272974275
11
7.3445188892
21
16.1331525077
0
LINE
5
20C
100
AcDbEntity
8
0
100
AcDbLine
62
7
6
CONTINUOUS
10
-4.3372129089
20
7.0521509179
11
1.9742970424
21
11.9572122095
0
LINE
5
20D
100
AcDbEntity
8
0
100
AcDbLine
62
7
6
CONTINUOUS
10
1.9970372482
20
11.9279516096
11
2.0238117559
21
11.9487597208
0
LINE
5
20E
100
AcDbEntity
8
0
100
AcDbLine
62
7
6
CONTINUOUS
10
-4.2970661005
20
6.9456471846
11
2.0144438508
21
11.8507084762
0
LINE
5
20F
100
AcDbEntity
8
0
100
AcDbLine
62
7
6
CONTINUOUS
10
2.1397798913
20
11.8087406209
11
2.1614835118
21
11.8256078349
0
LINE
5
210
100
AcDbEntity
8
0
100
AcDbLine
62
7
6
CONTINUOUS
10
7.4752873243
20
15.8548357157
11
2.1638266140
21
11.7269739945
0
LINE
5
211
100
AcDbEntity
8
0
100
AcDbLine
62
7
6
CONTINUOUS
10
-4.1884972720
20
6.7901936923
11
-6.1989240715
21
5.2277677832
0
LINE
5
212
100
AcDbEntity
8
0
100
AcDbLine
62
7
6
CONTINUOUS
10
-4.1684776106
20
6.7274232915
11
2.1430323407
21
11.6324845830
0
LINE
5
213
100
AcDbEntity
8
0
100
AcDbLine
62
7
6
CONTINUOUS
10
2.2361412546
20
11.5496885809
11
2.2276604537
21
11.5430976306
0
LINE
5
214
100
AcDbEntity
8
0
100
AcDbLine
62
7
6
CONTINUOUS
10
20.4235033280
20
17.0523057422
11
20.4217660288
21
17.0514942430
0
LINE
5
215
100
AcDbEntity
8
0
100
AcDbLine
62
7
6
CONTINUOUS
10
-18.2524009271
20
-6.2927674445
11
-33.8074497616
21
-20.4712361038
0
LINE
5
216
100
AcDbEntity
8
0
100
AcDbLine
62
7
6
CONTINUOUS
10
-3.9553545354
20
6.4041098610
11
2.3561554159
21
11.3091711525
0
LINE
5
217
100
AcDbEntity
8
0
100
AcDbLine
62
7
6
CONTINUOUS
10
2.3888456088
20
11.3049613710
11
2.3705046574
21
11.2907074933
0
LINE
5
218
100
AcDbEntity
8
0
100
AcDbLine
62
7
6
CONTINUOUS
10
2.6186156365
20
10.9650962507
11
-3.6928943149
21
6.0600349592
0
LINE
5
219
100
AcDbEntity
8
0
100
AcDbLine
62
7
6
CONTINUOUS
10
-5.7329987535
20
4.4500320322
11
-7.6978912554
21
2.9229936171
0
LINE
5
21A
100
AcDbEntity
8
0
100
AcDbLine
62
7
6
CONTINUOUS
10
-3.6641725117
20
5.9855306082
11
2.6473374396
21
10.8905918997
0
LINE
5
21B
100
AcDbEntity
8
0
100
AcDbLine
62
7
6
CONTINUOUS
10
2.9184698917
20
10.5404198499
11
-3.3930400597
21
5.6353585584
0
LINE
5
21C
100
AcDbEntity
8
0
100
AcDbLine
62
7
6
CONTINUOUS
10
2.9864713657
20
10.4458638909
11
-3.3250385856
21
5.5408025993
0
LINE
5
21D
100
AcDbEntity
8
0
100
AcDbLine
62
7
6
CONTINUOUS
10
-3.3037789580
20
5.4844038519
11
3.0077309933
21
10.3894651434
0
LINE
5
21E
100
AcDbEntity
8
0
100
AcDbLine
62
7
6
CONTINUOUS
10
10.7457616352
20
15.9902037144
11
10.6707819805
21
15.9319324282
0
LINE
5
21F
100
AcDbEntity
8
0
100
AcDbLine
62
7
6
CONTINUOUS
10
8.6179497510
20
14.2244429071
11
6.6569504491
21
12.7004301363
0
LINE
5
220
100
AcDbEntity
8
0
100
AcDbLine
62
7
6
CONTINUOUS
10
17.3553169375
20
21.0002459992
11
19.4854515461
21
22.6557041851
0
LINE
5
221
100
AcDbEntity
8
0
100
AcDbLine
62
7
6
CONTINUOUS
10
3.2792974545
20
10.0438357462
11
-3.0322124968
21
5.1387744546
0
LINE
5
222
100
AcDbEntity
8
0
100
AcDbLine
62
7
6
CONTINUOUS
10
6.7870064175
20
12.6089922539
11
8.7083094839
21
14.1021546466
0
LINE
5
223
100
AcDbEntity
8
0
100
AcDbLine
62
7
6
CONTINUOUS
10
3.3582920341
20
9.9365772052
11
-2.9532179172
21
5.0315159137
0
LINE
5
224
100
AcDbEntity
8
0
100
AcDbLine
62
7
6
CONTINUOUS
10
-2.8851242500
20
4.9159560749
11
3.4263857013
21
9.8210173664
0
LINE
5
225
100
AcDbEntity
8
0
100
AcDbLine
62
7
6
CONTINUOUS
10
11.5684062350
20
15.8696413441
11
14.8106021320
21
18.3893505289
0
LINE
5
226
100
AcDbEntity
8
0
100
AcDbLine
62
7
6
CONTINUOUS
10
15.0477109317
20
18.5736223124
11
16.7943029583
21
19.9310060459
0
LINE
5
227
100
AcDbEntity
8
0
100
AcDbLine
62
7
6
CONTINUOUS
10
3.6901347622
20
9.4904323961
11
-2.6213751891
21
4.5853711045
0
LINE
5
228
100
AcDbEntity
8
0
100
AcDbLine
62
7
6
CONTINUOUS
10
3.7777222370
20
9.3737302697
11
-2.5337877144
21
4.4686689782
0
LINE
5
229
100
AcDbEntity
8
0
100
AcDbLine
62
7
6
CONTINUOUS
10
14.3062129914
20
19.0633945211
11
10.9838141220
21
15.7053199276
0
LINE
5
22A
100
AcDbEntity
8
0
100
AcDbLine
62
7
6
CONTINUOUS
10
-2.4209289992
20
4.2974592753
11
3.8905809522
21
9.2025205669
0
LINE
5
22B
100
AcDbEntity
8
0
100
AcDbLine
62
7
6
CONTINUOUS
10
9.4170723316
20
13.1589490065
11
8.6380375207
21
12.5535132985
0
LINE
5
22C
100
AcDbEntity
8
0
100
AcDbLine
62
7
6
CONTINUOUS
10
4.1384987309
20
8.8970246805
11
-2.1730112204
21
3.9919633889
0
LINE
5
22D
100
AcDbEntity
8
0
100
AcDbLine
62
7
6
CONTINUOUS
10
4.2320177998
20
8.7744249037
11
-2.0794921515
21
3.8693636122
0
LINE
5
22E
100
AcDbEntity
8
0
100
AcDbLine
62
7
6
CONTINUOUS
10
-1.9252975433
20
3.6477061655
11
4.3862124080
21
8.5527674570
0
LINE
5
22F
100
AcDbEntity
8
0
100
AcDbLine
62
7
6
CONTINUOUS
10
4.6107660484
20
8.2816429925
11
-1.7007439029
21
3.3765817009
0
LINE
5
230
100
AcDbEntity
8
0
100
AcDbLine
62
7
6
CONTINUOUS
10
4.7073751818
20
8.1568706975
11
-1.6041347695
21
3.2518094060
0
LINE
5
231
100
AcDbEntity
8
0
100
AcDbLine
62
7
6
CONTINUOUS
10
10.1423923323
20
12.2159907698
11
9.3630007882
21
11.6102778226
0
LINE
5
232
100
AcDbEntity
8
0
100
AcDbLine
62
7
6
CONTINUOUS
10
9.4765350228
20
11.5304558035
11
10.2238454205
21
12.1112365251
0
LINE
5
233
100
AcDbEntity
8
0
100
AcDbLine
62
7
6
CONTINUOUS
10
-1.4132893934
20
2.9864391648
11
4.8982205579
21
7.8915004563
0
LINE
5
234
100
AcDbEntity
8
0
100
AcDbLine
62
7
6
CONTINUOUS
10
5.0925871112
20
7.6629853933
11
-1.2189228401
21
2.7579241017
0
LINE
5
235
100
AcDbEntity
8
0
100
AcDbLine
62
7
6
CONTINUOUS
10
5.1893508895
20
7.5398317232
11
-1.1221590618
21
2.6347704317
0
LINE
5
236
100
AcDbEntity
8
0
100
AcDbLine
62
7
6
CONTINUOUS
10
-0.9004616580
20
2.3337505365
11
5.4110482933
21
7.2388118280
0
LINE
5
237
100
AcDbEntity
8
0
100
AcDbLine
62
7
6
CONTINUOUS
10
14.4979582704
20
18.8306507375
11
11.1970759638
21
15.4943237503
0
LINE
5
238
100
AcDbEntity
8
0
100
AcDbLine
62
7
6
CONTINUOUS
10
11.6479290552
20
14.7679144814
11
14.9703279247
21
18.1259890750
0
LINE
5
239
100
AcDbEntity
8
0
100
AcDbLine
62
7
6
CONTINUOUS
10
11.8611908971
20
14.5569183042
11
15.1835897665
21
17.9149928977
0
LINE
5
23A
100
AcDbEntity
8
0
100
AcDbLine
62
7
6
CONTINUOUS
10
5.5693220302
20
7.0598494810
11
-0.7421879212
21
2.1547881895
0
LINE
5
23B
100
AcDbEntity
8
0
100
AcDbLine
62
7
6
CONTINUOUS
10
5.6633003349
20
6.9420563978
11
-0.6482096164
21
2.0369951062
0
LINE
5
23C
100
AcDbEntity
8
0
100
AcDbLine
62
7
6
CONTINUOUS
10
11.0357388966
20
11.0812921579
11
9.0734946742
21
9.5563118831
0
LINE
5
23D
100
AcDbEntity
8
0
100
AcDbLine
62
7
6
CONTINUOUS
10
-0.4023963484
20
1.7094718942
11
5.9091136029
21
6.6145331857
0
LINE
5
23E
100
AcDbEntity
8
0
100
AcDbLine
62
7
6
CONTINUOUS
10
13.5684931145
20
12.3580986779
11
19.2488520707
21
16.7726538403
0
LINE
5
23F
100
AcDbEntity
8
0
100
AcDbLine
62
7
6
CONTINUOUS
10
6.0264854559
20
6.4905612352
11
-0.2850244954
21
1.5854999436
0
LINE
5
240
100
AcDbEntity
8
0
100
AcDbLine
62
7
6
CONTINUOUS
10
6.1148228039
20
6.3817078219
11
-0.1966871474
21
1.4766465304
0
LINE
5
241
100
AcDbEntity
8
0
100
AcDbLine
62
7
6
CONTINUOUS
10
20.4235033280
20
17.0523057422
11
22.5536379366
21
18.7077639281
0
LINE
5
242
100
AcDbEntity
8
0
100
AcDbLine
62
7
6
CONTINUOUS
10
0.0657730731
20
1.1325716286
11
6.3772830244
21
6.0376329201
0
LINE
5
243
100
AcDbEntity
8
0
100
AcDbLine
62
7
6
CONTINUOUS
10
13.9366754814
20
11.8843458470
11
13.8617289802
21
11.8261003266
0
LINE
5
244
100
AcDbEntity
8
0
100
AcDbLine
62
7
6
CONTINUOUS
10
6.4501867092
20
5.9724181910
11
0.1386767579
21
1.0673568994
0
LINE
5
245
100
AcDbEntity
8
0
100
AcDbLine
62
7
6
CONTINUOUS
10
6.5301990148
20
5.8758119036
11
0.2186890634
21
0.9707506121
0
LINE
5
246
100
AcDbEntity
8
0
100
AcDbLine
62
7
6
CONTINUOUS
10
0.4898215155
20
0.6205785623
11
6.8013314668
21
5.5256398538
0
LINE
5
247
100
AcDbEntity
8
0
100
AcDbLine
62
7
6
CONTINUOUS
10
6.8275518418
20
5.5211638627
11
0.5160418905
21
0.6161025711
0
LINE
5
248
100
AcDbEntity
8
0
100
AcDbLine
62
7
6
CONTINUOUS
10
6.8968079716
20
5.4397400344
11
0.5852980202
21
0.5346787428
0
LINE
5
249
100
AcDbEntity
8
0
100
AcDbLine
62
7
6
CONTINUOUS
10
-1.3148362935
20
-1.2350220993
11
-3.2797028531
21
-2.7620403530
0
LINE
5
24A
100
AcDbEntity
8
0
100
AcDbLine
62
7
6
CONTINUOUS
10
-14.8160496367
20
-10.7144380572
11
-32.3960911959
21
-22.2872793911
0
LINE
5
24B
100
AcDbEntity
8
0
100
AcDbLine
62
7
6
CONTINUOUS
10
17.3553169375
20
21.0002459992
11
17.3541016246
21
20.9987628424
0
LINE
5
24C
100
AcDbEntity
8
0
100
AcDbLine
62
7
6
CONTINUOUS
10
-28.1181289173
20
-28.4238689795
11
-9.9290656710
21
-11.1218509799
0
LINE
5
24D
100
AcDbEntity
8
0
100
AcDbLine
62
7
6
CONTINUOUS
10
-9.9290656710
20
-11.1218509799
11
-9.9286396200
21
-11.1214768241
0
LINE
5
24E
100
AcDbEntity
8
0
100
AcDbLine
62
7
6
CONTINUOUS
10
-9.9286396200
20
-11.1214768241
11
-2.1619847926
21
-4.8322366900
0
LINE
5
24F
100
AcDbEntity
8
0
100
AcDbLine
62
7
6
CONTINUOUS
10
0.8568644814
20
0.1890493456
11
7.1683744328
21
5.0941106372
0
LINE
5
250
100
AcDbEntity
8
0
100
AcDbLine
62
7
6
CONTINUOUS
10
7.2035104466
20
5.0867420373
11
0.8920004953
21
0.1816807457
0
LINE
5
251
100
AcDbEntity
8
0
100
AcDbLine
62
7
6
CONTINUOUS
10
7.4409874404
20
4.8275435778
11
7.4301554260
21
4.8191253553
0
LINE
5
252
100
AcDbEntity
8
0
100
AcDbLine
62
7
6
CONTINUOUS
10
1.1557495561
20
-0.1489042246
11
7.4672595075
21
4.7561570669
0
LINE
5
253
100
AcDbEntity
8
0
100
AcDbLine
62
7
6
CONTINUOUS
10
7.6020233347
20
4.6700202700
11
7.5949749042
21
4.6645425026
0
LINE
5
254
100
AcDbEntity
8
0
100
AcDbLine
62
7
6
CONTINUOUS
10
12.9980394055
20
8.7485561371
11
7.6865621169
21
4.6206815318
0
LINE
5
255
100
AcDbEntity
8
0
100
AcDbLine
62
7
6
CONTINUOUS
10
1.3287228373
20
-0.3203851209
11
-0.6761885686
21
-1.8785246795
0
LINE
5
256
100
AcDbEntity
8
0
100
AcDbLine
62
7
6
CONTINUOUS
10
1.3773952678
20
-0.3830136002
11
7.6889052192
21
4.5220476914
0
LINE
5
257
100
AcDbEntity
8
0
100
AcDbLine
62
7
6
CONTINUOUS
10
7.8093711200
20
4.4762949520
11
7.8359448801
21
4.4969470501
0
LINE
5
258
100
AcDbEntity
8
0
100
AcDbLine
62
7
6
CONTINUOUS
10
1.5150670238
20
-0.5061654861
11
7.8265769751
21
4.3988958054
0
LINE
5
259
100
AcDbEntity
8
0
100
AcDbLine
62
7
6
CONTINUOUS
10
1.5645817372
20
-0.5146179748
11
7.8760916886
21
4.3904433168
0
LINE
5
25A
100
AcDbEntity
8
0
100
AcDbLine
62
7
6
CONTINUOUS
10
15.2866774932
20
10.1472521339
11
13.2354367590
21
8.5531072142
0
LINE
5
25B
100
AcDbEntity
8
0
100
AcDbLine
62
7
6
CONTINUOUS
10
-2.8809779990
20
-3.2753781347
11
-10.9237665590
21
-9.2093015276
0
LINE
5
25C
100
AcDbEntity
8
0
100
AcDbLine
62
7
6
CONTINUOUS
10
-10.9237665590
20
-9.2093015276
11
-10.9253762533
21
-9.2101797183
0
LINE
5
25D
100
AcDbEntity
8
0
100
AcDbLine
62
7
6
CONTINUOUS
10
-10.9253762533
20
-9.2101797183
11
-14.8169737010
21
-10.7149114433
0
LINE
5
25E
100
AcDbEntity
8
0
100
AcDbLine
62
7
6
CONTINUOUS
10
0.4898215155
20
0.6205785623
11
0.5160418905
21
0.6161025711
0
LINE
5
25F
100
AcDbEntity
8
0
100
AcDbLine
62
7
6
CONTINUOUS
10
0.0657730731
20
1.1325716286
11
0.1386767579
21
1.0673568994
0
LINE
5
260
100
AcDbEntity
8
0
100
AcDbLine
62
7
6
CONTINUOUS
10
-0.4023963484
20
1.7094718942
11
-0.2850244954
21
1.5854999436
0
LINE
5
261
100
AcDbEntity
8
0
100
AcDbLine
62
7
6
CONTINUOUS
10
-0.9004616580
20
2.3337505365
11
-0.7421879212
21
2.1547881895
0
LINE
5
262
100
AcDbEntity
8
0
100
AcDbLine
62
7
6
CONTINUOUS
10
-1.4132893934
20
2.9864391648
11
-1.2189228401
21
2.7579241017
0
LINE
5
263
100
AcDbEntity
8
0
100
AcDbLine
62
7
6
CONTINUOUS
10
1.5396254015
20
-0.4852770283
11
1.5645817372
21
-0.5146179748
0
LINE
5
264
100
AcDbEntity
8
0
100
AcDbLine
62
7
6
CONTINUOUS
10
-1.9252975433
20
3.6477061655
11
-1.7007439029
21
3.3765817009
0
LINE
5
265
100
AcDbEntity
8
0
100
AcDbLine
62
7
6
CONTINUOUS
10
1.3985543900
20
-0.3654889628
11
1.5150670238
21
-0.5061654861
0
LINE
5
266
100
AcDbEntity
8
0
100
AcDbLine
62
7
6
CONTINUOUS
10
-2.4209289992
20
4.2974592753
11
-2.1730112204
21
3.9919633889
0
LINE
5
267
100
AcDbEntity
8
0
100
AcDbLine
62
7
6
CONTINUOUS
10
1.1748381973
20
-0.1334133007
11
1.3773952678
21
-0.3830136002
0
LINE
5
268
100
AcDbEntity
8
0
100
AcDbLine
62
7
6
CONTINUOUS
10
-2.8851242500
20
4.9159560749
11
-2.6213751891
21
4.5853711045
0
LINE
5
269
100
AcDbEntity
8
0
100
AcDbLine
62
7
6
CONTINUOUS
10
0.8920004953
20
0.1816807457
11
1.1557495561
21
-0.1489042246
0
LINE
5
26A
100
AcDbEntity
8
0
100
AcDbLine
62
7
6
CONTINUOUS
10
-3.3037789580
20
5.4844038519
11
-3.0322124968
21
5.1387744546
0
LINE
5
26B
100
AcDbEntity
8
0
100
AcDbLine
62
7
6
CONTINUOUS
10
0.5852980202
20
0.5346787428
11
0.8568644814
21
0.1890493456
0
LINE
5
26C
100
AcDbEntity
8
0
100
AcDbLine
62
7
6
CONTINUOUS
10
-3.6641725117
20
5.9855306082
11
-3.3930400597
21
5.6353585584
0
LINE
5
26D
100
AcDbEntity
8
0
100
AcDbLine
62
7
6
CONTINUOUS
10
0.2186890634
20
0.9707506121
11
0.4898215155
21
0.6205785623
0
LINE
5
26E
100
AcDbEntity
8
0
100
AcDbLine
62
7
6
CONTINUOUS
10
-3.9553545354
20
6.4041098610
11
-3.6928943149
21
6.0600349592
0
LINE
5
26F
100
AcDbEntity
8
0
100
AcDbLine
62
7
6
CONTINUOUS
10
-0.1966871474
20
1.4766465304
11
0.0657730731
21
1.1325716286
0
LINE
5
270
100
AcDbEntity
8
0
100
AcDbLine
62
7
6
CONTINUOUS
10
-4.1684776106
20
6.7274232915
11
-3.9364643762
21
6.4182873348
0
LINE
5
271
100
AcDbEntity
8
0
100
AcDbLine
62
7
6
CONTINUOUS
10
-0.6482096164
20
2.0369951062
11
-0.4023963484
21
1.7094718942
0
LINE
5
272
100
AcDbEntity
8
0
100
AcDbLine
62
7
6
CONTINUOUS
10
-4.2970661005
20
6.9456471846
11
-4.1476461791
21
6.7427653813
0
LINE
5
273
100
AcDbEntity
8
0
100
AcDbLine
62
7
6
CONTINUOUS
10
-1.1221590618
20
2.6347704317
11
-0.9004616580
21
2.3337505365
0
LINE
5
274
100
AcDbEntity
8
0
100
AcDbLine
62
7
6
CONTINUOUS
10
-4.3372129089
20
7.0521509179
11
-4.2730434966
21
6.9629234355
0
LINE
5
275
100
AcDbEntity
8
0
100
AcDbLine
62
7
6
CONTINUOUS
10
-1.6041347695
20
3.2518094060
11
-1.4132893934
21
2.9864391648
0
LINE
5
276
100
AcDbEntity
8
0
100
AcDbLine
62
7
6
CONTINUOUS
10
-2.0794921515
20
3.8693636122
11
-1.9252975433
21
3.6477061655
0
LINE
5
277
100
AcDbEntity
8
0
100
AcDbLine
62
7
6
CONTINUOUS
10
-2.5337877144
20
4.4686689782
11
-2.4209289992
21
4.2974592753
0
LINE
5
278
100
AcDbEntity
8
0
100
AcDbLine
62
7
6
CONTINUOUS
10
-2.9532179172
20
5.0315159137
11
-2.8851242500
21
4.9159560749
0
LINE
5
279
100
AcDbEntity
8
0
100
AcDbLine
62
7
6
CONTINUOUS
10
-3.3250385856
20
5.5408025993
11
-3.3037789580
21
5.4844038519
0
LINE
5
27A
100
AcDbEntity
8
0
100
AcDbLine
62
7
6
CONTINUOUS
10
16.7933307079
20
19.9298195205
11
17.3541016246
21
20.9987628424
0
LINE
5
27B
100
AcDbEntity
8
0
100
AcDbLine
62
7
6
CONTINUOUS
10
-4.6513607663
20
-17.9119318298
11
3.3607488914
21
-11.9385268123
0
LINE
5
27C
100
AcDbEntity
8
0
100
AcDbLine
62
7
6
CONTINUOUS
10
-4.6518285301
20
-17.9122523123
11
-4.6513607663
21
-17.9119318298
0
LINE
5
27D
100
AcDbEntity
8
0
100
AcDbLine
62
7
6
CONTINUOUS
10
-25.9090529049
20
-31.2663625606
11
-4.6518285301
21
-17.9122523123
0
LINE
5
27E
100
AcDbEntity
8
0
100
AcDbLine
62
7
6
CONTINUOUS
10
6.8013314668
20
5.5256398538
11
6.8275518418
21
5.5211638627
0
LINE
5
27F
100
AcDbEntity
8
0
100
AcDbLine
62
7
6
CONTINUOUS
10
2.9864713657
20
10.4458638909
11
3.0077309933
21
10.3894651434
0
LINE
5
280
100
AcDbEntity
8
0
100
AcDbLine
62
7
6
CONTINUOUS
10
19.2474622313
20
16.7720046409
11
20.4217660288
21
17.0514942430
0
LINE
5
281
100
AcDbEntity
8
0
100
AcDbLine
62
7
6
CONTINUOUS
10
6.3772830244
20
6.0376329201
11
6.4501867092
21
5.9724181910
0
LINE
5
282
100
AcDbEntity
8
0
100
AcDbLine
62
7
6
CONTINUOUS
10
5.9091136029
20
6.6145331857
11
6.0264854559
21
6.4905612352
0
LINE
5
283
100
AcDbEntity
8
0
100
AcDbLine
62
7
6
CONTINUOUS
10
5.4110482933
20
7.2388118280
11
5.5693220302
21
7.0598494810
0
LINE
5
284
100
AcDbEntity
8
0
100
AcDbLine
62
7
6
CONTINUOUS
10
7.7089800963
20
4.6405079222
11
7.8359448801
21
4.4969470501
0
LINE
5
285
100
AcDbEntity
8
0
100
AcDbLine
62
7
6
CONTINUOUS
10
4.8982205579
20
7.8915004563
11
5.0925871112
21
7.6629853933
0
LINE
5
286
100
AcDbEntity
8
0
100
AcDbLine
62
7
6
CONTINUOUS
10
7.6817251353
20
4.6189583798
11
7.8760916886
21
4.3904433168
0
LINE
5
287
100
AcDbEntity
8
0
100
AcDbLine
62
7
6
CONTINUOUS
10
4.3862124080
20
8.5527674570
11
4.6107660484
21
8.2816429925
0
LINE
5
288
100
AcDbEntity
8
0
100
AcDbLine
62
7
6
CONTINUOUS
10
7.6020233347
20
4.6700202700
11
7.8265769751
21
4.3988958054
0
LINE
5
289
100
AcDbEntity
8
0
100
AcDbLine
62
7
6
CONTINUOUS
10
3.8905809522
20
9.2025205669
11
4.1384987309
21
8.8970246805
0
LINE
5
28A
100
AcDbEntity
8
0
100
AcDbLine
62
7
6
CONTINUOUS
10
7.4409874404
20
4.8275435778
11
7.6889052192
21
4.5220476914
0
LINE
5
28B
100
AcDbEntity
8
0
100
AcDbLine
62
7
6
CONTINUOUS
10
3.4263857013
20
9.8210173664
11
3.6901347622
21
9.4904323961
0
LINE
5
28C
100
AcDbEntity
8
0
100
AcDbLine
62
7
6
CONTINUOUS
10
7.2035104466
20
5.0867420373
11
7.4672595075
21
4.7561570669
0
LINE
5
28D
100
AcDbEntity
8
0
100
AcDbLine
62
7
6
CONTINUOUS
10
3.0077309933
20
10.3894651434
11
3.2792974545
21
10.0438357462
0
LINE
5
28E
100
AcDbEntity
8
0
100
AcDbLine
62
7
6
CONTINUOUS
10
6.8968079716
20
5.4397400344
11
7.1683744328
21
5.0941106372
0
LINE
5
28F
100
AcDbEntity
8
0
100
AcDbLine
62
7
6
CONTINUOUS
10
2.6473374396
20
10.8905918997
11
2.9184698917
21
10.5404198499
0
LINE
5
290
100
AcDbEntity
8
0
100
AcDbLine
62
7
6
CONTINUOUS
10
6.5301990148
20
5.8758119036
11
6.8013314668
21
5.5256398538
0
LINE
5
291
100
AcDbEntity
8
0
100
AcDbLine
62
7
6
CONTINUOUS
10
2.3561554159
20
11.3091711525
11
2.6186156365
21
10.9650962507
0
LINE
5
292
100
AcDbEntity
8
0
100
AcDbLine
62
7
6
CONTINUOUS
10
6.1148228039
20
6.3817078219
11
6.3772830244
21
6.0376329201
0
LINE
5
293
100
AcDbEntity
8
0
100
AcDbLine
62
7
6
CONTINUOUS
10
2.1430323407
20
11.6324845830
11
2.3888456088
21
11.3049613710
0
LINE
5
294
100
AcDbEntity
8
0
100
AcDbLine
62
7
6
CONTINUOUS
10
5.6633003349
20
6.9420563978
11
5.9091136029
21
6.6145331857
0
LINE
5
295
100
AcDbEntity
8
0
100
AcDbLine
62
7
6
CONTINUOUS
10
2.0144438508
20
11.8507084762
11
2.2361412546
21
11.5496885809
0
LINE
5
296
100
AcDbEntity
8
0
100
AcDbLine
62
7
6
CONTINUOUS
10
5.1893508895
20
7.5398317232
11
5.4110482933
21
7.2388118280
0
LINE
5
297
100
AcDbEntity
8
0
100
AcDbLine
62
7
6
CONTINUOUS
10
1.9742970424
20
11.9572122095
11
2.1651424185
21
11.6918419682
0
LINE
5
298
100
AcDbEntity
8
0
100
AcDbLine
62
7
6
CONTINUOUS
10
4.7073751818
20
8.1568706975
11
4.8982205579
21
7.8915004563
0
LINE
5
299
100
AcDbEntity
8
0
100
AcDbLine
62
7
6
CONTINUOUS
10
2.0238117559
20
11.9487597208
11
2.1734423517
21
11.7336631218
0
LINE
5
29A
100
AcDbEntity
8
0
100
AcDbLine
62
7
6
CONTINUOUS
10
4.2320177998
20
8.7744249037
11
4.3862124080
21
8.5527674570
0
LINE
5
29B
100
AcDbEntity
8
0
100
AcDbLine
62
7
6
CONTINUOUS
10
2.1614835118
20
11.8256078349
11
2.2075169054
21
11.7557739402
0
LINE
5
29C
100
AcDbEntity
8
0
100
AcDbLine
62
7
6
CONTINUOUS
10
3.7777222370
20
9.3737302697
11
3.8905809522
21
9.2025205669
0
LINE
5
29D
100
AcDbEntity
8
0
100
AcDbLine
62
7
6
CONTINUOUS
10
3.3582920341
20
9.9365772052
11
3.4263857013
21
9.8210173664
0
LINE
5
29E
100
AcDbEntity
8
0
100
AcDbLine
62
7
6
CONTINUOUS
10
7.4292651511
20
4.8206362156
11
7.3991658402
21
4.8717169057
0
LINE
5
29F
100
AcDbEntity
8
0
100
AcDbLine
62
7
6
CONTINUOUS
10
7.1683744328
20
5.0941106372
11
7.1471148051
21
5.1505093846
0
LINE
5
2A0
100
AcDbEntity
8
0
100
AcDbLine
62
7
6
CONTINUOUS
10
2.6735578146
20
10.8861159086
11
2.6473374396
21
10.8905918997
0
LINE
5
2A1
100
AcDbEntity
8
0
100
AcDbLine
62
7
6
CONTINUOUS
10
2.4290591007
20
11.2439564234
11
2.3764066149
21
11.2910557931
0
LINE
5
2A2
100
AcDbEntity
8
0
100
AcDbLine
62
7
6
CONTINUOUS
10
2.2604041937
20
11.5085126325
11
2.1430323407
21
11.6324845830
0
LINE
5
2A3
100
AcDbEntity
8
0
100
AcDbLine
62
7
6
CONTINUOUS
10
2.1727175877
20
11.6717461292
11
2.0144438508
21
11.8507084762
0
LINE
5
2A4
100
AcDbEntity
8
0
100
AcDbLine
62
7
6
CONTINUOUS
10
2.1686635957
20
11.7286971464
11
2.0437113858
21
11.8756023708
0
LINE
5
2A5
100
AcDbEntity
8
0
100
AcDbLine
62
7
6
CONTINUOUS
10
2.1897315909
20
11.7484292949
11
2.0681679190
21
11.8952044057
0
LINE
5
2A6
100
AcDbEntity
8
0
100
AcDbLine
62
7
6
CONTINUOUS
10
7.7722507796
20
4.5834306586
11
7.7243300976
21
4.6484971791
0
LINE
5
2A7
100
AcDbEntity
8
0
100
AcDbLine
62
7
6
CONTINUOUS
10
7.8552059996
20
4.4194848395
11
7.7023477511
21
4.6320340304
0
LINE
5
2A8
100
AcDbEntity
8
0
100
AcDbLine
62
7
6
CONTINUOUS
10
7.8265769751
20
4.3988958054
11
7.6723823669
21
4.6205532521
0
LINE
5
2A9
100
AcDbEntity
8
0
100
AcDbLine
62
7
6
CONTINUOUS
10
7.6889052192
20
4.5220476914
11
7.5760465040
21
4.6932573942
0
LINE
5
2AA
100
AcDbEntity
8
0
100
AcDbLine
62
7
6
CONTINUOUS
10
6.7870064175
20
12.6089922539
11
6.6569504491
21
12.7004301363
0
LINE
5
2AB
100
AcDbEntity
8
0
100
AcDbLine
62
7
6
CONTINUOUS
10
9.4765350228
20
11.5304558035
11
9.3630007882
21
11.6102778226
0
LINE
5
2AC
100
AcDbEntity
8
0
100
AcDbLine
62
7
6
CONTINUOUS
10
14.9838653067
20
18.1447876747
11
14.4532346329
21
18.8937786379
0
LINE
5
2AD
100
AcDbEntity
8
0
100
AcDbLine
62
7
6
CONTINUOUS
10
15.2449454487
20
18.2952236480
11
14.6980272684
21
19.0672046037
0
SPLINE
5
2AE
100
AcDbEntity
8
0
100
AcDbSpline
62
7
6
CONTINUOUS
70
0
71
3
72
15
73
11
74
9
42
0.0000001000
43
0.0000001000
44
0.0000000001
12
2.8803105288
22
-0.0549039524
32
0.0000000000
13
-2.8934108001
23
3.7096802157
33
0.0000000000
40
0.0000000000
40
0.0000000000
40
0.0000000000
40
0.0000000000
40
0.0013894757
40
0.0355887800
40
0.1153618992
40
0.2372151042
40
0.3951470565
40
0.5812850293
40
0.7863230026
40
1.0000000000
40
1.0000000000
40
1.0000000000
40
1.0000000000
10
3.3608598185
20
-11.9306107639
30
0.0000000000
10
3.3621938590
20
-11.9306361932
30
0.0000000000
10
3.3934373468
20
-11.9284375448
30
0.0000000000
10
3.2252607256
20
-11.6649277664
30
0.0000000000
10
3.0907602876
20
-11.4380594773
30
0.0000000000
10
2.7363515247
20
-10.9321162800
30
0.0000000000
10
2.3219994972
20
-10.3564144443
30
0.0000000000
10
1.8043570639
20
-9.6590033684
30
0.0000000000
10
1.2327196675
20
-8.9049922567
30
0.0000000000
10
0.8308586969
20
-8.3849730098
30
0.0000000000
10
0.6247735862
20
-8.1207485666
30
0.0000000000
11
3.3608598185
21
-11.9306107639
31
0.0000000000
11
3.3645067984
21
-11.9303439483
31
0.0000000000
11
3.3008064100
21
-11.7825958632
31
0.0000000000
11
3.1016511870
21
-11.4644927205
31
0.0000000000
11
2.7770276038
21
-10.9919855401
31
0.0000000000
11
2.3432136426
21
-10.3887678049
31
0.0000000000
11
1.8219625467
21
-9.6850873711
31
0.0000000000
11
1.2394120227
21
-8.9162297138
31
0.0000000000
11
0.6247735862
21
-8.1207485666
31
0.0000000000
0
SPLINE
5
2AF
100
AcDbEntity
8
0
100
AcDbSpline
62
7
6
CONTINUOUS
70
0
71
3
72
8
73
4
74
2
42
0.0000001000
43
0.0000001000
44
0.0000000001
12
0.0333425534
22
-0.0250162845
32
0.0000000000
13
0.0279226466
23
-0.0308204039
33
0.0000000000
40
0.0000000000
40
0.0000000000
40
0.0000000000
40
0.0000000000
40
1.0000000000
40
1.0000000000
40
1.0000000000
40
1.0000000000
10
14.6510700895
20
19.1154425725
30
0.0000000000
10
14.6621842740
20
19.1071038110
30
0.0000000000
10
14.6724979598
20
19.0976827757
30
0.0000000000
10
14.6818055087
20
19.0874093077
30
0.0000000000
11
14.6510700895
21
19.1154425725
31
0.0000000000
11
14.6818055087
21
19.0874093077
31
0.0000000000
0
SPLINE
5
2B0
100
AcDbEntity
8
0
100
AcDbSpline
62
7
6
CONTINUOUS
70
0
71
3
72
8
73
4
74
2
42
0.0000001000
43
0.0000001000
44
0.0000000001
12
0.0174509266
22
-0.0192619494
32
0.0000000000
13
0.0149423944
23
-0.0210913521
33
0.0000000000
40
0.0000000000
40
0.0000000000
40
0.0000000000
40
0.0000000000
40
1.0000000000
40
1.0000000000
40
1.0000000000
40
1.0000000000
10
14.6818055087
20
19.0874093077
30
0.0000000000
10
14.6876224842
20
19.0809886579
30
0.0000000000
10
14.6930464703
20
19.0742350544
30
0.0000000000
10
14.6980272684
20
19.0672046037
30
0.0000000000
11
14.6818055087
21
19.0874093077
31
0.0000000000
11
14.6980272684
21
19.0672046037
31
0.0000000000
0
SPLINE
5
2B1
100
AcDbEntity
8
0
100
AcDbSpline
62
7
6
CONTINUOUS
70
0
71
3
72
10
73
6
74
4
42
0.0000001000
43
0.0000001000
44
0.0000000001
12
0.1596581904
22
0.1613725907
32
0.0000000000
13
0.2281487487
23
0.0090462814
33
0.0000000000
40
0.0000000000
40
0.0000000000
40
0.0000000000
40
0.0000000000
40
0.4513624682
40
0.8705195371
40
1.0000000000
40
1.0000000000
40
1.0000000000
40
1.0000000000
10
14.3062129914
20
19.0633945211
30
0.0000000000
10
14.3302342297
20
19.0876736981
30
0.0000000000
10
14.3833861432
20
19.1284463032
30
0.0000000000
10
14.4559583994
20
19.1543339493
30
0.0000000000
10
14.4975850854
20
19.1584793993
30
0.0000000000
10
14.5074320206
20
19.1588698382
30
0.0000000000
11
14.3062129914
21
19.0633945211
31
0.0000000000
11
14.3880472893
21
19.1250519019
31
0.0000000000
11
14.4780378440
21
19.1559625376
31
0.0000000000
11
14.5074320206
21
19.1588698382
31
0.0000000000
0
SPLINE
5
2B2
100
AcDbEntity
8
0
100
AcDbSpline
62
7
6
CONTINUOUS
70
0
71
3
72
10
73
6
74
4
42
0.0000001000
43
0.0000001000
44
0.0000000001
12
0.1529375360
22
0.0060640963
32
0.0000000000
13
0.1226781750
23
-0.0920431046
33
0.0000000000
40
0.0000000000
40
0.0000000000
40
0.0000000000
40
0.0000000000
40
0.3710644864
40
0.9023605914
40
1.0000000000
40
1.0000000000
40
1.0000000000
40
1.0000000000
10
14.5074320206
20
19.1588698382
30
0.0000000000
10
14.5263485834
20
19.1596198951
30
0.0000000000
10
14.5725555692
20
19.1561677317
30
0.0000000000
10
14.6206929906
20
19.1368349273
30
0.0000000000
10
14.6470773480
20
19.1184382506
30
0.0000000000
10
14.6510700895
20
19.1154425725
30
0.0000000000
11
14.5074320206
21
19.1588698382
31
0.0000000000
11
14.5638822766
21
19.1544145420
31
0.0000000000
11
14.6387914654
21
19.1239999200
31
0.0000000000
11
14.6510700895
21
19.1154425725
31
0.0000000000
0
SPLINE
5
2B3
100
AcDbEntity
8
0
100
AcDbSpline
62
7
6
CONTINUOUS
70
0
71
3
72
9
73
5
74
3
42
0.0000001000
43
0.0000001000
44
0.0000000001
12
-0.0353875051
22
-0.0162208005
32
0.0000000000
13
-0.0426955407
23
0.0318491384
33
0.0000000000
40
0.0000000000
40
0.0000000000
40
0.0000000000
40
0.0000000000
40
0.2561505655
40
1.0000000000
40
1.0000000000
40
1.0000000000
40
1.0000000000
10
11.1968779037
20
15.4947988332
30
0.0000000000
10
11.1938563939
20
15.4934138441
30
0.0000000000
10
11.1700966360
20
15.4974079052
30
0.0000000000
10
11.1596297707
20
15.5092126059
30
0.0000000000
10
11.1490434194
20
15.5171095937
30
0.0000000000
11
11.1968779037
21
15.4947988332
31
0.0000000000
11
11.1825564311
21
15.4959724865
31
0.0000000000
11
11.1490434194
21
15.5171095937
31
0.0000000000
0
SPLINE
5
2B4
100
AcDbEntity
8
0
100
AcDbSpline
62
7
6
CONTINUOUS
70
0
71
3
72
8
73
4
74
2
42
0.0000001000
43
0.0000001000
44
0.0000000001
12
-0.0041213597
22
0.0058259748
32
0.0000000000
13
-0.0036301988
23
0.0061472804
33
0.0000000000
40
0.0000000000
40
0.0000000000
40
0.0000000000
40
0.0000000000
40
1.0000000000
40
1.0000000000
40
1.0000000000
40
1.0000000000
10
14.4533474515
20
18.8938584471
30
0.0000000000
10
14.4519736650
20
18.8958004387
30
0.0000000000
10
14.4506786549
20
18.8978003713
30
0.0000000000
10
14.4494685886
20
18.8998494648
30
0.0000000000
11
14.4533474515
21
18.8938584471
31
0.0000000000
11
14.4494685886
21
18.8998494648
31
0.0000000000
0
SPLINE
5
2B5
100
AcDbEntity
8
0
100
AcDbSpline
62
7
6
CONTINUOUS
70
0
71
3
72
8
73
4
74
2
42
0.0000001000
43
0.0000001000
44
0.0000000001
12
-0.0085011394
22
0.0143955993
32
0.0000000000
13
-0.0054685662
23
0.0156749079
33
0.0000000000
40
0.0000000000
40
0.0000000000
40
0.0000000000
40
0.0000000000
40
1.0000000000
40
1.0000000000
40
1.0000000000
40
1.0000000000
10
14.4494685886
20
18.8998494648
30
0.0000000000
10
14.4466348755
20
18.9046479979
30
0.0000000000
10
14.4442669901
20
18.9097161268
30
0.0000000000
10
14.4424441347
20
18.9149410961
30
0.0000000000
11
14.4494685886
21
18.8998494648
31
0.0000000000
11
14.4424441347
21
18.9149410961
31
0.0000000000
0
SPLINE
5
2B6
100
AcDbEntity
8
0
100
AcDbSpline
62
7
6
CONTINUOUS
70
0
71
3
72
8
73
4
74
2
42
0.0000001000
43
0.0000001000
44
0.0000000001
12
-0.0115053128
22
0.0329784285
32
0.0000000000
13
0.0013255427
23
0.0349518395
33
0.0000000000
40
0.0000000000
40
0.0000000000
40
0.0000000000
40
0.0000000000
40
1.0000000000
40
1.0000000000
40
1.0000000000
40
1.0000000000
10
14.4424441347
20
18.9149410961
30
0.0000000000
10
14.4386090304
20
18.9259339056
30
0.0000000000
10
14.4371864431
20
18.9376209520
30
0.0000000000
10
14.4376282907
20
18.9492715652
30
0.0000000000
11
14.4424441347
21
18.9149410961
31
0.0000000000
11
14.4376282907
21
18.9492715652
31
0.0000000000
0
SPLINE
5
2B7
100
AcDbEntity
8
0
100
AcDbSpline
62
7
6
CONTINUOUS
70
0
71
3
72
10
73
6
74
4
42
0.0000001000
43
0.0000001000
44
0.0000000001
12
0.0038529053
22
0.1015932046
32
0.0000000000
13
0.0666079761
23
0.0755622724
33
0.0000000000
40
0.0000000000
40
0.0000000000
40
0.0000000000
40
0.0000000000
40
0.1825863515
40
0.7846983853
40
1.0000000000
40
1.0000000000
40
1.0000000000
40
1.0000000000
10
14.4376282907
20
18.9492715652
30
0.0000000000
10
14.4378627866
20
18.9554547427
30
0.0000000000
10
14.4411274513
20
18.9819839819
30
0.0000000000
10
14.4557200332
20
19.0129797935
30
0.0000000000
10
14.4726976625
20
19.0346100179
30
0.0000000000
10
14.4774779308
20
19.0400329110
30
0.0000000000
11
14.4376282907
21
18.9492715652
31
0.0000000000
11
14.4398252628
21
18.9676810903
31
0.0000000000
11
14.4641043730
21
19.0229583672
31
0.0000000000
11
14.4774779308
21
19.0400329110
31
0.0000000000
0
SPLINE
5
2B8
100
AcDbEntity
8
0
100
AcDbSpline
62
7
6
CONTINUOUS
70
0
71
3
72
11
73
7
74
5
42
0.0000001000
43
0.0000001000
44
0.0000000001
12
0.1375727667
22
0.1560670581
32
0.0000000000
13
0.1880337193
23
-0.0907010226
33
0.0000000000
40
0.0000000000
40
0.0000000000
40
0.0000000000
40
0.0000000000
40
0.2140954446
40
0.5330894191
40
0.8262203606
40
1.0000000000
40
1.0000000000
40
1.0000000000
40
1.0000000000
10
14.4774779308
20
19.0400329110
30
0.0000000000
10
14.4872958316
20
19.0511706597
30
0.0000000000
10
14.5149819505
20
19.0760214165
30
0.0000000000
10
14.5669116114
20
19.1019794828
30
0.0000000000
10
14.6220242102
20
19.1087307677
30
0.0000000000
10
14.6542385431
20
19.0999101291
30
0.0000000000
10
14.6651306871
20
19.0946561321
30
0.0000000000
11
14.4774779308
21
19.0400329110
31
0.0000000000
11
14.5104726897
21
19.0698245841
31
0.0000000000
11
14.5697463991
21
19.0989973121
31
0.0000000000
11
14.6301856160
21
19.1046985345
31
0.0000000000
11
14.6651306871
21
19.0946561321
31
0.0000000000
0
SPLINE
5
2B9
100
AcDbEntity
8
0
100
AcDbSpline
62
7
6
CONTINUOUS
70
0
71
3
72
8
73
4
74
2
42
0.0000001000
43
0.0000001000
44
0.0000000001
12
0.0155444564
22
-0.0074981131
32
0.0000000000
13
0.0137231019
23
-0.0102368764
33
0.0000000000
40
0.0000000000
40
0.0000000000
40
0.0000000000
40
0.0000000000
40
1.0000000000
40
1.0000000000
40
1.0000000000
40
1.0000000000
10
14.6651306871
20
19.0946561321
30
0.0000000000
10
14.6703121725
20
19.0921567611
30
0.0000000000
10
14.6752452451
20
19.0892113465
30
0.0000000000
10
14.6798196124
20
19.0857990544
30
0.0000000000
11
14.6651306871
21
19.0946561321
31
0.0000000000
11
14.6798196124
21
19.0857990544
31
0.0000000000
0
SPLINE
5
2BA
100
AcDbEntity
8
0
100
AcDbSpline
62
7
6
CONTINUOUS
70
0
71
3
72
8
73
4
74
2
42
0.0000001000
43
0.0000001000
44
0.0000000001
12
0.0269247404
22
0.0272138567
32
0.0000000000
13
0.0240827253
23
0.0299205028
33
0.0000000000
40
0.0000000000
40
0.0000000000
40
0.0000000000
40
0.0000000000
40
1.0000000000
40
1.0000000000
40
1.0000000000
40
1.0000000000
10
15.1835897665
20
17.9149928977
30
0.0000000000
10
15.1925646800
20
17.9240641833
30
0.0000000000
10
15.2010902775
20
17.9336159383
30
0.0000000000
10
15.2091178526
20
17.9435894393
30
0.0000000000
11
15.1835897665
21
17.9149928977
31
0.0000000000
11
15.2091178526
21
17.9435894393
31
0.0000000000
0
SPLINE
5
2BB
100
AcDbEntity
8
0
100
AcDbSpline
62
7
6
CONTINUOUS
70
0
71
3
72
8
73
4
74
2
42
0.0000001000
43
0.0000001000
44
0.0000000001
12
0.0470604594
22
0.0584681587
32
0.0000000000
13
0.0345597131
23
0.0668163870
33
0.0000000000
40
0.0000000000
40
0.0000000000
40
0.0000000000
40
0.0000000000
40
1.0000000000
40
1.0000000000
40
1.0000000000
40
1.0000000000
10
15.2091178526
20
17.9435894393
30
0.0000000000
10
15.2248046724
20
17.9630788255
30
0.0000000000
10
15.2385897572
20
17.9841786790
30
0.0000000000
10
15.2501096616
20
18.0064508080
30
0.0000000000
11
15.2091178526
21
17.9435894393
31
0.0000000000
11
15.2501096616
21
18.0064508080
31
0.0000000000
0
SPLINE
5
2BC
100
AcDbEntity
8
0
100
AcDbSpline
62
7
6
CONTINUOUS
70
0
71
3
72
9
73
5
74
3
42
0.0000001000
43
0.0000001000
44
0.0000000001
12
0.0669539262
22
0.1294460817
32
0.0000000000
13
0.0044750847
23
0.1457007042
33
0.0000000000
40
0.0000000000
40
0.0000000000
40
0.0000000000
40
0.0000000000
40
0.7615755788
40
1.0000000000
40
1.0000000000
40
1.0000000000
40
1.0000000000
10
15.2501096616
20
18.0064508080
30
0.0000000000
10
15.2671064867
20
18.0393117995
30
0.0000000000
10
15.2829496428
20
18.0858113399
30
0.0000000000
10
15.2874014294
20
18.1342935165
30
0.0000000000
10
15.2877570859
20
18.1458730519
30
0.0000000000
11
15.2501096616
21
18.0064508080
31
0.0000000000
11
15.2846310440
21
18.1112875521
31
0.0000000000
11
15.2877570859
21
18.1458730519
31
0.0000000000
0
SPLINE
5
2BD
100
AcDbEntity
8
0
100
AcDbSpline
62
7
6
CONTINUOUS
70
0
71
3
72
9
73
5
74
3
42
0.0000001000
43
0.0000001000
44
0.0000000001
12
0.0048524223
22
0.1579861362
32
0.0000000000
13
-0.0908457966
23
0.1282298293
33
0.0000000000
40
0.0000000000
40
0.0000000000
40
0.0000000000
40
0.0000000000
40
0.4215253592
40
1.0000000000
40
1.0000000000
40
1.0000000000
40
1.0000000000
10
15.2877570859
20
18.1458730519
30
0.0000000000
10
15.2884388922
20
18.1680714395
30
0.0000000000
10
15.2839032831
20
18.2209096006
30
0.0000000000
10
15.2624627785
20
18.2704977466
30
0.0000000000
10
15.2449454487
20
18.2952236480
30
0.0000000000
11
15.2877570859
21
18.1458730519
31
0.0000000000
11
15.2816114206
21
18.2120392147
31
0.0000000000
11
15.2449454487
21
18.2952236480
31
0.0000000000
0
SPLINE
5
2BE
100
AcDbEntity
8
0
100
AcDbSpline
62
7
6
CONTINUOUS
70
0
71
3
72
9
73
5
74
3
42
0.0000001000
43
0.0000001000
44
0.0000000001
12
0.0168421714
22
0.0170230216
32
0.0000000000
13
0.0105276492
23
0.0204182023
33
0.0000000000
40
0.0000000000
40
0.0000000000
40
0.0000000000
40
0.0000000000
40
0.6940242794
40
1.0000000000
40
1.0000000000
40
1.0000000000
40
1.0000000000
10
14.9703279247
20
18.1259890750
30
0.0000000000
10
14.9742242166
20
18.1299272051
30
0.0000000000
10
14.9792250670
20
18.1370524430
30
0.0000000000
10
14.9831315908
20
18.1425298690
30
0.0000000000
10
14.9842053259
20
18.1446123604
30
0.0000000000
11
14.9703279247
21
18.1259890750
31
0.0000000000
11
14.9806385358
21
18.1390236803
31
0.0000000000
11
14.9842053259
21
18.1446123604
31
0.0000000000
0
SPLINE
5
2BF
100
AcDbEntity
8
0
100
AcDbSpline
62
7
6
CONTINUOUS
70
0
71
3
72
9
73
5
74
3
42
0.0000001000
43
0.0000001000
44
0.0000000001
12
0.0041797708
22
0.0081065965
32
0.0000000000
13
0.0022381424
23
0.0078795115
33
0.0000000000
40
0.0000000000
40
0.0000000000
40
0.0000000000
40
0.0000000000
40
0.6596317225
40
1.0000000000
40
1.0000000000
40
1.0000000000
40
1.0000000000
10
14.9842053259
20
18.1446123604
30
0.0000000000
10
14.9851243623
20
18.1463948165
30
0.0000000000
10
14.9863826038
20
18.1495485223
30
0.0000000000
10
14.9874086160
20
18.1541949014
30
0.0000000000
10
14.9876625469
20
18.1550888800
30
0.0000000000
11
14.9842053259
21
18.1446123604
31
0.0000000000
11
14.9866832681
21
18.1512048684
31
0.0000000000
11
14.9876625469
21
18.1550888800
31
0.0000000000
0
SPLINE
5
2C0
100
AcDbEntity
8
0
100
AcDbSpline
62
7
6
CONTINUOUS
70
0
71
3
72
13
73
9
74
7
42
0.0000001000
43
0.0000001000
44
0.0000000001
12
-0.1693121293
22
-0.0776086999
32
0.0000000000
13
0.2042775518
23
-0.1523827526
33
0.0000000000
40
0.0000000000
40
0.0000000000
40
0.0000000000
40
0.0000000000
40
0.0064180631
40
0.0887727723
40
0.2657855453
40
0.5081917234
40
0.7697461768
40
1.0000000000
40
1.0000000000
40
1.0000000000
40
1.0000000000
10
11.6481271153
20
14.7674393986
30
0.0000000000
10
11.6477648967
20
14.7672733661
30
0.0000000000
10
11.6433639640
20
14.7644981804
30
0.0000000000
10
11.6592995000
20
14.7344958087
30
0.0000000000
10
11.6808267138
20
14.7074142402
30
0.0000000000
10
11.7213060156
20
14.6612486292
30
0.0000000000
10
11.7654700668
20
14.6186960810
30
0.0000000000
10
11.7974797902
20
14.5913997180
30
0.0000000000
10
11.8131583526
20
14.5797041476
30
0.0000000000
11
11.6481271153
21
14.7674393986
31
0.0000000000
11
11.6471793663
21
14.7668342146
31
0.0000000000
11
11.6531781914
21
14.7467214537
31
0.0000000000
11
11.6792569224
21
14.7099110416
31
0.0000000000
11
11.7202503466
21
14.6636937318
31
0.0000000000
11
11.7680392138
21
14.6172234294
31
0.0000000000
11
11.8131583526
21
14.5797041476
31
0.0000000000
0
SPLINE
5
2C1
100
AcDbEntity
8
0
100
AcDbSpline
62
7
6
CONTINUOUS
70
0
71
3
72
19
73
15
74
13
42
0.0000001000
43
0.0000001000
44
0.0000000001
12
-1.8861560599
22
-1.9074679225
32
0.0000000000
13
1.8724190896
23
-1.3164335222
33
0.0000000000
40
0.0000000000
40
0.0000000000
40
0.0000000000
40
0.0000000000
40
0.0024110618
40
0.0366632233
40
0.1023316227
40
0.1950923177
40
0.3086693426
40
0.4353462031
40
0.5665067646
40
0.6932276051
40
0.8068895747
40
0.8997703340
40
0.9655855406
40
1.0000000000
40
1.0000000000
40
1.0000000000
40
1.0000000000
10
-33.8020078603
20
-20.4767115704
30
0.0000000000
10
-33.8035237399
20
-20.4782445780
30
0.0000000000
10
-33.8252439587
20
-20.5114109135
30
0.0000000000
10
-33.7308337385
20
-20.5661422673
30
0.0000000000
10
-33.6850609091
20
-20.6959013187
30
0.0000000000
10
-33.5473398166
20
-20.8607897889
30
0.0000000000
10
-33.4020771239
20
-21.0662189770
30
0.0000000000
10
-33.2286037294
20
-21.2913607641
30
0.0000000000
10
-33.0491039250
20
-21.5231346215
30
0.0000000000
10
-32.8727304609
20
-21.7451902923
30
0.0000000000
10
-32.7121108478
20
-21.9421504559
30
0.0000000000
10
-32.5788957755
20
-22.1020240772
30
0.0000000000
10
-32.4803579412
20
-22.2108144830
30
0.0000000000
10
-32.4283760568
20
-22.2679990669
30
0.0000000000
10
-32.4068966266
20
-22.2831005163
30
0.0000000000
11
-33.8020078603
21
-20.4767115704
31
0.0000000000
11
-33.8061402709
21
-20.4825481431
31
0.0000000000
11
-33.7678613487
21
-20.5509668261
31
0.0000000000
11
-33.6841814348
21
-20.6758259494
31
0.0000000000
11
-33.5608031769
21
-20.8486165702
31
0.0000000000
11
-33.4061345995
21
-21.0575632932
31
0.0000000000
11
-33.2307161104
21
-21.2884267445
31
0.0000000000
11
-33.0465021899
21
-21.5254739615
31
0.0000000000
11
-32.8660467122
21
-21.7525505680
31
0.0000000000
11
-32.7016474199
21
-21.9541816686
31
0.0000000000
11
-32.5645078530
21
-22.1166264369
31
0.0000000000
11
-32.4639738464
21
-22.2288145306
31
0.0000000000
11
-32.4068966266
21
-22.2831005163
31
0.0000000000
0
SPLINE
5
2C2
100
AcDbEntity
8
0
100
AcDbSpline
62
7
6
CONTINUOUS
70
0
71
3
72
8
73
4
74
2
42
0.0000001000
43
0.0000001000
44
0.0000000001
12
-0.0053700672
22
-0.0052784251
32
0.0000000000
13
-0.0053136353
23
0.0037358344
33
0.0000000000
40
0.0000000000
40
0.0000000000
40
0.0000000000
40
0.0000000000
40
1.0000000000
40
1.0000000000
40
1.0000000000
40
1.0000000000
10
-32.4014302719
20
-22.2817530395
30
0.0000000000
10
-32.4032202943
20
-22.2835125145
30
0.0000000000
10
-32.4051254148
20
-22.2843457944
30
0.0000000000
10
-32.4068966266
20
-22.2831005163
30
0.0000000000
11
-32.4014302719
21
-22.2817530395
31
0.0000000000
11
-32.4068966266
21
-22.2831005163
31
0.0000000000
0
SPLINE
5
2C3
100
AcDbEntity
8
0
100
AcDbSpline
62
7
6
CONTINUOUS
70
0
71
3
72
9
73
5
74
3
42
0.0000001000
43
0.0000001000
44
0.0000000001
12
-0.2235955996
22
0.2752444222
32
0.0000000000
13
-0.2247265546
23
0.2739255099
33
0.0000000000
40
0.0000000000
40
0.0000000000
40
0.0000000000
40
0.0000000000
40
0.4970029253
40
1.0000000000
40
1.0000000000
40
1.0000000000
40
1.0000000000
10
11.0964536243
20
15.8191561513
30
0.0000000000
10
11.0594110686
20
15.8647552456
30
0.0000000000
10
10.9847944435
20
15.9563957622
30
0.0000000000
10
10.9100098198
20
16.0477860436
30
0.0000000000
10
10.8723308866
20
16.0937139536
30
0.0000000000
11
11.0964536243
21
15.8191561513
31
0.0000000000
11
10.9852002091
21
15.9557846442
31
0.0000000000
11
10.8723308866
21
16.0937139536
31
0.0000000000
0
SPLINE
5
2C4
100
AcDbEntity
8
0
100
AcDbSpline
62
7
6
CONTINUOUS
70
0
71
3
72
14
73
10
74
8
42
0.0000001000
43
0.0000001000
44
0.0000000001
12
-1.3982064922
22
1.7043131683
32
0.0000000000
13
-0.7821256444
23
-1.7046589993
33
0.0000000000
40
0.0000000000
40
0.0000000000
40
0.0000000000
40
0.0000000000
40
0.2131898620
40
0.4693073121
40
0.6805679795
40
0.8412933640
40
0.9473027390
40
0.9965840009
40
1.0000000000
40
1.0000000000
40
1.0000000000
40
1.0000000000
10
10.8723308866
20
16.0937139536
30
0.0000000000
10
10.7729697369
20
16.2148280500
30
0.0000000000
10
10.5532836694
20
16.4808139003
30
0.0000000000
10
10.2290763544
20
16.8673821452
30
0.0000000000
10
9.9320591567
20
17.2055463184
30
0.0000000000
10
9.6814872776
20
17.4929418998
30
0.0000000000
10
9.5469510498
20
17.6044731248
30
0.0000000000
10
9.4200737020
20
17.7516290552
30
0.0000000000
10
9.4046760756
20
17.7255387087
30
0.0000000000
10
9.4037854954
20
17.7235976708
30
0.0000000000
11
10.8723308866
21
16.0937139536
31
0.0000000000
11
10.5725774227
21
16.4566047806
31
0.0000000000
11
10.2081985561
21
16.8887041621
31
0.0000000000
11
9.9020029147
21
17.2402962439
31
0.0000000000
11
9.6623427175
21
17.5017905104
31
0.0000000000
11
9.4957552700
21
17.6660540799
31
0.0000000000
11
9.4067846433
21
17.7286062703
31
0.0000000000
11
9.4037854954
21
17.7235976708
31
0.0000000000
0
SPLINE
5
2C5
100
AcDbEntity
8
0
100
AcDbSpline
62
7
6
CONTINUOUS
70
0
71
3
72
9
73
5
74
3
42
0.0000001000
43
0.0000001000
44
0.0000000001
12
0.3575830253
22
-0.4783656041
32
0.0000000000
13
0.3541099538
23
-0.4809677175
33
0.0000000000
40
0.0000000000
40
0.0000000000
40
0.0000000000
40
0.0000000000
40
0.2298738765
40
1.0000000000
40
1.0000000000
40
1.0000000000
40
1.0000000000
10
13.7102053971
20
12.4640169533
30
0.0000000000
10
13.7376050625
20
12.4273623680
30
0.0000000000
10
13.8566638279
20
12.2678082527
30
0.0000000000
10
13.9750968391
20
12.1078013359
30
0.0000000000
10
14.0659999478
20
11.9843327346
30
0.0000000000
11
13.7102053971
21
12.4640169533
31
0.0000000000
11
13.7923089963
21
12.3539837951
31
0.0000000000
11
14.0659999478
21
11.9843327346
31
0.0000000000
0
SPLINE
5
2C6
100
AcDbEntity
8
0
100
AcDbSpline
62
7
6
CONTINUOUS
70
0
71
3
72
14
73
10
74
8
42
0.0000001000
43
0.0000001000
44
0.0000000001
12
1.3091634074
22
-1.7781633337
32
0.0000000000
13
-0.7825389777
23
-1.7055598676
33
0.0000000000
40
0.0000000000
40
0.0000000000
40
0.0000000000
40
0.0000000000
40
0.0988155839
40
0.3711932213
40
0.6014329748
40
0.7833185119
40
0.9120239835
40
0.9844704731
40
1.0000000000
40
1.0000000000
40
1.0000000000
40
1.0000000000
10
14.0659999478
20
11.9843327346
30
0.0000000000
10
14.1091218633
20
11.9257626519
30
0.0000000000
10
14.2708480306
20
11.7055431042
30
0.0000000000
10
14.5314783085
20
11.3475395786
30
0.0000000000
10
14.8175092971
20
10.9333640403
30
0.0000000000
10
15.0512620119
20
10.6095330745
30
0.0000000000
10
15.1782325444
20
10.3580762590
30
0.0000000000
10
15.2930462665
20
10.2390724356
30
0.0000000000
10
15.2827024412
20
10.1597807365
30
0.0000000000
10
15.2786516211
20
10.1509518905
30
0.0000000000
11
14.0659999478
21
11.9843327346
31
0.0000000000
11
14.1951666589
21
11.8084610940
31
0.0000000000
11
14.5474534502
21
11.3210068810
31
0.0000000000
11
14.8395599049
21
10.9049176361
31
0.0000000000
11
15.0635181204
21
10.5715431894
31
0.0000000000
11
15.2132191003
21
10.3299771267
31
0.0000000000
11
15.2845793921
21
10.1868087405
31
0.0000000000
11
15.2786516211
21
10.1509518905
31
0.0000000000
0
SPLINE
5
2C7
100
AcDbEntity
8
0
100
AcDbSpline
62
7
6
CONTINUOUS
70
0
71
3
72
8
73
4
74
2
42
0.0000001000
43
0.0000001000
44
0.0000000001
12
0.0718484022
22
-0.0934805457
32
0.0000000000
13
0.0719777067
23
-0.0933811269
33
0.0000000000
40
0.0000000000
40
0.0000000000
40
0.0000000000
40
0.0000000000
40
1.0000000000
40
1.0000000000
40
1.0000000000
40
1.0000000000
10
11.9484180652
20
14.2134393100
30
0.0000000000
10
11.9723675326
20
14.1822791281
30
0.0000000000
10
11.9963385806
20
14.1511355165
30
0.0000000000
10
12.0203311495
20
14.1200084742
30
0.0000000000
11
11.9484180652
21
14.2134393100
31
0.0000000000
11
12.0203311495
21
14.1200084742
31
0.0000000000
0
SPLINE
5
2C8
100
AcDbEntity
8
0
100
AcDbSpline
62
7
6
CONTINUOUS
70
0
71
3
72
8
73
4
74
2
42
0.0000001000
43
0.0000001000
44
0.0000000001
12
0.0523627614
22
-0.0679334462
32
0.0000000000
13
0.0524310303
23
-0.0678808327
33
0.0000000000
40
0.0000000000
40
0.0000000000
40
0.0000000000
40
0.0000000000
40
1.0000000000
40
1.0000000000
40
1.0000000000
40
1.0000000000
10
12.0203311495
20
14.1200084742
30
0.0000000000
10
12.0377854033
20
14.0973639922
30
0.0000000000
10
12.0552510467
20
14.0747282792
30
0.0000000000
10
12.0727280568
20
14.0521013350
30
0.0000000000
11
12.0203311495
21
14.1200084742
31
0.0000000000
11
12.0727280568
21
14.0521013350
31
0.0000000000
0
SPLINE
5
2C9
100
AcDbEntity
8
0
100
AcDbSpline
62
7
6
CONTINUOUS
70
0
71
3
72
8
73
4
74
2
42
0.0000001000
43
0.0000001000
44
0.0000000001
12
0.2480715370
22
-0.3211705436
32
0.0000000000
13
0.2495909684
23
-0.3199928717
33
0.0000000000
40
0.0000000000
40
0.0000000000
40
0.0000000000
40
0.0000000000
40
1.0000000000
40
1.0000000000
40
1.0000000000
40
1.0000000000
10
12.0727280568
20
14.0521013350
30
0.0000000000
10
12.1554185691
20
13.9450444871
30
0.0000000000
10
12.2383635362
20
13.8381839365
30
0.0000000000
10
12.3215605257
20
13.7315196459
30
0.0000000000
11
12.0727280568
21
14.0521013350
31
0.0000000000
11
12.3215605257
21
13.7315196459
31
0.0000000000
0
SPLINE
5
2CA
100
AcDbEntity
8
0
100
AcDbSpline
62
7
6
CONTINUOUS
70
0
71
3
72
8
73
4
74
2
42
0.0000001000
43
0.0000001000
44
0.0000000001
12
0.0127257807
22
-0.0163153303
32
0.0000000000
13
0.0127297128
23
-0.0163122670
33
0.0000000000
40
0.0000000000
40
0.0000000000
40
0.0000000000
40
0.0000000000
40
1.0000000000
40
1.0000000000
40
1.0000000000
40
1.0000000000
10
12.3215605257
20
13.7315196459
30
0.0000000000
10
12.3258024525
20
13.7260812025
30
0.0000000000
10
12.3300450346
20
13.7206432692
30
0.0000000000
10
12.3342882722
20
13.7152058469
30
0.0000000000
11
12.3215605257
21
13.7315196459
31
0.0000000000
11
12.3342882722
21
13.7152058469
31
0.0000000000
0
SPLINE
5
2CB
100
AcDbEntity
8
0
100
AcDbSpline
62
7
6
CONTINUOUS
70
0
71
3
72
8
73
4
74
2
42
0.0000001000
43
0.0000001000
44
0.0000000001
12
0.1120547401
22
-0.1435905793
32
0.0000000000
13
0.1123602978
23
-0.1433515782
33
0.0000000000
40
0.0000000000
40
0.0000000000
40
0.0000000000
40
0.0000000000
40
1.0000000000
40
1.0000000000
40
1.0000000000
40
1.0000000000
10
12.3342882722
20
13.7152058469
30
0.0000000000
10
12.3716398522
20
13.6673423205
30
0.0000000000
10
12.4090422280
20
13.6195183831
30
0.0000000000
10
12.4464956606
20
13.5717345237
30
0.0000000000
11
12.3342882722
21
13.7152058469
31
0.0000000000
11
12.4464956606
21
13.5717345237
31
0.0000000000
0
SPLINE
5
2CC
100
AcDbEntity
8
0
100
AcDbSpline
62
7
6
CONTINUOUS
70
0
71
3
72
9
73
5
74
3
42
0.0000001000
43
0.0000001000
44
0.0000000001
12
0.4897984013
22
-0.6248948713
32
0.0000000000
13
0.4960026645
23
-0.6199826829
33
0.0000000000
40
0.0000000000
40
0.0000000000
40
0.0000000000
40
0.0000000000
40
0.5064436444
40
1.0000000000
40
1.0000000000
40
1.0000000000
40
1.0000000000
10
12.4464956606
20
13.5717345237
30
0.0000000000
10
12.5291807564
20
13.4662431784
30
0.0000000000
10
12.6929382434
20
13.2583305842
30
0.0000000000
10
12.8576768866
20
13.0512000737
30
0.0000000000
10
12.9392786424
20
12.9492012759
30
0.0000000000
11
12.4464956606
21
13.5717345237
31
0.0000000000
11
12.6953002855
21
13.2558517474
31
0.0000000000
11
12.9392786424
21
12.9492012759
31
0.0000000000
0
SPLINE
5
2CD
100
AcDbEntity
8
0
100
AcDbSpline
62
7
6
CONTINUOUS
70
0
71
3
72
8
73
4
74
2
42
0.0000001000
43
0.0000001000
44
0.0000000001
12
0.0967099029
22
-0.1208833527
32
0.0000000000
13
0.0969953151
23
-0.1206586841
33
0.0000000000
40
0.0000000000
40
0.0000000000
40
0.0000000000
40
0.0000000000
40
1.0000000000
40
1.0000000000
40
1.0000000000
40
1.0000000000
10
12.9392786424
20
12.9492012759
30
0.0000000000
10
12.9715152767
20
12.9089068250
30
0.0000000000
10
13.0037977860
20
12.8686485467
30
0.0000000000
10
13.0361295577
20
12.8284289853
30
0.0000000000
11
12.9392786424
21
12.9492012759
31
0.0000000000
11
13.0361295577
21
12.8284289853
31
0.0000000000
0
SPLINE
5
2CE
100
AcDbEntity
8
0
100
AcDbSpline
62
7
6
CONTINUOUS
70
0
71
3
72
9
73
5
74
3
42
0.0000001000
43
0.0000001000
44
0.0000000001
12
0.3613982076
22
-0.4495663744
32
0.0000000000
13
0.3651335563
23
-0.4464350293
33
0.0000000000
40
0.0000000000
40
0.0000000000
40
0.0000000000
40
0.0000000000
40
0.0612735475
40
1.0000000000
40
1.0000000000
40
1.0000000000
40
1.0000000000
10
13.0361295577
20
12.8284289853
30
0.0000000000
10
13.0435109411
20
12.8192468098
30
0.0000000000
10
13.1640189147
20
12.6694242857
30
0.0000000000
10
13.2852215144
20
12.5201473164
30
0.0000000000
10
13.3994750237
20
12.3804538593
30
0.0000000000
11
13.0361295577
21
12.8284289853
31
0.0000000000
11
13.0582814511
21
12.8008885430
31
0.0000000000
11
13.3994750237
21
12.3804538593
31
0.0000000000
0
SPLINE
5
2CF
100
AcDbEntity
8
0
100
AcDbSpline
62
7
6
CONTINUOUS
70
0
71
3
72
9
73
5
74
3
42
0.0000001000
43
0.0000001000
44
0.0000000001
12
0.3990936801
22
-0.4879567920
32
0.0000000000
13
0.4091285886
23
-0.4801037445
33
0.0000000000
40
0.0000000000
40
0.0000000000
40
0.0000000000
40
0.0000000000
40
0.7684866131
40
1.0000000000
40
1.0000000000
40
1.0000000000
40
1.0000000000
10
13.3994750237
20
12.3804538593
30
0.0000000000
10
13.5017077405
20
12.2554577718
30
0.0000000000
10
13.6352363694
20
12.0932605690
30
0.0000000000
10
13.7714341764
20
11.9330231247
30
0.0000000000
10
13.8030070915
20
11.8959729767
30
0.0000000000
11
13.3994750237
21
12.3804538593
31
0.0000000000
11
13.7085140090
21
12.0073223916
31
0.0000000000
11
13.8030070915
21
11.8959729767
31
0.0000000000
0
SPLINE
5
2D0
100
AcDbEntity
8
0
100
AcDbSpline
62
7
6
CONTINUOUS
70
0
71
3
72
8
73
4
74
2
42
0.0000001000
43
0.0000001000
44
0.0000000001
12
0.0895909681
22
-0.1051331059
32
0.0000000000
13
0.0895543154
23
-0.1050284302
33
0.0000000000
40
0.0000000000
40
0.0000000000
40
0.0000000000
40
0.0000000000
40
1.0000000000
40
1.0000000000
40
1.0000000000
40
1.0000000000
10
13.8030070915
20
11.8959729767
30
0.0000000000
10
13.8328707475
20
11.8609286081
30
0.0000000000
10
13.8627713524
20
11.8259262574
30
0.0000000000
10
13.8926227909
20
11.7909167807
30
0.0000000000
11
13.8030070915
21
11.8959729767
31
0.0000000000
11
13.8926227909
21
11.7909167807
31
0.0000000000
0
SPLINE
5
2D1
100
AcDbEntity
8
0
100
AcDbSpline
62
7
6
CONTINUOUS
70
0
71
3
72
12
73
8
74
6
42
0.0000001000
43
0.0000001000
44
0.0000000001
12
0.5570730402
22
-0.6533298441
32
0.0000000000
13
0.6544539106
23
0.0700244714
33
0.0000000000
40
0.0000000000
40
0.0000000000
40
0.0000000000
40
0.0000000000
40
0.1500415940
40
0.5329085390
40
0.8064962727
40
0.9632513540
40
1.0000000000
40
1.0000000000
40
1.0000000000
40
1.0000000000
10
13.8926227909
20
11.7909167807
30
0.0000000000
10
13.9204841665
20
11.7582412303
30
0.0000000000
10
14.0192883739
20
11.6421641649
30
0.0000000000
10
14.1666629350
20
11.4656134534
30
0.0000000000
10
14.3414797146
20
11.3052407869
30
0.0000000000
10
14.4117239192
20
11.1962662672
30
0.0000000000
10
14.4803271550
20
11.1784021633
30
0.0000000000
10
14.4883439201
20
11.1792599315
30
0.0000000000
11
13.8926227909
21
11.7909167807
31
0.0000000000
11
13.9760084140
21
11.6928315506
31
0.0000000000
11
14.1938305564
21
11.4465369814
31
0.0000000000
11
14.3553620208
21
11.2759222198
31
0.0000000000
11
14.4556947552
21
11.1861713091
31
0.0000000000
11
14.4883439201
21
11.1792599315
31
0.0000000000
0
SPLINE
5
2D2
100
AcDbEntity
8
0
100
AcDbSpline
62
7
6
CONTINUOUS
70
0
71
3
72
10
73
6
74
4
42
0.0000001000
43
0.0000001000
44
0.0000000001
12
-0.7300994615
22
0.9392723222
32
0.0000000000
13
-0.7196251683
23
0.9473211367
33
0.0000000000
40
0.0000000000
40
0.0000000000
40
0.0000000000
40
0.0000000000
40
0.3368188218
40
0.6710424837
40
1.0000000000
40
1.0000000000
40
1.0000000000
40
1.0000000000
10
9.3630007882
20
11.6102778226
30
0.0000000000
10
9.2810303747
20
11.7157326882
30
0.0000000000
10
9.1180994795
20
11.9261243330
30
0.0000000000
10
8.8764367172
20
12.2405330141
30
0.0000000000
10
8.7169462233
20
12.4496371625
30
0.0000000000
10
8.6380375207
20
12.5535132985
30
0.0000000000
11
9.3630007882
21
11.6102778226
31
0.0000000000
11
9.1176620786
21
11.9270866196
31
0.0000000000
11
8.8753611034
21
12.2423396619
31
0.0000000000
11
8.6380375207
21
12.5535132985
31
0.0000000000
0
SPLINE
5
2D3
100
AcDbEntity
8
0
100
AcDbSpline
62
7
6
CONTINUOUS
70
0
71
3
72
8
73
4
74
2
42
0.0000001000
43
0.0000001000
44
0.0000000001
12
0.0761937240
22
-0.1092079881
32
0.0000000000
13
0.0768873705
23
-0.1088559517
33
0.0000000000
40
0.0000000000
40
0.0000000000
40
0.0000000000
40
0.0000000000
40
1.0000000000
40
1.0000000000
40
1.0000000000
40
1.0000000000
10
10.6047661951
20
16.0260480122
30
0.0000000000
10
10.6301641031
20
15.9896453495
30
0.0000000000
10
10.6555276994
20
15.9534896255
30
0.0000000000
10
10.6811568230
20
15.9172043083
30
0.0000000000
11
10.6047661951
21
16.0260480122
31
0.0000000000
11
10.6811568230
21
15.9172043083
31
0.0000000000
0
SPLINE
5
2D4
100
AcDbEntity
8
0
100
AcDbSpline
62
7
6
CONTINUOUS
70
0
71
3
72
8
73
4
74
2
42
0.0000001000
43
0.0000001000
44
0.0000000001
12
0.2566139695
22
-0.3633100947
32
0.0000000000
13
0.2658441442
23
-0.3646860298
33
0.0000000000
40
0.0000000000
40
0.0000000000
40
0.0000000000
40
0.0000000000
40
1.0000000000
40
1.0000000000
40
1.0000000000
40
1.0000000000
10
10.6811568230
20
15.9172043083
30
0.0000000000
10
10.7666948128
20
15.7961009434
30
0.0000000000
10
10.8551905395
20
15.6735540244
30
0.0000000000
10
10.9438052542
20
15.5519920145
30
0.0000000000
11
10.6811568230
21
15.9172043083
31
0.0000000000
11
10.9438052542
21
15.5519920145
31
0.0000000000
0
SPLINE
5
2D5
100
AcDbEntity
8
0
100
AcDbSpline
62
7
6
CONTINUOUS
70
0
71
3
72
8
73
4
74
2
42
0.0000001000
43
0.0000001000
44
0.0000000001
12
0.0880708411
22
-0.1208159220
32
0.0000000000
13
0.0881920895
23
-0.1202430937
33
0.0000000000
40
0.0000000000
40
0.0000000000
40
0.0000000000
40
0.0000000000
40
1.0000000000
40
1.0000000000
40
1.0000000000
40
1.0000000000
10
10.9438052542
20
15.5519920145
30
0.0000000000
10
10.9731622012
20
15.5117200405
30
0.0000000000
10
11.0025322074
20
15.4715561617
30
0.0000000000
10
11.0319295706
20
15.4314751305
30
0.0000000000
11
10.9438052542
21
15.5519920145
31
0.0000000000
11
11.0319295706
21
15.4314751305
31
0.0000000000
0
SPLINE
5
2D6
100
AcDbEntity
8
0
100
AcDbSpline
62
7
6
CONTINUOUS
70
0
71
3
72
8
73
4
74
2
42
0.0000001000
43
0.0000001000
44
0.0000000001
12
0.0092243014
22
-0.0125766216
32
0.0000000000
13
0.0092261462
23
-0.0125712703
33
0.0000000000
40
0.0000000000
40
0.0000000000
40
0.0000000000
40
0.0000000000
40
1.0000000000
40
1.0000000000
40
1.0000000000
40
1.0000000000
10
11.0319295706
20
15.4314751305
30
0.0000000000
10
11.0350043377
20
15.4272829232
30
0.0000000000
10
11.0380794041
20
15.4230916224
30
0.0000000000
10
11.0411547862
20
15.4189011989
30
0.0000000000
11
11.0319295706
21
15.4314751305
31
0.0000000000
11
11.0411547862
21
15.4189011989
31
0.0000000000
0
SPLINE
5
2D7
100
AcDbEntity
8
0
100
AcDbSpline
62
7
6
CONTINUOUS
70
0
71
3
72
9
73
5
74
3
42
0.0000001000
43
0.0000001000
44
0.0000000001
12
0.3942046839
22
-0.5371314887
32
0.0000000000
13
0.4001920229
23
-0.5325531209
33
0.0000000000
40
0.0000000000
40
0.0000000000
40
0.0000000000
40
0.0000000000
40
0.5253526040
40
1.0000000000
40
1.0000000000
40
1.0000000000
40
1.0000000000
10
11.0411547862
20
15.4189011989
30
0.0000000000
10
11.1101869386
20
15.3248400568
30
0.0000000000
10
11.2418912225
20
15.1466377642
30
0.0000000000
10
11.3748421431
20
14.9688535033
30
0.0000000000
10
11.4381588436
20
14.8845951860
30
0.0000000000
11
11.0411547862
21
15.4189011989
31
0.0000000000
11
11.2489133816
21
15.1377173547
31
0.0000000000
11
11.4381588436
21
14.8845951860
31
0.0000000000
0
SPLINE
5
2D8
100
AcDbEntity
8
0
100
AcDbSpline
62
7
6
CONTINUOUS
70
0
71
3
72
8
73
4
74
2
42
0.0000001000
43
0.0000001000
44
0.0000000001
12
0.0333325752
22
-0.0443571234
32
0.0000000000
13
0.0333706066
23
-0.0443332233
33
0.0000000000
40
0.0000000000
40
0.0000000000
40
0.0000000000
40
0.0000000000
40
1.0000000000
40
1.0000000000
40
1.0000000000
40
1.0000000000
10
11.4381588436
20
14.8845951860
30
0.0000000000
10
11.4492697020
20
14.8698094782
30
0.0000000000
10
11.4603870853
20
14.8550276664
30
0.0000000000
10
11.4715106208
20
14.8402499253
30
0.0000000000
11
11.4381588436
21
14.8845951860
31
0.0000000000
11
11.4715106208
21
14.8402499253
31
0.0000000000
0
SPLINE
5
2D9
100
AcDbEntity
8
0
100
AcDbSpline
62
7
6
CONTINUOUS
70
0
71
3
72
8
73
4
74
2
42
0.0000001000
43
0.0000001000
44
0.0000000001
12
0.0986352435
22
-0.1310380218
32
0.0000000000
13
0.0989288683
23
-0.1308111010
33
0.0000000000
40
0.0000000000
40
0.0000000000
40
0.0000000000
40
0.0000000000
40
1.0000000000
40
1.0000000000
40
1.0000000000
40
1.0000000000
10
11.4715106208
20
14.8402499253
30
0.0000000000
10
11.5043890353
20
14.7965705847
30
0.0000000000
10
11.5373211987
20
14.7529268078
30
0.0000000000
10
11.5702974882
20
14.7093231075
30
0.0000000000
11
11.4715106208
21
14.8402499253
31
0.0000000000
11
11.5702974882
21
14.7093231075
31
0.0000000000
0
SPLINE
5
2DA
100
AcDbEntity
8
0
100
AcDbSpline
62
7
6
CONTINUOUS
70
0
71
3
72
8
73
4
74
2
42
0.0000001000
43
0.0000001000
44
0.0000000001
12
0.0169093414
22
-0.0223587878
32
0.0000000000
13
0.0169169322
23
-0.0223516952
33
0.0000000000
40
0.0000000000
40
0.0000000000
40
0.0000000000
40
0.0000000000
40
1.0000000000
40
1.0000000000
40
1.0000000000
40
1.0000000000
10
11.5702974882
20
14.7093231075
30
0.0000000000
10
11.5759339353
20
14.7018701782
30
0.0000000000
10
11.5815716716
20
14.6944184198
30
0.0000000000
10
11.5872106490
20
14.6869678547
30
0.0000000000
11
11.5702974882
21
14.7093231075
31
0.0000000000
11
11.5872106490
21
14.6869678547
31
0.0000000000
0
SPLINE
5
2DB
100
AcDbEntity
8
0
100
AcDbSpline
62
7
6
CONTINUOUS
70
0
71
3
72
8
73
4
74
2
42
0.0000001000
43
0.0000001000
44
0.0000000001
12
0.1176755542
22
-0.1554802069
32
0.0000000000
13
0.1180382502
23
-0.1551492474
33
0.0000000000
40
0.0000000000
40
0.0000000000
40
0.0000000000
40
0.0000000000
40
1.0000000000
40
1.0000000000
40
1.0000000000
40
1.0000000000
10
11.5872106490
20
14.6869678547
30
0.0000000000
10
11.6264358337
20
14.6351411191
30
0.0000000000
10
11.6657210713
20
14.5833721273
30
0.0000000000
10
11.7050671547
20
14.5316557115
30
0.0000000000
11
11.5872106490
21
14.6869678547
31
0.0000000000
11
11.7050671547
21
14.5316557115
31
0.0000000000
0
SPLINE
5
2DC
100
AcDbEntity
8
0
100
AcDbSpline
62
7
6
CONTINUOUS
70
0
71
3
72
8
73
4
74
2
42
0.0000001000
43
0.0000001000
44
0.0000000001
12
0.0165626056
22
-0.0217698568
32
0.0000000000
13
0.0165698000
23
-0.0217636887
33
0.0000000000
40
0.0000000000
40
0.0000000000
40
0.0000000000
40
0.0000000000
40
1.0000000000
40
1.0000000000
40
1.0000000000
40
1.0000000000
10
11.7050671547
20
14.5316557115
30
0.0000000000
10
11.7105880233
20
14.5243990926
30
0.0000000000
10
11.7161100898
20
14.5171435088
30
0.0000000000
10
11.7216333564
20
14.5098889459
30
0.0000000000
11
11.7050671547
21
14.5316557115
31
0.0000000000
11
11.7216333564
21
14.5098889459
31
0.0000000000
0
SPLINE
5
2DD
100
AcDbEntity
8
0
100
AcDbSpline
62
7
6
CONTINUOUS
70
0
71
3
72
8
73
4
74
2
42
0.0000001000
43
0.0000001000
44
0.0000000001
12
0.0286037787
22
-0.0375697798
32
0.0000000000
13
0.0286252710
23
-0.0375517473
33
0.0000000000
40
0.0000000000
40
0.0000000000
40
0.0000000000
40
0.0000000000
40
1.0000000000
40
1.0000000000
40
1.0000000000
40
1.0000000000
10
11.7216333564
20
14.5098889459
30
0.0000000000
10
11.7311679493
20
14.4973656859
30
0.0000000000
10
11.7407061186
20
14.4848454682
30
0.0000000000
10
11.7502478756
20
14.4723282191
30
0.0000000000
11
11.7216333564
21
14.5098889459
31
0.0000000000
11
11.7502478756
21
14.4723282191
31
0.0000000000
0
SPLINE
5
2DE
100
AcDbEntity
8
0
100
AcDbSpline
62
7
6
CONTINUOUS
70
0
71
3
72
8
73
4
74
2
42
0.0000001000
43
0.0000001000
44
0.0000000001
12
0.1976533295
22
-0.2592893487
32
0.0000000000
13
0.1986907594
23
-0.2585126467
33
0.0000000000
40
0.0000000000
40
0.0000000000
40
0.0000000000
40
0.0000000000
40
1.0000000000
40
1.0000000000
40
1.0000000000
40
1.0000000000
10
11.7502478756
20
14.4723282191
30
0.0000000000
10
11.8161323188
20
14.3858984362
30
0.0000000000
10
11.8821878121
20
14.2996101923
30
0.0000000000
10
11.9484180652
20
14.2134393100
30
0.0000000000
11
11.7502478756
21
14.4723282191
31
0.0000000000
11
11.9484180652
21
14.2134393100
31
0.0000000000
0
SPLINE
5
2DF
100
AcDbEntity
8
0
100
AcDbSpline
62
7
6
CONTINUOUS
70
0
71
3
72
10
73
6
74
4
42
0.0000001000
43
0.0000001000
44
0.0000000001
12
-0.1312400729
22
-0.2860404500
32
0.0000000000
13
0.1840858414
23
-0.3206787784
33
0.0000000000
40
0.0000000000
40
0.0000000000
40
0.0000000000
40
0.0000000000
40
0.0925971761
40
0.5245704340
40
1.0000000000
40
1.0000000000
40
1.0000000000
40
1.0000000000
10
7.3525447613
20
16.1294527511
30
0.0000000000
10
7.3484939412
20
16.1206239051
30
0.0000000000
10
7.3381501159
20
16.0413322060
30
0.0000000000
10
7.4270154691
20
15.9492237315
30
0.0000000000
10
7.4848110631
20
15.8532939960
30
0.0000000000
10
7.5139843470
20
15.8024739386
30
0.0000000000
11
7.3525447613
21
16.1294527511
31
0.0000000000
11
7.3466169903
21
16.0935959011
31
0.0000000000
11
7.4179772821
21
15.9504275149
31
0.0000000000
11
7.5139843470
21
15.8024739386
31
0.0000000000
0
SPLINE
5
2E0
100
AcDbEntity
8
0
100
AcDbSpline
62
7
6
CONTINUOUS
70
0
71
3
72
12
73
8
74
6
42
0.0000001000
43
0.0000001000
44
0.0000000001
12
0.9135541020
22
-1.5914174120
32
0.0000000000
13
1.0896028413
23
-1.4799465137
33
0.0000000000
40
0.0000000000
40
0.0000000000
40
0.0000000000
40
0.0000000000
40
0.0588387866
40
0.2773751933
40
0.5540094391
40
0.8812725686
40
1.0000000000
40
1.0000000000
40
1.0000000000
40
1.0000000000
10
7.5139843470
20
15.8024739386
30
0.0000000000
10
7.5319018186
20
15.7712615820
30
0.0000000000
10
7.6143964871
20
15.6231292317
30
0.0000000000
10
7.8136870853
20
15.3470406013
30
0.0000000000
10
8.0997180739
20
14.9328650630
30
0.0000000000
10
8.3603483518
20
14.5748615374
30
0.0000000000
10
8.5220745191
20
14.3546419897
30
0.0000000000
10
8.5651964346
20
14.2960719070
30
0.0000000000
11
7.5139843470
21
15.8024739386
31
0.0000000000
11
7.5676782620
21
15.7088614522
31
0.0000000000
11
7.7916364775
21
15.3754870055
31
0.0000000000
11
8.0837429322
21
14.9593977606
31
0.0000000000
11
8.4360297235
21
14.4719435476
31
0.0000000000
11
8.5651964346
21
14.2960719070
31
0.0000000000
0
SPLINE
5
2E1
100
AcDbEntity
8
0
100
AcDbSpline
62
7
6
CONTINUOUS
70
0
71
3
72
8
73
4
74
2
42
0.0000001000
43
0.0000001000
44
0.0000000001
12
0.1344334373
22
-0.1825934086
32
0.0000000000
13
0.1349021731
23
-0.1822298204
33
0.0000000000
40
0.0000000000
40
0.0000000000
40
0.0000000000
40
0.0000000000
40
1.0000000000
40
1.0000000000
40
1.0000000000
40
1.0000000000
10
8.5651964346
20
14.2960719070
30
0.0000000000
10
8.6100075804
20
14.2352074375
30
0.0000000000
10
8.6548929026
20
14.1744020411
30
0.0000000000
10
8.6998602936
20
14.1136587676
30
0.0000000000
11
8.5651964346
21
14.2960719070
31
0.0000000000
11
8.6998602936
21
14.1136587676
31
0.0000000000
0
SPLINE
5
2E2
100
AcDbEntity
8
0
100
AcDbSpline
62
7
6
CONTINUOUS
70
0
71
3
72
8
73
4
74
2
42
0.0000001000
43
0.0000001000
44
0.0000000001
12
0.0076608637
22
-0.0103485198
32
0.0000000000
13
0.0076624560
23
-0.0103473161
33
0.0000000000
40
0.0000000000
40
0.0000000000
40
0.0000000000
40
0.0000000000
40
1.0000000000
40
1.0000000000
40
1.0000000000
40
1.0000000000
10
8.6998602936
20
14.1136587676
30
0.0000000000
10
8.7024139149
20
14.1102092610
30
0.0000000000
10
8.7049678008
20
14.1067599547
30
0.0000000000
10
8.7075219528
20
14.1033108494
30
0.0000000000
11
8.6998602936
21
14.1136587676
31
0.0000000000
11
8.7075219528
21
14.1033108494
31
0.0000000000
0
SPLINE
5
2E3
100
AcDbEntity
8
0
100
AcDbSpline
62
7
6
CONTINUOUS
70
0
71
3
72
10
73
6
74
4
42
0.0000001000
43
0.0000001000
44
0.0000000001
12
0.7205037373
22
-0.9729621840
32
0.0000000000
13
0.7333542063
23
-0.9633852131
33
0.0000000000
40
0.0000000000
40
0.0000000000
40
0.0000000000
40
0.0000000000
40
0.1819899057
40
0.7902358736
40
1.0000000000
40
1.0000000000
40
1.0000000000
40
1.0000000000
10
8.7075219528
20
14.1033108494
30
0.0000000000
10
8.7512300885
20
14.0442877507
30
0.0000000000
10
8.9413577659
20
13.7882533346
30
0.0000000000
10
9.1839860130
20
13.4657263470
30
0.0000000000
10
9.3836485614
20
13.2028092042
30
0.0000000000
10
9.4349256962
20
13.1354479850
30
0.0000000000
11
8.7075219528
21
14.1033108494
31
0.0000000000
11
8.8388873861
21
13.9264208466
31
0.0000000000
11
9.2813270132
21
13.3377100948
31
0.0000000000
11
9.4349256962
21
13.1354479850
31
0.0000000000
0
SPLINE
5
2E4
100
AcDbEntity
8
0
100
AcDbSpline
62
7
6
CONTINUOUS
70
0
71
3
72
8
73
4
74
2
42
0.0000001000
43
0.0000001000
44
0.0000000001
12
0.3153893551
22
-0.4143174450
32
0.0000000000
13
0.3173103396
23
-0.4128462539
33
0.0000000000
40
0.0000000000
40
0.0000000000
40
0.0000000000
40
0.0000000000
40
1.0000000000
40
1.0000000000
40
1.0000000000
40
1.0000000000
10
9.4349256962
20
13.1354479850
30
0.0000000000
10
9.5400554812
20
12.9973421700
30
0.0000000000
10
9.6455098918
20
12.8594852049
30
0.0000000000
10
9.7512800051
20
12.7218697869
30
0.0000000000
11
9.4349256962
21
13.1354479850
31
0.0000000000
11
9.7512800051
21
12.7218697869
31
0.0000000000
0
SPLINE
5
2E5
100
AcDbEntity
8
0
100
AcDbSpline
62
7
6
CONTINUOUS
70
0
71
3
72
11
73
7
74
5
42
0.0000001000
43
0.0000001000
44
0.0000000001
12
-0.2924008429
22
-0.6372936776
32
0.0000000000
13
0.4773986648
23
-0.6743196164
33
0.0000000000
40
0.0000000000
40
0.0000000000
40
0.0000000000
40
0.0000000000
40
0.0389634013
40
0.2207307953
40
0.5436513168
40
1.0000000000
40
1.0000000000
40
1.0000000000
40
1.0000000000
10
-6.1913998165
20
5.2242992613
30
0.0000000000
10
-6.1951974602
20
5.2160222182
30
0.0000000000
10
-6.2048947965
20
5.1416862503
30
0.0000000000
10
-6.0972569320
20
5.0301201659
30
0.0000000000
10
-5.9782220578
20
4.7943794013
30
0.0000000000
10
-5.8523714165
20
4.6200313312
30
0.0000000000
10
-5.7797513325
20
4.5174563748
30
0.0000000000
11
-6.1913998165
21
5.2242992613
31
0.0000000000
11
-6.1969571018
21
5.1906834645
31
0.0000000000
11
-6.1300568281
21
5.0564631024
31
0.0000000000
11
-5.9897121595
21
4.8299949186
31
0.0000000000
11
-5.7797513325
21
4.5174563748
31
0.0000000000
0
SPLINE
5
2E6
100
AcDbEntity
8
0
100
AcDbSpline
62
7
6
CONTINUOUS
70
0
71
3
72
8
73
4
74
2
42
0.0000001000
43
0.0000001000
44
0.0000000001
12
0.0857009246
22
-0.1210514793
32
0.0000000000
13
0.0849922444
23
-0.1213363595
33
0.0000000000
40
0.0000000000
40
0.0000000000
40
0.0000000000
40
0.0000000000
40
1.0000000000
40
1.0000000000
40
1.0000000000
40
1.0000000000
10
-5.7797513325
20
4.5174563748
30
0.0000000000
10
-5.7511843576
20
4.4771058817
30
0.0000000000
10
-5.7227844211
20
4.4366819169
30
0.0000000000
10
-5.6944536729
20
4.3962364637
30
0.0000000000
11
-5.7797513325
21
4.5174563748
31
0.0000000000
11
-5.6944536729
21
4.3962364637
31
0.0000000000
0
SPLINE
5
2E7
100
AcDbEntity
8
0
100
AcDbSpline
62
7
6
CONTINUOUS
70
0
71
3
72
12
73
8
74
6
42
0.0000001000
43
0.0000001000
44
0.0000000001
12
1.6898178790
22
-2.4124124623
32
0.0000000000
13
1.7945189700
23
-2.3348134046
33
0.0000000000
40
0.0000000000
40
0.0000000000
40
0.0000000000
40
0.0000000000
40
0.1115538075
40
0.3030257631
40
0.5189229660
40
0.7533746959
40
1.0000000000
40
1.0000000000
40
1.0000000000
40
1.0000000000
10
-5.6944536729
20
4.3962364637
30
0.0000000000
10
-5.6316184668
20
4.3065318652
30
0.0000000000
10
-5.4618568740
20
4.0625703534
30
0.0000000000
10
-5.1619557627
20
3.6506241433
30
0.0000000000
10
-4.7878961761
20
3.1437564221
30
0.0000000000
10
-4.3765995385
20
2.5970176680
30
0.0000000000
10
-4.0901101210
20
2.2216315877
30
0.0000000000
10
-3.9425855254
20
2.0296902324
30
0.0000000000
11
-5.6944536729
21
4.3962364637
31
0.0000000000
11
-5.5059015312
21
4.1273727078
31
0.0000000000
11
-5.1756326643
21
3.6703843831
31
0.0000000000
11
-4.7979536056
21
3.1589568508
31
0.0000000000
11
-4.3831664552
21
2.6070405211
31
0.0000000000
11
-3.9425855254
21
2.0296902324
31
0.0000000000
0
SPLINE
5
2E8
100
AcDbEntity
8
0
100
AcDbSpline
62
7
6
CONTINUOUS
70
0
71
3
72
11
73
7
74
5
42
0.0000001000
43
0.0000001000
44
0.0000000001
12
-0.1639369206
22
-0.3573039050
32
0.0000000000
13
-0.3108092111
23
0.3324284548
33
0.0000000000
40
0.0000000000
40
0.0000000000
40
0.0000000000
40
0.0000000000
40
0.0162973689
40
0.2514130379
40
0.7571725119
40
1.0000000000
40
1.0000000000
40
1.0000000000
40
1.0000000000
10
13.2274108870
20
8.5568069708
30
0.0000000000
10
13.2265203068
20
8.5548659329
30
0.0000000000
10
13.2111226804
20
8.5287755864
30
0.0000000000
10
13.0842453326
20
8.6759315168
30
0.0000000000
10
12.9964656056
20
8.7487013620
30
0.0000000000
10
12.9205756725
20
8.8269988017
30
0.0000000000
10
12.8954179991
20
8.8539063906
30
0.0000000000
11
13.2274108870
21
8.5568069708
31
0.0000000000
11
13.2244117391
21
8.5517983713
31
0.0000000000
11
13.1354411124
21
8.6143505617
31
0.0000000000
11
12.9688536649
21
8.7786141312
31
0.0000000000
11
12.8954179991
21
8.8539063906
31
0.0000000000
0
SPLINE
5
2E9
100
AcDbEntity
8
0
100
AcDbSpline
62
7
6
CONTINUOUS
70
0
71
3
72
13
73
9
74
7
42
0.0000001000
43
0.0000001000
44
0.0000000001
12
-1.9398657754
22
2.0747988126
32
0.0000000000
13
-1.8010819847
23
2.2565238695
33
0.0000000000
40
0.0000000000
40
0.0000000000
40
0.0000000000
40
0.0000000000
40
0.0839525340
40
0.2454406622
40
0.4412174156
40
0.6659776653
40
0.9136134585
40
1.0000000000
40
1.0000000000
40
1.0000000000
40
1.0000000000
10
12.8954179991
20
8.8539063906
30
0.0000000000
10
12.8411324499
20
8.9119679299
30
0.0000000000
10
12.6750687562
20
9.1022610937
30
0.0000000000
10
12.4021200280
20
9.4130224964
30
0.0000000000
10
12.0394003794
20
9.8455108811
30
0.0000000000
10
11.6314679546
20
10.3407370604
30
0.0000000000
10
11.2932583238
20
10.7592631626
30
0.0000000000
10
11.0924053886
20
11.0102844211
30
0.0000000000
10
11.0405423074
20
11.0752621854
30
0.0000000000
11
12.8954179991
21
8.8539063906
31
0.0000000000
11
12.7291934677
21
9.0401083978
31
0.0000000000
11
12.4229978264
21
9.3917004795
31
0.0000000000
11
12.0586189597
21
9.8237998610
31
0.0000000000
11
11.6459961733
21
10.3246199975
31
0.0000000000
11
11.1963847413
21
10.8804998211
31
0.0000000000
11
11.0405423074
21
11.0752621854
31
0.0000000000
0
SPLINE
5
2EA
100
AcDbEntity
8
0
100
AcDbSpline
62
7
6
CONTINUOUS
70
0
71
3
72
9
73
5
74
3
42
0.0000001000
43
0.0000001000
44
0.0000000001
12
-0.8106978004
22
1.0156999809
32
0.0000000000
13
-0.7988601939
23
1.0250235686
33
0.0000000000
40
0.0000000000
40
0.0000000000
40
0.0000000000
40
0.0000000000
40
0.3940906666
40
1.0000000000
40
1.0000000000
40
1.0000000000
40
1.0000000000
10
11.0405423074
20
11.0752621854
30
0.0000000000
10
10.9340461619
20
11.2086881463
30
0.0000000000
10
10.6646964490
20
11.5478687308
30
0.0000000000
10
10.3972728850
20
11.8886746587
30
0.0000000000
10
10.2359272691
20
12.0956984412
30
0.0000000000
11
11.0405423074
21
11.0752621854
31
0.0000000000
11
10.7220488914
21
11.4762763795
31
0.0000000000
11
10.2359272691
21
12.0956984412
31
0.0000000000
0
SPLINE
5
2EB
100
AcDbEntity
8
0
100
AcDbSpline
62
7
6
CONTINUOUS
70
0
71
3
72
8
73
4
74
2
42
0.0000001000
43
0.0000001000
44
0.0000000001
12
-0.0120910777
22
0.0155141534
32
0.0000000000
13
-0.0120884981
23
0.0155161246
33
0.0000000000
40
0.0000000000
40
0.0000000000
40
0.0000000000
40
0.0000000000
40
1.0000000000
40
1.0000000000
40
1.0000000000
40
1.0000000000
10
10.2359272691
20
12.0956984412
30
0.0000000000
10
10.2318969099
20
12.1008698256
30
0.0000000000
10
10.2278669805
20
12.1060415385
30
0.0000000000
10
10.2238374811
20
12.1112135800
30
0.0000000000
11
10.2359272691
21
12.0956984412
31
0.0000000000
11
10.2238374811
21
12.1112135800
31
0.0000000000
0
SPLINE
5
2EC
100
AcDbEntity
8
0
100
AcDbSpline
62
7
6
CONTINUOUS
70
0
71
3
72
8
73
4
74
2
42
0.0000001000
43
0.0000001000
44
0.0000000001
12
-0.0815594746
22
0.1046852110
32
0.0000000000
13
-0.0814418056
23
0.1047752562
33
0.0000000000
40
0.0000000000
40
0.0000000000
40
0.0000000000
40
0.0000000000
40
1.0000000000
40
1.0000000000
40
1.0000000000
40
1.0000000000
10
10.2238374811
20
12.1112135800
30
0.0000000000
10
10.1966509896
20
12.1461086503
30
0.0000000000
10
10.1694840737
20
12.1810186828
30
0.0000000000
10
10.1423368052
20
12.2159437682
30
0.0000000000
11
10.2238374811
21
12.1112135800
31
0.0000000000
11
10.1423368052
21
12.2159437682
31
0.0000000000
0
SPLINE
5
2ED
100
AcDbEntity
8
0
100
AcDbSpline
62
7
6
CONTINUOUS
70
0
71
3
72
8
73
4
74
2
42
0.0000001000
43
0.0000001000
44
0.0000000001
12
-0.3924333674
22
0.5048673264
32
0.0000000000
13
-0.3896722189
23
0.5069948745
33
0.0000000000
40
0.0000000000
40
0.0000000000
40
0.0000000000
40
0.0000000000
40
1.0000000000
40
1.0000000000
40
1.0000000000
40
1.0000000000
10
10.1423368052
20
12.2159437682
30
0.0000000000
10
10.0115256827
20
12.3842328770
30
0.0000000000
10
9.8811707447
20
12.5528714954
30
0.0000000000
10
9.7512800051
20
12.7218697869
30
0.0000000000
11
10.1423368052
21
12.2159437682
31
0.0000000000
11
9.7512800051
21
12.7218697869
31
0.0000000000
0
SPLINE
5
2EE
100
AcDbEntity
8
0
100
AcDbSpline
62
7
6
CONTINUOUS
70
0
71
3
72
12
73
8
74
6
42
0.0000001000
43
0.0000001000
44
0.0000000001
12
-0.2809493197
22
-0.6123348461
32
0.0000000000
13
-0.5250695787
23
0.6002640275
33
0.0000000000
40
0.0000000000
40
0.0000000000
40
0.0000000000
40
0.0000000000
40
0.0089153328
40
0.1375332990
40
0.4142045867
40
0.8336778559
40
1.0000000000
40
1.0000000000
40
1.0000000000
40
1.0000000000
10
-0.6837128236
20
-1.8750561577
30
0.0000000000
10
-0.6845477425
20
-1.8768758807
30
0.0000000000
10
-0.6989830172
20
-1.9013355805
30
0.0000000000
10
-0.8179305308
20
-1.7633768958
30
0.0000000000
10
-0.9440582444
20
-1.6588163724
30
0.0000000000
10
-1.1064643616
20
-1.4725432732
30
0.0000000000
10
-1.2102542197
20
-1.3540064229
30
0.0000000000
10
-1.2393644524
20
-1.3207273562
30
0.0000000000
11
-0.6837128236
21
-1.8750561577
31
0.0000000000
11
-0.6865245248
21
-1.8797517197
31
0.0000000000
11
-0.7699344872
21
-1.8211090412
31
0.0000000000
11
-0.9261102193
21
-1.6671119448
31
0.0000000000
11
-1.1507916541
21
-1.4219610699
31
0.0000000000
11
-1.2393644524
21
-1.3207273562
31
0.0000000000
0
SPLINE
5
2EF
100
AcDbEntity
8
0
100
AcDbSpline
62
7
6
CONTINUOUS
70
0
71
3
72
8
73
4
74
2
42
0.0000001000
43
0.0000001000
44
0.0000000001
12
-0.0972042068
22
0.1111246795
32
0.0000000000
13
-0.0952318187
23
0.1094297172
33
0.0000000000
40
0.0000000000
40
0.0000000000
40
0.0000000000
40
0.0000000000
40
1.0000000000
40
1.0000000000
40
1.0000000000
40
1.0000000000
10
-1.2393644524
20
-1.3207273562
30
0.0000000000
10
-1.2717658547
20
-1.2836857963
30
0.0000000000
10
-1.3037233158
20
-1.2471107384
30
0.0000000000
10
-1.3354672554
20
-1.2106341660
30
0.0000000000
11
-1.2393644524
21
-1.3207273562
31
0.0000000000
11
-1.3354672554
21
-1.2106341660
31
0.0000000000
0
SPLINE
5
2F0
100
AcDbEntity
8
0
100
AcDbSpline
62
7
6
CONTINUOUS
70
0
71
3
72
14
73
10
74
8
42
0.0000001000
43
0.0000001000
44
0.0000000001
12
-2.7003738712
22
3.1029665634
32
0.0000000000
13
-2.5359607666
23
3.2994887712
33
0.0000000000
40
0.0000000000
40
0.0000000000
40
0.0000000000
40
0.0000000000
40
0.0380834822
40
0.1654188258
40
0.3116053526
40
0.4726703833
40
0.6442315484
40
0.8216182250
40
1.0000000000
40
1.0000000000
40
1.0000000000
40
1.0000000000
10
-1.3354672554
20
-1.2106341660
30
0.0000000000
10
-1.3697471355
20
-1.1712435754
30
0.0000000000
10
-1.5175631426
20
-1.0006460725
30
0.0000000000
10
-1.7974726745
20
-0.6668962417
30
0.0000000000
10
-2.1799093227
20
-0.2026216987
30
0.0000000000
10
-2.5976360122
20
0.3143048086
30
0.0000000000
10
-3.0381413868
20
0.8677446878
30
0.0000000000
10
-3.4897266468
20
1.4432472023
30
0.0000000000
10
-3.7917957978
20
1.8335006779
30
0.0000000000
10
-3.9425855254
20
2.0296902324
30
0.0000000000
11
-1.3354672554
21
-1.2106341660
31
0.0000000000
11
-1.4378500679
21
-1.0923434933
31
0.0000000000
11
-1.7794552554
21
-0.6872503231
31
0.0000000000
11
-2.1662891176
21
-0.2177314452
31
0.0000000000
11
-2.5877998352
21
0.3034058895
31
0.0000000000
11
-3.0324896944
21
0.8619464130
31
0.0000000000
11
-3.4882287153
21
1.4426545958
31
0.0000000000
11
-3.9425855254
21
2.0296902324
31
0.0000000000
0
SPLINE
5
2F1
100
AcDbEntity
8
0
100
AcDbSpline
62
7
6
CONTINUOUS
70
0
71
3
72
13
73
9
74
7
42
0.0000001000
43
0.0000001000
44
0.0000000001
12
1.0564754477
22
-1.3545211301
32
0.0000000000
13
0.4273060413
23
1.2309249481
33
0.0000000000
40
0.0000000000
40
0.0000000000
40
0.0000000000
40
0.0000000000
40
0.2931243572
40
0.5589026111
40
0.7758616097
40
0.9265386980
40
0.9991455966
40
1.0000000000
40
1.0000000000
40
1.0000000000
40
1.0000000000
10
-27.0234669096
20
-29.9507509597
30
0.0000000000
10
-26.9202406807
20
-30.0830986716
30
0.0000000000
10
-26.7205147861
20
-30.3378152991
30
0.0000000000
10
-26.4468801139
20
-30.6696542116
30
0.0000000000
10
-26.1985911282
20
-30.9841090570
30
0.0000000000
10
-26.0655866358
20
-31.0956761349
30
0.0000000000
10
-25.9306397289
20
-31.2920316780
30
0.0000000000
10
-25.9197934169
20
-31.2629165546
30
0.0000000000
10
-25.9196717197
20
-31.2625659858
30
0.0000000000
11
-27.0234669096
21
-29.9507509597
31
0.0000000000
11
-26.7114603001
21
-30.3459673764
31
0.0000000000
11
-26.4239115709
21
-30.7005930514
31
0.0000000000
11
-26.1841162101
21
-30.9858983215
31
0.0000000000
11
-26.0115010115
21
-31.1787694506
31
0.0000000000
11
-25.9200502321
21
-31.2635811668
31
0.0000000000
11
-25.9196717197
21
-31.2625659858
31
0.0000000000
0
SPLINE
5
2F2
100
AcDbEntity
8
0
100
AcDbSpline
62
7
6
CONTINUOUS
70
0
71
3
72
13
73
9
74
7
42
0.0000001000
43
0.0000001000
44
0.0000000001
12
-1.1541515714
22
1.4797529788
32
0.0000000000
13
0.4560931337
23
1.3732743273
33
0.0000000000
40
0.0000000000
40
0.0000000000
40
0.0000000000
40
0.0000000000
40
0.2716507345
40
0.5246652226
40
0.7385930454
40
0.8961846089
40
0.9849056592
40
1.0000000000
40
1.0000000000
40
1.0000000000
40
1.0000000000
10
-27.0234669096
20
-29.9507509597
30
0.0000000000
10
-27.1279756169
20
-29.8167589652
30
0.0000000000
10
-27.3293823326
20
-29.5574085743
30
0.0000000000
10
-27.6030286876
20
-29.1858275583
30
0.0000000000
10
-27.8449043022
20
-28.8768649727
30
0.0000000000
10
-27.9824866782
20
-28.6251392977
30
0.0000000000
10
-28.1138780501
20
-28.5120922158
30
0.0000000000
10
-28.1094507248
20
-28.4345459373
30
0.0000000000
10
-28.1071559164
20
-28.4276363804
30
0.0000000000
11
-27.0234669096
21
-29.9507509597
31
0.0000000000
11
-27.3346544796
21
-29.5469618850
31
0.0000000000
11
-27.6198124438
21
-29.1673127416
31
0.0000000000
11
-27.8558389999
21
-28.8425604453
31
0.0000000000
11
-28.0236126800
21
-28.5990144957
31
0.0000000000
11
-28.1095414583
21
-28.4564055373
31
0.0000000000
11
-28.1071559164
21
-28.4276363804
31
0.0000000000
0
SPLINE
5
2F3
100
AcDbEntity
8
0
100
AcDbSpline
62
7
6
CONTINUOUS
70
0
71
3
72
14
73
10
74
8
42
0.0000001000
43
0.0000001000
44
0.0000000001
12
2.0600629235
22
-2.6412338925
32
0.0000000000
13
0.8428255669
23
2.4532498022
33
0.0000000000
40
0.0000000000
40
0.0000000000
40
0.0000000000
40
0.0000000000
40
0.2485293016
40
0.4800353451
40
0.6810956607
40
0.8400751023
40
0.9478412748
40
0.9985567244
40
1.0000000000
40
1.0000000000
40
1.0000000000
40
1.0000000000
10
0.5798409402
20
-8.5910460175
30
0.0000000000
10
0.7505029401
20
-8.8098540225
30
0.0000000000
10
1.0814086041
20
-9.2293527396
30
0.0000000000
10
1.5611385357
20
-9.8282313236
30
0.0000000000
10
1.9726638563
20
-10.3189615800
30
0.0000000000
10
2.3353217862
20
-10.7646788674
30
0.0000000000
10
2.5250912795
20
-10.9260368208
30
0.0000000000
10
2.7170279669
20
-11.1847599658
30
0.0000000000
10
2.7329267055
20
-11.1451549913
30
0.0000000000
10
2.7333321820
20
-11.1439747528
30
0.0000000000
11
0.5798409402
21
-8.5910460175
31
0.0000000000
11
1.0950752549
21
-9.2449234923
31
0.0000000000
11
1.5815084774
21
-9.8488422444
31
0.0000000000
11
2.0108708770
21
-10.3677047112
31
0.0000000000
11
2.3582094716
21
-10.7713564920
31
0.0000000000
11
2.6033382047
21
-11.0363388126
31
0.0000000000
11
2.7320110853
21
-11.1472518637
31
0.0000000000
11
2.7333321820
21
-11.1439747528
31
0.0000000000
0
SPLINE
5
2F4
100
AcDbEntity
8
0
100
AcDbSpline
62
7
6
CONTINUOUS
70
0
71
3
72
14
73
10
74
8
42
0.0000001000
43
0.0000001000
44
0.0000000001
12
-2.2464317690
22
2.8801798517
32
0.0000000000
13
0.9190739310
23
2.6751893013
33
0.0000000000
40
0.0000000000
40
0.0000000000
40
0.0000000000
40
0.0000000000
40
0.2302997599
40
0.4496269351
40
0.6452613712
40
0.8058712831
40
0.9221938509
40
0.9876819688
40
1.0000000000
40
1.0000000000
40
1.0000000000
40
1.0000000000
10
0.5798409402
20
-8.5910460175
30
0.0000000000
10
0.4073900412
20
-8.3699444414
30
0.0000000000
10
0.0732168746
20
-7.9363682499
30
0.0000000000
10
-0.4025967814
20
-7.3109874738
30
0.0000000000
10
-0.8133945697
20
-6.7436614946
30
0.0000000000
10
-1.1634719109
20
-6.2855981729
30
0.0000000000
10
-1.3629717313
20
-5.9181009219
30
0.0000000000
10
-1.5430935600
20
-5.7531151420
30
0.0000000000
10
-1.5381079635
20
-5.6375913678
30
0.0000000000
10
-1.5343342363
20
-5.6266070127
30
0.0000000000
11
0.5798409402
21
-8.5910460175
31
0.0000000000
11
0.0657490789
21
-7.9252108023
31
0.0000000000
11
-0.4173231786
21
-7.2861137689
31
0.0000000000
11
-0.8413014287
21
-6.7108969141
31
0.0000000000
11
-1.1815455966
21
-6.2329897506
31
0.0000000000
11
-1.4182819279
21
-5.8801665055
31
0.0000000000
11
-1.5377521676
21
-5.6729319835
31
0.0000000000
11
-1.5343342363
21
-5.6266070127
31
0.0000000000
0
SPLINE
5
2F5
100
AcDbEntity
8
0
100
AcDbSpline
62
7
6
CONTINUOUS
70
0
71
3
72
12
73
8
74
6
42
0.0000001000
43
0.0000001000
44
0.0000000001
12
0.3541994073
22
-0.4992904178
32
0.0000000000
13
-0.5054297762
23
-0.0871277071
33
0.0000000000
40
0.0000000000
40
0.0000000000
40
0.0000000000
40
0.0000000000
40
0.1032295056
40
0.5512490439
40
0.8509953405
40
0.9926244912
40
1.0000000000
40
1.0000000000
40
1.0000000000
40
1.0000000000
10
13.6212542379
20
12.3991267398
30
0.0000000000
10
13.6334421812
20
12.3819462388
30
0.0000000000
10
13.6992008624
20
12.2894278879
30
0.0000000000
10
13.8081303436
20
12.1385945283
30
0.0000000000
10
13.8631808267
20
12.0198200343
30
0.0000000000
10
13.9595229553
20
11.8980591623
30
0.0000000000
10
13.9365803663
20
11.8921766654
30
0.0000000000
10
13.9353377657
20
11.8919624617
30
0.0000000000
11
13.6212542379
21
12.3991267398
31
0.0000000000
11
13.6582391610
21
12.3471134941
31
0.0000000000
11
13.8093649895
21
12.1240438964
31
0.0000000000
11
13.9040707741
21
11.9706557447
31
0.0000000000
11
13.9387170244
21
11.8928436597
31
0.0000000000
11
13.9353377657
21
11.8919624617
31
0.0000000000
0
SPLINE
5
2F6
100
AcDbEntity
8
0
100
AcDbSpline
62
7
6
CONTINUOUS
70
0
71
3
72
9
73
5
74
3
42
0.0000001000
43
0.0000001000
44
0.0000000001
12
-0.0673442980
22
0.0696648196
32
0.0000000000
13
-0.0687840516
23
0.0682280336
33
0.0000000000
40
0.0000000000
40
0.0000000000
40
0.0000000000
40
0.0000000000
40
0.1707496408
40
1.0000000000
40
1.0000000000
40
1.0000000000
40
1.0000000000
10
11.0132534244
20
15.7350500971
30
0.0000000000
10
11.0094204195
20
15.7390151780
30
0.0000000000
10
10.9868613191
20
15.7621086180
30
0.0000000000
10
10.9636092953
20
15.7844003568
30
0.0000000000
10
10.9445962288
20
15.8032597306
30
0.0000000000
11
11.0132534244
21
15.7350500971
31
0.0000000000
11
11.0016963004
21
15.7468781972
31
0.0000000000
11
10.9445962288
21
15.8032597306
31
0.0000000000
0
SPLINE
5
2F7
100
AcDbEntity
8
0
100
AcDbSpline
62
7
6
CONTINUOUS
70
0
71
3
72
10
73
6
74
4
42
0.0000001000
43
0.0000001000
44
0.0000000001
12
-0.1912194976
22
0.1896737689
32
0.0000000000
13
-0.2276008045
23
-0.0392346022
33
0.0000000000
40
0.0000000000
40
0.0000000000
40
0.0000000000
40
0.0000000000
40
0.4826401970
40
0.9175850017
40
1.0000000000
40
1.0000000000
40
1.0000000000
40
1.0000000000
10
10.9445962288
20
15.8032597306
30
0.0000000000
10
10.9138328234
20
15.8337744590
30
0.0000000000
10
10.8566834029
20
15.8936495846
30
0.0000000000
10
10.8096055869
20
15.9781970697
30
0.0000000000
10
10.7533519242
20
15.9836649396
30
0.0000000000
10
10.7470993509
20
15.9825870997
30
0.0000000000
11
10.9445962288
21
15.8032597306
31
0.0000000000
11
10.8575727174
21
15.9016600331
31
0.0000000000
11
10.7704648120
21
15.9809516453
31
0.0000000000
11
10.7470993509
21
15.9825870997
31
0.0000000000
0
SPLINE
5
2F8
100
AcDbEntity
8
0
100
AcDbSpline
62
7
6
CONTINUOUS
70
0
71
3
72
8
73
4
74
2
42
0.0000001000
43
0.0000001000
44
0.0000000001
12
-0.0149775080
22
0.0111726123
32
0.0000000000
13
-0.0145718539
23
0.0117527204
33
0.0000000000
40
0.0000000000
40
0.0000000000
40
0.0000000000
40
0.0000000000
40
1.0000000000
40
1.0000000000
40
1.0000000000
40
1.0000000000
10
11.1490434194
20
15.5171095937
30
0.0000000000
10
11.1440509167
20
15.5208337978
30
0.0000000000
10
11.1391286124
20
15.5246679147
30
0.0000000000
10
11.1342713278
20
15.5285854881
30
0.0000000000
11
11.1490434194
21
15.5171095937
31
0.0000000000
11
11.1342713278
21
15.5285854881
31
0.0000000000
0
SPLINE
5
2F9
100
AcDbEntity
8
0
100
AcDbSpline
62
7
6
CONTINUOUS
70
0
71
3
72
9
73
5
74
3
42
0.0000001000
43
0.0000001000
44
0.0000000001
12
-0.0660917120
22
0.0533053252
32
0.0000000000
13
-0.0601266460
23
0.0599750260
33
0.0000000000
40
0.0000000000
40
0.0000000000
40
0.0000000000
40
0.0000000000
40
0.4719186046
40
1.0000000000
40
1.0000000000
40
1.0000000000
40
1.0000000000
10
11.1342713278
20
15.5285854881
30
0.0000000000
10
11.1238746916
20
15.5369707464
30
0.0000000000
10
11.1024753345
20
15.5555493880
30
0.0000000000
10
11.0821854990
20
15.5746799467
30
0.0000000000
10
11.0716015780
20
15.5852371785
30
0.0000000000
11
11.1342713278
21
15.5285854881
31
0.0000000000
11
11.1039242805
21
15.5546288755
31
0.0000000000
11
11.0716015780
21
15.5852371785
31
0.0000000000
0
SPLINE
5
2FA
100
AcDbEntity
8
0
100
AcDbSpline
62
7
6
CONTINUOUS
70
0
71
3
72
12
73
8
74
6
42
0.0000001000
43
0.0000001000
44
0.0000000001
12
-0.1074239350
22
0.1071530465
32
0.0000000000
13
0.1005942739
23
0.0461100504
33
0.0000000000
40
0.0000000000
40
0.0000000000
40
0.0000000000
40
0.0000000000
40
0.1446528774
40
0.5526513107
40
0.8505848643
40
0.9891976364
40
1.0000000000
40
1.0000000000
40
1.0000000000
40
1.0000000000
10
11.0716015780
20
15.5852371785
30
0.0000000000
10
11.0664218509
20
15.5904038440
30
0.0000000000
10
11.0467521799
20
15.6105593773
30
0.0000000000
10
11.0167117806
20
15.6448196864
30
0.0000000000
10
10.9951845668
20
15.6719012548
30
0.0000000000
10
10.9792490308
20
15.7019036266
30
0.0000000000
10
10.9836499635
20
15.7046788123
30
0.0000000000
10
10.9840121821
20
15.7048448448
30
0.0000000000
11
11.0716015780
21
15.5852371785
31
0.0000000000
11
11.0561354134
21
15.6010991780
31
0.0000000000
11
11.0151419891
21
15.6473164878
31
0.0000000000
11
10.9890632582
21
15.6841268999
31
0.0000000000
11
10.9830644331
21
15.7042396608
31
0.0000000000
11
10.9840121821
21
15.7048448448
31
0.0000000000
0
SPLINE
5
2FB
100
AcDbEntity
8
0
100
AcDbSpline
62
7
6
CONTINUOUS
70
0
71
3
72
8
73
4
74
2
42
0.0000001000
43
0.0000001000
44
0.0000000001
12
-0.0132910819
22
0.0099146070
32
0.0000000000
13
-0.0111594938
23
0.0126036224
33
0.0000000000
40
0.0000000000
40
0.0000000000
40
0.0000000000
40
0.0000000000
40
1.0000000000
40
1.0000000000
40
1.0000000000
40
1.0000000000
10
14.4714422888
20
18.8751841873
30
0.0000000000
10
14.4670119282
20
18.8784890563
30
0.0000000000
10
14.4628958751
20
18.8823004026
30
0.0000000000
10
14.4591760438
20
18.8865016101
30
0.0000000000
11
14.4714422888
21
18.8751841873
31
0.0000000000
11
14.4591760438
21
18.8865016101
31
0.0000000000
0
SPLINE
5
2FC
100
AcDbEntity
8
0
100
AcDbSpline
62
7
6
CONTINUOUS
70
0
71
3
72
8
73
4
74
2
42
0.0000001000
43
0.0000001000
44
0.0000000001
12
-0.0062109121
22
0.0070146543
32
0.0000000000
13
-0.0054321506
23
0.0076789154
33
0.0000000000
40
0.0000000000
40
0.0000000000
40
0.0000000000
40
0.0000000000
40
1.0000000000
40
1.0000000000
40
1.0000000000
40
1.0000000000
10
14.4591760438
20
18.8865016101
30
0.0000000000
10
14.4571057398
20
18.8888398282
30
0.0000000000
10
14.4551581684
20
18.8912988087
30
0.0000000000
10
14.4533474515
20
18.8938584471
30
0.0000000000
11
14.4591760438
21
18.8865016101
31
0.0000000000
11
14.4533474515
21
18.8938584471
31
0.0000000000
0
SPLINE
5
2FD
100
AcDbEntity
8
0
100
AcDbSpline
62
7
6
CONTINUOUS
70
0
71
3
72
9
73
5
74
3
42
0.0000001000
43
0.0000001000
44
0.0000000001
12
0.0426955407
22
-0.0318491384
32
0.0000000000
13
0.0353875051
23
0.0162208005
33
0.0000000000
40
0.0000000000
40
0.0000000000
40
0.0000000000
40
0.0000000000
40
0.7438494345
40
1.0000000000
40
1.0000000000
40
1.0000000000
40
1.0000000000
10
11.8131583526
20
14.5797041476
30
0.0000000000
10
11.8237447039
20
14.5718071597
30
0.0000000000
10
11.8342115692
20
14.5600024591
30
0.0000000000
10
11.8579713271
20
14.5560083980
30
0.0000000000
10
11.8609928370
20
14.5573933870
30
0.0000000000
11
11.8131583526
21
14.5797041476
31
0.0000000000
11
11.8466713643
21
14.5585670404
31
0.0000000000
11
11.8609928370
21
14.5573933870
31
0.0000000000
0
SPLINE
5
2FE
100
AcDbEntity
8
0
100
AcDbSpline
62
7
6
CONTINUOUS
70
0
71
3
72
9
73
5
74
3
42
0.0000001000
43
0.0000001000
44
0.0000000001
12
0.4008421244
22
-0.2818183240
32
0.0000000000
13
0.3290844043
23
-0.3622988731
33
0.0000000000
40
0.0000000000
40
0.0000000000
40
0.0000000000
40
0.0000000000
40
0.3610483435
40
1.0000000000
40
1.0000000000
40
1.0000000000
40
1.0000000000
10
-8.0563752934
20
3.4211022761
30
0.0000000000
10
-8.0081341650
20
3.3871855964
30
0.0000000000
10
-7.8922153508
20
3.2704387021
30
0.0000000000
10
-7.7807799643
20
3.1515413607
30
0.0000000000
10
-7.7106902892
20
3.0743775389
30
0.0000000000
11
-8.0563752934
21
3.4211022761
31
0.0000000000
11
-7.9250140146
21
3.3026027274
31
0.0000000000
11
-7.7106902892
21
3.0743775389
31
0.0000000000
0
SPLINE
5
2FF
100
AcDbEntity
8
0
100
AcDbSpline
62
7
6
CONTINUOUS
70
0
71
3
72
8
73
4
74
2
42
0.0000001000
43
0.0000001000
44
0.0000000001
12
0.0858111282
22
-0.0944720402
32
0.0000000000
13
0.0848050317
23
-0.0955326128
33
0.0000000000
40
0.0000000000
40
0.0000000000
40
0.0000000000
40
0.0000000000
40
1.0000000000
40
1.0000000000
40
1.0000000000
40
1.0000000000
10
-7.7106902892
20
3.0743775389
30
0.0000000000
10
-7.6820865798
20
3.0428868589
30
0.0000000000
10
-7.6536680955
20
3.0111972937
30
0.0000000000
10
-7.6253997515
20
2.9793530895
30
0.0000000000
11
-7.7106902892
21
3.0743775389
31
0.0000000000
11
-7.6253997515
21
2.9793530895
31
0.0000000000
0
SPLINE
5
300
100
AcDbEntity
8
0
100
AcDbSpline
62
7
6
CONTINUOUS
70
0
71
3
72
11
73
7
74
5
42
0.0000001000
43
0.0000001000
44
0.0000000001
12
0.3983789726
22
-0.5669309445
32
0.0000000000
13
-0.6084984102
23
-0.1319144067
33
0.0000000000
40
0.0000000000
40
0.0000000000
40
0.0000000000
40
0.0000000000
40
0.4247494169
40
0.8116469877
40
0.9899559777
40
1.0000000000
40
1.0000000000
40
1.0000000000
40
1.0000000000
10
-3.2059308119
20
-2.7048224664
30
0.0000000000
10
-3.1495270664
20
-2.7850903292
30
0.0000000000
10
-3.0456387798
20
-2.9375558613
30
0.0000000000
10
-2.9808813562
20
-3.0863257469
30
0.0000000000
10
-2.8456453294
20
-3.2553806803
30
0.0000000000
10
-2.8808186730
20
-3.2661643938
30
0.0000000000
10
-2.8828559302
20
-3.2666060443
30
0.0000000000
11
-3.2059308119
21
-2.7048224664
31
0.0000000000
11
-3.0547046220
21
-2.9363156873
31
0.0000000000
11
-2.9222994795
21
-3.1557037449
31
0.0000000000
11
-2.8772933338
21
-3.2648875611
31
0.0000000000
11
-2.8828559302
21
-3.2666060443
31
0.0000000000
0
SPLINE
5
301
100
AcDbEntity
8
0
100
AcDbSpline
62
7
6
CONTINUOUS
70
0
71
3
72
8
73
4
74
2
42
0.0000001000
43
0.0000001000
44
0.0000000001
12
-0.0309240929
22
0.0217416671
32
0.0000000000
13
-0.0345018391
23
-0.0077163328
33
0.0000000000
40
0.0000000000
40
0.0000000000
40
0.0000000000
40
0.0000000000
40
1.0000000000
40
1.0000000000
40
1.0000000000
40
1.0000000000
10
-8.0563752934
20
3.4211022761
30
0.0000000000
10
-8.0666833243
20
3.4283494985
30
0.0000000000
10
-8.0834885156
20
3.4300761585
30
0.0000000000
10
-8.0949891287
20
3.4275040476
30
0.0000000000
11
-8.0563752934
21
3.4211022761
31
0.0000000000
11
-8.0949891287
21
3.4275040476
31
0.0000000000
0
SPLINE
5
302
100
AcDbEntity
8
0
100
AcDbSpline
62
7
6
CONTINUOUS
70
0
71
3
72
16
73
12
74
10
42
0.0000001000
43
0.0000001000
44
0.0000000001
12
-1.7281677920
22
2.2484851894
32
0.0000000000
13
-0.4398067331
23
-1.4913343271
33
0.0000000000
40
0.0000000000
40
0.0000000000
40
0.0000000000
40
0.0000000000
40
0.1842297386
40
0.3654664732
40
0.5358033894
40
0.6878130363
40
0.8148762400
40
0.9114827171
40
0.9735157168
40
0.9987993140
40
1.0000000000
40
1.0000000000
40
1.0000000000
40
1.0000000000
10
21.3001165221
20
20.4844736785
30
0.0000000000
10
21.1939898886
20
20.6225529580
30
0.0000000000
10
20.9823339551
20
20.8955091826
30
0.0000000000
10
20.6683794668
20
21.2933862955
30
0.0000000000
10
20.3709134949
20
21.6636452572
30
0.0000000000
10
20.0989012260
20
21.9944135299
30
0.0000000000
10
19.8764177011
20
22.2586712931
30
0.0000000000
10
19.6813222001
20
22.4786877832
30
0.0000000000
10
19.5936007218
20
22.5714327088
30
0.0000000000
10
19.4925987632
20
22.6672053076
30
0.0000000000
10
19.4876500138
20
22.6557019169
30
0.0000000000
10
19.4874739905
20
22.6551050422
30
0.0000000000
11
21.3001165221
21
20.4844736785
31
0.0000000000
11
20.9799679832
21
20.8973461299
31
0.0000000000
11
20.6615491385
21
21.3007952990
31
0.0000000000
11
20.3587764195
21
21.6771885213
31
0.0000000000
11
20.0848824469
21
22.0100756068
31
0.0000000000
11
19.8518377016
21
22.2849077924
31
0.0000000000
11
19.6698273572
21
22.4896735929
31
0.0000000000
11
19.5468061391
21
22.6154237602
31
0.0000000000
11
19.4881506649
21
22.6566624085
31
0.0000000000
11
19.4874739905
21
22.6551050422
31
0.0000000000
0
SPLINE
5
303
100
AcDbEntity
8
0
100
AcDbSpline
62
7
6
CONTINUOUS
70
0
71
3
72
14
73
10
74
8
42
0.0000001000
43
0.0000001000
44
0.0000000001
12
0.9190739310
22
2.6751893013
32
0.0000000000
13
-2.2464317690
23
2.8801798517
33
0.0000000000
40
0.0000000000
40
0.0000000000
40
0.0000000000
40
0.0000000000
40
0.0123180312
40
0.0778061491
40
0.1941287169
40
0.3547386288
40
0.5503730649
40
0.7697002401
40
1.0000000000
40
1.0000000000
40
1.0000000000
40
1.0000000000
10
2.7333321820
20
-11.1439747528
30
0.0000000000
10
2.7371059091
20
-11.1329903977
30
0.0000000000
10
2.7420915057
20
-11.0174666235
30
0.0000000000
10
2.5619696770
20
-10.8524808436
30
0.0000000000
10
2.3624698566
20
-10.4849835926
30
0.0000000000
10
2.0123925154
20
-10.0269202709
30
0.0000000000
10
1.6015947271
20
-9.4595942917
30
0.0000000000
10
1.1257810711
20
-8.8342135156
30
0.0000000000
10
0.7916079045
20
-8.4006373241
30
0.0000000000
10
0.6191570055
20
-8.1795357480
30
0.0000000000
11
2.7333321820
21
-11.1439747528
31
0.0000000000
11
2.7367501133
21
-11.0976497820
31
0.0000000000
11
2.6172798736
21
-10.8904152600
31
0.0000000000
11
2.3805435422
21
-10.5375920149
31
0.0000000000
11
2.0402993744
21
-10.0596848514
31
0.0000000000
11
1.6163211243
21
-9.4844679966
31
0.0000000000
11
1.1332488668
21
-8.8453709632
31
0.0000000000
11
0.6191570055
21
-8.1795357480
31
0.0000000000
0
SPLINE
5
304
100
AcDbEntity
8
0
100
AcDbSpline
62
7
6
CONTINUOUS
70
0
71
3
72
8
73
4
74
2
42
0.0000001000
43
0.0000001000
44
0.0000000001
12
-0.0344789316
22
-0.0074745763
32
0.0000000000
13
-0.0306999109
23
0.0215840525
33
0.0000000000
40
0.0000000000
40
0.0000000000
40
0.0000000000
40
0.0000000000
40
1.0000000000
40
1.0000000000
40
1.0000000000
40
1.0000000000
10
-2.8828559302
20
-3.2666060443
30
0.0000000000
10
-2.8943489074
20
-3.2690975697
30
0.0000000000
10
-2.9109855114
20
-3.2673436961
30
0.0000000000
10
-2.9212188151
20
-3.2601490120
30
0.0000000000
11
-2.8828559302
21
-3.2666060443
31
0.0000000000
11
-2.9212188151
21
-3.2601490120
31
0.0000000000
0
SPLINE
5
305
100
AcDbEntity
8
0
100
AcDbSpline
62
7
6
CONTINUOUS
70
0
71
3
72
9
73
5
74
3
42
0.0000001000
43
0.0000001000
44
0.0000000001
12
-0.0625024228
22
0.0214316354
32
0.0000000000
13
-0.0510047991
23
0.0418006227
33
0.0000000000
40
0.0000000000
40
0.0000000000
40
0.0000000000
40
0.0000000000
40
0.4967031108
40
1.0000000000
40
1.0000000000
40
1.0000000000
40
1.0000000000
10
7.6723823669
20
4.6205532521
30
0.0000000000
10
7.6620339842
20
4.6241016388
30
0.0000000000
10
7.6433649254
20
4.6365073782
30
0.0000000000
10
7.6259872146
20
4.6500040600
30
0.0000000000
10
7.6174303624
20
4.6570167678
30
0.0000000000
11
7.6723823669
21
4.6205532521
31
0.0000000000
11
7.6438066187
21
4.6366947283
31
0.0000000000
11
7.6174303624
21
4.6570167678
31
0.0000000000
0
SPLINE
5
306
100
AcDbEntity
8
0
100
AcDbSpline
62
7
6
CONTINUOUS
70
0
71
3
72
8
73
4
74
2
42
0.0000001000
43
0.0000001000
44
0.0000000001
12
-0.0218663698
22
-0.0077693293
32
0.0000000000
13
-0.0175873350
23
0.0123650509
33
0.0000000000
40
0.0000000000
40
0.0000000000
40
0.0000000000
40
0.0000000000
40
1.0000000000
40
1.0000000000
40
1.0000000000
40
1.0000000000
10
-14.8204534843
20
-10.7051177756
30
0.0000000000
10
-14.8277422743
20
-10.7077075521
30
0.0000000000
10
-14.8364960665
20
-10.7083850890
30
0.0000000000
10
-14.8423585115
20
-10.7042634054
30
0.0000000000
11
-14.8204534843
21
-10.7051177756
31
0.0000000000
11
-14.8423585115
21
-10.7042634054
31
0.0000000000
0
SPLINE
5
307
100
AcDbEntity
8
0
100
AcDbSpline
62
7
6
CONTINUOUS
70
0
71
3
72
8
73
4
74
2
42
0.0000001000
43
0.0000001000
44
0.0000000001
12
-0.0321930747
22
-0.0057402178
32
0.0000000000
13
-0.0276519367
23
0.0194411266
33
0.0000000000
40
0.0000000000
40
0.0000000000
40
0.0000000000
40
0.0000000000
40
1.0000000000
40
1.0000000000
40
1.0000000000
40
1.0000000000
10
-10.9269549924
20
-9.2013256176
30
0.0000000000
10
-10.9376860173
20
-9.2032390235
30
0.0000000000
10
-10.9524229561
20
-9.2014486111
30
0.0000000000
10
-10.9616402683
20
-9.1949682356
30
0.0000000000
11
-10.9269549924
21
-9.2013256176
31
0.0000000000
11
-10.9616402683
21
-9.1949682356
31
0.0000000000
0
SPLINE
5
308
100
AcDbEntity
8
0
100
AcDbSpline
62
7
6
CONTINUOUS
70
0
71
3
72
11
73
7
74
5
42
0.0000001000
43
0.0000001000
44
0.0000000001
12
0.9227068094
22
-1.2005157165
32
0.0000000000
13
0.9607626311
23
-1.1575863208
33
0.0000000000
40
0.0000000000
40
0.0000000000
40
0.0000000000
40
0.0000000000
40
0.2760399272
40
0.5475952982
40
0.8028189678
40
1.0000000000
40
1.0000000000
40
1.0000000000
40
1.0000000000
10
12.1167611337
20
14.0950830832
30
0.0000000000
10
12.2016624405
20
13.9846196595
30
0.0000000000
10
12.3709871873
20
13.7662546799
30
0.0000000000
10
12.6221507780
20
13.4479529896
30
0.0000000000
10
12.8504783764
20
13.1637512740
30
0.0000000000
10
12.9964567743
20
12.9859814785
30
0.0000000000
10
13.0596048301
20
12.9098967900
30
0.0000000000
11
12.1167611337
21
14.0950830832
31
0.0000000000
11
12.3728799648
21
13.7647851221
31
0.0000000000
11
12.6276150406
21
13.4420257867
31
0.0000000000
11
12.8698332158
21
13.1409112089
31
0.0000000000
11
13.0596048301
21
12.9098967900
31
0.0000000000
0
SPLINE
5
309
100
AcDbEntity
8
0
100
AcDbSpline
62
7
6
CONTINUOUS
70
0
71
3
72
13
73
9
74
7
42
0.0000001000
43
0.0000001000
44
0.0000000001
12
0.4787923980
22
-0.5768787342
32
0.0000000000
13
0.1170228945
23
0.3968112503
33
0.0000000000
40
0.0000000000
40
0.0000000000
40
0.0000000000
40
0.0000000000
40
0.0613670655
40
0.4434000190
40
0.7338606455
40
0.9203713693
40
0.9963899729
40
1.0000000000
40
1.0000000000
40
1.0000000000
40
1.0000000000
10
13.0596048301
20
12.9098967900
30
0.0000000000
10
13.0693988582
20
12.8980963383
30
0.0000000000
10
13.1400815122
20
12.8130763683
30
0.0000000000
10
13.2557201905
20
12.6757249914
30
0.0000000000
10
13.4117965913
20
12.4997117994
30
0.0000000000
10
13.4819737740
20
12.4255158589
30
0.0000000000
10
13.5627753409
20
12.3488977799
30
0.0000000000
10
13.5667343404
20
12.3581004924
30
0.0000000000
10
13.5668751590
20
12.3585779922
30
0.0000000000
11
13.0596048301
21
12.9098967900
31
0.0000000000
11
13.0889483939
21
12.8746015405
31
0.0000000000
11
13.2753841901
21
12.6547357920
31
0.0000000000
11
13.4209924657
21
12.4909231517
31
0.0000000000
11
13.5194094401
21
12.3903230178
31
0.0000000000
11
13.5663338194
21
12.3573320991
31
0.0000000000
11
13.5668751590
21
12.3585779922
31
0.0000000000
0
SPLINE
5
30A
100
AcDbEntity
8
0
100
AcDbSpline
62
7
6
CONTINUOUS
70
0
71
3
72
9
73
5
74
3
42
0.0000001000
43
0.0000001000
44
0.0000000001
12
-0.1126330842
22
0.1035418219
32
0.0000000000
13
-0.1065496118
23
0.1097941351
33
0.0000000000
40
0.0000000000
40
0.0000000000
40
0.0000000000
40
0.0000000000
40
0.5550531153
40
1.0000000000
40
1.0000000000
40
1.0000000000
40
1.0000000000
10
7.5760465040
20
4.6932573942
30
0.0000000000
10
7.5552073892
20
4.7124144645
30
0.0000000000
10
7.5185824610
20
4.7479250227
30
0.0000000000
10
7.4827935402
20
4.7842593820
30
0.0000000000
10
7.4669905676
20
4.8005435681
30
0.0000000000
11
7.5760465040
21
4.6932573942
31
0.0000000000
11
7.5148073887
21
4.7520887563
31
0.0000000000
11
7.4669905676
21
4.8005435681
31
0.0000000000
0
SPLINE
5
30B
100
AcDbEntity
8
0
100
AcDbSpline
62
7
6
CONTINUOUS
70
0
71
3
72
13
73
9
74
7
42
0.0000001000
43
0.0000001000
44
0.0000000001
12
-1.2299448260
22
1.6002570687
32
0.0000000000
13
-1.0714200033
23
1.7302391075
33
0.0000000000
40
0.0000000000
40
0.0000000000
40
0.0000000000
40
0.0000000000
40
0.2317946141
40
0.4499656531
40
0.6471010436
40
0.8165114931
40
0.9524663155
40
1.0000000000
40
1.0000000000
40
1.0000000000
40
1.0000000000
10
8.0258363123
20
11.0154490006
30
0.0000000000
10
7.9308047836
20
11.1390926571
30
0.0000000000
10
7.7471813043
20
11.3797465955
30
0.0000000000
10
7.4861323882
20
11.7282601670
30
0.0000000000
10
7.2526607243
20
12.0445392000
30
0.0000000000
10
7.0570241661
20
12.3212865572
30
0.0000000000
10
6.9188171540
20
12.5119277867
30
0.0000000000
10
6.8544403070
20
12.6203849491
30
0.0000000000
10
6.8374641268
20
12.6477998291
30
0.0000000000
11
8.0258363123
21
11.0154490006
31
0.0000000000
11
7.7421794273
21
11.3874805569
31
0.0000000000
11
7.4781188542
21
11.7398568606
31
0.0000000000
11
7.2426468591
21
12.0605781592
31
0.0000000000
11
7.0437821584
21
12.3387226736
31
0.0000000000
11
6.8882968510
21
12.5648185260
31
0.0000000000
11
6.8374641268
21
12.6477998291
31
0.0000000000
0
SPLINE
5
30C
100
AcDbEntity
8
0
100
AcDbSpline
62
9
6
CONTINUOUS
70
0
71
3
72
8
73
4
74
2
42
0.0000001000
43
0.0000001000
44
0.0000000001
12
-0.0318296214
22
0.0255975956
32
0.0000000000
13
-0.0301276417
23
0.0271883699
33
0.0000000000
40
0.0000000000
40
0.0000000000
40
0.0000000000
40
0.0000000000
40
1.0000000000
40
1.0000000000
40
1.0000000000
40
1.0000000000
10
14.4572748853
20
18.8861730826
30
0.0000000000
10
14.4466650115
20
18.8947056145
30
0.0000000000
10
14.4363656972
20
18.9036406791
30
0.0000000000
10
14.4263231500
20
18.9127034691
30
0.0000000000
11
14.4572748853
21
18.8861730826
31
0.0000000000
11
14.4263231500
21
18.9127034691
31
0.0000000000
0
SPLINE
5
30D
100
AcDbEntity
8
0
100
AcDbSpline
62
9
6
CONTINUOUS
70
0
71
3
72
8
73
4
74
2
42
0.0000001000
43
0.0000001000
44
0.0000000001
12
-0.0329483990
22
0.0297339324
32
0.0000000000
13
-0.0316357538
23
0.0315428804
33
0.0000000000
40
0.0000000000
40
0.0000000000
40
0.0000000000
40
0.0000000000
40
1.0000000000
40
1.0000000000
40
1.0000000000
40
1.0000000000
10
14.4263231500
20
18.9127034691
30
0.0000000000
10
14.4153403503
20
18.9226147798
30
0.0000000000
10
14.4046646491
20
18.9326788527
30
0.0000000000
10
14.3941193978
20
18.9431931462
30
0.0000000000
11
14.4263231500
21
18.9127034691
31
0.0000000000
11
14.3941193978
21
18.9431931462
31
0.0000000000
0
SPLINE
5
30E
100
AcDbEntity
8
0
100
AcDbSpline
62
9
6
CONTINUOUS
70
0
71
3
72
9
73
5
74
3
42
0.0000001000
43
0.0000001000
44
0.0000000001
12
-0.0306739012
22
0.0305838515
32
0.0000000000
13
-0.0297549076
23
0.0329824348
33
0.0000000000
40
0.0000000000
40
0.0000000000
40
0.0000000000
40
0.0000000000
40
0.5105180210
40
1.0000000000
40
1.0000000000
40
1.0000000000
40
1.0000000000
10
14.3941193978
20
18.9431931462
30
0.0000000000
10
14.3888995380
20
18.9483976820
30
0.0000000000
10
14.3787375133
20
18.9588083809
30
0.0000000000
10
14.3686159227
20
18.9697807630
30
0.0000000000
10
14.3637610923
20
18.9751621988
30
0.0000000000
11
14.3941193978
21
18.9431931462
31
0.0000000000
11
14.3785342828
21
18.9591737715
31
0.0000000000
11
14.3637610923
21
18.9751621988
31
0.0000000000
0
SPLINE
5
30F
100
AcDbEntity
8
0
100
AcDbSpline
62
9
6
CONTINUOUS
70
0
71
3
72
11
73
7
74
5
42
0.0000001000
43
0.0000001000
44
0.0000000001
12
-0.0745908807
22
0.0826817847
32
0.0000000000
13
0.0722357883
23
0.0328168369
33
0.0000000000
40
0.0000000000
40
0.0000000000
40
0.0000000000
40
0.0000000000
40
0.3747795395
40
0.7910394937
40
0.9847033005
40
1.0000000000
40
1.0000000000
40
1.0000000000
40
1.0000000000
10
14.3637610923
20
18.9751621988
30
0.0000000000
10
14.3544427137
20
18.9854913459
30
0.0000000000
10
14.3355483580
20
19.0073756985
30
0.0000000000
10
14.3175834362
20
19.0299758484
30
0.0000000000
10
14.3016426964
20
19.0599880175
30
0.0000000000
10
14.3060574478
20
19.0627588255
30
0.0000000000
10
14.3064257708
20
19.0629261552
30
0.0000000000
11
14.3637610923
21
18.9751621988
31
0.0000000000
11
14.3375408586
21
19.0053910813
31
0.0000000000
11
14.3114621276
21
19.0422014934
31
0.0000000000
11
14.3054633026
21
19.0623142543
31
0.0000000000
11
14.3064257708
21
19.0629261552
31
0.0000000000
0
SPLINE
5
310
100
AcDbEntity
8
0
100
AcDbSpline
62
9
6
CONTINUOUS
70
0
71
3
72
9
73
5
74
3
42
0.0000001000
43
0.0000001000
44
0.0000000001
12
-0.0195042265
22
0.0275713837
32
0.0000000000
13
-0.0072524869
23
0.0326388935
33
0.0000000000
40
0.0000000000
40
0.0000000000
40
0.0000000000
40
0.0000000000
40
0.7061320765
40
1.0000000000
40
1.0000000000
40
1.0000000000
40
1.0000000000
10
15.0002655367
20
18.1218776260
30
0.0000000000
10
14.9956746834
20
18.1283673055
30
0.0000000000
10
14.9904191138
20
18.1384740902
30
0.0000000000
10
14.9873894447
20
18.1492214101
30
0.0000000000
10
14.9866790203
20
18.1524185847
30
0.0000000000
11
15.0002655367
21
18.1218776260
31
0.0000000000
11
14.9893623150
21
18.1429601405
31
0.0000000000
11
14.9866790203
21
18.1524185847
31
0.0000000000
0
SPLINE
5
311
100
AcDbEntity
8
0
100
AcDbSpline
62
9
6
CONTINUOUS
70
0
71
3
72
8
73
4
74
2
42
0.0000001000
43
0.0000001000
44
0.0000000001
12
-0.0094262336
22
0.0424215641
32
0.0000000000
13
0.0084886001
23
0.0427197700
33
0.0000000000
40
0.0000000000
40
0.0000000000
40
0.0000000000
40
0.0000000000
40
1.0000000000
40
1.0000000000
40
1.0000000000
40
1.0000000000
10
14.9866790203
20
18.1524185847
30
0.0000000000
10
14.9835369424
20
18.1665591061
30
0.0000000000
10
14.9839139098
20
18.1814602114
30
0.0000000000
10
14.9867434431
20
18.1957001347
30
0.0000000000
11
14.9866790203
21
18.1524185847
31
0.0000000000
11
14.9867434431
21
18.1957001347
31
0.0000000000
0
SPLINE
5
312
100
AcDbEntity
8
0
100
AcDbSpline
62
9
6
CONTINUOUS
70
0
71
3
72
8
73
4
74
2
42
0.0000001000
43
0.0000001000
44
0.0000000001
12
0.0038005702
22
0.0191267680
32
0.0000000000
13
0.0065471138
23
0.0182619831
33
0.0000000000
40
0.0000000000
40
0.0000000000
40
0.0000000000
40
0.0000000000
40
1.0000000000
40
1.0000000000
40
1.0000000000
40
1.0000000000
10
14.9867434431
20
18.1957001347
30
0.0000000000
10
14.9880102999
20
18.2020757240
30
0.0000000000
10
14.9897687953
20
18.2083187735
30
0.0000000000
10
14.9919511666
20
18.2144061012
30
0.0000000000
11
14.9867434431
21
18.1957001347
31
0.0000000000
11
14.9919511666
21
18.2144061012
31
0.0000000000
0
SPLINE
5
313
100
AcDbEntity
8
0
100
AcDbSpline
62
9
6
CONTINUOUS
70
0
71
3
72
10
73
6
74
4
42
0.0000001000
43
0.0000001000
44
0.0000000001
12
0.0439092774
22
0.1224769425
32
0.0000000000
13
0.1131803649
23
0.0637919027
33
0.0000000000
40
0.0000000000
40
0.0000000000
40
0.0000000000
40
0.0000000000
40
0.3177515754
40
0.8275518048
40
1.0000000000
40
1.0000000000
40
1.0000000000
40
1.0000000000
10
14.9919511666
20
18.2144061012
30
0.0000000000
10
14.9966019139
20
18.2273785150
30
0.0000000000
10
15.0137277377
20
18.2593220420
30
0.0000000000
10
15.0448249179
20
18.2902868103
30
0.0000000000
10
15.0697576116
20
18.3062380265
30
0.0000000000
10
15.0762635282
20
18.3099049593
30
0.0000000000
11
14.9919511666
21
18.2144061012
31
0.0000000000
11
15.0110225533
21
18.2509774116
31
0.0000000000
11
15.0573908700
21
18.2978436285
31
0.0000000000
11
15.0762635282
21
18.3099049593
31
0.0000000000
0
SPLINE
5
314
100
AcDbEntity
8
0
100
AcDbSpline
62
9
6
CONTINUOUS
70
0
71
3
72
10
73
6
74
4
42
0.0000001000
43
0.0000001000
44
0.0000000001
12
0.1379132561
22
0.0777321139
32
0.0000000000
13
0.1263090756
23
-0.0942214377
33
0.0000000000
40
0.0000000000
40
0.0000000000
40
0.0000000000
40
0.0000000000
40
0.2777158503
40
0.6629631403
40
1.0000000000
40
1.0000000000
40
1.0000000000
40
1.0000000000
10
15.0762635282
20
18.3099049593
30
0.0000000000
10
15.0890304273
20
18.3171007727
30
0.0000000000
10
15.1213811815
20
18.3309235712
30
0.0000000000
10
15.1747396252
20
18.3374599725
30
0.0000000000
10
15.2125475213
20
18.3244034645
30
0.0000000000
10
15.2267377927
20
18.3138180987
30
0.0000000000
11
15.0762635282
21
18.3099049593
31
0.0000000000
11
15.1166645794
21
18.3270163564
31
0.0000000000
11
15.1771037963
21
18.3327175789
31
0.0000000000
11
15.2267377927
21
18.3138180987
31
0.0000000000
0
SPLINE
5
315
100
AcDbEntity
8
0
100
AcDbSpline
62
7
6
CONTINUOUS
70
0
71
3
72
16
73
12
74
10
42
0.0000001000
43
0.0000001000
44
0.0000000001
12
-0.6012769804
22
-1.2361975403
32
0.0000000000
13
-1.7268096752
23
2.2467181702
33
0.0000000000
40
0.0000000000
40
0.0000000000
40
0.0000000000
40
0.0000000000
40
0.0004151413
40
0.0257186238
40
0.0878004117
40
0.1844828688
40
0.3116460063
40
0.4637752071
40
0.6342460914
40
0.8156253667
40
1.0000000000
40
1.0000000000
40
1.0000000000
40
1.0000000000
10
20.4210721250
20
17.0518317525
30
0.0000000000
10
20.4209889200
20
17.0516606869
30
0.0000000000
10
20.4154593991
20
17.0416549044
30
0.0000000000
10
20.3153541524
20
17.1365772184
30
0.0000000000
10
20.2276326741
20
17.2293221440
30
0.0000000000
10
20.0325371731
20
17.4493386341
30
0.0000000000
10
19.8100536482
20
17.7135963974
30
0.0000000000
10
19.5380413792
20
18.0443646701
30
0.0000000000
10
19.2405754074
20
18.4146236318
30
0.0000000000
10
18.9266209191
20
18.8125007446
30
0.0000000000
10
18.7149649856
20
19.0854569692
30
0.0000000000
10
18.6088383520
20
19.2235362488
30
0.0000000000
11
20.4210721250
21
17.0518317525
31
0.0000000000
11
20.4208042092
21
17.0513475187
31
0.0000000000
11
20.3621487351
21
17.0925861671
31
0.0000000000
11
20.2391275170
21
17.2183363344
31
0.0000000000
11
20.0571171726
21
17.4231021349
31
0.0000000000
11
19.8240724273
21
17.6979343205
31
0.0000000000
11
19.5501784547
21
18.0308214059
31
0.0000000000
11
19.2474057357
21
18.4072146282
31
0.0000000000
11
18.9289868910
21
18.8106637974
31
0.0000000000
11
18.6088383520
21
19.2235362488
31
0.0000000000
0
SPLINE
5
316
100
AcDbEntity
8
0
100
AcDbSpline
62
9
6
CONTINUOUS
70
0
71
3
72
8
73
4
74
2
42
0.0000001000
43
0.0000001000
44
0.0000000001
12
0.0206883477
22
-0.0154326667
32
0.0000000000
13
0.0151924000
23
-0.0214760531
33
0.0000000000
40
0.0000000000
40
0.0000000000
40
0.0000000000
40
0.0000000000
40
1.0000000000
40
1.0000000000
40
1.0000000000
40
1.0000000000
10
15.2267377927
20
18.3138180987
30
0.0000000000
10
15.2336339086
20
18.3086738765
30
0.0000000000
10
15.2397684967
20
18.3023025232
30
0.0000000000
10
15.2448326300
20
18.2951438388
30
0.0000000000
11
15.2267377927
21
18.3138180987
31
0.0000000000
11
15.2448326300
21
18.2951438388
31
0.0000000000
0
SPLINE
5
317
100
AcDbEntity
8
0
100
AcDbSpline
62
9
6
CONTINUOUS
70
0
71
3
72
8
73
4
74
2
42
0.0000001000
43
0.0000001000
44
0.0000000001
12
0.0132910819
22
-0.0099146070
32
0.0000000000
13
0.0111594938
23
-0.0126036224
33
0.0000000000
40
0.0000000000
40
0.0000000000
40
0.0000000000
40
0.0000000000
40
1.0000000000
40
1.0000000000
40
1.0000000000
40
1.0000000000
10
14.6798196124
20
19.0857990544
30
0.0000000000
10
14.6842499731
20
19.0824941854
30
0.0000000000
10
14.6883660262
20
19.0786828390
30
0.0000000000
10
14.6920858574
20
19.0744816315
30
0.0000000000
11
14.6798196124
21
19.0857990544
31
0.0000000000
11
14.6920858574
21
19.0744816315
31
0.0000000000
0
SPLINE
5
318
100
AcDbEntity
8
0
100
AcDbSpline
62
9
6
CONTINUOUS
70
0
71
3
72
8
73
4
74
2
42
0.0000001000
43
0.0000001000
44
0.0000000001
12
0.0062109121
22
-0.0070146543
32
0.0000000000
13
0.0054321506
23
-0.0076789154
33
0.0000000000
40
0.0000000000
40
0.0000000000
40
0.0000000000
40
0.0000000000
40
1.0000000000
40
1.0000000000
40
1.0000000000
40
1.0000000000
10
14.6920858574
20
19.0744816315
30
0.0000000000
10
14.6941561615
20
19.0721434135
30
0.0000000000
10
14.6961037328
20
19.0696844330
30
0.0000000000
10
14.6979144497
20
19.0671247945
30
0.0000000000
11
14.6920858574
21
19.0744816315
31
0.0000000000
11
14.6979144497
21
19.0671247945
31
0.0000000000
0
SPLINE
5
319
100
AcDbEntity
8
0
100
AcDbSpline
62
7
6
CONTINUOUS
70
0
71
3
72
8
73
4
74
2
42
0.0000001000
43
0.0000001000
44
0.0000000001
12
-0.0777971665
22
0.0932415227
32
0.0000000000
13
-0.0783348073
23
0.0928435164
33
0.0000000000
40
0.0000000000
40
0.0000000000
40
0.0000000000
40
0.0000000000
40
1.0000000000
40
1.0000000000
40
1.0000000000
40
1.0000000000
10
11.0519796969
20
15.7741782939
30
0.0000000000
10
11.0260473080
20
15.8052588015
30
0.0000000000
10
11.0000347100
20
15.8362793310
30
0.0000000000
10
10.9739231075
20
15.8672271698
30
0.0000000000
11
11.0519796969
21
15.7741782939
31
0.0000000000
11
10.9739231075
21
15.8672271698
31
0.0000000000
0
SPLINE
5
31A
100
AcDbEntity
8
0
100
AcDbSpline
62
7
6
CONTINUOUS
70
0
71
3
72
8
73
4
74
2
42
0.0000001000
43
0.0000001000
44
0.0000000001
12
-0.0941656553
22
0.1116064604
32
0.0000000000
13
-0.0947187452
23
0.1111504439
33
0.0000000000
40
0.0000000000
40
0.0000000000
40
0.0000000000
40
0.0000000000
40
1.0000000000
40
1.0000000000
40
1.0000000000
40
1.0000000000
10
10.9739231075
20
15.8672271698
30
0.0000000000
10
10.9425345558
20
15.9044293233
30
0.0000000000
10
10.9110029402
20
15.9415264367
30
0.0000000000
10
10.8794300251
20
15.9785765847
30
0.0000000000
11
10.9739231075
21
15.8672271698
31
0.0000000000
11
10.8794300251
21
15.9785765847
31
0.0000000000
0
SPLINE
5
31B
100
AcDbEntity
8
0
100
AcDbSpline
62
7
6
CONTINUOUS
70
0
71
3
72
8
73
4
74
2
42
0.0000001000
43
0.0000001000
44
0.0000000001
12
-0.0619267246
22
0.0726697014
32
0.0000000000
13
-0.0619473266
23
0.0725979387
33
0.0000000000
40
0.0000000000
40
0.0000000000
40
0.0000000000
40
0.0000000000
40
1.0000000000
40
1.0000000000
40
1.0000000000
40
1.0000000000
10
10.8794300251
20
15.9785765847
30
0.0000000000
10
10.8587877836
20
16.0027998185
30
0.0000000000
10
10.8381278886
20
16.0270029769
30
0.0000000000
10
10.8174787797
20
16.0512022898
30
0.0000000000
11
10.8794300251
21
15.9785765847
31
0.0000000000
11
10.8174787797
21
16.0512022898
31
0.0000000000
0
SPLINE
5
31C
100
AcDbEntity
8
0
100
AcDbSpline
62
7
6
CONTINUOUS
70
0
71
3
72
12
73
8
74
6
42
0.0000001000
43
0.0000001000
44
0.0000000001
12
-0.5851598906
22
0.6857665078
32
0.0000000000
13
-0.6869407913
23
-0.0735004635
33
0.0000000000
40
0.0000000000
40
0.0000000000
40
0.0000000000
40
0.0000000000
40
0.1902379219
40
0.5549982806
40
0.8156474726
40
0.9649892751
40
1.0000000000
40
1.0000000000
40
1.0000000000
40
1.0000000000
10
10.8174787797
20
16.0512022898
30
0.0000000000
10
10.7803722459
20
16.0946885550
30
0.0000000000
10
10.6722196161
20
16.2215187371
30
0.0000000000
10
10.5157741816
20
16.4089361080
30
0.0000000000
10
10.3409574020
20
16.5693087745
30
0.0000000000
10
10.2707131974
20
16.6782832942
30
0.0000000000
10
10.2021099615
20
16.6961473980
30
0.0000000000
10
10.1940931965
20
16.6952896299
30
0.0000000000
11
10.8174787797
21
16.0512022898
31
0.0000000000
11
10.7064287026
21
16.1817180108
31
0.0000000000
11
10.4886065601
21
16.4280125800
31
0.0000000000
11
10.3270750958
21
16.5986273416
31
0.0000000000
11
10.2267423614
21
16.6883782523
31
0.0000000000
11
10.1940931965
21
16.6952896299
31
0.0000000000
0
SPLINE
5
31D
100
AcDbEntity
8
0
100
AcDbSpline
62
7
6
CONTINUOUS
70
0
71
3
72
15
73
11
74
9
42
0.0000001000
43
0.0000001000
44
0.0000000001
12
-1.9096504035
22
2.4846086526
32
0.0000000000
13
0.6764946372
23
2.0906479981
33
0.0000000000
40
0.0000000000
40
0.0000000000
40
0.0000000000
40
0.0000000000
40
0.2067113171
40
0.4012733135
40
0.5770760015
40
0.7281539604
40
0.8493966412
40
0.9367441844
40
0.9874278650
40
1.0000000000
40
1.0000000000
40
1.0000000000
40
1.0000000000
10
-5.8928204185
20
0.3645315765
30
0.0000000000
10
-6.0244025352
20
0.5357304856
30
0.0000000000
10
-6.2786504296
20
0.8689436310
30
0.0000000000
10
-6.6401027750
20
1.3515008839
30
0.0000000000
10
-6.9633712327
20
1.7894256988
30
0.0000000000
10
-7.2342526210
20
2.1726143472
30
0.0000000000
10
-7.4529532156
20
2.4742875374
30
0.0000000000
10
-7.5896792614
20
2.7178586825
30
0.0000000000
10
-7.6874999952
20
2.8262039706
30
0.0000000000
10
-7.6958349836
20
2.9126365995
30
0.0000000000
10
-7.6929999896
20
2.9213979024
30
0.0000000000
11
-5.8928204185
21
0.3645315765
31
0.0000000000
11
-6.2855761055
21
0.8796521930
31
0.0000000000
11
-6.6511984375
21
1.3675578442
31
0.0000000000
11
-6.9772365846
21
1.8116334885
31
0.0000000000
11
-7.2525877086
21
2.1967566623
31
0.0000000000
11
-7.4678750573
21
2.5098124578
31
0.0000000000
11
-7.6157672783
21
2.7401401355
31
0.0000000000
11
-7.6912280793
21
2.8798961625
31
0.0000000000
11
-7.6929999896
21
2.9213979024
31
0.0000000000
0
SPLINE
5
31E
100
AcDbEntity
8
0
100
AcDbSpline
62
9
6
CONTINUOUS
70
0
71
3
72
9
73
5
74
3
42
0.0000001000
43
0.0000001000
44
0.0000000001
12
0.0426778108
22
-0.0318359126
32
0.0000000000
13
0.0354890139
23
0.0161227171
33
0.0000000000
40
0.0000000000
40
0.0000000000
40
0.0000000000
40
0.0000000000
40
0.7441584566
40
1.0000000000
40
1.0000000000
40
1.0000000000
40
1.0000000000
10
15.1355572220
20
17.9377787411
30
0.0000000000
10
15.1461435733
20
17.9298817533
30
0.0000000000
10
15.1566060921
20
17.9180819547
30
0.0000000000
10
15.1803504657
20
17.9140863100
30
0.0000000000
10
15.1833769871
20
17.9154612636
30
0.0000000000
11
15.1355572220
21
17.9377787411
31
0.0000000000
11
15.1690702338
21
17.9166416339
31
0.0000000000
11
15.1833769871
21
17.9154612636
31
0.0000000000
0
SPLINE
5
31F
100
AcDbEntity
8
0
100
AcDbSpline
62
9
6
CONTINUOUS
70
0
71
3
72
11
73
7
74
5
42
0.0000001000
43
0.0000001000
44
0.0000000001
12
-0.0585832368
22
-0.0266144604
32
0.0000000000
13
0.0570443533
23
-0.0658651733
33
0.0000000000
40
0.0000000000
40
0.0000000000
40
0.0000000000
40
0.0000000000
40
0.0188615244
40
0.2576577828
40
0.7709251878
40
1.0000000000
40
1.0000000000
40
1.0000000000
40
1.0000000000
10
14.9705407041
20
18.1255207091
30
0.0000000000
10
14.9701723810
20
18.1253533793
30
0.0000000000
10
14.9657576296
20
18.1225825714
30
0.0000000000
10
14.9816983694
20
18.0925704022
30
0.0000000000
10
14.9962151794
20
18.0743080304
30
0.0000000000
10
15.0097836970
20
18.0583305037
30
0.0000000000
10
15.0141395052
20
18.0533011529
30
0.0000000000
11
14.9705407041
21
18.1255207091
31
0.0000000000
11
14.9695782358
21
18.1249088082
31
0.0000000000
11
14.9755770609
21
18.1047960473
31
0.0000000000
11
15.0016557918
21
18.0679856352
31
0.0000000000
11
15.0141395052
21
18.0533011529
31
0.0000000000
0
SPLINE
5
320
100
AcDbEntity
8
0
100
AcDbSpline
62
9
6
CONTINUOUS
70
0
71
3
72
10
73
6
74
4
42
0.0000001000
43
0.0000001000
44
0.0000000001
12
0.1083761863
22
-0.1251344940
32
0.0000000000
13
0.1338451897
23
-0.0998430726
33
0.0000000000
40
0.0000000000
40
0.0000000000
40
0.0000000000
40
0.0000000000
40
0.2493910993
40
0.6485814141
40
1.0000000000
40
1.0000000000
40
1.0000000000
40
1.0000000000
10
15.0141395052
20
18.0533011529
30
0.0000000000
10
15.0231488572
20
18.0428986766
30
0.0000000000
10
15.0484569704
20
18.0147445363
30
0.0000000000
10
15.0878689363
20
17.9767706745
30
0.0000000000
10
15.1198786596
20
17.9494743116
30
0.0000000000
10
15.1355572220
20
17.9377787411
30
0.0000000000
11
15.0141395052
21
18.0533011529
31
0.0000000000
11
15.0426492160
21
18.0217683254
31
0.0000000000
11
15.0904380832
21
17.9752980229
31
0.0000000000
11
15.1355572220
21
17.9377787411
31
0.0000000000
0
SPLINE
5
321
100
AcDbEntity
8
0
100
AcDbSpline
62
7
6
CONTINUOUS
70
0
71
3
72
15
73
11
74
9
42
0.0000001000
43
0.0000001000
44
0.0000000001
12
-2.1177885957
22
-0.6585084806
32
0.0000000000
13
-1.3782936197
23
1.7932707719
33
0.0000000000
40
0.0000000000
40
0.0000000000
40
0.0000000000
40
0.0000000000
40
0.0061972289
40
0.0546172384
40
0.1442546696
40
0.2708373732
40
0.4280863781
40
0.6081506100
40
0.8020231247
40
1.0000000000
40
1.0000000000
40
1.0000000000
40
1.0000000000
10
19.2443688958
20
16.7819529269
30
0.0000000000
10
19.2399940889
20
16.7805926176
30
0.0000000000
10
19.1939384989
20
16.7739779490
30
0.0000000000
10
19.1352921583
20
16.8958606099
30
0.0000000000
10
18.9896836534
20
17.0145159640
30
0.0000000000
10
18.8122681914
20
17.2419965770
30
0.0000000000
10
18.5874554360
20
17.5066326151
30
0.0000000000
10
18.3367197978
20
17.8200116685
30
0.0000000000
10
18.0691356344
20
18.1577754496
30
0.0000000000
10
17.8880768446
20
18.3912961976
30
0.0000000000
10
17.7971200899
20
18.5096382456
30
0.0000000000
11
19.2443688958
21
16.7819529269
31
0.0000000000
11
19.2298496270
21
16.7797708165
31
0.0000000000
11
19.1496092468
21
16.8543012718
31
0.0000000000
11
19.0128046452
21
17.0039240679
31
0.0000000000
11
18.8262957763
21
17.2211364929
31
0.0000000000
11
18.5994349735
21
17.4950466088
31
0.0000000000
11
18.3435979848
21
17.8119194188
31
0.0000000000
11
18.0716135451
21
18.1558655969
31
0.0000000000
11
17.7971200899
21
18.5096382456
31
0.0000000000
0
SPLINE
5
322
100
AcDbEntity
8
0
100
AcDbSpline
62
7
6
CONTINUOUS
70
0
71
3
72
16
73
12
74
10
42
0.0000001000
43
0.0000001000
44
0.0000000001
12
-0.4398067331
22
-1.4913343271
32
0.0000000000
13
-1.7281677920
23
2.2484851894
33
0.0000000000
40
0.0000000000
40
0.0000000000
40
0.0000000000
40
0.0000000000
40
0.0012006860
40
0.0264842832
40
0.0885172829
40
0.1851237600
40
0.3121869637
40
0.4641966106
40
0.6345335268
40
0.8157702614
40
1.0000000000
40
1.0000000000
40
1.0000000000
40
1.0000000000
10
22.5516154922
20
18.7083630710
30
0.0000000000
10
22.5514394690
20
18.7077661962
30
0.0000000000
10
22.5464907196
20
18.6962628055
30
0.0000000000
10
22.4454887610
20
18.7920354043
30
0.0000000000
10
22.3577672827
20
18.8847803299
30
0.0000000000
10
22.1626717816
20
19.1047968200
30
0.0000000000
10
21.9401882568
20
19.3690545833
30
0.0000000000
10
21.6681759878
20
19.6998228560
30
0.0000000000
10
21.3707100160
20
20.0700818177
30
0.0000000000
10
21.0567555277
20
20.4679589305
30
0.0000000000
10
20.8450995941
20
20.7409151551
30
0.0000000000
10
20.7389729606
20
20.8789944347
30
0.0000000000
11
22.5516154922
21
18.7083630710
31
0.0000000000
11
22.5509388178
21
18.7068057046
31
0.0000000000
11
22.4922833436
21
18.7480443530
31
0.0000000000
11
22.3692621256
21
18.8737945203
31
0.0000000000
11
22.1872517812
21
19.0785603208
31
0.0000000000
11
21.9542070358
21
19.3533925064
31
0.0000000000
11
21.6803130632
21
19.6862795918
31
0.0000000000
11
21.3775403442
21
20.0626728141
31
0.0000000000
11
21.0591214995
21
20.4661219833
31
0.0000000000
11
20.7389729606
21
20.8789944347
31
0.0000000000
0
SPLINE
5
323
100
AcDbEntity
8
0
100
AcDbSpline
62
7
6
CONTINUOUS
70
0
71
3
72
9
73
5
74
3
42
0.0000001000
43
0.0000001000
44
0.0000000001
12
-0.0093107979
22
-0.0315718508
32
0.0000000000
13
0.0278282758
23
-0.0594867777
33
0.0000000000
40
0.0000000000
40
0.0000000000
40
0.0000000000
40
0.0000000000
40
0.5653014543
40
1.0000000000
40
1.0000000000
40
1.0000000000
40
1.0000000000
10
11.1155619576
20
15.5159715692
30
0.0000000000
10
11.1138074884
20
15.5100223648
30
0.0000000000
10
11.1213212852
20
15.4829438135
30
0.0000000000
10
11.1301485037
20
15.4613415329
30
0.0000000000
10
11.1341808073
20
15.4527219276
30
0.0000000000
11
11.1155619576
21
15.5159715692
31
0.0000000000
11
11.1227223335
21
15.4811573044
31
0.0000000000
11
11.1341808073
21
15.4527219276
31
0.0000000000
0
SPLINE
5
324
100
AcDbEntity
8
0
100
AcDbSpline
62
7
6
CONTINUOUS
70
0
71
3
72
8
73
4
74
2
42
0.0000001000
43
0.0000001000
44
0.0000000001
12
0.0186429340
22
-0.0398518428
32
0.0000000000
13
0.0208408773
23
-0.0317647571
33
0.0000000000
40
0.0000000000
40
0.0000000000
40
0.0000000000
40
0.0000000000
40
1.0000000000
40
1.0000000000
40
1.0000000000
40
1.0000000000
10
11.1341808073
20
15.4527219276
30
0.0000000000
10
11.1403951187
20
15.4394379800
30
0.0000000000
10
11.1470728681
20
15.4279849271
30
0.0000000000
10
11.1540198272
20
15.4173966747
30
0.0000000000
11
11.1341808073
21
15.4527219276
31
0.0000000000
11
11.1540198272
21
15.4173966747
31
0.0000000000
0
SPLINE
5
325
100
AcDbEntity
8
0
100
AcDbSpline
62
7
6
CONTINUOUS
70
0
71
3
72
11
73
7
74
5
42
0.0000001000
43
0.0000001000
44
0.0000000001
12
0.3372732015
22
-0.5140571187
32
0.0000000000
13
0.3824738969
23
-0.5266375093
33
0.0000000000
40
0.0000000000
40
0.0000000000
40
0.0000000000
40
0.0000000000
40
0.0818619086
40
0.3888642959
40
0.8062055604
40
1.0000000000
40
1.0000000000
40
1.0000000000
40
1.0000000000
10
11.1540198272
20
15.4173966747
30
0.0000000000
10
11.1632231032
20
15.4033694424
30
0.0000000000
10
11.2091853490
20
15.3439464952
30
0.0000000000
10
11.3054525620
20
15.1866689512
30
0.0000000000
10
11.4209336536
20
15.0283178860
30
0.0000000000
10
11.4986013469
20
14.9212315763
30
0.0000000000
10
11.5233084518
20
14.8872117693
30
0.0000000000
11
11.1540198272
21
15.4173966747
31
0.0000000000
11
11.1825955018
21
15.3776220718
31
0.0000000000
11
11.2931060575
21
15.2111367511
31
0.0000000000
11
11.4494241588
21
14.9889775496
31
0.0000000000
11
11.5233084518
21
14.8872117693
31
0.0000000000
0
SPLINE
5
326
100
AcDbEntity
8
0
100
AcDbSpline
62
7
6
CONTINUOUS
70
0
71
3
72
8
73
4
74
2
42
0.0000001000
43
0.0000001000
44
0.0000000001
12
0.1207956691
22
-0.1663264626
32
0.0000000000
13
0.1220136202
23
-0.1659254450
33
0.0000000000
40
0.0000000000
40
0.0000000000
40
0.0000000000
40
0.0000000000
40
1.0000000000
40
1.0000000000
40
1.0000000000
40
1.0000000000
10
11.5233084518
20
14.8872117693
30
0.0000000000
10
11.5635736748
20
14.8317696151
30
0.0000000000
10
11.6040467479
20
14.7761623722
30
0.0000000000
10
11.6447179546
20
14.7208538905
30
0.0000000000
11
11.5233084518
21
14.8872117693
31
0.0000000000
11
11.6447179546
21
14.7208538905
31
0.0000000000
0
SPLINE
5
327
100
AcDbEntity
8
0
100
AcDbSpline
62
7
6
CONTINUOUS
70
0
71
3
72
8
73
4
74
2
42
0.0000001000
43
0.0000001000
44
0.0000000001
12
0.0719371903
22
-0.0978268680
32
0.0000000000
13
0.0723271744
23
-0.0972853536
33
0.0000000000
40
0.0000000000
40
0.0000000000
40
0.0000000000
40
0.0000000000
40
1.0000000000
40
1.0000000000
40
1.0000000000
40
1.0000000000
10
11.6447179546
20
14.7208538905
30
0.0000000000
10
11.6686970181
20
14.6882449345
30
0.0000000000
10
11.6927449545
20
14.6557398304
30
0.0000000000
10
11.7168540126
20
14.6233113792
30
0.0000000000
11
11.6447179546
21
14.7208538905
31
0.0000000000
11
11.7168540126
21
14.6233113792
31
0.0000000000
0
SPLINE
5
328
100
AcDbEntity
8
0
100
AcDbSpline
62
7
6
CONTINUOUS
70
0
71
3
72
8
73
4
74
2
42
0.0000001000
43
0.0000001000
44
0.0000000001
12
0.0754455221
22
-0.1014797598
32
0.0000000000
13
0.0758181645
23
-0.1010719422
33
0.0000000000
40
0.0000000000
40
0.0000000000
40
0.0000000000
40
0.0000000000
40
1.0000000000
40
1.0000000000
40
1.0000000000
40
1.0000000000
10
11.7168540126
20
14.6233113792
30
0.0000000000
10
11.7420025200
20
14.5894847926
30
0.0000000000
10
11.7672175332
20
14.5557416111
30
0.0000000000
10
11.7924902547
20
14.5220509636
30
0.0000000000
11
11.7168540126
21
14.6233113792
31
0.0000000000
11
11.7924902547
21
14.5220509636
31
0.0000000000
0
SPLINE
5
329
100
AcDbEntity
8
0
100
AcDbSpline
62
7
6
CONTINUOUS
70
0
71
3
72
8
73
4
74
2
42
0.0000001000
43
0.0000001000
44
0.0000000001
12
0.0080486913
22
-0.0107295774
32
0.0000000000
13
0.0080525618
23
-0.0107261360
33
0.0000000000
40
0.0000000000
40
0.0000000000
40
0.0000000000
40
0.0000000000
40
1.0000000000
40
1.0000000000
40
1.0000000000
40
1.0000000000
10
11.7924902547
20
14.5220509636
30
0.0000000000
10
11.7951731518
20
14.5184744378
30
0.0000000000
10
11.7978566992
20
14.5148985041
30
0.0000000000
10
11.8005408865
20
14.5113231254
30
0.0000000000
11
11.7924902547
21
14.5220509636
31
0.0000000000
11
11.8005408865
21
14.5113231254
31
0.0000000000
0
SPLINE
5
32A
100
AcDbEntity
8
0
100
AcDbSpline
62
7
6
CONTINUOUS
70
0
71
3
72
9
73
5
74
3
42
0.0000001000
43
0.0000001000
44
0.0000000001
12
0.1491478032
22
-0.1986671645
32
0.0000000000
13
0.1503121807
23
-0.1979865441
33
0.0000000000
40
0.0000000000
40
0.0000000000
40
0.0000000000
40
0.0000000000
40
0.4678179438
40
1.0000000000
40
1.0000000000
40
1.0000000000
40
1.0000000000
10
11.8005408865
20
14.5113231254
30
0.0000000000
10
11.8237988927
20
14.4803431040
30
0.0000000000
10
11.8736175101
20
14.4142098027
30
0.0000000000
10
11.9236243356
20
14.3481571503
30
0.0000000000
10
11.9502888174
20
14.3130355215
30
0.0000000000
11
11.8005408865
21
14.5113231254
31
0.0000000000
11
11.8704521691
21
14.4184840642
31
0.0000000000
11
11.9502888174
21
14.3130355215
31
0.0000000000
0
SPLINE
5
32B
100
AcDbEntity
8
0
100
AcDbSpline
62
7
6
CONTINUOUS
70
0
71
3
72
8
73
4
74
2
42
0.0000001000
43
0.0000001000
44
0.0000000001
12
0.0819287641
22
-0.1079140278
32
0.0000000000
13
0.0822494294
23
-0.1076982597
33
0.0000000000
40
0.0000000000
40
0.0000000000
40
0.0000000000
40
0.0000000000
40
1.0000000000
40
1.0000000000
40
1.0000000000
40
1.0000000000
10
11.9502888174
20
14.3130355215
30
0.0000000000
10
11.9775984055
20
14.2770641789
30
0.0000000000
10
12.0049622742
20
14.2411247331
30
0.0000000000
10
12.0323787507
20
14.2052253132
30
0.0000000000
11
11.9502888174
21
14.3130355215
31
0.0000000000
11
12.0323787507
21
14.2052253132
31
0.0000000000
0
SPLINE
5
32C
100
AcDbEntity
8
0
100
AcDbSpline
62
7
6
CONTINUOUS
70
0
71
3
72
8
73
4
74
2
42
0.0000001000
43
0.0000001000
44
0.0000000001
12
0.0842187081
22
-0.1102768537
32
0.0000000000
13
0.0845442618
23
-0.1099988794
33
0.0000000000
40
0.0000000000
40
0.0000000000
40
0.0000000000
40
0.0000000000
40
1.0000000000
40
1.0000000000
40
1.0000000000
40
1.0000000000
10
12.0323787507
20
14.2052253132
30
0.0000000000
10
12.0604516534
20
14.1684663620
30
0.0000000000
10
12.0885797131
20
14.1317493763
30
0.0000000000
10
12.1167611337
20
14.0950830832
30
0.0000000000
11
12.0323787507
21
14.2052253132
31
0.0000000000
11
12.1167611337
21
14.0950830832
31
0.0000000000
0
SPLINE
5
32D
100
AcDbEntity
8
0
100
AcDbSpline
62
7
6
CONTINUOUS
70
0
71
3
72
9
73
5
74
3
42
0.0000001000
43
0.0000001000
44
0.0000000001
12
-0.2993170766
22
0.3529938634
32
0.0000000000
13
-0.2956181718
23
0.3560972851
33
0.0000000000
40
0.0000000000
40
0.0000000000
40
0.0000000000
40
0.0000000000
40
0.4840921016
40
1.0000000000
40
1.0000000000
40
1.0000000000
40
1.0000000000
10
6.8275518418
20
5.5211638627
30
0.0000000000
10
6.7792528309
20
5.5781243764
30
0.0000000000
10
6.6798400446
20
5.6960941499
30
0.0000000000
10
6.5810362647
20
5.8145741030
30
0.0000000000
10
6.5301990148
20
5.8758119036
30
0.0000000000
11
6.8275518418
21
5.5211638627
31
0.0000000000
11
6.6831456593
21
5.6924604057
31
0.0000000000
11
6.5301990148
21
5.8758119036
31
0.0000000000
0
SPLINE
5
32E
100
AcDbEntity
8
0
100
AcDbSpline
62
7
6
CONTINUOUS
70
0
71
3
72
13
73
9
74
7
42
0.0000001000
43
0.0000001000
44
0.0000000001
12
-0.1523238506
22
-0.9610515078
32
0.0000000000
13
0.9386634949
23
-1.2479242028
33
0.0000000000
40
0.0000000000
40
0.0000000000
40
0.0000000000
40
0.0000000000
40
0.0256361729
40
0.1213110839
40
0.2811614004
40
0.4984630761
40
0.7638134042
40
1.0000000000
40
1.0000000000
40
1.0000000000
40
1.0000000000
10
17.3570414075
20
20.9982968954
30
0.0000000000
10
17.3557397406
20
20.9900843346
30
0.0000000000
10
17.3795946180
20
20.9051306956
30
0.0000000000
10
17.4591608981
20
20.8094612869
30
0.0000000000
10
17.5947026375
20
20.5880185839
30
0.0000000000
10
17.7887089407
20
20.3219914416
30
0.0000000000
10
18.0091942903
20
20.0171451926
30
0.0000000000
10
18.1653316397
20
19.8079263350
30
0.0000000000
10
18.2392315515
20
19.7096786786
30
0.0000000000
11
17.3570414075
21
20.9982968954
31
0.0000000000
11
17.3662898518
21
20.9561290253
31
0.0000000000
11
17.4411313122
21
20.8267099846
31
0.0000000000
11
17.5792695068
21
20.6186033337
31
0.0000000000
11
17.7746671334
21
20.3409043318
31
0.0000000000
11
18.0187843782
21
20.0057497579
31
0.0000000000
11
18.2392315515
21
19.7096786786
31
0.0000000000
0
SPLINE
5
32F
100
AcDbEntity
8
0
100
AcDbSpline
62
7
6
CONTINUOUS
70
0
71
3
72
9
73
5
74
3
42
0.0000001000
43
0.0000001000
44
0.0000000001
12
0.3668857950
22
-0.4877633632
32
0.0000000000
13
0.3721893750
23
-0.4842482895
33
0.0000000000
40
0.0000000000
40
0.0000000000
40
0.0000000000
40
0.0000000000
40
0.1680021783
40
1.0000000000
40
1.0000000000
40
1.0000000000
40
1.0000000000
10
18.2392315515
20
19.7096786786
30
0.0000000000
10
18.2597774225
20
19.6823635761
30
0.0000000000
10
18.3822433045
20
19.5199040935
30
0.0000000000
10
18.5056181023
20
19.3578340895
30
0.0000000000
10
18.6088383520
20
19.2235362488
30
0.0000000000
11
18.2392315515
21
19.7096786786
31
0.0000000000
11
18.3009521463
21
19.6277874751
31
0.0000000000
11
18.6088383520
21
19.2235362488
31
0.0000000000
0
SPLINE
5
330
100
AcDbEntity
8
0
100
AcDbSpline
62
7
6
CONTINUOUS
70
0
71
3
72
14
73
10
74
8
42
0.0000001000
43
0.0000001000
44
0.0000000001
12
-1.5105923155
22
-0.5788278535
32
0.0000000000
13
1.0578952872
23
-1.3764067911
33
0.0000000000
40
0.0000000000
40
0.0000000000
40
0.0000000000
40
0.0000000000
40
0.0021941384
40
0.0557132248
40
0.1635509281
40
0.3206889968
40
0.5193523620
40
0.7496281271
40
1.0000000000
40
1.0000000000
40
1.0000000000
40
1.0000000000
10
16.7967135692
20
19.9209911199
30
0.0000000000
10
16.7956087530
20
19.9205677771
30
0.0000000000
10
16.7695061228
20
19.9086962516
30
0.0000000000
10
16.8822694501
20
19.7928479129
30
0.0000000000
10
16.9359891858
20
19.6632954465
30
0.0000000000
10
17.1123503303
20
19.4320024376
30
0.0000000000
10
17.3031057003
20
19.1620454431
30
0.0000000000
10
17.5410558804
20
18.8454117478
30
0.0000000000
10
17.7088310151
20
18.6245094276
30
0.0000000000
10
17.7971200899
20
18.5096382456
30
0.0000000000
11
16.7967135692
21
19.9209911199
31
0.0000000000
11
16.7936528307
21
19.9195899161
31
0.0000000000
11
16.8355735305
21
19.8366767310
31
0.0000000000
11
16.9369654223
21
19.6793071278
31
0.0000000000
11
17.0927442934
21
19.4553722755
31
0.0000000000
11
17.2950987407
21
19.1761012027
31
0.0000000000
11
17.5338818672
21
18.8554977270
31
0.0000000000
11
17.7971200899
21
18.5096382456
31
0.0000000000
0
SPLINE
5
331
100
AcDbEntity
8
0
100
AcDbSpline
62
7
6
CONTINUOUS
70
0
71
3
72
9
73
5
74
3
42
0.0000001000
43
0.0000001000
44
0.0000000001
12
-0.3370637821
22
0.4078922178
32
0.0000000000
13
-0.3338044893
23
0.4105637800
33
0.0000000000
40
0.0000000000
40
0.0000000000
40
0.0000000000
40
0.0000000000
40
0.4889337289
40
1.0000000000
40
1.0000000000
40
1.0000000000
40
1.0000000000
10
6.4501867092
20
5.9724181910
30
0.0000000000
10
6.3952527586
20
6.0388956120
30
0.0000000000
10
6.2832009743
20
6.1751101033
30
0.0000000000
10
6.1716882091
20
6.3117660552
30
0.0000000000
10
6.1148228039
20
6.3817078219
30
0.0000000000
11
6.4501867092
21
5.9724181910
31
0.0000000000
11
6.2858098210
21
6.1722008642
31
0.0000000000
11
6.1148228039
21
6.3817078219
31
0.0000000000
0
SPLINE
5
332
100
AcDbEntity
8
0
100
AcDbSpline
62
7
6
CONTINUOUS
70
0
71
3
72
11
73
7
74
5
42
0.0000001000
43
0.0000001000
44
0.0000000001
12
-1.1709351620
22
1.5234807532
32
0.0000000000
13
-1.1372926278
23
1.5487569976
33
0.0000000000
40
0.0000000000
40
0.0000000000
40
0.0000000000
40
0.0000000000
40
0.2649166786
40
0.5220738684
40
0.7682692502
40
1.0000000000
40
1.0000000000
40
1.0000000000
40
1.0000000000
10
7.8126017590
20
11.1653668879
30
0.0000000000
10
7.7092016743
20
11.2998987083
30
0.0000000000
10
7.5060514552
20
11.5655001739
30
0.0000000000
10
7.2090335314
20
11.9578220246
30
0.0000000000
10
6.9268372502
20
12.3346971845
30
0.0000000000
10
6.7447990069
20
12.5807985962
30
0.0000000000
10
6.6569504491
20
12.7004301363
30
0.0000000000
11
7.8126017590
21
11.1653668879
31
0.0000000000
11
7.5033701613
21
11.5697050049
31
0.0000000000
11
7.2051516020
21
11.9636878218
31
0.0000000000
11
6.9216654244
21
12.3423971039
31
0.0000000000
11
6.6569504491
21
12.7004301363
31
0.0000000000
0
SPLINE
5
333
100
AcDbEntity
8
0
100
AcDbSpline
62
7
6
CONTINUOUS
70
0
71
3
72
9
73
5
74
3
42
0.0000001000
43
0.0000001000
44
0.0000000001
12
-0.1885020703
22
0.2452563432
32
0.0000000000
13
-0.1877881779
23
0.2458033861
33
0.0000000000
40
0.0000000000
40
0.0000000000
40
0.0000000000
40
0.0000000000
40
0.5017184050
40
1.0000000000
40
1.0000000000
40
1.0000000000
40
1.0000000000
10
4.4201651601
20
8.5288964437
30
0.0000000000
10
4.3886401741
20
8.5699129842
30
0.0000000000
10
4.3258647870
20
8.6517101833
30
0.0000000000
10
4.2632082641
20
8.7335984693
30
0.0000000000
10
4.2320177998
20
8.7744249037
30
0.0000000000
11
4.4201651601
21
8.5288964437
31
0.0000000000
11
4.3256789606
21
8.6520142332
31
0.0000000000
11
4.2320177998
21
8.7744249037
31
0.0000000000
0
SPLINE
5
334
100
AcDbEntity
8
0
100
AcDbSpline
62
7
6
CONTINUOUS
70
0
71
3
72
11
73
7
74
5
42
0.0000001000
43
0.0000001000
44
0.0000000001
12
-0.3154952183
22
-0.0543861408
32
0.0000000000
13
0.2102176262
23
-0.3115701418
33
0.0000000000
40
0.0000000000
40
0.0000000000
40
0.0000000000
40
0.0000000000
40
0.0118157156
40
0.2387085044
40
0.7189081866
40
1.0000000000
40
1.0000000000
40
1.0000000000
40
1.0000000000
10
10.7470993509
20
15.9825870997
30
0.0000000000
10
10.7458567503
20
15.9823728959
30
0.0000000000
10
10.7229141613
20
15.9764903991
30
0.0000000000
10
10.8192562899
20
15.8547295271
30
0.0000000000
10
10.8574363280
20
15.7723539609
30
0.0000000000
10
10.9068136812
20
15.6956956476
30
0.0000000000
10
10.9265104991
20
15.6665023756
30
0.0000000000
11
10.7470993509
21
15.9825870997
31
0.0000000000
11
10.7437200922
21
15.9817059017
31
0.0000000000
11
10.7783663425
21
15.9038938167
31
0.0000000000
11
10.8730721270
21
15.7505056650
31
0.0000000000
11
10.9265104991
21
15.6665023756
31
0.0000000000
0
SPLINE
5
335
100
AcDbEntity
8
0
100
AcDbSpline
62
7
6
CONTINUOUS
70
0
71
3
72
8
73
4
74
2
42
0.0000001000
43
0.0000001000
44
0.0000000001
12
0.0917903970
22
-0.1360454284
32
0.0000000000
13
0.0988748745
23
-0.1386746773
33
0.0000000000
40
0.0000000000
40
0.0000000000
40
0.0000000000
40
0.0000000000
40
1.0000000000
40
1.0000000000
40
1.0000000000
40
1.0000000000
10
10.9265104991
20
15.6665023756
30
0.0000000000
10
10.9571072981
20
15.6211538995
30
0.0000000000
10
10.9912396641
20
15.5736609597
30
0.0000000000
10
11.0241979556
20
15.5274360673
30
0.0000000000
11
10.9265104991
21
15.6665023756
31
0.0000000000
11
11.0241979556
21
15.5274360673
31
0.0000000000
0
SPLINE
5
336
100
AcDbEntity
8
0
100
AcDbSpline
62
7
6
CONTINUOUS
70
0
71
3
72
8
73
4
74
2
42
0.0000001000
43
0.0000001000
44
0.0000000001
12
0.0354807661
22
-0.0497627310
32
0.0000000000
13
0.0346810178
23
-0.0488773525
33
0.0000000000
40
0.0000000000
40
0.0000000000
40
0.0000000000
40
0.0000000000
40
1.0000000000
40
1.0000000000
40
1.0000000000
40
1.0000000000
10
11.0241979556
20
15.5274360673
30
0.0000000000
10
11.0360248776
20
15.5108484902
30
0.0000000000
10
11.0477006143
20
15.4944241995
30
0.0000000000
10
11.0592609535
20
15.4781317486
30
0.0000000000
11
11.0241979556
21
15.5274360673
31
0.0000000000
11
11.0592609535
21
15.4781317486
31
0.0000000000
0
SPLINE
5
337
100
AcDbEntity
8
0
100
AcDbSpline
62
7
6
CONTINUOUS
70
0
71
3
72
8
73
4
74
2
42
0.0000001000
43
0.0000001000
44
0.0000000001
12
0.0275915967
22
-0.0388859463
32
0.0000000000
13
0.0272074160
23
-0.0384327627
33
0.0000000000
40
0.0000000000
40
0.0000000000
40
0.0000000000
40
0.0000000000
40
1.0000000000
40
1.0000000000
40
1.0000000000
40
1.0000000000
10
11.0592609535
20
15.4781317486
30
0.0000000000
10
11.0684581524
20
15.4651697665
30
0.0000000000
10
11.0775823104
20
15.4522912326
30
0.0000000000
10
11.0866514491
20
15.4394803118
30
0.0000000000
11
11.0592609535
21
15.4781317486
31
0.0000000000
11
11.0866514491
21
15.4394803118
31
0.0000000000
0
SPLINE
5
338
100
AcDbEntity
8
0
100
AcDbSpline
62
7
6
CONTINUOUS
70
0
71
3
72
8
73
4
74
2
42
0.0000001000
43
0.0000001000
44
0.0000000001
12
0.0111011972
22
-0.0156813744
32
0.0000000000
13
0.0110499116
23
-0.0156170637
33
0.0000000000
40
0.0000000000
40
0.0000000000
40
0.0000000000
40
0.0000000000
40
1.0000000000
40
1.0000000000
40
1.0000000000
40
1.0000000000
10
11.0866514491
20
15.4394803118
30
0.0000000000
10
11.0903518482
20
15.4342531869
30
0.0000000000
10
11.0940430876
20
15.4290373184
30
0.0000000000
10
11.0977263914
20
15.4238316305
30
0.0000000000
11
11.0866514491
21
15.4394803118
31
0.0000000000
11
11.0977263914
21
15.4238316305
31
0.0000000000
0
SPLINE
5
339
100
AcDbEntity
8
0
100
AcDbSpline
62
7
6
CONTINUOUS
70
0
71
3
72
10
73
6
74
4
42
0.0000001000
43
0.0000001000
44
0.0000000001
12
0.3978079783
22
-0.5622300657
32
0.0000000000
13
0.4108014638
23
-0.5529643392
33
0.0000000000
40
0.0000000000
40
0.0000000000
40
0.0000000000
40
0.0000000000
40
0.3255568148
40
0.9282243492
40
1.0000000000
40
1.0000000000
40
1.0000000000
40
1.0000000000
10
11.0977263914
20
15.4238316305
30
0.0000000000
10
11.1408960909
20
15.3628190207
30
0.0000000000
10
11.2608730834
20
15.1928478222
30
0.0000000000
10
11.3978414857
20
15.0068143940
30
0.0000000000
10
11.4901902341
20
14.8823973127
30
0.0000000000
10
11.5000187482
20
14.8691675209
30
0.0000000000
11
11.0977263914
21
15.4238316305
31
0.0000000000
11
11.2259361473
21
15.2432574631
31
0.0000000000
11
11.4705340166
21
14.9088906768
31
0.0000000000
11
11.5000187482
21
14.8691675209
31
0.0000000000
0
SPLINE
5
33A
100
AcDbEntity
8
0
100
AcDbSpline
62
7
6
CONTINUOUS
70
0
71
3
72
8
73
4
74
2
42
0.0000001000
43
0.0000001000
44
0.0000000001
12
0.1013332903
22
-0.1364009158
32
0.0000000000
13
0.1014821699
23
-0.1357454161
33
0.0000000000
40
0.0000000000
40
0.0000000000
40
0.0000000000
40
0.0000000000
40
1.0000000000
40
1.0000000000
40
1.0000000000
40
1.0000000000
10
11.5000187482
20
14.8691675209
30
0.0000000000
10
11.5337965116
20
14.8237005490
30
0.0000000000
10
11.5675809799
20
14.7783627134
30
0.0000000000
10
11.6014083699
20
14.7331142413
30
0.0000000000
11
11.5000187482
21
14.8691675209
31
0.0000000000
11
11.6014083699
21
14.7331142413
31
0.0000000000
0
SPLINE
5
33B
100
AcDbEntity
8
0
100
AcDbSpline
62
7
6
CONTINUOUS
70
0
71
3
72
8
73
4
74
2
42
0.0000001000
43
0.0000001000
44
0.0000000001
12
0.0515659365
22
-0.0689760527
32
0.0000000000
13
0.0516466837
23
-0.0688532678
33
0.0000000000
40
0.0000000000
40
0.0000000000
40
0.0000000000
40
0.0000000000
40
1.0000000000
40
1.0000000000
40
1.0000000000
40
1.0000000000
10
11.6014083699
20
14.7331142413
30
0.0000000000
10
11.6185970154
20
14.7101222238
30
0.0000000000
10
11.6357967430
20
14.6871532793
30
0.0000000000
10
11.6530123042
20
14.6642021901
30
0.0000000000
11
11.6014083699
21
14.7331142413
31
0.0000000000
11
11.6530123042
21
14.6642021901
31
0.0000000000
0
SPLINE
5
33C
100
AcDbEntity
8
0
100
AcDbSpline
62
7
6
CONTINUOUS
70
0
71
3
72
9
73
5
74
3
42
0.0000001000
43
0.0000001000
44
0.0000000001
12
0.0984457155
22
-0.1312438423
32
0.0000000000
13
0.0988894749
23
-0.1309628853
33
0.0000000000
40
0.0000000000
40
0.0000000000
40
0.0000000000
40
0.0000000000
40
0.9689353489
40
1.0000000000
40
1.0000000000
40
1.0000000000
40
1.0000000000
10
11.6530123042
20
14.6642021901
30
0.0000000000
10
11.6848081488
20
14.6218132573
30
0.0000000000
10
11.7176791295
20
14.5781281688
30
0.0000000000
10
11.7506395246
20
14.5344729388
30
0.0000000000
10
11.7516635136
20
14.5331168333
30
0.0000000000
11
11.6530123042
21
14.6642021901
31
0.0000000000
11
11.7485918045
21
14.5371852366
31
0.0000000000
11
11.7516635136
21
14.5331168333
31
0.0000000000
0
SPLINE
5
33D
100
AcDbEntity
8
0
100
AcDbSpline
62
7
6
CONTINUOUS
70
0
71
3
72
8
73
4
74
2
42
0.0000001000
43
0.0000001000
44
0.0000000001
12
0.0284187940
22
-0.0376360301
32
0.0000000000
13
0.0284618031
23
-0.0376205699
33
0.0000000000
40
0.0000000000
40
0.0000000000
40
0.0000000000
40
0.0000000000
40
1.0000000000
40
1.0000000000
40
1.0000000000
40
1.0000000000
10
11.7516635136
20
14.5331168333
30
0.0000000000
10
11.7611364450
20
14.5205714899
30
0.0000000000
10
11.7706167223
20
14.5080286322
30
0.0000000000
10
11.7801039900
20
14.4954884422
30
0.0000000000
11
11.7516635136
21
14.5331168333
31
0.0000000000
11
11.7801039900
21
14.4954884422
31
0.0000000000
0
SPLINE
5
33E
100
AcDbEntity
8
0
100
AcDbSpline
62
7
6
CONTINUOUS
70
0
71
3
72
8
73
4
74
2
42
0.0000001000
43
0.0000001000
44
0.0000000001
12
0.1658590940
22
-0.2192311432
32
0.0000000000
13
0.1670722508
23
-0.2185793982
33
0.0000000000
40
0.0000000000
40
0.0000000000
40
0.0000000000
40
0.0000000000
40
1.0000000000
40
1.0000000000
40
1.0000000000
40
1.0000000000
10
11.7801039900
20
14.4954884422
30
0.0000000000
10
11.8353903547
20
14.4224113945
30
0.0000000000
10
11.8909141040
20
14.3494249429
30
0.0000000000
10
11.9466048543
20
14.2765651435
30
0.0000000000
11
11.7801039900
21
14.4954884422
31
0.0000000000
11
11.9466048543
21
14.2765651435
31
0.0000000000
0
SPLINE
5
33F
100
AcDbEntity
8
0
100
AcDbSpline
62
7
6
CONTINUOUS
70
0
71
3
72
8
73
4
74
2
42
0.0000001000
43
0.0000001000
44
0.0000000001
12
0.1026462632
22
-0.1342913519
32
0.0000000000
13
0.1029755183
23
-0.1339794254
33
0.0000000000
40
0.0000000000
40
0.0000000000
40
0.0000000000
40
0.0000000000
40
1.0000000000
40
1.0000000000
40
1.0000000000
40
1.0000000000
10
11.9466048543
20
14.2765651435
30
0.0000000000
10
11.9808202753
20
14.2318013595
30
0.0000000000
10
12.0150987335
20
14.1870853824
30
0.0000000000
10
12.0494239063
20
14.1424255739
30
0.0000000000
11
11.9466048543
21
14.2765651435
31
0.0000000000
11
12.0494239063
21
14.1424255739
31
0.0000000000
0
SPLINE
5
340
100
AcDbEntity
8
0
100
AcDbSpline
62
7
6
CONTINUOUS
70
0
71
3
72
9
73
5
74
3
42
0.0000001000
43
0.0000001000
44
0.0000000001
12
-0.3622274826
22
0.4756048911
32
0.0000000000
13
-0.3592574597
23
0.4778523194
33
0.0000000000
40
0.0000000000
40
0.0000000000
40
0.0000000000
40
0.0000000000
40
0.5054999441
40
1.0000000000
40
1.0000000000
40
1.0000000000
40
1.0000000000
10
4.1384987309
20
8.8970246805
30
0.0000000000
10
4.0774634069
20
8.9771640958
30
0.0000000000
10
3.9569553249
20
9.1358777447
30
0.0000000000
10
3.8369398483
20
9.2949642702
30
0.0000000000
10
3.7777222370
20
9.3737302697
30
0.0000000000
11
4.1384987309
21
8.8970246805
31
0.0000000000
11
3.9557556250
21
9.1377188583
31
0.0000000000
11
3.7777222370
21
9.3737302697
31
0.0000000000
0
SPLINE
5
341
100
AcDbEntity
8
0
100
AcDbSpline
62
7
6
CONTINUOUS
70
0
71
3
72
9
73
5
74
3
42
0.0000001000
43
0.0000001000
44
0.0000000001
12
-0.3333907826
22
0.4449903057
32
0.0000000000
13
-0.3301745934
23
0.4473818548
33
0.0000000000
40
0.0000000000
40
0.0000000000
40
0.0000000000
40
0.0000000000
40
0.5090718436
40
1.0000000000
40
1.0000000000
40
1.0000000000
40
1.0000000000
10
3.6901347622
20
9.4904323961
30
0.0000000000
10
3.6335614754
20
9.5659430745
30
0.0000000000
10
3.5226759015
20
9.7144566897
30
0.0000000000
10
3.4123227023
20
9.8633664221
30
0.0000000000
10
3.3582920341
20
9.9365772052
30
0.0000000000
11
3.6901347622
21
9.4904323961
31
0.0000000000
11
3.5208019954
21
9.7172539297
31
0.0000000000
11
3.3582920341
21
9.9365772052
31
0.0000000000
0
SPLINE
5
342
100
AcDbEntity
8
0
100
AcDbSpline
62
7
6
CONTINUOUS
70
0
71
3
72
8
73
4
74
2
42
0.0000001000
43
0.0000001000
44
0.0000000001
12
-0.0658677799
22
0.0801536100
32
0.0000000000
13
-0.0655241511
23
0.0801551023
33
0.0000000000
40
0.0000000000
40
0.0000000000
40
0.0000000000
40
0.0000000000
40
1.0000000000
40
1.0000000000
40
1.0000000000
40
1.0000000000
10
9.1408321109
20
9.6086426230
30
0.0000000000
10
9.1188761843
20
9.6353604931
30
0.0000000000
10
9.0969831585
20
9.6620736232
30
0.0000000000
10
9.0751417748
20
9.6887919906
30
0.0000000000
11
9.1408321109
21
9.6086426230
31
0.0000000000
11
9.0751417748
21
9.6887919906
31
0.0000000000
0
SPLINE
5
343
100
AcDbEntity
8
0
100
AcDbSpline
62
7
6
CONTINUOUS
70
0
71
3
72
11
73
7
74
5
42
0.0000001000
43
0.0000001000
44
0.0000000001
12
-1.0711372961
22
1.3103125806
32
0.0000000000
13
-1.0309400734
23
1.3413358916
33
0.0000000000
40
0.0000000000
40
0.0000000000
40
0.0000000000
40
0.0000000000
40
0.1677065715
40
0.4359971316
40
0.7166080485
40
1.0000000000
40
1.0000000000
40
1.0000000000
40
1.0000000000
10
9.0751417748
20
9.6887919906
30
0.0000000000
10
9.0152628536
20
9.7620413342
30
0.0000000000
10
8.8606010010
20
9.9525745122
30
0.0000000000
10
8.6081322633
20
10.2684572790
30
0.0000000000
10
8.3180124645
20
10.6372890380
30
0.0000000000
10
8.1232230188
20
10.8887410686
30
0.0000000000
10
8.0258363123
20
11.0154490006
30
0.0000000000
11
9.0751417748
21
9.6887919906
31
0.0000000000
11
8.8964374431
21
9.9088636951
31
0.0000000000
11
8.6129622551
21
10.2633343891
31
0.0000000000
11
8.3194299143
21
10.6364312800
31
0.0000000000
11
8.0258363123
21
11.0154490006
31
0.0000000000
0
SPLINE
5
344
100
AcDbEntity
8
0
100
AcDbSpline
62
7
6
CONTINUOUS
70
0
71
3
72
9
73
5
74
3
42
0.0000001000
43
0.0000001000
44
0.0000000001
12
-0.2945407709
22
0.4007751627
32
0.0000000000
13
-0.2909128045
23
0.4034163320
33
0.0000000000
40
0.0000000000
40
0.0000000000
40
0.0000000000
40
0.0000000000
40
0.5133618614
40
1.0000000000
40
1.0000000000
40
1.0000000000
40
1.0000000000
10
3.2792974545
20
10.0438357462
30
0.0000000000
10
3.2288954551
20
10.1124166407
30
0.0000000000
10
3.1309791213
20
10.2462025921
30
0.0000000000
10
3.0336611209
20
10.3804246333
30
0.0000000000
10
2.9864713657
20
10.4458638909
30
0.0000000000
11
3.2792974545
21
10.0438357462
31
0.0000000000
11
3.1285201174
21
10.2498927780
31
0.0000000000
11
2.9864713657
21
10.4458638909
31
0.0000000000
0
SPLINE
5
345
100
AcDbEntity
8
0
100
AcDbSpline
62
7
6
CONTINUOUS
70
0
71
3
72
10
73
6
74
4
42
0.0000001000
43
0.0000001000
44
0.0000000001
12
-0.4808754544
22
0.5809597906
32
0.0000000000
13
-0.4735808128
23
0.5839619448
33
0.0000000000
40
0.0000000000
40
0.0000000000
40
0.0000000000
40
0.0000000000
40
0.0659106582
40
0.5615020819
40
1.0000000000
40
1.0000000000
40
1.0000000000
40
1.0000000000
10
13.5168260924
20
12.3137123297
30
0.0000000000
10
13.5062611532
20
12.3264761438
30
0.0000000000
10
13.4163758494
20
12.4353003776
30
0.0000000000
10
13.2538346532
20
12.6253514967
30
0.0000000000
10
13.1056465062
20
12.8065649080
30
0.0000000000
10
13.0364251060
20
12.8919202737
30
0.0000000000
11
13.5168260924
21
12.3137123297
31
0.0000000000
11
13.4851401439
21
12.3519952444
31
0.0000000000
11
13.2455792067
21
12.6372405282
31
0.0000000000
11
13.0364251060
21
12.8919202737
31
0.0000000000
0
SPLINE
5
346
100
AcDbEntity
8
0
100
AcDbSpline
62
7
6
CONTINUOUS
70
0
71
3
72
11
73
7
74
5
42
0.0000001000
43
0.0000001000
44
0.0000000001
12
-1.0037787089
22
1.2377371532
32
0.0000000000
13
-0.9708239486
23
1.2631199818
33
0.0000000000
40
0.0000000000
40
0.0000000000
40
0.0000000000
40
0.0000000000
40
0.0650029168
40
0.3645399660
40
0.6802426646
40
1.0000000000
40
1.0000000000
40
1.0000000000
40
1.0000000000
10
13.0364251060
20
12.8919202737
30
0.0000000000
10
13.0146755914
20
12.9187391154
30
0.0000000000
10
12.8928934973
20
13.0692994164
30
0.0000000000
10
12.6668026314
20
13.3509529615
30
0.0000000000
10
12.3596383564
20
13.7410911373
30
0.0000000000
10
12.1528999326
20
14.0077949474
30
0.0000000000
10
12.0494239063
20
14.1424255739
30
0.0000000000
11
13.0364251060
21
12.8919202737
31
0.0000000000
11
12.9712641970
21
12.9724453993
31
0.0000000000
11
12.6727368867
21
13.3447281225
31
0.0000000000
11
12.3614695129
21
13.7397820814
31
0.0000000000
11
12.0494239063
21
14.1424255739
31
0.0000000000
0
SPLINE
5
347
100
AcDbEntity
8
0
100
AcDbSpline
62
7
6
CONTINUOUS
70
0
71
3
72
9
73
5
74
3
42
0.0000001000
43
0.0000001000
44
0.0000000001
12
-0.3647242939
22
0.4502537323
32
0.0000000000
13
-0.3617292520
23
0.4526634315
33
0.0000000000
40
0.0000000000
40
0.0000000000
40
0.0000000000
40
0.0000000000
40
0.4928050115
40
1.0000000000
40
1.0000000000
40
1.0000000000
40
1.0000000000
10
6.0264854559
20
6.4905612352
30
0.0000000000
10
5.9665728027
20
6.5645236671
30
0.0000000000
10
5.8452661897
20
6.7148256123
30
0.0000000000
10
5.7244560895
20
6.8655268564
30
0.0000000000
10
5.6633003349
20
6.9420563978
30
0.0000000000
11
6.0264854559
21
6.4905612352
31
0.0000000000
11
5.8471323706
21
6.7127597432
31
0.0000000000
11
5.6633003349
21
6.9420563978
31
0.0000000000
0
SPLINE
5
348
100
AcDbEntity
8
0
100
AcDbSpline
62
7
6
CONTINUOUS
70
0
71
3
72
12
73
8
74
6
42
0.0000001000
43
0.0000001000
44
0.0000000001
12
0.7059950858
22
0.0755392120
32
0.0000000000
13
-0.5284648235
23
0.7481923352
33
0.0000000000
40
0.0000000000
40
0.0000000000
40
0.0000000000
40
0.0000000000
40
0.0054496273
40
0.0949883086
40
0.2942464355
40
0.5988764937
40
1.0000000000
40
1.0000000000
40
1.0000000000
40
1.0000000000
10
14.4883439201
20
11.1792599315
30
0.0000000000
10
14.4896263901
20
11.1793971517
30
0.0000000000
10
14.5097445540
20
11.1836848808
30
0.0000000000
10
14.4265568204
20
11.3119219854
30
0.0000000000
10
14.3645111497
20
11.4321277595
30
0.0000000000
10
14.1927110638
20
11.6830260883
30
0.0000000000
10
14.0719401813
20
11.8573060755
30
0.0000000000
10
14.0012802936
20
11.9573452531
30
0.0000000000
11
14.4883439201
21
11.1792599315
31
0.0000000000
11
14.4917802004
21
11.1800112853
31
0.0000000000
11
14.4625219183
21
11.2576293175
31
0.0000000000
11
14.3688089071
21
11.4166670212
31
0.0000000000
11
14.2134885891
21
11.6522921162
31
0.0000000000
11
14.0012802936
21
11.9573452531
31
0.0000000000
0
SPLINE
5
349
100
AcDbEntity
8
0
100
AcDbSpline
62
7
6
CONTINUOUS
70
0
71
3
72
8
73
4
74
2
42
0.0000001000
43
0.0000001000
44
0.0000000001
12
-0.2566139695
22
0.3633100947
32
0.0000000000
13
-0.2658441442
23
0.3646860298
33
0.0000000000
40
0.0000000000
40
0.0000000000
40
0.0000000000
40
0.0000000000
40
1.0000000000
40
1.0000000000
40
1.0000000000
40
1.0000000000
10
14.0012802936
20
11.9573452531
30
0.0000000000
10
13.9157423038
20
12.0784486180
30
0.0000000000
10
13.8272465771
20
12.2009955369
30
0.0000000000
10
13.7386318624
20
12.3225575469
30
0.0000000000
11
14.0012802936
21
11.9573452531
31
0.0000000000
11
13.7386318624
21
12.3225575469
31
0.0000000000
0
SPLINE
5
34A
100
AcDbEntity
8
0
100
AcDbSpline
62
7
6
CONTINUOUS
70
0
71
3
72
8
73
4
74
2
42
0.0000001000
43
0.0000001000
44
0.0000000001
12
-0.0781639846
22
0.1072256578
32
0.0000000000
13
-0.0782556888
23
0.1067677420
33
0.0000000000
40
0.0000000000
40
0.0000000000
40
0.0000000000
40
0.0000000000
40
1.0000000000
40
1.0000000000
40
1.0000000000
40
1.0000000000
10
13.7386318624
20
12.3225575469
30
0.0000000000
10
13.7125772008
20
12.3582994328
30
0.0000000000
10
13.6865122529
20
12.3939561745
30
0.0000000000
10
13.6604270233
20
12.4295454218
30
0.0000000000
11
13.7386318624
21
12.3225575469
31
0.0000000000
11
13.6604270233
21
12.4295454218
31
0.0000000000
0
SPLINE
5
34B
100
AcDbEntity
8
0
100
AcDbSpline
62
7
6
CONTINUOUS
70
0
71
3
72
9
73
5
74
3
42
0.0000001000
43
0.0000001000
44
0.0000000001
12
-0.0816403063
22
0.1276731492
32
0.0000000000
13
-0.0778934207
23
0.1299906642
33
0.0000000000
40
0.0000000000
40
0.0000000000
40
0.0000000000
40
0.0000000000
40
0.2720641506
40
1.0000000000
40
1.0000000000
40
1.0000000000
40
1.0000000000
10
2.3404024762
20
11.3798089427
30
0.0000000000
10
2.3329986760
20
11.3913873717
30
0.0000000000
10
2.3059043229
20
11.4340215414
30
0.0000000000
10
2.2793046649
20
11.4769710109
30
0.0000000000
10
2.2604041937
20
11.5085126325
30
0.0000000000
11
2.3404024762
21
11.3798089427
31
0.0000000000
11
2.3182924885
21
11.4146091682
31
0.0000000000
11
2.2604041937
21
11.5085126325
31
0.0000000000
0
SPLINE
5
34C
100
AcDbEntity
8
0
100
AcDbSpline
62
7
6
CONTINUOUS
70
0
71
3
72
14
73
10
74
8
42
0.0000001000
43
0.0000001000
44
0.0000000001
12
-0.7810783977
22
-1.7023765035
32
0.0000000000
13
1.3066413467
23
-1.7749070499
33
0.0000000000
40
0.0000000000
40
0.0000000000
40
0.0000000000
40
0.0000000000
40
0.0155585664
40
0.0881405275
40
0.2170866723
40
0.3993123269
40
0.6299826179
40
0.9028695886
40
1.0000000000
40
1.0000000000
40
1.0000000000
40
1.0000000000
10
9.4037854954
20
17.7235976708
30
0.0000000000
10
9.3997346754
20
17.7147688249
30
0.0000000000
10
9.3893908500
20
17.6354771257
30
0.0000000000
10
9.5042045722
20
17.5164733024
30
0.0000000000
10
9.6311751046
20
17.2650164868
30
0.0000000000
10
9.8649278195
20
16.9411855211
30
0.0000000000
10
10.1509588081
20
16.5270099828
30
0.0000000000
10
10.4107802565
20
16.1701174709
30
0.0000000000
10
10.5716888669
20
15.9510015784
30
0.0000000000
10
10.6139937374
20
15.8935357611
30
0.0000000000
11
9.4037854954
21
17.7235976708
31
0.0000000000
11
9.3978577244
21
17.6877408209
31
0.0000000000
11
9.4692180163
21
17.5445724347
31
0.0000000000
11
9.6189189962
21
17.3030063720
31
0.0000000000
11
9.8428772117
21
16.9696319252
31
0.0000000000
11
10.1349836664
21
16.5535426804
31
0.0000000000
11
10.4872704577
21
16.0660884673
31
0.0000000000
11
10.6139937374
21
15.8935357611
31
0.0000000000
0
SPLINE
5
34D
100
AcDbEntity
8
0
100
AcDbSpline
62
7
6
CONTINUOUS
70
0
71
3
72
9
73
5
74
3
42
0.0000001000
43
0.0000001000
44
0.0000000001
12
0.3686773223
22
-0.5008015245
32
0.0000000000
13
0.3724414557
23
-0.4979826976
33
0.0000000000
40
0.0000000000
40
0.0000000000
40
0.0000000000
40
0.0000000000
40
0.7462793965
40
1.0000000000
40
1.0000000000
40
1.0000000000
40
1.0000000000
10
10.6139937374
20
15.8935357611
30
0.0000000000
10
10.7057058339
20
15.7689564746
30
0.0000000000
10
10.8290138574
20
15.6023539277
30
0.0000000000
10
10.9530002601
20
15.4362422622
30
0.0000000000
10
10.9844989504
20
15.3941261054
30
0.0000000000
11
10.6139937374
21
15.8935357611
31
0.0000000000
11
10.8901281203
21
15.5205657663
31
0.0000000000
11
10.9844989504
21
15.3941261054
31
0.0000000000
0
SPLINE
5
34E
100
AcDbEntity
8
0
100
AcDbSpline
62
7
6
CONTINUOUS
70
0
71
3
72
9
73
5
74
3
42
0.0000001000
43
0.0000001000
44
0.0000000001
12
0.5392183877
22
-0.7209762050
32
0.0000000000
13
0.5457661637
23
-0.7160472963
33
0.0000000000
40
0.0000000000
40
0.0000000000
40
0.0000000000
40
0.0000000000
40
0.6427179450
40
1.0000000000
40
1.0000000000
40
1.0000000000
40
1.0000000000
10
10.9844989504
20
15.3941261054
30
0.0000000000
10
11.1000207284
20
15.2396646571
30
0.0000000000
10
11.2806137365
20
14.9999628007
30
0.0000000000
10
11.4621902797
20
14.7610155724
30
0.0000000000
10
11.5271877652
20
14.6757386225
30
0.0000000000
11
10.9844989504
21
15.3941261054
31
0.0000000000
11
11.3325677474
21
14.9318550145
31
0.0000000000
11
11.5271877652
21
14.6757386225
31
0.0000000000
0
SPLINE
5
34F
100
AcDbEntity
8
0
100
AcDbSpline
62
7
6
CONTINUOUS
70
0
71
3
72
8
73
4
74
2
42
0.0000001000
43
0.0000001000
44
0.0000000001
12
0.1154945639
22
-0.1515293100
32
0.0000000000
13
0.1157530963
23
-0.1513312418
33
0.0000000000
40
0.0000000000
40
0.0000000000
40
0.0000000000
40
0.0000000000
40
1.0000000000
40
1.0000000000
40
1.0000000000
40
1.0000000000
10
11.5271877652
20
14.6757386225
30
0.0000000000
10
11.5656859531
20
14.6252288525
30
0.0000000000
10
11.6042274484
20
14.5747522728
30
0.0000000000
10
11.6428118138
20
14.5243085255
30
0.0000000000
11
11.5271877652
21
14.6757386225
31
0.0000000000
11
11.6428118138
21
14.5243085255
31
0.0000000000
0
SPLINE
5
350
100
AcDbEntity
8
0
100
AcDbSpline
62
7
6
CONTINUOUS
70
0
71
3
72
8
73
4
74
2
42
0.0000001000
43
0.0000001000
44
0.0000000001
12
0.0362643772
22
-0.0474106819
32
0.0000000000
13
0.0362895834
23
-0.0473913796
33
0.0000000000
40
0.0000000000
40
0.0000000000
40
0.0000000000
40
0.0000000000
40
1.0000000000
40
1.0000000000
40
1.0000000000
40
1.0000000000
10
11.6428118138
20
14.5243085255
30
0.0000000000
10
11.6548999395
20
14.5085049649
30
0.0000000000
10
11.6669922730
20
14.4927046268
30
0.0000000000
10
11.6790888008
20
14.4769075002
30
0.0000000000
11
11.6428118138
21
14.5243085255
31
0.0000000000
11
11.6790888008
21
14.4769075002
31
0.0000000000
0
SPLINE
5
351
100
AcDbEntity
8
0
100
AcDbSpline
62
7
6
CONTINUOUS
70
0
71
3
72
8
73
4
74
2
42
0.0000001000
43
0.0000001000
44
0.0000000001
12
0.1232872362
22
-0.1610035629
32
0.0000000000
13
0.1235761136
23
-0.1607824556
33
0.0000000000
40
0.0000000000
40
0.0000000000
40
0.0000000000
40
0.0000000000
40
1.0000000000
40
1.0000000000
40
1.0000000000
40
1.0000000000
10
11.6790888008
20
14.4769075002
30
0.0000000000
10
11.7201845462
20
14.4232396459
30
0.0000000000
10
11.7613287014
20
14.3696088585
30
0.0000000000
10
11.8025207392
20
14.3160147067
30
0.0000000000
11
11.6790888008
21
14.4769075002
31
0.0000000000
11
11.8025207392
21
14.3160147067
31
0.0000000000
0
SPLINE
5
352
100
AcDbEntity
8
0
100
AcDbSpline
62
7
6
CONTINUOUS
70
0
71
3
72
8
73
4
74
2
42
0.0000001000
43
0.0000001000
44
0.0000000001
12
-0.0071257234
22
0.0155909017
32
0.0000000000
13
-0.0065925342
23
0.0158225907
33
0.0000000000
40
0.0000000000
40
0.0000000000
40
0.0000000000
40
0.0000000000
40
1.0000000000
40
1.0000000000
40
1.0000000000
40
1.0000000000
10
2.1795865756
20
11.6560429655
30
0.0000000000
10
2.1772113344
20
11.6612399328
30
0.0000000000
10
2.1749150991
20
11.6664719323
30
0.0000000000
10
2.1727175877
20
11.6717461292
30
0.0000000000
11
2.1795865756
21
11.6560429655
31
0.0000000000
11
2.1727175877
21
11.6717461292
31
0.0000000000
0
SPLINE
5
353
100
AcDbEntity
8
0
100
AcDbSpline
62
7
6
CONTINUOUS
70
0
71
3
72
11
73
7
74
5
42
0.0000001000
43
0.0000001000
44
0.0000000001
12
-0.5992696038
22
-0.1340265858
32
0.0000000000
13
0.3943563245
23
-0.5618856083
33
0.0000000000
40
0.0000000000
40
0.0000000000
40
0.0000000000
40
0.0000000000
40
0.0097141209
40
0.1895759601
40
0.5798429268
40
1.0000000000
40
1.0000000000
40
1.0000000000
40
1.0000000000
10
-8.0949891287
20
3.4275040476
30
0.0000000000
10
-8.0969295878
20
3.4270700641
30
0.0000000000
10
-8.1318515059
20
3.4162123458
30
0.0000000000
10
-7.9967127522
20
3.2472790110
30
0.0000000000
10
-7.9324930222
20
3.0997443908
30
0.0000000000
10
-7.8301660494
20
2.9491285964
30
0.0000000000
10
-7.7749355164
20
2.8704351921
30
0.0000000000
11
-8.0949891287
21
3.4275040476
31
0.0000000000
11
-8.1003007746
21
3.4258408252
31
0.0000000000
11
-8.0552946289
21
3.3166570090
31
0.0000000000
11
-7.9228894864
21
3.0972689514
31
0.0000000000
11
-7.7749355164
21
2.8704351921
31
0.0000000000
0
SPLINE
5
354
100
AcDbEntity
8
0
100
AcDbSpline
62
7
6
CONTINUOUS
70
0
71
3
72
19
73
15
74
13
42
0.0000001000
43
0.0000001000
44
0.0000000001
12
4.3301184774
22
-6.1696265634
32
0.0000000000
13
4.7877145579
23
-5.3879154798
33
0.0000000000
40
0.0000000000
40
0.0000000000
40
0.0000000000
40
0.0000000000
40
0.0154758510
40
0.0856416314
40
0.1698670846
40
0.2652975641
40
0.3686924945
40
0.4765380665
40
0.5851680370
40
0.6908893123
40
0.7901083871
40
0.8794546285
40
0.9558967343
40
1.0000000000
40
1.0000000000
40
1.0000000000
40
1.0000000000
10
-7.7749355164
20
2.8704351921
30
0.0000000000
10
-7.7525980936
20
2.8386084517
30
0.0000000000
10
-7.6270119546
20
2.6619324732
30
0.0000000000
10
-7.4012520073
20
2.3352872267
30
0.0000000000
10
-7.0441803001
20
1.8465839665
30
0.0000000000
10
-6.6398812992
20
1.3015133440
30
0.0000000000
10
-6.1948456491
20
0.7134542559
30
0.0000000000
10
-5.7264601398
20
0.1040928343
30
0.0000000000
10
-5.2499872356
20
-0.5062966174
30
0.0000000000
10
-4.7818517495
20
-1.0968165437
30
0.0000000000
10
-4.3379312323
20
-1.6473536811
30
0.0000000000
10
-3.9335019061
20
-2.1393989379
30
0.0000000000
10
-3.6082113329
20
-2.5247428912
30
0.0000000000
10
-3.4184030390
20
-2.7438934154
30
0.0000000000
10
-3.3480184232
20
-2.8231016381
30
0.0000000000
11
-7.7749355164
21
2.8704351921
31
0.0000000000
11
-7.7075942455
21
2.7751476497
31
0.0000000000
11
-7.4167405274
21
2.3612625583
31
0.0000000000
11
-7.0602330067
21
1.8697080378
31
0.0000000000
11
-6.6502121193
21
1.3172233876
31
0.0000000000
11
-6.2006406348
21
0.7226228100
31
0.0000000000
11
-5.7268281710
21
0.1061547145
31
0.0000000000
11
-5.2449098430
21
-0.5111878173
31
0.0000000000
11
-4.7712968014
21
-1.1083819259
31
0.0000000000
11
-4.3221173704
21
-1.6650908822
31
0.0000000000
11
-3.9126678168
21
-2.1623566304
31
0.0000000000
11
-3.5568914539
21
-2.5832453818
31
0.0000000000
11
-3.3480184232
21
-2.8231016381
31
0.0000000000
0
SPLINE
5
355
100
AcDbEntity
8
0
100
AcDbSpline
62
7
6
CONTINUOUS
70
0
71
3
72
10
73
6
74
4
42
0.0000001000
43
0.0000001000
44
0.0000000001
12
0.4060696888
22
-0.4569756897
32
0.0000000000
13
0.5002190939
23
-0.3516868565
33
0.0000000000
40
0.0000000000
40
0.0000000000
40
0.0000000000
40
0.0000000000
40
0.1986668856
40
0.7106800065
40
1.0000000000
40
1.0000000000
40
1.0000000000
40
1.0000000000
10
-3.3480184232
20
-2.8231016381
30
0.0000000000
10
-3.3211275564
20
-2.8533636172
30
0.0000000000
10
-3.2244412580
20
-2.9611110112
30
0.0000000000
10
-3.0853787576
20
-3.1094854380
30
0.0000000000
10
-2.9694599434
20
-3.2262323323
30
0.0000000000
10
-2.9212188151
20
-3.2601490120
30
0.0000000000
11
-3.3480184232
21
-2.8231016381
31
0.0000000000
11
-3.2669038193
21
-2.9134242748
31
0.0000000000
11
-3.0525800938
21
-3.1416494632
31
0.0000000000
11
-2.9212188151
21
-3.2601490120
31
0.0000000000
0
SPLINE
5
356
100
AcDbEntity
8
0
100
AcDbSpline
62
7
6
CONTINUOUS
70
0
71
3
72
9
73
5
74
3
42
0.0000001000
43
0.0000001000
44
0.0000000001
12
-0.0065043496
22
0.0200875871
32
0.0000000000
13
0.0116172997
23
0.0202064855
33
0.0000000000
40
0.0000000000
40
0.0000000000
40
0.0000000000
40
0.0000000000
40
0.7780648000
40
1.0000000000
40
1.0000000000
40
1.0000000000
40
1.0000000000
10
2.1613201627
20
11.7025490831
30
0.0000000000
10
2.1596332275
20
11.7077588979
30
0.0000000000
10
2.1583217933
20
11.7146373261
30
0.0000000000
10
2.1612953590
20
11.7222065628
30
0.0000000000
10
2.1621547883
20
11.7237014063
30
0.0000000000
11
2.1613201627
21
11.7025490831
31
0.0000000000
11
2.1601865399
21
11.7188808286
31
0.0000000000
11
2.1621547883
21
11.7237014063
31
0.0000000000
0
SPLINE
5
357
100
AcDbEntity
8
0
100
AcDbSpline
62
7
6
CONTINUOUS
70
0
71
3
72
8
73
4
74
2
42
0.0000001000
43
0.0000001000
44
0.0000000001
12
0.0018228400
22
0.0031705467
32
0.0000000000
13
0.0024088599
23
0.0023833682
33
0.0000000000
40
0.0000000000
40
0.0000000000
40
0.0000000000
40
0.0000000000
40
1.0000000000
40
1.0000000000
40
1.0000000000
40
1.0000000000
10
2.1621547883
20
11.7237014063
30
0.0000000000
10
2.1627624016
20
11.7247582552
30
0.0000000000
10
2.1634697290
20
11.7257226147
30
0.0000000000
10
2.1642726823
20
11.7265170707
30
0.0000000000
11
2.1621547883
21
11.7237014063
31
0.0000000000
11
2.1642726823
21
11.7265170707
31
0.0000000000
0
SPLINE
5
358
100
AcDbEntity
8
0
100
AcDbSpline
62
7
6
CONTINUOUS
70
0
71
3
72
9
73
5
74
3
42
0.0000001000
43
0.0000001000
44
0.0000000001
12
-0.3814173493
22
0.4788346795
32
0.0000000000
13
-0.3785663399
23
0.4810918529
33
0.0000000000
40
0.0000000000
40
0.0000000000
40
0.0000000000
40
0.0000000000
40
0.4961531033
40
1.0000000000
40
1.0000000000
40
1.0000000000
40
1.0000000000
10
5.5693220302
20
7.0598494810
30
0.0000000000
10
5.5062415630
20
7.1390412518
30
0.0000000000
10
5.3793495266
20
7.2988497594
30
0.0000000000
10
5.2529307147
20
7.4590328442
30
0.0000000000
10
5.1893508895
20
7.5398317232
30
0.0000000000
11
5.5693220302
21
7.0598494810
31
0.0000000000
11
5.3804423004
21
7.2977124346
31
0.0000000000
11
5.1893508895
21
7.5398317232
31
0.0000000000
0
SPLINE
5
359
100
AcDbEntity
8
0
100
AcDbSpline
62
7
6
CONTINUOUS
70
0
71
3
72
8
73
4
74
2
42
0.0000001000
43
0.0000001000
44
0.0000000001
12
-0.0291998899
22
0.0355455004
32
0.0000000000
13
-0.0291738825
23
0.0355607931
33
0.0000000000
40
0.0000000000
40
0.0000000000
40
0.0000000000
40
0.0000000000
40
1.0000000000
40
1.0000000000
40
1.0000000000
40
1.0000000000
10
13.8393375534
20
11.7452282766
30
0.0000000000
10
13.8296042567
20
11.7570767767
30
0.0000000000
10
13.8198754664
20
11.7689276350
30
0.0000000000
10
13.8101508389
20
11.7807812327
30
0.0000000000
11
13.8393375534
21
11.7452282766
31
0.0000000000
11
13.8101508389
21
11.7807812327
31
0.0000000000
0
SPLINE
5
35A
100
AcDbEntity
8
0
100
AcDbSpline
62
7
6
CONTINUOUS
70
0
71
3
72
12
73
8
74
6
42
0.0000001000
43
0.0000001000
44
0.0000000001
12
-2.0490557889
22
2.4976466233
32
0.0000000000
13
-1.9708925558
23
2.5642896147
33
0.0000000000
40
0.0000000000
40
0.0000000000
40
0.0000000000
40
0.0000000000
40
0.0551871536
40
0.2762468476
40
0.5117123518
40
0.7551732959
40
1.0000000000
40
1.0000000000
40
1.0000000000
40
1.0000000000
10
13.8101508389
20
11.7807812327
30
0.0000000000
10
13.7724569868
20
11.8267272353
30
0.0000000000
10
13.5840883224
20
12.0569222587
30
0.0000000000
10
13.2371335533
20
12.4862702546
30
0.0000000000
10
12.7672611538
20
13.0766061257
30
0.0000000000
10
12.2855702098
20
13.6904754746
30
0.0000000000
10
11.9633631154
20
14.1067458485
30
0.0000000000
10
11.8025207392
20
14.3160147067
30
0.0000000000
11
13.8101508389
21
11.7807812327
31
0.0000000000
11
13.6972369075
21
11.9187649172
31
0.0000000000
11
13.2476254755
21
12.4746447409
31
0.0000000000
11
12.7732896256
21
13.0704212993
31
0.0000000000
11
12.2871680033
21
13.6898433609
31
0.0000000000
11
11.8025207392
21
14.3160147067
31
0.0000000000
0
SPLINE
5
35B
100
AcDbEntity
8
0
100
AcDbSpline
62
7
6
CONTINUOUS
70
0
71
3
72
9
73
5
74
3
42
0.0000001000
43
0.0000001000
44
0.0000000001
12
-0.3866158675
22
0.4927878677
32
0.0000000000
13
-0.3838140659
23
0.4949732057
33
0.0000000000
40
0.0000000000
40
0.0000000000
40
0.0000000000
40
0.0000000000
40
0.4992513095
40
1.0000000000
40
1.0000000000
40
1.0000000000
40
1.0000000000
10
5.0925871112
20
7.6629853933
30
0.0000000000
10
5.0282476185
20
7.7449937227
30
0.0000000000
10
4.8996111661
20
7.9094412387
30
0.0000000000
10
4.7714399788
20
8.0742516360
30
0.0000000000
10
4.7073751818
20
8.1568706975
30
0.0000000000
11
5.0925871112
21
7.6629853933
31
0.0000000000
11
4.8999197521
21
7.9092854470
31
0.0000000000
11
4.7073751818
21
8.1568706975
31
0.0000000000
0
SPLINE
5
35C
100
AcDbEntity
8
0
100
AcDbSpline
62
7
6
CONTINUOUS
70
0
71
3
72
22
73
18
74
16
42
0.0000001000
43
0.0000001000
44
0.0000000001
12
-5.4384280058
22
-2.2709415115
32
0.0000000000
13
4.5653709149
23
-3.2097554161
33
0.0000000000
40
0.0000000000
40
0.0000000000
40
0.0000000000
40
0.0000000000
40
0.0008925609
40
0.0203937433
40
0.0606621550
40
0.1201189781
40
0.1962118765
40
0.2856360256
40
0.3844956695
40
0.4884793203
40
0.5930502207
40
0.6936458127
40
0.7858782583
40
0.8657279144
40
0.9297228226
40
0.9751023980
40
1.0000000000
40
1.0000000000
40
1.0000000000
40
1.0000000000
10
-18.2493898838
20
-6.3024017745
30
0.0000000000
10
-18.2510079266
20
-6.3030774257
30
0.0000000000
10
-18.2856911109
20
-6.3205359120
30
0.0000000000
10
-18.1492983437
20
-6.4540501155
30
0.0000000000
10
-18.0891741769
20
-6.6147239889
30
0.0000000000
10
-17.8741361772
20
-6.8960358279
30
0.0000000000
10
-17.6409954454
20
-7.2309861085
30
0.0000000000
10
-17.3447985128
20
-7.6281441920
30
0.0000000000
10
-17.0184373935
20
-8.0615732893
30
0.0000000000
10
-16.6695329039
20
-8.5151037640
30
0.0000000000
10
-16.3153228246
20
-8.9680754693
30
0.0000000000
10
-15.9706958402
20
-9.4008840340
30
0.0000000000
10
-15.6509985574
20
-9.7947776169
30
0.0000000000
10
-15.3698984490
20
-10.1320246526
30
0.0000000000
10
-15.1407771051
20
-10.3997700231
30
0.0000000000
10
-14.9716664787
20
-10.5826457672
30
0.0000000000
10
-14.8802474409
20
-10.6776250011
30
0.0000000000
10
-14.8423585115
20
-10.7042634054
30
0.0000000000
11
-18.2493898838
21
-6.3024017745
31
0.0000000000
11
-18.2538895759
21
-6.3046581527
31
0.0000000000
11
-18.2070886522
21
-6.4029131773
31
0.0000000000
11
-18.0871630806
21
-6.5929687087
31
0.0000000000
11
-17.8993541840
21
-6.8665184081
31
0.0000000000
11
-17.6518701123
21
-7.2116068411
31
0.0000000000
11
-17.3555271071
21
-7.6131519872
31
0.0000000000
11
-17.0232767797
21
-8.0536043967
31
0.0000000000
11
-16.6696400637
21
-8.5137141858
31
0.0000000000
11
-16.3100725806
21
-8.9733723488
31
0.0000000000
11
-15.9602891548
21
-9.4124896183
31
0.0000000000
11
-15.6355770003
21
-9.8118744626
31
0.0000000000
11
-15.3501275966
21
-10.1540718475
31
0.0000000000
11
-15.1164164522
21
-10.4241261052
31
0.0000000000
11
-14.9446578657
21
-10.6102345688
31
0.0000000000
11
-14.8423585115
21
-10.7042634054
31
0.0000000000
0
SPLINE
5
35D
100
AcDbEntity
8
0
100
AcDbSpline
62
7
6
CONTINUOUS
70
0
71
3
72
17
73
13
74
11
42
0.0000001000
43
0.0000001000
44
0.0000000001
12
-0.8812064350
22
-2.7232920525
32
0.0000000000
13
-2.4875233764
23
3.2364678337
33
0.0000000000
40
0.0000000000
40
0.0000000000
40
0.0000000000
40
0.0000000000
40
0.0012323192
40
0.0235597280
40
0.0745771825
40
0.1529804186
40
0.2561923262
40
0.3807361406
40
0.5223916961
40
0.6763491767
40
0.8373766455
40
1.0000000000
40
1.0000000000
40
1.0000000000
40
1.0000000000
10
-3.2845941188
20
-2.7604446383
30
0.0000000000
10
-3.2849560947
20
-2.7615632934
30
0.0000000000
10
-3.2932763356
20
-2.7803265234
30
0.0000000000
10
-3.4120346253
20
-2.6567910457
30
0.0000000000
10
-3.5223033033
20
-2.5535361985
30
0.0000000000
10
-3.7502861666
20
-2.2946286428
30
0.0000000000
10
-4.0144233533
20
-1.9875316161
30
0.0000000000
10
-4.3383173962
20
-1.5977773592
30
0.0000000000
10
-4.6983836351
20
-1.1554471281
30
0.0000000000
10
-5.0865644864
20
-0.6697646533
30
0.0000000000
10
-5.4882688233
20
-0.1590745254
30
0.0000000000
10
-5.7579772865
20
0.1890898246
30
0.0000000000
10
-5.8928204185
20
0.3645315765
30
0.0000000000
11
-3.2845941188
21
-2.7604446383
31
0.0000000000
11
-3.2859063751
21
-2.7633680508
31
0.0000000000
11
-3.3604635211
21
-2.7109494833
31
0.0000000000
11
-3.5074985130
21
-2.5634722475
31
0.0000000000
11
-3.7220042503
21
-2.3259585036
31
0.0000000000
11
-3.9966759976
21
-2.0064964974
31
0.0000000000
11
-4.3221601378
21
-1.6159651243
31
0.0000000000
11
-4.6873726990
21
-1.1676634618
31
0.0000000000
11
-5.0798768054
21
-0.6768578854
31
0.0000000000
11
-5.4863062004
21
-0.1602621904
31
0.0000000000
11
-5.8928204185
21
0.3645315765
31
0.0000000000
0
SPLINE
5
35E
100
AcDbEntity
8
0
100
AcDbSpline
62
7
6
CONTINUOUS
70
0
71
3
72
9
73
5
74
3
42
0.0000001000
43
0.0000001000
44
0.0000000001
12
-0.1909524338
22
0.2469821561
32
0.0000000000
13
-0.1902466685
23
0.2475262057
33
0.0000000000
40
0.0000000000
40
0.0000000000
40
0.0000000000
40
0.0000000000
40
0.5006651283
40
1.0000000000
40
1.0000000000
40
1.0000000000
40
1.0000000000
10
4.6107660484
20
8.2816429925
30
0.0000000000
10
4.5788983068
20
8.3228614434
30
0.0000000000
10
4.5153057747
20
8.4052339036
30
0.0000000000
10
4.4518307587
20
8.4876969550
30
0.0000000000
10
4.4201651601
20
8.5288964437
30
0.0000000000
11
4.6107660484
21
8.2816429925
31
0.0000000000
11
4.5152506376
21
8.4053661882
31
0.0000000000
11
4.4201651601
21
8.5288964437
31
0.0000000000
0
SPLINE
5
35F
100
AcDbEntity
8
0
100
AcDbSpline
62
7
6
CONTINUOUS
70
0
71
3
72
15
73
11
74
9
42
0.0000001000
43
0.0000001000
44
0.0000000001
12
-2.7642903317
22
3.5441331571
32
0.0000000000
13
2.6869703257
23
0.0105683962
33
0.0000000000
40
0.0000000000
40
0.0000000000
40
0.0000000000
40
0.0000000000
40
0.2137175355
40
0.4187944080
40
0.6049676944
40
0.7629296090
40
0.8848059317
40
0.9645941852
40
0.9987999777
40
1.0000000000
40
1.0000000000
40
1.0000000000
40
1.0000000000
10
-7.3140397636
20
-14.7694023771
30
0.0000000000
10
-7.5109655360
20
-14.5169212424
30
0.0000000000
10
-7.8949660190
20
-14.0200139621
30
0.0000000000
10
-8.4411973089
20
-13.2995144554
30
0.0000000000
10
-8.9358334118
20
-12.6330994272
30
0.0000000000
10
-9.3317697936
20
-12.0829843398
30
0.0000000000
10
-9.6704270559
20
-11.5995275069
30
0.0000000000
10
-9.7989496967
20
-11.3827422528
30
0.0000000000
10
-9.9593875709
20
-11.1313580333
30
0.0000000000
10
-9.9301128978
20
-11.1288676315
30
0.0000000000
10
-9.9290380897
20
-11.1288634040
30
0.0000000000
11
-7.3140397636
21
-14.7694023771
31
0.0000000000
11
-7.9013609361
21
-14.0092759475
31
0.0000000000
11
-8.4580203258
21
-13.2745897417
31
0.0000000000
11
-8.9561047063
21
-12.6021839938
31
0.0000000000
11
-9.3706380470
21
-12.0257759357
31
0.0000000000
11
-9.6808339154
21
-11.5742690744
31
0.0000000000
11
-9.8711377951
21
-11.2703038492
31
0.0000000000
11
-9.9320070552
21
-11.1291223457
31
0.0000000000
11
-9.9290380897
21
-11.1288634040
31
0.0000000000
0
SPLINE
5
360
100
AcDbEntity
8
0
100
AcDbSpline
62
7
6
CONTINUOUS
70
0
71
3
72
15
73
11
74
9
42
0.0000001000
43
0.0000001000
44
0.0000000001
12
-2.8932322319
22
3.7094512710
32
0.0000000000
13
2.8581745505
23
-0.0335209680
33
0.0000000000
40
0.0000000000
40
0.0000000000
40
0.0000000000
40
0.0000000000
40
0.2136901854
40
0.4187408134
40
0.6048902746
40
0.7628319743
40
0.8846927001
40
0.9644707428
40
0.9986721578
40
1.0000000000
40
1.0000000000
40
1.0000000000
40
1.0000000000
10
0.5742243595
20
-8.6498331989
30
0.0000000000
10
0.3681392488
20
-8.3856087557
30
0.0000000000
10
-0.0337217218
20
-7.8655895088
30
0.0000000000
10
-0.6053591182
20
-7.1115783971
30
0.0000000000
10
-1.1230015515
20
-6.4141673212
30
0.0000000000
10
-1.5373535790
20
-5.8384654855
30
0.0000000000
10
-1.8917623419
20
-5.3325222882
30
0.0000000000
10
-2.0262627799
20
-5.1056539991
30
0.0000000000
10
-2.1943494312
20
-4.8422851912
30
0.0000000000
10
-2.1633040237
20
-4.8399534357
30
0.0000000000
10
-2.1620389555
20
-4.8399682725
30
0.0000000000
11
0.5742243595
21
-8.6498331989
31
0.0000000000
11
-0.0404140770
21
-7.8543520517
31
0.0000000000
11
-0.6229646010
21
-7.0854943944
31
0.0000000000
11
-1.1442156969
21
-6.3818139606
31
0.0000000000
11
-1.5780296582
21
-5.7785962254
31
0.0000000000
11
-1.9026532413
21
-5.3060890450
31
0.0000000000
11
-2.1018084643
21
-4.9879859023
31
0.0000000000
11
-2.1655088527
21
-4.8402378172
31
0.0000000000
11
-2.1620389555
21
-4.8399682725
31
0.0000000000
0
SPLINE
5
361
100
AcDbEntity
8
0
100
AcDbSpline
62
7
6
CONTINUOUS
70
0
71
3
72
11
73
7
74
5
42
0.0000001000
43
0.0000001000
44
0.0000000001
12
-1.2766604407
22
1.5966103769
32
0.0000000000
13
-1.2457609135
23
1.6208350696
33
0.0000000000
40
0.0000000000
40
0.0000000000
40
0.0000000000
40
0.0000000000
40
0.2438028846
40
0.4940522577
40
0.7471718761
40
1.0000000000
40
1.0000000000
40
1.0000000000
40
1.0000000000
10
9.0734946742
20
9.5563118831
30
0.0000000000
10
8.9697435081
20
9.6860646216
30
0.0000000000
10
8.7601906003
20
9.9495555199
30
0.0000000000
10
8.4452155879
20
10.3495751185
30
0.0000000000
10
8.1283375257
20
10.7559166681
30
0.0000000000
10
7.9175895572
20
11.0287693246
30
0.0000000000
10
7.8126017590
20
11.1653668879
30
0.0000000000
11
9.0734946742
21
9.5563118831
31
0.0000000000
11
8.7632370933
21
9.9463643565
31
0.0000000000
11
8.4467384128
21
10.3482835951
31
0.0000000000
11
8.1285320399
21
10.7563191569
31
0.0000000000
11
7.8126017590
21
11.1653668879
31
0.0000000000
0
SPLINE
5
362
100
AcDbEntity
8
0
100
AcDbSpline
62
7
6
CONTINUOUS
70
0
71
3
72
24
73
20
74
18
42
0.0000001000
43
0.0000001000
44
0.0000000001
12
-7.0181475851
22
-1.8318746221
32
0.0000000000
13
6.5260757512
23
-4.5882596132
33
0.0000000000
40
0.0000000000
40
0.0000000000
40
0.0000000000
40
0.0000000000
40
0.0005848928
40
0.0145175821
40
0.0447489444
40
0.0904588911
40
0.1501393637
40
0.2217784848
40
0.3029481957
40
0.3908921802
40
0.4826217194
40
0.5750184395
40
0.6649411287
40
0.7493332817
40
0.8253279599
40
0.8903468476
40
0.9421914194
40
0.9791283077
40
1.0000000000
40
1.0000000000
40
1.0000000000
40
1.0000000000
10
-15.8322696879
20
-2.9009965268
30
0.0000000000
10
-15.8336379758
20
-2.9013536769
30
0.0000000000
10
-15.8652905779
20
-2.9119272711
30
0.0000000000
10
-15.7385757386
20
-3.0703300963
30
0.0000000000
10
-15.6677620708
20
-3.2330132402
30
0.0000000000
10
-15.4384860956
20
-3.5519914387
30
0.0000000000
10
-15.1781420963
20
-3.9286753051
30
0.0000000000
10
-14.8420746072
20
-4.3886313146
30
0.0000000000
10
-14.4615579004
20
-4.9016389593
30
0.0000000000
10
-14.0427008180
20
-5.4551063364
30
0.0000000000
10
-13.6018673974
20
-6.0286229685
30
0.0000000000
10
-13.1534223111
20
-6.6031071583
30
0.0000000000
10
-12.7128242066
20
-7.1588906184
30
0.0000000000
10
-12.2950166610
20
-7.6770432183
30
0.0000000000
10
-11.9143772952
20
-8.1401446365
30
0.0000000000
10
-11.5836435340
20
-8.5319366696
30
0.0000000000
10
-11.3150841501
20
-8.8409053376
30
0.0000000000
10
-11.1161437437
20
-9.0531672248
30
0.0000000000
10
-11.0070436832
20
-9.1630466547
30
0.0000000000
10
-10.9616402683
20
-9.1949682356
30
0.0000000000
11
-15.8322696879
21
-2.9009965268
31
0.0000000000
11
-15.8360703479
21
-2.9022719183
31
0.0000000000
11
-15.7937116225
21
-3.0050331570
31
0.0000000000
11
-15.6690950178
21
-3.2115160347
31
0.0000000000
11
-15.4664642028
21
-3.5146890246
31
0.0000000000
11
-15.1927195270
21
-3.9042279341
31
0.0000000000
11
-14.8571830369
21
-4.3668674829
31
0.0000000000
11
-14.4712810252
21
-4.8868530360
31
0.0000000000
11
-14.0481549222
21
-5.4464771090
31
0.0000000000
11
-13.6022137798
21
-6.0266823754
31
0.0000000000
11
-13.1486435887
21
-6.6077106406
31
0.0000000000
11
-12.7028901378
21
-7.1697756840
31
0.0000000000
11
-12.2801330263
21
-7.6937370546
31
0.0000000000
11
-11.8947687405
21
-8.1617518765
31
0.0000000000
11
-11.5599203990
21
-8.5578824660
31
0.0000000000
11
-11.2869908605
21
-8.8686390712
31
0.0000000000
11
-11.0852744130
21
-9.0834392485
31
0.0000000000
11
-10.9616402683
21
-9.1949682356
31
0.0000000000
0
SPLINE
5
363
100
AcDbEntity
8
0
100
AcDbSpline
62
7
6
CONTINUOUS
70
0
71
3
72
14
73
10
74
8
42
0.0000001000
43
0.0000001000
44
0.0000000001
12
2.5337467429
22
-3.2485501759
32
0.0000000000
13
2.5578226269
23
-0.0827471979
33
0.0000000000
40
0.0000000000
40
0.0000000000
40
0.0000000000
40
0.0000000000
40
0.2309182607
40
0.4480323132
40
0.6404796991
40
0.7986461426
40
0.9146675998
40
0.9829156588
40
1.0000000000
40
1.0000000000
40
1.0000000000
40
1.0000000000
10
-7.3140397636
20
-14.7694023771
30
0.0000000000
10
-7.1190102999
20
-15.0194522292
30
0.0000000000
10
-6.7380432941
20
-15.5028818385
30
0.0000000000
10
-6.1891423670
20
-16.1889933496
30
0.0000000000
10
-5.6891398515
20
-16.7909074140
30
0.0000000000
10
-5.2891629065
20
-17.2815276370
30
0.0000000000
10
-4.9439126789
20
-17.6296963612
30
0.0000000000
10
-4.8074814573
20
-17.8345723728
30
0.0000000000
10
-4.6661394276
20
-17.9038881761
30
0.0000000000
10
-4.6515731895
20
-17.9043594033
30
0.0000000000
11
-7.3140397636
21
-14.7694023771
31
0.0000000000
11
-6.7255075441
21
-15.5168531173
31
0.0000000000
11
-6.1652757407
21
-16.2141478668
31
0.0000000000
11
-5.6614367154
21
-16.8263213554
31
0.0000000000
11
-5.2392550607
21
-17.3226766480
31
0.0000000000
11
-4.9199007276
21
-17.6783244177
31
0.0000000000
11
-4.7193874759
21
-17.8754310003
31
0.0000000000
11
-4.6515731895
21
-17.9043594033
31
0.0000000000
0
SPLINE
5
364
100
AcDbEntity
8
0
100
AcDbSpline
62
7
6
CONTINUOUS
70
0
71
3
72
14
73
10
74
8
42
0.0000001000
43
0.0000001000
44
0.0000000001
12
2.6519278287
22
-3.4000717074
32
0.0000000000
13
2.6399209010
23
-0.0503216893
33
0.0000000000
40
0.0000000000
40
0.0000000000
40
0.0000000000
40
0.0000000000
40
0.2308893168
40
0.4479761556
40
0.6403994195
40
0.7985460381
40
0.9145529528
40
0.9827924574
40
1.0000000000
40
1.0000000000
40
1.0000000000
40
1.0000000000
10
0.5742243595
20
-8.6498331989
30
0.0000000000
10
0.7783249610
20
-8.9115132768
30
0.0000000000
10
1.1770113624
20
-9.4174279841
30
0.0000000000
10
1.7514425652
20
-10.1354516585
30
0.0000000000
10
2.2747010116
20
-10.7653617259
30
0.0000000000
10
2.6932815354
20
-11.2788014941
30
0.0000000000
10
3.0545899132
20
-11.6431641126
30
0.0000000000
10
3.1974556628
20
-11.8577027249
30
0.0000000000
10
3.3457176348
20
-11.9303221264
30
0.0000000000
10
3.3608598185
20
-11.9306107639
30
0.0000000000
11
0.5742243595
21
-8.6498331989
31
0.0000000000
11
1.1901301705
21
-9.4320490898
31
0.0000000000
11
1.7764192671
21
-10.1617761533
31
0.0000000000
11
2.3036926657
21
-10.8024228274
31
0.0000000000
11
2.7455106764
21
-11.3218644127
31
0.0000000000
11
3.0797186994
21
-11.6940539391
31
0.0000000000
11
3.2895581488
21
-11.9003282697
31
0.0000000000
11
3.3608598185
21
-11.9306107639
31
0.0000000000
0
ENDSEC
0
SECTION
2
OBJECTS
0
DICTIONARY
5
365
100
AcDbDictionary
3
ACAD_GROUP
350
366
3
ACAD_MLINESTYLE
350
367
0
DICTIONARY
5
366
102
{ACAD_REACTORS
330
365
102
}
100
AcDbDictionary
0
DICTIONARY
5
367
102
{ACAD_REACTORS
330
365
102
}
100
AcDbDictionary
3
STANDARD
350
368
0
MLINESTYLE
5
368
102
{ACAD_REACTORS
330
367
102
}
100
AcDbMlineStyle
2
STANDARD
70
0
3

62
256
51
90.0
52
90.0
71
2
49
0.5
62
256
6
BYLAYER
49
-0.5
62
256
6
BYLAYER
0
ENDSEC
0
EOF
