  0
SECTION
  2
HEADER
  9
$ACADVER
  1
AC1024
  9
$DWGCODEPAGE
  3
ANSI_1252
  9
$EXTMAX
 10
420.0
 20
297.0
 30
0.0
  9
$EXTMIN
 10
0.0
 20
-0.0
 30
0.0
  9
$LIMMIN
 10
0.0
 20
-0.0
  9
$LIMMAX
 10
420.0
 20
297.0
  9
$VIEWCTR
 10
210.0
 20
148.5
  9
$VIEWSIZE
 40
297.0
  9
$CLAYER
  8
0
  9
$LTSCALE
 40
23.1
  9
$CELTYPE
  6
BYLAYER
  9
$DIMSCALE
 40
1.0
  9
$DIMASZ
 40
3.0
  9
$DIMEXO
 40
0.5
  9
$DIMDLI
 40
15.96
  9
$DIMEXE
 40
1.5
  9
$DIMCEN
 40
3.78
  9
$DIMLFAC
 40
1.0
  9
$DIMBLK
  1
_FILLED
  9
$DIMALT
 70
0
  9
$DIMALTF
 40
0.0393700787
  9
$DIMTXT
 40
3.0
  9
$DIMTOL
 70
1
  9
$DIMLIM
 70
0
  9
$DIMTFAC
 40
1.0
  9
$DIMTP
 40
0.01
  9
$DIMTM
 40
0.01
  9
$DIMGAP
 40
0.625
  9
$DIMDSEP
 70
44
  9
$AUNITS
 70
0
  9
$PDMODE
 70
3
  9
$PDSIZE
 40
3.0
  9
$HANDSEED
  5
685
  9
$TILEMODE
 70
1
  9
$MEASUREMENT
 70
1
  9
$INSUNITS
 70
4
  0
ENDSEC
  0
SECTION
  2
CLASSES
  0
CLASS
  1
ACDBDICTIONARYWDFLT
  2
AcDbDictionaryWithDefault
  3
AutoCAD 2000
 90
0
 91
1
280
0
281
0
  0
CLASS
  1
ACDBPLACEHOLDER
  2
AcDbPlaceHolder
  3
AutoCAD 2000
 90
0
 91
1
280
0
281
0
  0
CLASS
  1
LAYOUT
  2
AcDbLayout
  3
AutoCAD 2000
 90
0
 91
0
280
0
281
0
  0
ENDSEC
  0
SECTION
  2
TABLES
  0
TABLE
  2
VPORT
  5
8
100
AcDbSymbolTable
 70
2
  0
VPORT
  5
1F4
100
AcDbSymbolTableRecord
100
AcDbViewportTableRecord
  2
*ACTIVE
 70
0
 10
0.0
 20
0.0
 11
1.0
 21
1.0
 12
210.0
 22
148.5
 13
0.0
 23
0.0
 14
1.0
 24
1.0
 15
0.0
 25
0.0
 16
0.0
 26
0.0
 36
1.0
 17
0.0
 27
0.0
 37
0.0
 40
297.0
 41
1.4141414141
 42
50.0
 43
0.0
 44
0.0
 50
0.0
 51
0.0
 71
0
 72
100
 73
1
 74
1
 75
0
 76
0
 77
0
 78
0
  0
ENDTAB
  0
TABLE
  2
LTYPE
  5
5
100
AcDbSymbolTable
 70
6
  0
LTYPE
  5
14
100
AcDbSymbolTableRecord
100
AcDbLinetypeTableRecord
  2
BYBLOCK
 70
0
  3

 72
65
 73
0
 40
0.0
  0
LTYPE
  5
15
100
AcDbSymbolTableRecord
100
AcDbLinetypeTableRecord
  2
BYLAYER
 70
0
  3

 72
65
 73
0
 40
0.0
  0
LTYPE
  5
16
100
AcDbSymbolTableRecord
100
AcDbLinetypeTableRecord
  2
CONTINUOUS
 70
64
  3
Solid line
 72
65
 73
0
 40
0.0
  0
LTYPE
  5
1F5
100
AcDbSymbolTableRecord
100
AcDbLinetypeTableRecord
  2
CENTER
 70
64
  3
____ _ ____ _ ____ _ ____ _ ____ _ ____ _ ____
 72
65
 73
4
 40
0.6
 49
0.375
 74
0
 49
-0.075
 74
0
 49
0.075
 74
0
 49
-0.075
 74
0
  0
LTYPE
  5
1F6
100
AcDbSymbolTableRecord
100
AcDbLinetypeTableRecord
  2
HIDDEN
 70
64
  3
- - - - - - - - - - - - - - - - - - - -
 72
65
 73
2
 40
0.2
 49
0.1
 74
0
 49
-0.1
 74
0
  0
LTYPE
  5
1F7
100
AcDbSymbolTableRecord
100
AcDbLinetypeTableRecord
  2
PHANTOM
 70
64
  3
_____ _ _ _____ _ _ _____ _ _ _____
 72
65
 73
6
 40
0.8
 49
0.45
 74
0
 49
-0.05
 74
0
 49
0.1
 74
0
 49
-0.05
 74
0
 49
0.1
 74
0
 49
-0.05
 74
0
  0
LTYPE
  5
1F8
100
AcDbSymbolTableRecord
100
AcDbLinetypeTableRecord
  2
DOT
 70
64
  3
. . . . . . . . . . . . . . . . . . . .
 72
65
 73
2
 40
0.2
 49
0.1
 74
0
 49
-0.1
 74
0
  0
LTYPE
  5
1F9
100
AcDbSymbolTableRecord
100
AcDbLinetypeTableRecord
  2
DASHED
 70
64
  3
- - - - - - - - - - - - - - - - - - - -
 72
65
 73
2
 40
0.2
 49
0.1
 74
0
 49
-0.1
 74
0
  0
ENDTAB
  0
TABLE
  2
LAYER
  5
2
100
AcDbSymbolTable
 70
36
  0
LAYER
  5
10
100
AcDbSymbolTableRecord
100
AcDbLayerTableRecord
  2
0
 70
0
 62
7
  6
CONTINUOUS
370
-3
390
F
  0
LAYER
  5
1FA
100
AcDbSymbolTableRecord
100
AcDbLayerTableRecord
  2
DEFAULT_1
 70
0
 62
7
  6
CENTER
370
-3
390
F
  0
LAYER
  5
1FB
100
AcDbSymbolTableRecord
100
AcDbLayerTableRecord
  2
DEFAULT_2
 70
0
 62
7
  6
HIDDEN
370
-3
390
F
  0
LAYER
  5
1FC
100
AcDbSymbolTableRecord
100
AcDbLayerTableRecord
  2
DEFAULT_3
 70
0
 62
7
  6
PHANTOM
370
-3
390
F
  0
ENDTAB
  0
TABLE
  2
STYLE
  5
3
100
AcDbSymbolTable
 70
1
  0
STYLE
  5
11
100
AcDbSymbolTableRecord
100
AcDbTextStyleTableRecord
  2
STANDARD
 70
0
 40
0.0
 41
0.8
 50
0.0
 71
0
 42
0.2
  3
txt
  4

  0
STYLE
  5
1FD
100
AcDbSymbolTableRecord
100
AcDbTextStyleTableRecord
  2
TEXTSTYLE_1
 70
0
 40
0.0
 41
0.8
 50
0.0
 71
0
 42
0.2
  3
gdt
  4

  0
ENDTAB
  0
TABLE
  2
VIEW
  5
6
100
AcDbSymbolTable
 70
0
  0
ENDTAB
  0
TABLE
  2
UCS
  5
7
100
AcDbSymbolTable
 70
0
  0
ENDTAB
  0
TABLE
  2
APPID
  5
9
100
AcDbSymbolTable
 70
1
  0
APPID
  5
1FE
100
AcDbSymbolTableRecord
100
AcDbRegAppTableRecord
  2
ACAD
 70
0
  0
ENDTAB
  0
TABLE
  2
BLOCK_RECORD
  5
1
100
AcDbSymbolTable
 70
0
  0
BLOCK_RECORD
  5
1FF
100
AcDbSymbolTableRecord
100
AcDbBlockTableRecord
  2
*Model_Space
  0
BLOCK_RECORD
  5
200
100
AcDbSymbolTableRecord
100
AcDbBlockTableRecord
  2
*Paper_Space
  0
BLOCK_RECORD
  5
201
100
AcDbSymbolTableRecord
100
AcDbBlockTableRecord
  2
_FILLED
  0
ENDTAB
  0
TABLE
  2
DIMSTYLE
  5
A
100
AcDbSymbolTable
 70
1
100
AcDbDimStyleTable
 71
0
  0
DIMSTYLE
105
202
100
AcDbSymbolTableRecord
100
AcDbDimStyleTableRecord
  2
STANDARD
 70
0
  3

  4

 40
1.0
 41
3.0
 42
0.5
 43
0.38
 44
1.5
 45
0.0
 46
0.0
 47
0.01
 48
0.01
140
3.0
141
0.09
142
0.0
143
25.4
144
1.0
145
0.0
146
1.0
147
0.625
 71
1.0
 72
0.0
 73
0
 74
0
 75
0
 76
0
 77
1
 78
8
 79
2
170
0
171
1
172
0
173
0
174
0
175
0
176
0
177
0
178
0
270
2
179
2
271
2
272
2
273
2
274
2
275
0
280
0
281
0
282
0
283
1
284
8
285
0
286
0
287
3
288
0
340
11
278
44
341
201
342
201
343
201
344
201
  0
ENDTAB
  0
ENDSEC
  0
SECTION
  2
BLOCKS
  0
BLOCK
  5
20
100
AcDbEntity
  8
0
100
AcDbBlockBegin
  2
*Model_Space
 70
0
 10
0.0
 20
0.0
 30
0.0
  3
*Model_Space
  1

  0
ENDBLK
  5
21
100
AcDbEntity
  8
0
100
AcDbBlockEnd
  0
BLOCK
  5
1C
100
AcDbEntity
  8
0
100
AcDbBlockBegin
  2
*Paper_Space
 70
0
 10
0.0
 20
0.0
 30
0.0
  3
*Paper_Space
  1

  0
ENDBLK
  5
1D
100
AcDbEntity
  8
0
100
AcDbBlockEnd
  0
BLOCK
  5
203
100
AcDbEntity
  8
0
100
AcDbBlockBegin
  2
_FILLED
 70
64
 10
0.0
 20
0.0
  3
_FILLED
  1

  0
SOLID
  5
204
100
AcDbEntity
  8
0
  6
BYBLOCK
 62
0
100
AcDbTrace
 10
0.0
 20
0.0
 11
-1.0
 21
0.1333333333
 12
-1.0
 22
-0.1333333333
 13
-1.0
 23
-0.1333333333
  0
ENDBLK
  5
205
100
AcDbEntity
  8
0
  6
BYBLOCK
 62
0
100
AcDbBlockEnd
  0
ENDSEC
  0
SECTION
  2
ENTITIES
  0
LINE
  5
206
100
AcDbEntity
  8
0
100
AcDbLine
 62
7
  6
CONTINUOUS
 10
-152.3618417057
 20
152.1215128813
 11
-152.3600348021
 21
152.1019037333
  0
LINE
  5
207
100
AcDbEntity
  8
0
100
AcDbLine
 62
7
  6
CONTINUOUS
 10
-153.0618841449
 20
152.4918503377
 11
-153.0590373817
 21
152.4532333529
  0
LINE
  5
208
100
AcDbEntity
  8
0
100
AcDbLine
 62
7
  6
CONTINUOUS
 10
-152.3630795205
 20
152.1406270649
 11
-152.3618417057
 21
152.1215128813
  0
LINE
  5
209
100
AcDbEntity
  8
0
100
AcDbLine
 62
7
  6
CONTINUOUS
 10
-153.0641140785
 20
152.5370918609
 11
-153.0618841449
 21
152.4918503377
  0
LINE
  5
20A
100
AcDbEntity
  8
0
100
AcDbLine
 62
7
  6
CONTINUOUS
 10
-152.3637623545
 20
152.1592295209
 11
-152.3630795205
 21
152.1406270649
  0
LINE
  5
20B
100
AcDbEntity
  8
0
100
AcDbLine
 62
7
  6
CONTINUOUS
 10
-153.0650909769
 20
152.5812556157
 11
-153.0641140785
 21
152.5370918609
  0
LINE
  5
20C
100
AcDbEntity
  8
0
100
AcDbLine
 62
7
  6
CONTINUOUS
 10
-152.3639052533
 20
152.1773050121
 11
-152.3637623545
 21
152.1592295209
  0
LINE
  5
20D
100
AcDbEntity
  8
0
100
AcDbLine
 62
7
  6
CONTINUOUS
 10
-154.4732509441
 20
150.8204171293
 11
-154.4732509441
 21
96.1121827329
  0
LINE
  5
20E
100
AcDbEntity
  8
0
100
AcDbLine
 62
7
  6
CONTINUOUS
 10
-154.4732509441
 20
91.6212082673
 11
-154.4732509441
 21
28.3392953465
  0
LINE
  5
20F
100
AcDbEntity
  8
0
100
AcDbLine
 62
7
  6
CONTINUOUS
 10
-152.9176160253
 20
25.8077401593
 11
-152.9176160253
 21
25.8081647997
  0
LINE
  5
210
100
AcDbEntity
  8
0
100
AcDbLine
 62
7
  6
CONTINUOUS
 10
-151.8519306005
 20
153.1503466649
 11
-151.8519306005
 21
152.3338058529
  0
LINE
  5
211
100
AcDbEntity
  8
0
100
AcDbLine
 62
7
  6
CONTINUOUS
 10
-151.6950763509
 20
153.6782436209
 11
-151.6950763509
 21
152.8617028089
  0
LINE
  5
212
100
AcDbEntity
  8
0
100
AcDbLine
 62
7
  6
CONTINUOUS
 10
-151.3619811069
 20
145.4315397109
 11
-151.3619811069
 21
142.8186091129
  0
LINE
  5
213
100
AcDbEntity
  8
0
100
AcDbLine
 62
7
  6
CONTINUOUS
 10
-151.3619811069
 20
99.5419460829
 11
-151.3619811069
 21
96.9290154849
  0
LINE
  5
214
100
AcDbEntity
  8
0
100
AcDbLine
 62
7
  6
CONTINUOUS
 10
-151.3619811069
 20
86.4772930929
 11
-151.3619811069
 21
83.8643624945
  0
LINE
  5
215
100
AcDbEntity
  8
0
100
AcDbLine
 62
7
  6
CONTINUOUS
 10
-150.6548743257
 20
145.8397437669
 11
-150.6548743257
 21
143.2268131689
  0
LINE
  5
216
100
AcDbEntity
  8
0
100
AcDbLine
 62
7
  6
CONTINUOUS
 10
-150.6548743257
 20
99.9501501389
 11
-150.6548743257
 21
97.3372195409
  0
LINE
  5
217
100
AcDbEntity
  8
0
100
AcDbLine
 62
7
  6
CONTINUOUS
 10
-150.6548743257
 20
86.8854971485
 11
-150.6548743257
 21
84.2725665505
  0
LINE
  5
218
100
AcDbEntity
  8
0
100
AcDbLine
 62
7
  6
CONTINUOUS
 10
-150.2306102569
 20
151.6372233413
 11
-150.2306102569
 21
150.8206825293
  0
LINE
  5
219
100
AcDbEntity
  8
0
100
AcDbLine
 62
7
  6
CONTINUOUS
 10
-149.0992394069
 20
82.5581095157
 11
-149.0992394069
 21
85.1710401137
  0
LINE
  5
21A
100
AcDbEntity
  8
0
100
AcDbLine
 62
7
  6
CONTINUOUS
 10
-149.0992394069
 20
95.6227625061
 11
-149.0992394069
 21
98.2356931041
  0
LINE
  5
21B
100
AcDbEntity
  8
0
100
AcDbLine
 62
7
  6
CONTINUOUS
 10
-149.0992394069
 20
141.5123561341
 11
-149.0992394069
 21
144.1252867321
  0
LINE
  5
21C
100
AcDbEntity
  8
0
100
AcDbLine
 62
7
  6
CONTINUOUS
 10
-146.1293909261
 20
145.6769929445
 11
-146.1293909261
 21
146.0036092693
  0
LINE
  5
21D
100
AcDbEntity
  8
0
100
AcDbLine
 62
7
  6
CONTINUOUS
 10
-145.9879695697
 20
145.7586602957
 11
-145.9879695697
 21
145.5953521333
  0
LINE
  5
21E
100
AcDbEntity
  8
0
100
AcDbLine
 62
8
  6
CONTINUOUS
 10
-141.7453288825
 20
155.7191312001
 11
-141.7453288825
 21
155.3110598445
  0
LINE
  5
21F
100
AcDbEntity
  8
0
100
AcDbLine
 62
7
  6
CONTINUOUS
 10
-140.6846687109
 20
157.1479780961
 11
-140.6846687109
 21
156.3314372841
  0
LINE
  5
220
100
AcDbEntity
  8
0
100
AcDbLine
 62
7
  6
CONTINUOUS
 10
-139.2704551485
 20
156.3315699841
 11
-139.2704551485
 21
155.5150291721
  0
LINE
  5
221
100
AcDbEntity
  8
0
100
AcDbLine
 62
8
  6
CONTINUOUS
 10
-52.6498744529
 20
207.1528422449
 11
-52.6498744529
 21
206.7447708893
  0
LINE
  5
222
100
AcDbEntity
  8
0
100
AcDbLine
 62
7
  6
CONTINUOUS
 10
-51.5892142813
 20
208.5816891409
 11
-51.5892142813
 21
207.7651483289
  0
LINE
  5
223
100
AcDbEntity
  8
0
100
AcDbLine
 62
7
  6
CONTINUOUS
 10
-50.1750007189
 20
207.7652810289
 11
-50.1750007189
 21
206.9487402173
  0
LINE
  5
224
100
AcDbEntity
  8
0
100
AcDbLine
 62
7
  6
CONTINUOUS
 10
-153.0648455673
 20
152.6242953069
 11
-153.0650909769
 21
152.5812556157
  0
LINE
  5
225
100
AcDbEntity
  8
0
100
AcDbLine
 62
7
  6
CONTINUOUS
 10
-152.3635241129
 20
152.1948399477
 11
-152.3639052533
 21
152.1773050121
  0
LINE
  5
226
100
AcDbEntity
  8
0
100
AcDbLine
 62
7
  6
CONTINUOUS
 10
-153.0634108889
 20
152.6661692169
 11
-153.0648455673
 21
152.6242953069
  0
LINE
  5
227
100
AcDbEntity
  8
0
100
AcDbLine
 62
7
  6
CONTINUOUS
 10
-152.3626355769
 20
152.2118224833
 11
-152.3635241129
 21
152.1948399477
  0
LINE
  5
228
100
AcDbEntity
  8
0
100
AcDbLine
 62
7
  6
CONTINUOUS
 10
-153.0608220069
 20
152.7068404521
 11
-153.0634108889
 21
152.6661692169
  0
LINE
  5
229
100
AcDbEntity
  8
0
100
AcDbLine
 62
7
  6
CONTINUOUS
 10
-152.3612569181
 20
152.2282426017
 11
-152.3626355769
 21
152.2118224833
  0
LINE
  5
22A
100
AcDbEntity
  8
0
100
AcDbLine
 62
7
  6
CONTINUOUS
 10
-149.7002801709
 20
85.8443644861
 11
-149.6853161081
 21
86.0227442549
  0
LINE
  5
22B
100
AcDbEntity
  8
0
100
AcDbLine
 62
7
  6
CONTINUOUS
 10
-153.0571156949
 20
152.7462771145
 11
-153.0608220069
 21
152.7068404521
  0
LINE
  5
22C
100
AcDbEntity
  8
0
100
AcDbLine
 62
7
  6
CONTINUOUS
 10
-152.3594059069
 20
152.2440921657
 11
-152.3612569181
 21
152.2282426017
  0
LINE
  5
22D
100
AcDbEntity
  8
0
100
AcDbLine
 62
7
  6
CONTINUOUS
 10
-153.0523300893
 20
152.7844524109
 11
-153.0571156949
 21
152.7462771145
  0
LINE
  5
22E
100
AcDbEntity
  8
0
100
AcDbLine
 62
7
  6
CONTINUOUS
 10
-152.3571006649
 20
152.2593649481
 11
-152.3594059069
 21
152.2440921657
  0
LINE
  5
22F
100
AcDbEntity
  8
0
100
AcDbLine
 62
7
  6
CONTINUOUS
 10
-150.5946477017
 20
146.2255537217
 11
-150.6548743257
 21
145.8397437669
  0
LINE
  5
230
100
AcDbEntity
  8
0
100
AcDbLine
 62
7
  6
CONTINUOUS
 10
-149.9477675445
 20
144.9414825237
 11
-149.8875409209
 21
145.3272924785
  0
LINE
  5
231
100
AcDbEntity
  8
0
100
AcDbLine
 62
7
  6
CONTINUOUS
 10
-150.5946477017
 20
100.3359600937
 11
-150.6548743257
 21
99.9501501389
  0
LINE
  5
232
100
AcDbEntity
  8
0
100
AcDbLine
 62
7
  6
CONTINUOUS
 10
-149.9477675445
 20
99.0518888957
 11
-149.8875409209
 21
99.4376988505
  0
LINE
  5
233
100
AcDbEntity
  8
0
100
AcDbLine
 62
7
  6
CONTINUOUS
 10
-150.5946477017
 20
87.2713071033
 11
-150.6548743257
 21
86.8854971485
  0
LINE
  5
234
100
AcDbEntity
  8
0
100
AcDbLine
 62
7
  6
CONTINUOUS
 10
-93.6725518165
 20
8.9061078141
 11
-93.7327784401
 21
8.5202978593
  0
LINE
  5
235
100
AcDbEntity
  8
0
100
AcDbLine
 62
7
  6
CONTINUOUS
 10
-153.0465043213
 20
152.8213446829
 11
-153.0523300893
 21
152.7844524109
  0
LINE
  5
236
100
AcDbEntity
  8
0
100
AcDbLine
 62
7
  6
CONTINUOUS
 10
-152.3543595133
 20
152.2740566349
 11
-152.3571006649
 21
152.2593649481
  0
LINE
  5
237
100
AcDbEntity
  8
0
100
AcDbLine
 62
7
  6
CONTINUOUS
 10
-151.2758606289
 20
145.8817860421
 11
-151.3619811069
 21
145.4315397109
  0
LINE
  5
238
100
AcDbEntity
  8
0
100
AcDbLine
 62
7
  6
CONTINUOUS
 10
-150.6548743257
 20
144.5332784677
 11
-150.5687538477
 21
144.9835247989
  0
LINE
  5
239
100
AcDbEntity
  8
0
100
AcDbLine
 62
7
  6
CONTINUOUS
 10
-149.1853598849
 20
141.0621098029
 11
-149.0992394069
 21
141.5123561341
  0
LINE
  5
23A
100
AcDbEntity
  8
0
100
AcDbLine
 62
7
  6
CONTINUOUS
 10
-151.2758606289
 20
99.9921924141
 11
-151.3619811069
 21
99.5419460829
  0
LINE
  5
23B
100
AcDbEntity
  8
0
100
AcDbLine
 62
7
  6
CONTINUOUS
 10
-150.6548743257
 20
98.6436848397
 11
-150.5687538477
 21
99.0939311709
  0
LINE
  5
23C
100
AcDbEntity
  8
0
100
AcDbLine
 62
7
  6
CONTINUOUS
 10
-151.2758606289
 20
86.9275394241
 11
-151.3619811069
 21
86.4772930929
  0
LINE
  5
23D
100
AcDbEntity
  8
0
100
AcDbLine
 62
7
  6
CONTINUOUS
 10
-149.1853598849
 20
95.1725161749
 11
-149.0992394069
 21
95.6227625061
  0
LINE
  5
23E
100
AcDbEntity
  8
0
100
AcDbLine
 62
7
  6
CONTINUOUS
 10
-150.4073869521
 20
85.4361604301
 11
-150.3401053285
 21
85.7879153761
  0
LINE
  5
23F
100
AcDbEntity
  8
0
100
AcDbLine
 62
7
  6
CONTINUOUS
 10
-149.1853598849
 20
82.1078631845
 11
-149.0992394069
 21
82.5581095157
  0
LINE
  5
240
100
AcDbEntity
  8
0
100
AcDbLine
 62
7
  6
CONTINUOUS
 10
-94.3537647433
 20
8.5623401345
 11
-94.4398852213
 21
8.1120938033
  0
LINE
  5
241
100
AcDbEntity
  8
0
100
AcDbLine
 62
7
  6
CONTINUOUS
 10
-92.2632639993
 20
6.3555944933
 11
-92.1771435213
 21
6.8058408245
  0
LINE
  5
242
100
AcDbEntity
  8
0
100
AcDbLine
 62
7
  6
CONTINUOUS
 10
-153.0396781345
 20
152.8569373677
 11
-153.0465043213
 21
152.8213446829
  0
LINE
  5
243
100
AcDbEntity
  8
0
100
AcDbLine
 62
7
  6
CONTINUOUS
 10
-152.3512008077
 20
152.2881647957
 11
-152.3543595133
 21
152.2740566349
  0
LINE
  5
244
100
AcDbEntity
  8
0
100
AcDbLine
 62
7
  6
CONTINUOUS
 10
-153.0318914913
 20
152.8912188861
 11
-153.0396781345
 21
152.8569373677
  0
LINE
  5
245
100
AcDbEntity
  8
0
100
AcDbLine
 62
7
  6
CONTINUOUS
 10
-152.3476427737
 20
152.3016888301
 11
-152.3512008077
 21
152.2881647957
  0
LINE
  5
246
100
AcDbEntity
  8
0
100
AcDbLine
 62
7
  6
CONTINUOUS
 10
-153.0231841797
 20
152.9241824649
 11
-153.0318914913
 21
152.8912188861
  0
LINE
  5
247
100
AcDbEntity
  8
0
100
AcDbLine
 62
7
  6
CONTINUOUS
 10
-153.0135954189
 20
152.9558258917
 11
-153.0231841797
 21
152.9241824649
  0
LINE
  5
248
100
AcDbEntity
  8
0
100
AcDbLine
 62
7
  6
CONTINUOUS
 10
-152.3437033361
 20
152.3146298865
 11
-152.3476427737
 21
152.3016888301
  0
LINE
  5
249
100
AcDbEntity
  8
0
100
AcDbLine
 62
7
  6
CONTINUOUS
 10
-153.5252066717
 20
152.0604632997
 11
-153.5315979009
 21
152.0405441585
  0
LINE
  5
24A
100
AcDbEntity
  8
0
100
AcDbLine
 62
7
  6
CONTINUOUS
 10
-153.5219007621
 20
152.0703964965
 11
-153.5252066717
 21
152.0604632997
  0
LINE
  5
24B
100
AcDbEntity
  8
0
100
AcDbLine
 62
7
  6
CONTINUOUS
 10
-153.0031634793
 20
152.9861512169
 11
-153.0135954189
 21
152.9558258917
  0
LINE
  5
24C
100
AcDbEntity
  8
0
100
AcDbLine
 62
7
  6
CONTINUOUS
 10
-143.1311481813
 20
156.8670496769
 11
-143.2453288825
 21
156.5356720121
  0
LINE
  5
24D
100
AcDbEntity
  8
0
100
AcDbLine
 62
7
  6
CONTINUOUS
 10
-140.0382221013
 20
155.3109271445
 11
-140.1143425689
 21
155.0900087013
  0
LINE
  5
24E
100
AcDbEntity
  8
0
100
AcDbLine
 62
7
  6
CONTINUOUS
 10
-54.0356937517
 20
208.3007607217
 11
-54.1498744529
 21
207.9693830569
  0
LINE
  5
24F
100
AcDbEntity
  8
0
100
AcDbLine
 62
7
  6
CONTINUOUS
 10
-50.9427676717
 20
206.7446381893
 11
-51.0188881393
 21
206.5237197461
  0
LINE
  5
250
100
AcDbEntity
  8
0
100
AcDbLine
 62
7
  6
CONTINUOUS
 10
-153.5184624989
 20
152.0802980445
 11
-153.5219007621
 21
152.0703964965
  0
LINE
  5
251
100
AcDbEntity
  8
0
100
AcDbLine
 62
7
  6
CONTINUOUS
 10
-152.3393999521
 20
152.3269907485
 11
-152.3437033361
 21
152.3146298865
  0
LINE
  5
252
100
AcDbEntity
  8
0
100
AcDbLine
 62
7
  6
CONTINUOUS
 10
-153.5148477637
 20
152.0901573949
 11
-153.5184624989
 21
152.0802980445
  0
LINE
  5
253
100
AcDbEntity
  8
0
100
AcDbLine
 62
7
  6
CONTINUOUS
 10
-152.9979374973
 20
153.0000603153
 11
-153.0031634793
 21
152.9861512169
  0
LINE
  5
254
100
AcDbEntity
  8
0
100
AcDbLine
 62
7
  6
CONTINUOUS
 10
-153.5110124389
 20
152.0999639977
 11
-153.5148477637
 21
152.0901573949
  0
LINE
  5
255
100
AcDbEntity
  8
0
100
AcDbLine
 62
7
  6
CONTINUOUS
 10
-152.3347494445
 20
152.3387757037
 11
-152.3393999521
 21
152.3269907485
  0
LINE
  5
256
100
AcDbEntity
  8
0
100
AcDbLine
 62
7
  6
CONTINUOUS
 10
-152.9862480677
 20
153.0286589961
 11
-152.9979374973
 21
153.0000603153
  0
LINE
  5
257
100
AcDbEntity
  8
0
100
AcDbLine
 62
7
  6
CONTINUOUS
 10
-153.5069124065
 20
152.1097073037
 11
-153.5110124389
 21
152.0999639977
  0
LINE
  5
258
100
AcDbEntity
  8
0
100
AcDbLine
 62
7
  6
CONTINUOUS
 10
-152.3297678433
 20
152.3499903825
 11
-152.3347494445
 21
152.3387757037
  0
LINE
  5
259
100
AcDbEntity
  8
0
100
AcDbLine
 62
7
  6
CONTINUOUS
 10
-153.5025035489
 20
152.1193767629
 11
-153.5069124065
 21
152.1097073037
  0
LINE
  5
25A
100
AcDbEntity
  8
0
100
AcDbLine
 62
7
  6
CONTINUOUS
 10
-152.9737429901
 20
153.0560858721
 11
-152.9862480677
 21
153.0286589961
  0
LINE
  5
25B
100
AcDbEntity
  8
0
100
AcDbLine
 62
7
  6
CONTINUOUS
 10
-153.4977417473
 20
152.1289618261
 11
-153.5025035489
 21
152.1193767629
  0
LINE
  5
25C
100
AcDbEntity
  8
0
100
AcDbLine
 62
7
  6
CONTINUOUS
 10
-152.3244702357
 20
152.3606415789
 11
-152.3297678433
 21
152.3499903825
  0
LINE
  5
25D
100
AcDbEntity
  8
0
100
AcDbLine
 62
7
  6
CONTINUOUS
 10
-152.9604528297
 20
153.0823449713
 11
-152.9737429901
 21
153.0560858721
  0
LINE
  5
25E
100
AcDbEntity
  8
0
100
AcDbLine
 62
7
  6
CONTINUOUS
 10
-153.4925828841
 20
152.1384519441
 11
-153.4977417473
 21
152.1289618261
  0
LINE
  5
25F
100
AcDbEntity
  8
0
100
AcDbLine
 62
7
  6
CONTINUOUS
 10
-152.3188706273
 20
152.3707370525
 11
-152.3244702357
 21
152.3606415789
  0
LINE
  5
260
100
AcDbEntity
  8
0
100
AcDbLine
 62
7
  6
CONTINUOUS
 10
-152.9464066685
 20
153.1074418421
 11
-152.9604528297
 21
153.0823449713
  0
LINE
  5
261
100
AcDbEntity
  8
0
100
AcDbLine
 62
7
  6
CONTINUOUS
 10
-142.0040993365
 20
155.4604448477
 11
-141.9621016341
 21
155.5318455873
  0
LINE
  5
262
100
AcDbEntity
  8
0
100
AcDbLine
 62
7
  6
CONTINUOUS
 10
-52.9086449069
 20
206.8941558925
 11
-52.8666472045
 21
206.9655566321
  0
LINE
  5
263
100
AcDbEntity
  8
0
100
AcDbLine
 62
7
  6
CONTINUOUS
 10
-153.4868358653
 20
152.1480895825
 11
-153.4925828841
 21
152.1384519441
  0
LINE
  5
264
100
AcDbEntity
  8
0
100
AcDbLine
 62
7
  6
CONTINUOUS
 10
-152.3129818169
 20
152.3802853137
 11
-152.3188706273
 21
152.3707370525
  0
LINE
  5
265
100
AcDbEntity
  8
0
100
AcDbLine
 62
7
  6
CONTINUOUS
 10
-152.9316319133
 20
153.1313833157
 11
-152.9464066685
 21
153.1074418421
  0
LINE
  5
266
100
AcDbEntity
  8
0
100
AcDbLine
 62
7
  6
CONTINUOUS
 10
-153.4806358801
 20
152.1576189073
 11
-153.4868358653
 21
152.1480895825
  0
LINE
  5
267
100
AcDbEntity
  8
0
100
AcDbLine
 62
7
  6
CONTINUOUS
 10
-152.9161541229
 20
153.1541772421
 11
-152.9316319133
 21
153.1313833157
  0
LINE
  5
268
100
AcDbEntity
  8
0
100
AcDbLine
 62
7
  6
CONTINUOUS
 10
-152.3068152873
 20
152.3892953985
 11
-152.3129818169
 21
152.3802853137
  0
LINE
  5
269
100
AcDbEntity
  8
0
100
AcDbLine
 62
7
  6
CONTINUOUS
 10
-153.4739951717
 20
152.1670428465
 11
-153.4806358801
 21
152.1576189073
  0
LINE
  5
26A
100
AcDbEntity
  8
0
100
AcDbLine
 62
7
  6
CONTINUOUS
 10
-152.8999968589
 20
153.1758322061
 11
-152.9161541229
 21
153.1541772421
  0
LINE
  5
26B
100
AcDbEntity
  8
0
100
AcDbLine
 62
7
  6
CONTINUOUS
 10
-153.4669259821
 20
152.1763643269
 11
-153.4739951717
 21
152.1670428465
  0
LINE
  5
26C
100
AcDbEntity
  8
0
100
AcDbLine
 62
7
  6
CONTINUOUS
 10
-152.3003811157
 20
152.3977766317
 11
-152.3068152873
 21
152.3892953985
  0
LINE
  5
26D
100
AcDbEntity
  8
0
100
AcDbLine
 62
7
  6
CONTINUOUS
 10
-153.4594405533
 20
152.1855862765
 11
-153.4669259821
 21
152.1763643269
  0
LINE
  5
26E
100
AcDbEntity
  8
0
100
AcDbLine
 62
7
  6
CONTINUOUS
 10
-152.8831815625
 20
153.1963572253
 11
-152.8999968589
 21
153.1758322061
  0
LINE
  5
26F
100
AcDbEntity
  8
0
100
AcDbLine
 62
7
  6
CONTINUOUS
 10
-152.2936879033
 20
152.4057383873
 11
-152.3003811157
 21
152.3977766317
  0
LINE
  5
270
100
AcDbEntity
  8
0
100
AcDbLine
 62
7
  6
CONTINUOUS
 10
-153.4515511285
 20
152.1947116217
 11
-153.4594405533
 21
152.1855862765
  0
LINE
  5
271
100
AcDbEntity
  8
0
100
AcDbLine
 62
7
  6
CONTINUOUS
 10
-151.0306102569
 20
146.1640538633
 11
-151.2758606289
 21
145.8817860421
  0
LINE
  5
272
100
AcDbEntity
  8
0
100
AcDbLine
 62
7
  6
CONTINUOUS
 10
-150.5687538477
 20
144.9835247989
 11
-150.3235034757
 21
145.2657926201
  0
LINE
  5
273
100
AcDbEntity
  8
0
100
AcDbLine
 62
7
  6
CONTINUOUS
 10
-149.4306102569
 20
140.7798419813
 11
-149.1853598849
 21
141.0621098029
  0
LINE
  5
274
100
AcDbEntity
  8
0
100
AcDbLine
 62
7
  6
CONTINUOUS
 10
-151.0306102569
 20
100.2744602353
 11
-151.2758606289
 21
99.9921924141
  0
LINE
  5
275
100
AcDbEntity
  8
0
100
AcDbLine
 62
7
  6
CONTINUOUS
 10
-150.5687538477
 20
99.0939311709
 11
-150.3235034757
 21
99.3761989925
  0
LINE
  5
276
100
AcDbEntity
  8
0
100
AcDbLine
 62
7
  6
CONTINUOUS
 10
-149.4306102569
 20
94.8902483533
 11
-149.1853598849
 21
95.1725161749
  0
LINE
  5
277
100
AcDbEntity
  8
0
100
AcDbLine
 62
7
  6
CONTINUOUS
 10
-151.0306102569
 20
87.2098072453
 11
-151.2758606289
 21
86.9275394241
  0
LINE
  5
278
100
AcDbEntity
  8
0
100
AcDbLine
 62
7
  6
CONTINUOUS
 10
-150.3401053285
 20
85.7879153761
 11
-150.1485034757
 21
86.0084371117
  0
LINE
  5
279
100
AcDbEntity
  8
0
100
AcDbLine
 62
7
  6
CONTINUOUS
 10
-149.4306102569
 20
81.8255953633
 11
-149.1853598849
 21
82.1078631845
  0
LINE
  5
27A
100
AcDbEntity
  8
0
100
AcDbLine
 62
7
  6
CONTINUOUS
 10
-152.8657274613
 20
153.2157614373
 11
-152.8831815625
 21
153.1963572253
  0
LINE
  5
27B
100
AcDbEntity
  8
0
100
AcDbLine
 62
7
  6
CONTINUOUS
 10
-153.4432699489
 20
152.2037432909
 11
-153.4515511285
 21
152.1947116217
  0
LINE
  5
27C
100
AcDbEntity
  8
0
100
AcDbLine
 62
7
  6
CONTINUOUS
 10
-152.2867427269
 20
152.4131898429
 11
-152.2936879033
 21
152.4057383873
  0
LINE
  5
27D
100
AcDbEntity
  8
0
100
AcDbLine
 62
7
  6
CONTINUOUS
 10
-153.4346092577
 20
152.2126842109
 11
-153.4432699489
 21
152.2037432909
  0
LINE
  5
27E
100
AcDbEntity
  8
0
100
AcDbLine
 62
7
  6
CONTINUOUS
 10
-152.8476515057
 20
153.2340537761
 11
-152.8657274613
 21
153.2157614373
  0
LINE
  5
27F
100
AcDbEntity
  8
0
100
AcDbLine
 62
7
  6
CONTINUOUS
 10
-153.4255812969
 20
152.2215373093
 11
-153.4346092577
 21
152.2126842109
  0
LINE
  5
280
100
AcDbEntity
  8
0
100
AcDbLine
 62
7
  6
CONTINUOUS
 10
-152.2795511125
 20
152.4201397417
 11
-152.2867427269
 21
152.4131898429
  0
LINE
  5
281
100
AcDbEntity
  8
0
100
AcDbLine
 62
7
  6
CONTINUOUS
 10
-153.4161983085
 20
152.2303055133
 11
-153.4255812969
 21
152.2215373093
  0
LINE
  5
282
100
AcDbEntity
  8
0
100
AcDbLine
 62
7
  6
CONTINUOUS
 10
-152.8289683421
 20
153.2512426525
 11
-152.8476515057
 21
153.2340537761
  0
LINE
  5
283
100
AcDbEntity
  8
0
100
AcDbLine
 62
7
  6
CONTINUOUS
 10
-153.4064725353
 20
152.2389917505
 11
-153.4161983085
 21
152.2303055133
  0
LINE
  5
284
100
AcDbEntity
  8
0
100
AcDbLine
 62
7
  6
CONTINUOUS
 10
-152.2721170373
 20
152.4265961557
 11
-152.2795511125
 21
152.4201397417
  0
LINE
  5
285
100
AcDbEntity
  8
0
100
AcDbLine
 62
7
  6
CONTINUOUS
 10
-142.8059890545
 20
157.1479780961
 11
-143.1311481813
 21
156.8670496769
  0
LINE
  5
286
100
AcDbEntity
  8
0
100
AcDbLine
 62
7
  6
CONTINUOUS
 10
-141.9621016341
 20
155.5318455873
 11
-141.7453288825
 21
155.7191312001
  0
LINE
  5
287
100
AcDbEntity
  8
0
100
AcDbLine
 62
7
  6
CONTINUOUS
 10
-140.1143425689
 20
155.0900087013
 11
-140.3311153201
 21
154.9027230885
  0
LINE
  5
288
100
AcDbEntity
  8
0
100
AcDbLine
 62
7
  6
CONTINUOUS
 10
-53.7105346249
 20
208.5816891409
 11
-54.0356937517
 21
208.3007607217
  0
LINE
  5
289
100
AcDbEntity
  8
0
100
AcDbLine
 62
7
  6
CONTINUOUS
 10
-153.3964162197
 20
152.2475989481
 11
-153.4064725353
 21
152.2389917505
  0
LINE
  5
28A
100
AcDbEntity
  8
0
100
AcDbLine
 62
7
  6
CONTINUOUS
 10
-152.8096903193
 20
153.2673356353
 11
-152.8289683421
 21
153.2512426525
  0
LINE
  5
28B
100
AcDbEntity
  8
0
100
AcDbLine
 62
7
  6
CONTINUOUS
 10
-153.3860416033
 20
152.2561300337
 11
-153.3964162197
 21
152.2475989481
  0
LINE
  5
28C
100
AcDbEntity
  8
0
100
AcDbLine
 62
7
  6
CONTINUOUS
 10
-153.3753609293
 20
152.2645879349
 11
-153.3860416033
 21
152.2561300337
  0
LINE
  5
28D
100
AcDbEntity
  8
0
100
AcDbLine
 62
7
  6
CONTINUOUS
 10
-152.2644429501
 20
152.4325662617
 11
-152.2721170373
 21
152.4265961557
  0
LINE
  5
28E
100
AcDbEntity
  8
0
100
AcDbLine
 62
7
  6
CONTINUOUS
 10
-153.3643864397
 20
152.2729755785
 11
-153.3753609293
 21
152.2645879349
  0
LINE
  5
28F
100
AcDbEntity
  8
0
100
AcDbLine
 62
7
  6
CONTINUOUS
 10
-152.7898275281
 20
153.2823391441
 11
-152.8096903193
 21
153.2673356353
  0
LINE
  5
290
100
AcDbEntity
  8
0
100
AcDbLine
 62
7
  6
CONTINUOUS
 10
-153.3531303765
 20
152.2812958921
 11
-153.3643864397
 21
152.2729755785
  0
LINE
  5
291
100
AcDbEntity
  8
0
100
AcDbLine
 62
7
  6
CONTINUOUS
 10
163.6267468983
 20
-155.3791938375
 11
163.7248005899
 21
-155.3529279139
  0
LINE
  5
292
100
AcDbEntity
  8
0
100
AcDbLine
 62
7
  6
CONTINUOUS
 10
163.5941246175
 20
-155.3877395543
 11
163.6267468983
 21
-155.3791938375
  0
LINE
  5
293
100
AcDbEntity
  8
0
100
AcDbLine
 62
7
  6
CONTINUOUS
 10
163.5615557223
 20
-155.3961056215
 11
163.5941246175
 21
-155.3877395543
  0
LINE
  5
294
100
AcDbEntity
  8
0
100
AcDbLine
 62
7
  6
CONTINUOUS
 10
163.5290535587
 20
-155.4042471271
 11
163.5615557223
 21
-155.3961056215
  0
LINE
  5
295
100
AcDbEntity
  8
0
100
AcDbLine
 62
7
  6
CONTINUOUS
 10
163.4966314739
 20
-155.4121191583
 11
163.5290535587
 21
-155.4042471271
  0
LINE
  5
296
100
AcDbEntity
  8
0
100
AcDbLine
 62
7
  6
CONTINUOUS
 10
163.4643028139
 20
-155.4196768027
 11
163.4966314739
 21
-155.4121191583
  0
LINE
  5
297
100
AcDbEntity
  8
0
100
AcDbLine
 62
7
  6
CONTINUOUS
 10
163.4320809247
 20
-155.4268751483
 11
163.4643028139
 21
-155.4196768027
  0
LINE
  5
298
100
AcDbEntity
  8
0
100
AcDbLine
 62
7
  6
CONTINUOUS
 10
165.1390141523
 20
-154.5362544019
 11
165.0438622831
 21
-154.5572802171
  0
LINE
  5
299
100
AcDbEntity
  8
0
100
AcDbLine
 62
7
  6
CONTINUOUS
 10
165.0438622831
 20
-154.5572802171
 11
164.9960740439
 21
-154.5675782103
  0
LINE
  5
29A
100
AcDbEntity
  8
0
100
AcDbLine
 62
7
  6
CONTINUOUS
 10
163.3999791531
 20
-155.4336692827
 11
163.4320809247
 21
-155.4268751483
  0
LINE
  5
29B
100
AcDbEntity
  8
0
100
AcDbLine
 62
7
  6
CONTINUOUS
 10
164.9960740439
 20
-154.5675782103
 11
164.9480310391
 21
-154.5776183071
  0
LINE
  5
29C
100
AcDbEntity
  8
0
100
AcDbLine
 62
7
  6
CONTINUOUS
 10
164.9480310391
 20
-154.5776183071
 11
164.8996483475
 21
-154.5873145419
  0
LINE
  5
29D
100
AcDbEntity
  8
0
100
AcDbLine
 62
7
  6
CONTINUOUS
 10
163.3680108455
 20
-155.4400142931
 11
163.3999791531
 21
-155.4336692827
  0
LINE
  5
29E
100
AcDbEntity
  8
0
100
AcDbLine
 62
7
  6
CONTINUOUS
 10
158.5009032207
 20
-96.2226896087
 11
158.8679463407
 21
-96.1513730143
  0
LINE
  5
29F
100
AcDbEntity
  8
0
100
AcDbLine
 62
7
  6
CONTINUOUS
 10
101.5788073351
 20
-106.2541052979
 11
101.9458504551
 21
-106.1827887035
  0
LINE
  5
2A0
100
AcDbEntity
  8
0
100
AcDbLine
 62
7
  6
CONTINUOUS
 10
100.7128935747
 20
-103.3401908251
 11
100.3458504551
 21
-103.4115074195
  0
LINE
  5
2A1
100
AcDbEntity
  8
0
100
AcDbLine
 62
7
  6
CONTINUOUS
 10
158.1500531215
 20
-91.9685312655
 11
158.4368055591
 21
-91.9128151763
  0
LINE
  5
2A2
100
AcDbEntity
  8
0
100
AcDbLine
 62
7
  6
CONTINUOUS
 10
157.6349894603
 20
-90.6958445375
 11
157.2679463407
 21
-90.7671611319
  0
LINE
  5
2A3
100
AcDbEntity
  8
0
100
AcDbLine
 62
7
  6
CONTINUOUS
 10
164.8996483475
 20
-154.5873145419
 11
164.8508410463
 21
-154.5965809483
  0
LINE
  5
2A4
100
AcDbEntity
  8
0
100
AcDbLine
 62
7
  6
CONTINUOUS
 10
163.3361893483
 20
-155.4458652675
 11
163.3680108455
 21
-155.4400142931
  0
LINE
  5
2A5
100
AcDbEntity
  8
0
100
AcDbLine
 62
7
  6
CONTINUOUS
 10
164.8508410463
 20
-154.5965809483
 11
164.8015242147
 21
-154.6053315619
  0
LINE
  5
2A6
100
AcDbEntity
  8
0
100
AcDbLine
 62
7
  6
CONTINUOUS
 10
163.3045280075
 20
-155.4511772935
 11
163.3361893483
 21
-155.4458652675
  0
LINE
  5
2A7
100
AcDbEntity
  8
0
100
AcDbLine
 62
7
  6
CONTINUOUS
 10
164.8015242147
 20
-154.6053315619
 11
164.7516129303
 21
-154.6134804159
  0
LINE
  5
2A8
100
AcDbEntity
  8
0
100
AcDbLine
 62
7
  6
CONTINUOUS
 10
163.2730401699
 20
-155.4559054587
 11
163.3045280075
 21
-155.4511772935
  0
LINE
  5
2A9
100
AcDbEntity
  8
0
100
AcDbLine
 62
7
  6
CONTINUOUS
 10
164.7516129303
 20
-154.6134804159
 11
164.7010222711
 21
-154.6209415455
  0
LINE
  5
2AA
100
AcDbEntity
  8
0
100
AcDbLine
 62
7
  6
CONTINUOUS
 10
158.9401093987
 20
-93.1361524699
 11
159.1993171903
 21
-93.1012953075
  0
LINE
  5
2AB
100
AcDbEntity
  8
0
100
AcDbLine
 62
7
  6
CONTINUOUS
 10
163.2417391819
 20
-155.4600048507
 11
163.2730401699
 21
-155.4559054587
  0
LINE
  5
2AC
100
AcDbEntity
  8
0
100
AcDbLine
 62
7
  6
CONTINUOUS
 10
164.7010222711
 20
-154.6209415455
 11
164.6496673159
 21
-154.6276289851
  0
LINE
  5
2AD
100
AcDbEntity
  8
0
100
AcDbLine
 62
7
  6
CONTINUOUS
 10
164.6496673159
 20
-154.6276289851
 11
164.5974631427
 21
-154.6334567687
  0
LINE
  5
2AE
100
AcDbEntity
  8
0
100
AcDbLine
 62
7
  6
CONTINUOUS
 10
163.2106383895
 20
-155.4634305567
 11
163.2417391819
 21
-155.4600048507
  0
LINE
  5
2AF
100
AcDbEntity
  8
0
100
AcDbLine
 62
7
  6
CONTINUOUS
 10
164.5974631427
 20
-154.6334567687
 11
164.5443248295
 21
-154.6383389315
  0
LINE
  5
2B0
100
AcDbEntity
  8
0
100
AcDbLine
 62
7
  6
CONTINUOUS
 10
163.1797511395
 20
-155.4661376651
 11
163.2106383895
 21
-155.4634305567
  0
LINE
  5
2B1
100
AcDbEntity
  8
0
100
AcDbLine
 62
7
  6
CONTINUOUS
 10
164.5443248295
 20
-154.6383389315
 11
164.4901674547
 21
-154.6421895071
  0
LINE
  5
2B2
100
AcDbEntity
  8
0
100
AcDbLine
 62
7
  6
CONTINUOUS
 10
163.1490907783
 20
-155.4680812635
 11
163.1797511395
 21
-155.4661376651
  0
LINE
  5
2B3
100
AcDbEntity
  8
0
100
AcDbLine
 62
7
  6
CONTINUOUS
 10
164.4901674547
 20
-154.6421895071
 11
164.4349379819
 21
-154.6449345799
  0
LINE
  5
2B4
100
AcDbEntity
  8
0
100
AcDbLine
 62
7
  6
CONTINUOUS
 10
163.1186706519
 20
-155.4692164387
 11
163.1490907783
 21
-155.4680812635
  0
LINE
  5
2B5
100
AcDbEntity
  8
0
100
AcDbLine
 62
7
  6
CONTINUOUS
 10
164.4349379819
 20
-154.6449345799
 11
164.3787109187
 21
-154.6465484311
  0
LINE
  5
2B6
100
AcDbEntity
  8
0
100
AcDbLine
 62
7
  6
CONTINUOUS
 10
163.0885041071
 20
-155.4694982791
 11
163.1186706519
 21
-155.4692164387
  0
LINE
  5
2B7
100
AcDbEntity
  8
0
100
AcDbLine
 62
7
  6
CONTINUOUS
 10
164.3787109187
 20
-154.6465484311
 11
164.3215926575
 21
-154.6470173927
  0
LINE
  5
2B8
100
AcDbEntity
  8
0
100
AcDbLine
 62
7
  6
CONTINUOUS
 10
164.3215926575
 20
-154.6470173927
 11
164.2636895915
 21
-154.6463277959
  0
LINE
  5
2B9
100
AcDbEntity
  8
0
100
AcDbLine
 62
7
  6
CONTINUOUS
 10
163.0586044899
 20
-155.4688818719
 11
163.0885041071
 21
-155.4694982791
  0
LINE
  5
2BA
100
AcDbEntity
  8
0
100
AcDbLine
 62
7
  6
CONTINUOUS
 10
159.1993171903
 20
-94.1913923551
 11
159.1133006843
 21
-94.1893108583
  0
LINE
  5
2BB
100
AcDbEntity
  8
0
100
AcDbLine
 62
7
  6
CONTINUOUS
 10
164.2636895915
 20
-154.6463277959
 11
164.2051081131
 21
-154.6444659715
  0
LINE
  5
2BC
100
AcDbEntity
  8
0
100
AcDbLine
 62
7
  6
CONTINUOUS
 10
164.2051081131
 20
-154.6444659715
 11
164.1459546155
 21
-154.6414182507
  0
LINE
  5
2BD
100
AcDbEntity
  8
0
100
AcDbLine
 62
7
  6
CONTINUOUS
 10
163.0289867215
 20
-155.4673376859
 11
163.0586044899
 21
-155.4688818719
  0
LINE
  5
2BE
100
AcDbEntity
  8
0
100
AcDbLine
 62
7
  6
CONTINUOUS
 10
164.1459546155
 20
-154.6414182507
 11
164.0863354915
 21
-154.6371709655
  0
LINE
  5
2BF
100
AcDbEntity
  8
0
100
AcDbLine
 62
7
  6
CONTINUOUS
 10
162.9996357715
 20
-155.4648956195
 11
163.0289867215
 21
-155.4673376859
  0
LINE
  5
2C0
100
AcDbEntity
  8
0
100
AcDbLine
 62
7
  6
CONTINUOUS
 10
164.0863354915
 20
-154.6371709655
 11
164.0263571335
 21
-154.6317104463
  0
LINE
  5
2C1
100
AcDbEntity
  8
0
100
AcDbLine
 62
7
  6
CONTINUOUS
 10
164.0263571335
 20
-154.6317104463
 11
163.9661259351
 21
-154.6250230251
  0
LINE
  5
2C2
100
AcDbEntity
  8
0
100
AcDbLine
 62
7
  6
CONTINUOUS
 10
162.9705382999
 20
-155.4616005667
 11
162.9996357715
 21
-155.4648956195
  0
LINE
  5
2C3
100
AcDbEntity
  8
0
100
AcDbLine
 62
7
  6
CONTINUOUS
 10
163.9661259351
 20
-154.6250230251
 11
163.9057482887
 21
-154.6170950327
  0
LINE
  5
2C4
100
AcDbEntity
  8
0
100
AcDbLine
 62
7
  6
CONTINUOUS
 10
162.9416809647
 20
-155.4574974211
 11
162.9705382999
 21
-155.4616005667
  0
LINE
  5
2C5
100
AcDbEntity
  8
0
100
AcDbLine
 62
7
  6
CONTINUOUS
 10
163.9057482887
 20
-154.6170950327
 11
163.8453305871
 21
-154.6079128007
  0
LINE
  5
2C6
100
AcDbEntity
  8
0
100
AcDbLine
 62
7
  6
CONTINUOUS
 10
162.9130504255
 20
-155.4526310775
 11
162.9416809647
 21
-155.4574974211
  0
LINE
  5
2C7
100
AcDbEntity
  8
0
100
AcDbLine
 62
7
  6
CONTINUOUS
 10
163.8453305871
 20
-154.6079128007
 11
163.7849792231
 21
-154.5974626599
  0
LINE
  5
2C8
100
AcDbEntity
  8
0
100
AcDbLine
 62
7
  6
CONTINUOUS
 10
171.7635951815
 20
-80.2644177095
 11
171.3850819643
 21
-80.1908724715
  0
LINE
  5
2C9
100
AcDbEntity
  8
0
100
AcDbLine
 62
7
  6
CONTINUOUS
 10
172.6565687467
 20
-77.2594434091
 11
173.0350819643
 21
-77.3329886471
  0
LINE
  5
2CA
100
AcDbEntity
  8
0
100
AcDbLine
 62
7
  6
CONTINUOUS
 10
163.7849792231
 20
-154.5974626599
 11
163.7248005899
 21
-154.5857309419
  0
LINE
  5
2CB
100
AcDbEntity
  8
0
100
AcDbLine
 62
7
  6
CONTINUOUS
 10
162.8846333415
 20
-155.4470464295
 11
162.9130504255
 21
-155.4526310775
  0
LINE
  5
2CC
100
AcDbEntity
  8
0
100
AcDbLine
 62
7
  6
CONTINUOUS
 10
163.7248005899
 20
-154.5857309419
 11
163.6613492467
 21
-154.5719167403
  0
LINE
  5
2CD
100
AcDbEntity
  8
0
100
AcDbLine
 62
7
  6
CONTINUOUS
 10
162.8564163715
 20
-155.4407883707
 11
162.8846333415
 21
-155.4470464295
  0
LINE
  5
2CE
100
AcDbEntity
  8
0
100
AcDbLine
 62
7
  6
CONTINUOUS
 10
163.6613492467
 20
-154.5719167403
 11
163.5981848799
 21
-154.5567708535
  0
LINE
  5
2CF
100
AcDbEntity
  8
0
100
AcDbLine
 62
7
  6
CONTINUOUS
 10
162.8283861747
 20
-155.4339017959
 11
162.8564163715
 21
-155.4407883707
  0
LINE
  5
2D0
100
AcDbEntity
  8
0
100
AcDbLine
 62
7
  6
CONTINUOUS
 10
163.5981848799
 20
-154.5567708535
 11
163.5352814003
 21
-154.5404143431
  0
LINE
  5
2D1
100
AcDbEntity
  8
0
100
AcDbLine
 62
7
  6
CONTINUOUS
 10
162.8005294103
 20
-155.4264315987
 11
162.8283861747
 21
-155.4339017959
  0
LINE
  5
2D2
100
AcDbEntity
  8
0
100
AcDbLine
 62
7
  6
CONTINUOUS
 10
163.5352814003
 20
-154.5404143431
 11
163.4726127191
 21
-154.5229682719
  0
LINE
  5
2D3
100
AcDbEntity
  8
0
100
AcDbLine
 62
7
  6
CONTINUOUS
 10
162.7728327371
 20
-155.4184226731
 11
162.8005294103
 21
-155.4264315987
  0
LINE
  5
2D4
100
AcDbEntity
  8
0
100
AcDbLine
 62
7
  6
CONTINUOUS
 10
163.4726127191
 20
-154.5229682719
 11
163.4101527479
 21
-154.5045537023
  0
LINE
  5
2D5
100
AcDbEntity
  8
0
100
AcDbLine
 62
7
  6
CONTINUOUS
 10
162.7452828139
 20
-155.4099199131
 11
162.7728327371
 21
-155.4184226731
  0
LINE
  5
2D6
100
AcDbEntity
  8
0
100
AcDbLine
 62
7
  6
CONTINUOUS
 10
163.4101527479
 20
-154.5045537023
 11
163.3478753975
 21
-154.4852916963
  0
LINE
  5
2D7
100
AcDbEntity
  8
0
100
AcDbLine
 62
7
  6
CONTINUOUS
 10
163.3478753975
 20
-154.4852916963
 11
163.2857545799
 21
-154.4653033167
  0
LINE
  5
2D8
100
AcDbEntity
  8
0
100
AcDbLine
 62
7
  6
CONTINUOUS
 10
162.7178663003
 20
-155.4009682131
 11
162.7452828139
 21
-155.4099199131
  0
LINE
  5
2D9
100
AcDbEntity
  8
0
100
AcDbLine
 62
7
  6
CONTINUOUS
 10
163.2857545799
 20
-154.4653033167
 11
163.2237642059
 21
-154.4447096251
  0
LINE
  5
2DA
100
AcDbEntity
  8
0
100
AcDbLine
 62
7
  6
CONTINUOUS
 10
163.2237642059
 20
-154.4447096251
 11
163.1618781867
 21
-154.4236316847
  0
LINE
  5
2DB
100
AcDbEntity
  8
0
100
AcDbLine
 62
7
  6
CONTINUOUS
 10
162.6905698551
 20
-155.3916124667
 11
162.7178663003
 21
-155.4009682131
  0
LINE
  5
2DC
100
AcDbEntity
  8
0
100
AcDbLine
 62
7
  6
CONTINUOUS
 10
163.1618781867
 20
-154.4236316847
 11
163.1000704339
 21
-154.4021905567
  0
LINE
  5
2DD
100
AcDbEntity
  8
0
100
AcDbLine
 62
7
  6
CONTINUOUS
 10
101.1458504551
 20
-106.1036133607
 11
101.5788073351
 21
-106.2541052979
  0
LINE
  5
2DE
100
AcDbEntity
  8
0
100
AcDbLine
 62
7
  6
CONTINUOUS
 10
101.1458504551
 20
-103.4906827627
 11
100.7128935747
 21
-103.3401908251
  0
LINE
  5
2DF
100
AcDbEntity
  8
0
100
AcDbLine
 62
7
  6
CONTINUOUS
 10
3.9186680419
 20
-49.9755556727
 11
4.3516249219
 21
-50.1260476103
  0
LINE
  5
2E0
100
AcDbEntity
  8
0
100
AcDbLine
 62
7
  6
CONTINUOUS
 10
3.9186680419
 20
-47.3626250747
 11
3.4857111619
 21
-47.2121331375
  0
LINE
  5
2E1
100
AcDbEntity
  8
0
100
AcDbLine
 62
7
  6
CONTINUOUS
 10
158.0679463407
 20
-96.0721976711
 11
158.5009032207
 21
-96.2226896087
  0
LINE
  5
2E2
100
AcDbEntity
  8
0
100
AcDbLine
 62
7
  6
CONTINUOUS
 10
159.1133006843
 20
-94.1893108583
 11
158.7750531215
 21
-94.0717390319
  0
LINE
  5
2E3
100
AcDbEntity
  8
0
100
AcDbLine
 62
7
  6
CONTINUOUS
 10
158.4368055591
 20
-91.9128151763
 11
158.7750531215
 21
-92.0303870023
  0
LINE
  5
2E4
100
AcDbEntity
  8
0
100
AcDbLine
 62
7
  6
CONTINUOUS
 10
158.0679463407
 20
-90.8463364751
 11
157.6349894603
 21
-90.6958445375
  0
LINE
  5
2E5
100
AcDbEntity
  8
0
100
AcDbLine
 62
7
  6
CONTINUOUS
 10
158.0679463407
 20
-83.0075446811
 11
158.5009032207
 21
-83.1580366183
  0
LINE
  5
2E6
100
AcDbEntity
  8
0
100
AcDbLine
 62
7
  6
CONTINUOUS
 10
-93.3085143713
 20
6.1525020149
 11
-92.8755574913
 21
6.0020100777
  0
LINE
  5
2E7
100
AcDbEntity
  8
0
100
AcDbLine
 62
7
  6
CONTINUOUS
 10
-93.3085143713
 20
8.7654326129
 11
-93.7414712513
 21
8.9159245505
  0
LINE
  5
2E8
100
AcDbEntity
  8
0
100
AcDbLine
 62
7
  6
CONTINUOUS
 10
158.3420962415
 20
-78.5294527907
 11
158.7750531215
 21
-78.6799447279
  0
LINE
  5
2E9
100
AcDbEntity
  8
0
100
AcDbLine
 62
7
  6
CONTINUOUS
 10
158.0679463407
 20
-77.7816834847
 11
157.6349894603
 21
-77.6311915475
  0
LINE
  5
2EA
100
AcDbEntity
  8
0
100
AcDbLine
 62
7
  6
CONTINUOUS
 10
163.1000704339
 20
-154.4021905567
 11
162.9765853719
 21
-154.3587029899
  0
LINE
  5
2EB
100
AcDbEntity
  8
0
100
AcDbLine
 62
7
  6
CONTINUOUS
 10
162.6633801375
 20
-155.3818975683
 11
162.6905698551
 21
-155.3916124667
  0
LINE
  5
2EC
100
AcDbEntity
  8
0
100
AcDbLine
 62
7
  6
CONTINUOUS
 10
162.6362838063
 20
-155.3718684115
 11
162.6633801375
 21
-155.3818975683
  0
LINE
  5
2ED
100
AcDbEntity
  8
0
100
AcDbLine
 62
7
  6
CONTINUOUS
 10
162.6092675207
 20
-155.3615698907
 11
162.6362838063
 21
-155.3718684115
  0
LINE
  5
2EE
100
AcDbEntity
  8
0
100
AcDbLine
 62
7
  6
CONTINUOUS
 10
162.5823179403
 20
-155.3510468999
 11
162.6092675207
 21
-155.3615698907
  0
LINE
  5
2EF
100
AcDbEntity
  8
0
100
AcDbLine
 62
7
  6
CONTINUOUS
 10
162.5554217231
 20
-155.3403443327
 11
162.5823179403
 21
-155.3510468999
  0
LINE
  5
2F0
100
AcDbEntity
  8
0
100
AcDbLine
 62
7
  6
CONTINUOUS
 10
162.5017360167
 20
-155.3185800463
 11
162.5554217231
 21
-155.3403443327
  0
LINE
  5
2F1
100
AcDbEntity
  8
0
100
AcDbLine
 62
7
  6
CONTINUOUS
 10
162.4749198451
 20
-155.3076081151
 11
162.5017360167
 21
-155.3185800463
  0
LINE
  5
2F2
100
AcDbEntity
  8
0
100
AcDbLine
 62
7
  6
CONTINUOUS
 10
-152.9176160253
 20
25.8077401593
 11
-152.8156238841
 21
25.7488613497
  0
LINE
  5
2F3
100
AcDbEntity
  8
0
100
AcDbLine
 62
7
  6
CONTINUOUS
 10
-153.0590373817
 20
25.8898056109
 11
160.8963734651
 21
-155.3527952139
  0
LINE
  5
2F4
100
AcDbEntity
  8
0
100
AcDbLine
 62
7
  6
CONTINUOUS
 10
162.3104720935
 20
-155.2127103507
 11
162.4749073915
 21
-155.3076368275
  0
LINE
  5
2F5
100
AcDbEntity
  8
0
100
AcDbLine
 62
7
  6
CONTINUOUS
 10
-92.8375618001
 20
8.0985199429
 11
-92.4979330537
 21
7.9024564409
  0
LINE
  5
2F6
100
AcDbEntity
  8
0
100
AcDbLine
 62
7
  6
CONTINUOUS
 10
4.3896206127
 20
-48.0295377447
 11
4.7292493591
 21
-48.2256012467
  0
LINE
  5
2F7
100
AcDbEntity
  8
0
100
AcDbLine
 62
7
  6
CONTINUOUS
 10
161.6034802463
 20
-88.3965149895
 11
161.3616973643
 21
-88.2569367023
  0
LINE
  5
2F8
100
AcDbEntity
  8
0
100
AcDbLine
 62
7
  6
CONTINUOUS
 10
-149.5235034757
 20
99.2970236493
 11
-149.3348999625
 21
99.1698638757
  0
LINE
  5
2F9
100
AcDbEntity
  8
0
100
AcDbLine
 62
7
  6
CONTINUOUS
 10
-151.8646557561
 20
152.3443113733
 11
-151.8809530233
 21
152.3571627913
  0
LINE
  5
2FA
100
AcDbEntity
  8
0
100
AcDbLine
 62
7
  6
CONTINUOUS
 10
-93.7414712513
 20
6.5018914509
 11
-93.3085143713
 21
6.1525020149
  0
LINE
  5
2FB
100
AcDbEntity
  8
0
100
AcDbLine
 62
7
  6
CONTINUOUS
 10
-92.8755574913
 20
8.4160431769
 11
-93.3085143713
 21
8.7654326129
  0
LINE
  5
2FC
100
AcDbEntity
  8
0
100
AcDbLine
 62
7
  6
CONTINUOUS
 10
3.4857111619
 20
-49.6261662367
 11
3.9186680419
 21
-49.9755556727
  0
LINE
  5
2FD
100
AcDbEntity
  8
0
100
AcDbLine
 62
7
  6
CONTINUOUS
 10
4.3516249219
 20
-47.7120145107
 11
3.9186680419
 21
-47.3626250747
  0
LINE
  5
2FE
100
AcDbEntity
  8
0
100
AcDbLine
 62
7
  6
CONTINUOUS
 10
-150.6635671369
 20
82.2541601421
 11
-150.2306102569
 21
81.9047707061
  0
LINE
  5
2FF
100
AcDbEntity
  8
0
100
AcDbLine
 62
7
  6
CONTINUOUS
 10
-149.5235034757
 20
83.9052293453
 11
-149.8617510381
 21
84.1781898421
  0
LINE
  5
300
100
AcDbEntity
  8
0
100
AcDbLine
 62
7
  6
CONTINUOUS
 10
-149.5235034757
 20
85.9465813749
 11
-149.1852559129
 21
85.6736208781
  0
LINE
  5
301
100
AcDbEntity
  8
0
100
AcDbLine
 62
7
  6
CONTINUOUS
 10
-149.7976533769
 20
86.7812424661
 11
-150.2306102569
 21
87.1306319021
  0
LINE
  5
302
100
AcDbEntity
  8
0
100
AcDbLine
 62
7
  6
CONTINUOUS
 10
-150.6635671369
 20
95.3188131325
 11
-150.2306102569
 21
94.9694236965
  0
LINE
  5
303
100
AcDbEntity
  8
0
100
AcDbLine
 62
7
  6
CONTINUOUS
 10
100.7128935747
 20
-105.7542239247
 11
101.1458504551
 21
-106.1036133607
  0
LINE
  5
304
100
AcDbEntity
  8
0
100
AcDbLine
 62
7
  6
CONTINUOUS
 10
101.5788073351
 20
-103.8400721987
 11
101.1458504551
 21
-103.4906827627
  0
LINE
  5
305
100
AcDbEntity
  8
0
100
AcDbLine
 62
7
  6
CONTINUOUS
 10
-149.7976533769
 20
99.8458954565
 11
-150.2306102569
 21
100.1952848925
  0
LINE
  5
306
100
AcDbEntity
  8
0
100
AcDbLine
 62
7
  6
CONTINUOUS
 10
-150.6635671369
 20
141.2084067605
 11
-150.2306102569
 21
140.8590173245
  0
LINE
  5
307
100
AcDbEntity
  8
0
100
AcDbLine
 62
7
  6
CONTINUOUS
 10
-149.7976533769
 20
145.7354890845
 11
-150.2306102569
 21
146.0848785205
  0
LINE
  5
308
100
AcDbEntity
  8
0
100
AcDbLine
 62
7
  6
CONTINUOUS
 10
157.6349894603
 20
-95.7228082351
 11
158.0679463407
 21
-96.0721976711
  0
LINE
  5
309
100
AcDbEntity
  8
0
100
AcDbLine
 62
7
  6
CONTINUOUS
 10
158.7750531215
 20
-94.0717390319
 11
158.4368055591
 21
-93.7987785351
  0
LINE
  5
30A
100
AcDbEntity
  8
0
100
AcDbLine
 62
7
  6
CONTINUOUS
 10
158.7750531215
 20
-92.0303870023
 11
159.1133006843
 21
-92.3033474991
  0
LINE
  5
30B
100
AcDbEntity
  8
0
100
AcDbLine
 62
7
  6
CONTINUOUS
 10
158.5009032207
 20
-91.1957259111
 11
158.0679463407
 21
-90.8463364751
  0
LINE
  5
30C
100
AcDbEntity
  8
0
100
AcDbLine
 62
7
  6
CONTINUOUS
 10
-151.8519306005
 20
152.3338058529
 11
-151.8646557561
 21
152.3443113733
  0
LINE
  5
30D
100
AcDbEntity
  8
0
100
AcDbLine
 62
7
  6
CONTINUOUS
 10
-143.1311481813
 20
156.2042943473
 11
-142.8059890545
 21
155.9233659281
  0
LINE
  5
30E
100
AcDbEntity
  8
0
100
AcDbLine
 62
7
  6
CONTINUOUS
 10
-140.3311153201
 20
155.7191312001
 11
-140.1143425689
 21
155.5318455873
  0
LINE
  5
30F
100
AcDbEntity
  8
0
100
AcDbLine
 62
7
  6
CONTINUOUS
 10
-139.0083011061
 20
155.3109934945
 11
-139.0839109017
 21
155.3838088917
  0
LINE
  5
310
100
AcDbEntity
  8
0
100
AcDbLine
 62
7
  6
CONTINUOUS
 10
-149.1852559129
 20
85.6736208781
 11
-149.1664664649
 21
85.6534913097
  0
LINE
  5
311
100
AcDbEntity
  8
0
100
AcDbLine
 62
7
  6
CONTINUOUS
 10
-151.0306102569
 20
82.7492557025
 11
-150.6635671369
 21
82.2541601421
  0
LINE
  5
312
100
AcDbEntity
  8
0
100
AcDbLine
 62
7
  6
CONTINUOUS
 10
-94.1085143713
 20
6.9969870113
 11
-93.7414712513
 21
6.5018914509
  0
LINE
  5
313
100
AcDbEntity
  8
0
100
AcDbLine
 62
7
  6
CONTINUOUS
 10
-149.8617510381
 20
84.1781898421
 11
-150.1485034757
 21
84.5649832489
  0
LINE
  5
314
100
AcDbEntity
  8
0
100
AcDbLine
 62
7
  6
CONTINUOUS
 10
-92.5085143713
 20
7.9209476165
 11
-92.8755574913
 21
8.4160431769
  0
LINE
  5
315
100
AcDbEntity
  8
0
100
AcDbLine
 62
7
  6
CONTINUOUS
 10
-149.4306102569
 20
86.2861469061
 11
-149.7976533769
 21
86.7812424661
  0
LINE
  5
316
100
AcDbEntity
  8
0
100
AcDbLine
 62
7
  6
CONTINUOUS
 10
-151.0306102569
 20
95.8139086929
 11
-150.6635671369
 21
95.3188131325
  0
LINE
  5
317
100
AcDbEntity
  8
0
100
AcDbLine
 62
7
  6
CONTINUOUS
 10
-149.4306102569
 20
99.3507998961
 11
-149.7976533769
 21
99.8458954565
  0
LINE
  5
318
100
AcDbEntity
  8
0
100
AcDbLine
 62
7
  6
CONTINUOUS
 10
-151.0306102569
 20
141.7035023209
 11
-150.6635671369
 21
141.2084067605
  0
LINE
  5
319
100
AcDbEntity
  8
0
100
AcDbLine
 62
7
  6
CONTINUOUS
 10
-149.4306102569
 20
145.2403935241
 11
-149.7976533769
 21
145.7354890845
  0
LINE
  5
31A
100
AcDbEntity
  8
0
100
AcDbLine
 62
7
  6
CONTINUOUS
 10
3.1186680419
 20
-49.1310706763
 11
3.4857111619
 21
-49.6261662367
  0
LINE
  5
31B
100
AcDbEntity
  8
0
100
AcDbLine
 62
7
  6
CONTINUOUS
 10
4.7186680419
 20
-48.2071100711
 11
4.3516249219
 21
-47.7120145107
  0
LINE
  5
31C
100
AcDbEntity
  8
0
100
AcDbLine
 62
7
  6
CONTINUOUS
 10
100.3458504551
 20
-105.2591283643
 11
100.7128935747
 21
-105.7542239247
  0
LINE
  5
31D
100
AcDbEntity
  8
0
100
AcDbLine
 62
7
  6
CONTINUOUS
 10
101.9458504551
 20
-104.3351677591
 11
101.5788073351
 21
-103.8400721987
  0
LINE
  5
31E
100
AcDbEntity
  8
0
100
AcDbLine
 62
7
  6
CONTINUOUS
 10
-151.2758606289
 20
83.3146835761
 11
-151.0306102569
 21
82.7492557025
  0
LINE
  5
31F
100
AcDbEntity
  8
0
100
AcDbLine
 62
7
  6
CONTINUOUS
 10
-150.1485034757
 20
84.5649832489
 11
-150.3401053285
 21
85.0067237749
  0
LINE
  5
320
100
AcDbEntity
  8
0
100
AcDbLine
 62
7
  6
CONTINUOUS
 10
-149.1853598849
 20
85.7207190325
 11
-149.4306102569
 21
86.2861469061
  0
LINE
  5
321
100
AcDbEntity
  8
0
100
AcDbLine
 62
7
  6
CONTINUOUS
 10
-151.2758606289
 20
96.3793365661
 11
-151.0306102569
 21
95.8139086929
  0
LINE
  5
322
100
AcDbEntity
  8
0
100
AcDbLine
 62
7
  6
CONTINUOUS
 10
-149.1853598849
 20
98.7853720225
 11
-149.4306102569
 21
99.3507998961
  0
LINE
  5
323
100
AcDbEntity
  8
0
100
AcDbLine
 62
7
  6
CONTINUOUS
 10
-94.3537647433
 20
7.5624148849
 11
-94.1085143713
 21
6.9969870113
  0
LINE
  5
324
100
AcDbEntity
  8
0
100
AcDbLine
 62
7
  6
CONTINUOUS
 10
-151.2758606289
 20
142.2689301941
 11
-151.0306102569
 21
141.7035023209
  0
LINE
  5
325
100
AcDbEntity
  8
0
100
AcDbLine
 62
7
  6
CONTINUOUS
 10
-92.2632639993
 20
7.3555197433
 11
-92.5085143713
 21
7.9209476165
  0
LINE
  5
326
100
AcDbEntity
  8
0
100
AcDbLine
 62
7
  6
CONTINUOUS
 10
-149.1853598849
 20
144.6749656505
 11
-149.4306102569
 21
145.2403935241
  0
LINE
  5
327
100
AcDbEntity
  8
0
100
AcDbLine
 62
7
  6
CONTINUOUS
 10
2.8734176699
 20
-48.5656428031
 11
3.1186680419
 21
-49.1310706763
  0
LINE
  5
328
100
AcDbEntity
  8
0
100
AcDbLine
 62
7
  6
CONTINUOUS
 10
4.9639184139
 20
-48.7725379447
 11
4.7186680419
 21
-48.2071100711
  0
LINE
  5
329
100
AcDbEntity
  8
0
100
AcDbLine
 62
7
  6
CONTINUOUS
 10
-143.2453288825
 20
156.5356720121
 11
-143.1311481813
 21
156.2042943473
  0
LINE
  5
32A
100
AcDbEntity
  8
0
100
AcDbLine
 62
7
  6
CONTINUOUS
 10
-140.1143425689
 20
155.5318455873
 11
-140.0382221013
 21
155.3109271445
  0
LINE
  5
32B
100
AcDbEntity
  8
0
100
AcDbLine
 62
7
  6
CONTINUOUS
 10
-54.1498744529
 20
207.9693830569
 11
-54.0356937517
 21
207.6380053921
  0
LINE
  5
32C
100
AcDbEntity
  8
0
100
AcDbLine
 62
7
  6
CONTINUOUS
 10
-51.0188881393
 20
206.9655566321
 11
-50.9427676717
 21
206.7446381893
  0
LINE
  5
32D
100
AcDbEntity
  8
0
100
AcDbLine
 62
7
  6
CONTINUOUS
 10
6.6613087291
 20
64.2815553761
 11
6.7754894303
 21
63.9501777113
  0
LINE
  5
32E
100
AcDbEntity
  8
0
100
AcDbLine
 62
7
  6
CONTINUOUS
 10
7.8684155103
 20
63.8732186201
 11
7.9445359775
 21
63.6523001769
  0
LINE
  5
32F
100
AcDbEntity
  8
0
100
AcDbLine
 62
7
  6
CONTINUOUS
 10
-152.3546623865
 20
152.0612744101
 11
-152.3519306005
 21
152.0450292969
  0
LINE
  5
330
100
AcDbEntity
  8
0
100
AcDbLine
 62
7
  6
CONTINUOUS
 10
-151.3619811069
 20
83.8643624945
 11
-151.2758606289
 21
83.3146835761
  0
LINE
  5
331
100
AcDbEntity
  8
0
100
AcDbLine
 62
7
  6
CONTINUOUS
 10
-150.3401053285
 20
85.0067237749
 11
-150.4073869521
 21
85.4361604301
  0
LINE
  5
332
100
AcDbEntity
  8
0
100
AcDbLine
 62
7
  6
CONTINUOUS
 10
-151.3619811069
 20
96.9290154849
 11
-151.2758606289
 21
96.3793365661
  0
LINE
  5
333
100
AcDbEntity
  8
0
100
AcDbLine
 62
7
  6
CONTINUOUS
 10
-149.0992394069
 20
85.1710401137
 11
-149.1853598849
 21
85.7207190325
  0
LINE
  5
334
100
AcDbEntity
  8
0
100
AcDbLine
 62
7
  6
CONTINUOUS
 10
-149.0992394069
 20
98.2356931041
 11
-149.1853598849
 21
98.7853720225
  0
LINE
  5
335
100
AcDbEntity
  8
0
100
AcDbLine
 62
7
  6
CONTINUOUS
 10
-151.3619811069
 20
142.8186091129
 11
-151.2758606289
 21
142.2689301941
  0
LINE
  5
336
100
AcDbEntity
  8
0
100
AcDbLine
 62
7
  6
CONTINUOUS
 10
-149.0992394069
 20
144.1252867321
 11
-149.1853598849
 21
144.6749656505
  0
LINE
  5
337
100
AcDbEntity
  8
0
100
AcDbLine
 62
7
  6
CONTINUOUS
 10
-94.4398852213
 20
8.1120938033
 11
-94.3537647433
 21
7.5624148849
  0
LINE
  5
338
100
AcDbEntity
  8
0
100
AcDbLine
 62
7
  6
CONTINUOUS
 10
-92.1771435213
 20
6.8058408245
 11
-92.2632639993
 21
7.3555197433
  0
LINE
  5
339
100
AcDbEntity
  8
0
100
AcDbLine
 62
7
  6
CONTINUOUS
 10
2.7872971919
 20
-48.0159638843
 11
2.8734176699
 21
-48.5656428031
  0
LINE
  5
33A
100
AcDbEntity
  8
0
100
AcDbLine
 62
7
  6
CONTINUOUS
 10
5.0500388919
 20
-49.3222168631
 11
4.9639184139
 21
-48.7725379447
  0
LINE
  5
33B
100
AcDbEntity
  8
0
100
AcDbLine
 62
7
  6
CONTINUOUS
 10
-152.3576457097
 20
152.0818177765
 11
-152.3546623865
 21
152.0612744101
  0
LINE
  5
33C
100
AcDbEntity
  8
0
100
AcDbLine
 62
7
  6
CONTINUOUS
 10
-152.3600348021
 20
152.1019037333
 11
-152.3576457097
 21
152.0818177765
  0
LINE
  5
33D
100
AcDbEntity
  8
0
100
AcDbLine
 62
7
  6
CONTINUOUS
 10
-52.8666472045
 20
206.9655566321
 11
-52.6498744529
 21
207.1528422449
  0
LINE
  5
33E
100
AcDbEntity
  8
0
100
AcDbLine
 62
7
  6
CONTINUOUS
 10
-51.0188881393
 20
206.5237197461
 11
-51.2356608909
 21
206.3364341333
  0
LINE
  5
33F
100
AcDbEntity
  8
0
100
AcDbLine
 62
7
  6
CONTINUOUS
 10
-153.3416049821
 20
152.2895518029
 11
-153.3531303765
 21
152.2812958921
  0
LINE
  5
340
100
AcDbEntity
  8
0
100
AcDbLine
 62
7
  6
CONTINUOUS
 10
-153.3298224993
 20
152.2977462389
 11
-153.3416049821
 21
152.2895518029
  0
LINE
  5
341
100
AcDbEntity
  8
0
100
AcDbLine
 62
7
  6
CONTINUOUS
 10
-152.2565298209
 20
152.4380561321
 11
-152.2644429501
 21
152.4325662617
  0
LINE
  5
342
100
AcDbEntity
  8
0
100
AcDbLine
 62
7
  6
CONTINUOUS
 10
-152.7693878789
 20
153.2962581569
 11
-152.7898275281
 21
153.2823391441
  0
LINE
  5
343
100
AcDbEntity
  8
0
100
AcDbLine
 62
7
  6
CONTINUOUS
 10
-153.3177951697
 20
152.3058821273
 11
-153.3298224993
 21
152.2977462389
  0
LINE
  5
344
100
AcDbEntity
  8
0
100
AcDbLine
 62
7
  6
CONTINUOUS
 10
158.5009032207
 20
-83.1580366183
 11
158.8679463407
 21
-83.0867200239
  0
LINE
  5
345
100
AcDbEntity
  8
0
100
AcDbLine
 62
7
  6
CONTINUOUS
 10
157.9750531215
 20
-78.6007693851
 11
158.3420962415
 21
-78.5294527907
  0
LINE
  5
346
100
AcDbEntity
  8
0
100
AcDbLine
 62
7
  6
CONTINUOUS
 10
157.6349894603
 20
-77.6311915475
 11
157.2679463407
 21
-77.7025081419
  0
LINE
  5
347
100
AcDbEntity
  8
0
100
AcDbLine
 62
8
  6
CONTINUOUS
 10
171.5029751831
 20
-79.7010188431
 11
171.0433557907
 21
-79.4356862155
  0
LINE
  5
348
100
AcDbEntity
  8
0
100
AcDbLine
 62
7
  6
CONTINUOUS
 10
173.3768081531
 20
-78.0883938671
 11
172.6697013719
 21
-77.6801898111
  0
LINE
  5
349
100
AcDbEntity
  8
0
100
AcDbLine
 62
7
  6
CONTINUOUS
 10
158.7750531215
 20
-78.6799447279
 11
158.9636566347
 21
-78.8071045019
  0
LINE
  5
34A
100
AcDbEntity
  8
0
100
AcDbLine
 62
7
  6
CONTINUOUS
 10
-149.5235034757
 20
145.1866172773
 11
-149.3348999625
 21
145.0594575037
  0
LINE
  5
34B
100
AcDbEntity
  8
0
100
AcDbLine
 62
7
  6
CONTINUOUS
 10
-151.8971511909
 20
152.3692708789
 11
-151.9132274449
 21
152.3806363757
  0
LINE
  5
34C
100
AcDbEntity
  8
0
100
AcDbLine
 62
7
  6
CONTINUOUS
 10
-151.8809530233
 20
152.3571627913
 11
-151.8971511909
 21
152.3692708789
  0
LINE
  5
34D
100
AcDbEntity
  8
0
100
AcDbLine
 62
7
  6
CONTINUOUS
 10
157.6349894603
 20
-82.6581552447
 11
158.0679463407
 21
-83.0075446811
  0
LINE
  5
34E
100
AcDbEntity
  8
0
100
AcDbLine
 62
7
  6
CONTINUOUS
 10
158.5009032207
 20
-78.1310729211
 11
158.0679463407
 21
-77.7816834847
  0
LINE
  5
34F
100
AcDbEntity
  8
0
100
AcDbLine
 62
7
  6
CONTINUOUS
 10
9.8342927451
 20
64.0227363237
 11
9.7922950427
 21
64.0941370633
  0
LINE
  5
350
100
AcDbEntity
  8
0
100
AcDbLine
 62
7
  6
CONTINUOUS
 10
11.0755222915
 20
65.0979634881
 11
10.9613415899
 21
65.4293411525
  0
LINE
  5
351
100
AcDbEntity
  8
0
100
AcDbLine
 62
7
  6
CONTINUOUS
 10
7.1006485571
 20
64.8938614601
 11
7.1006485571
 21
64.0773206481
  0
LINE
  5
352
100
AcDbEntity
  8
0
100
AcDbLine
 62
7
  6
CONTINUOUS
 10
8.5148621195
 20
65.7102695717
 11
8.5148621195
 21
64.8937287601
  0
LINE
  5
353
100
AcDbEntity
  8
0
100
AcDbLine
 62
8
  6
CONTINUOUS
 10
9.5755222915
 20
63.8733513201
 11
9.5755222915
 21
64.2814226761
  0
LINE
  5
354
100
AcDbEntity
  8
0
100
AcDbLine
 62
7
  6
CONTINUOUS
 10
-153.3011026489
 20
152.3168352829
 11
-153.3177951697
 21
152.3058821273
  0
LINE
  5
355
100
AcDbEntity
  8
0
100
AcDbLine
 62
7
  6
CONTINUOUS
 10
-153.2840123109
 20
152.3276933125
 11
-153.3011026489
 21
152.3168352829
  0
LINE
  5
356
100
AcDbEntity
  8
0
100
AcDbLine
 62
7
  6
CONTINUOUS
 10
-153.2665547565
 20
152.3384635329
 11
-153.2840123109
 21
152.3276933125
  0
LINE
  5
357
100
AcDbEntity
  8
0
100
AcDbLine
 62
7
  6
CONTINUOUS
 10
-152.2483772097
 20
152.4430705425
 11
-152.2565298209
 21
152.4380561321
  0
LINE
  5
358
100
AcDbEntity
  8
0
100
AcDbLine
 62
7
  6
CONTINUOUS
 10
-152.7483772097
 20
153.3090959437
 11
-152.7693878789
 21
153.2962581569
  0
LINE
  5
359
100
AcDbEntity
  8
0
100
AcDbLine
 62
7
  6
CONTINUOUS
 10
-153.2487605873
 20
152.3491532621
 11
-153.2665547565
 21
152.3384635329
  0
LINE
  5
35A
100
AcDbEntity
  8
0
100
AcDbLine
 62
7
  6
CONTINUOUS
 10
158.0679463407
 20
-37.1179510531
 11
158.5009032207
 21
-37.2684429903
  0
LINE
  5
35B
100
AcDbEntity
  8
0
100
AcDbLine
 62
7
  6
CONTINUOUS
 10
-151.9291595213
 20
152.3912615617
 11
-151.9449258561
 21
152.4011502837
  0
LINE
  5
35C
100
AcDbEntity
  8
0
100
AcDbLine
 62
7
  6
CONTINUOUS
 10
-151.8839732961
 20
153.1721333961
 11
-151.9220342357
 21
153.1966787845
  0
LINE
  5
35D
100
AcDbEntity
  8
0
100
AcDbLine
 62
7
  6
CONTINUOUS
 10
-151.9132274449
 20
152.3806363757
 11
-151.9291595213
 21
152.3912615617
  0
LINE
  5
35E
100
AcDbEntity
  8
0
100
AcDbLine
 62
7
  6
CONTINUOUS
 10
-151.8519306005
 20
153.1503466649
 11
-151.8839732961
 21
153.1721333961
  0
LINE
  5
35F
100
AcDbEntity
  8
0
100
AcDbLine
 62
7
  6
CONTINUOUS
 10
-139.0839109017
 20
155.3838088917
 11
-139.2704551485
 21
155.5150291721
  0
LINE
  5
360
100
AcDbEntity
  8
0
100
AcDbLine
 62
7
  6
CONTINUOUS
 10
6.7754894303
 20
63.9501777113
 11
7.1006485571
 21
63.6692492921
  0
LINE
  5
361
100
AcDbEntity
  8
0
100
AcDbLine
 62
7
  6
CONTINUOUS
 10
7.9445359775
 20
63.6523001769
 11
8.1613087291
 21
63.4650145641
  0
LINE
  5
362
100
AcDbEntity
  8
0
100
AcDbLine
 62
7
  6
CONTINUOUS
 10
9.7922950427
 20
64.0941370633
 11
9.5755222915
 21
64.2814226761
  0
LINE
  5
363
100
AcDbEntity
  8
0
100
AcDbLine
 62
7
  6
CONTINUOUS
 10
10.9613415899
 20
65.4293411525
 11
10.6361824631
 21
65.7102695717
  0
LINE
  5
364
100
AcDbEntity
  8
0
100
AcDbLine
 62
7
  6
CONTINUOUS
 10
159.1133006843
 20
-92.3033474991
 11
159.1320903519
 21
-92.3234773063
  0
LINE
  5
365
100
AcDbEntity
  8
0
100
AcDbLine
 62
7
  6
CONTINUOUS
 10
100.1006000831
 20
-104.6937004907
 11
100.3458504551
 21
-105.2591283643
  0
LINE
  5
366
100
AcDbEntity
  8
0
100
AcDbLine
 62
7
  6
CONTINUOUS
 10
102.1911008267
 20
-104.9005956323
 11
101.9458504551
 21
-104.3351677591
  0
LINE
  5
367
100
AcDbEntity
  8
0
100
AcDbLine
 62
7
  6
CONTINUOUS
 10
-153.2306604049
 20
152.3597698173
 11
-153.2487605873
 21
152.3491532621
  0
LINE
  5
368
100
AcDbEntity
  8
0
100
AcDbLine
 62
7
  6
CONTINUOUS
 10
-51.2356608909
 20
212.8678317277
 11
-150.2306102569
 21
155.7192639005
  0
LINE
  5
369
100
AcDbEntity
  8
0
100
AcDbLine
 62
7
  6
CONTINUOUS
 10
-151.6763270649
 20
153.9279773265
 11
-152.8536171001
 21
153.2483422557
  0
LINE
  5
36A
100
AcDbEntity
  8
0
100
AcDbLine
 62
7
  6
CONTINUOUS
 10
-47.0786847401
 20
213.8326312913
 11
-47.3014048805
 21
213.7040576909
  0
LINE
  5
36B
100
AcDbEntity
  8
0
100
AcDbLine
 62
8
  6
CONTINUOUS
 10
-151.6950763509
 20
153.2408966957
 11
-151.8519306005
 21
153.1503466649
  0
LINE
  5
36C
100
AcDbEntity
  8
0
100
AcDbLine
 62
7
  6
CONTINUOUS
 10
-153.3518493329
 20
152.1443107981
 11
-154.0589561141
 21
151.7361067421
  0
LINE
  5
36D
100
AcDbEntity
  8
0
100
AcDbLine
 62
8
  6
CONTINUOUS
 10
-45.5788066413
 20
213.6841071397
 11
-45.8738051049
 21
213.5138081513
  0
LINE
  5
36E
100
AcDbEntity
  8
0
100
AcDbLine
 62
7
  6
CONTINUOUS
 10
-153.0590373817
 20
151.6370906413
 11
-152.3519306005
 21
152.0452946969
  0
LINE
  5
36F
100
AcDbEntity
  8
0
100
AcDbLine
 62
8
  6
CONTINUOUS
 10
-152.3519306005
 20
152.0450292969
 11
-151.8518156665
 21
152.3337395029
  0
LINE
  5
370
100
AcDbEntity
  8
0
100
AcDbLine
 62
7
  6
CONTINUOUS
 10
-147.5436044885
 20
148.4530990049
 11
-146.8364977073
 21
148.8613030609
  0
LINE
  5
371
100
AcDbEntity
  8
0
100
AcDbLine
 62
7
  6
CONTINUOUS
 10
-151.3619811069
 20
145.4315397109
 11
-150.6548743257
 21
145.8397437669
  0
LINE
  5
372
100
AcDbEntity
  8
0
100
AcDbLine
 62
7
  6
CONTINUOUS
 10
-150.6548743257
 20
144.5332784677
 11
-149.9477675445
 21
144.9414825237
  0
LINE
  5
373
100
AcDbEntity
  8
0
100
AcDbLine
 62
8
  6
CONTINUOUS
 10
-146.1293909261
 20
146.0036092693
 11
-145.9620447545
 21
146.1002161577
  0
LINE
  5
374
100
AcDbEntity
  8
0
100
AcDbLine
 62
7
  6
CONTINUOUS
 10
-151.3619811069
 20
142.8186091129
 11
-150.6548743257
 21
143.2268131689
  0
LINE
  5
375
100
AcDbEntity
  8
0
100
AcDbLine
 62
7
  6
CONTINUOUS
 10
-146.1293909261
 20
145.6769929445
 11
-145.9879695697
 21
145.7586337557
  0
LINE
  5
376
100
AcDbEntity
  8
0
100
AcDbLine
 62
7
  6
CONTINUOUS
 10
-153.2122848105
 20
152.3703205157
 11
-153.2306604049
 21
152.3597698173
  0
LINE
  5
377
100
AcDbEntity
  8
0
100
AcDbLine
 62
7
  6
CONTINUOUS
 10
-153.1936644053
 20
152.3808126749
 11
-153.2122848105
 21
152.3703205157
  0
LINE
  5
378
100
AcDbEntity
  8
0
100
AcDbLine
 62
7
  6
CONTINUOUS
 10
-153.1748297909
 20
152.3912536121
 11
-153.1936644053
 21
152.3808126749
  0
LINE
  5
379
100
AcDbEntity
  8
0
100
AcDbLine
 62
7
  6
CONTINUOUS
 10
-153.1558115681
 20
152.4016506453
 11
-153.1748297909
 21
152.3912536121
  0
LINE
  5
37A
100
AcDbEntity
  8
0
100
AcDbLine
 62
7
  6
CONTINUOUS
 10
-152.7267568609
 20
153.3208777353
 11
-152.7483772097
 21
153.3090959437
  0
LINE
  5
37B
100
AcDbEntity
  8
0
100
AcDbLine
 62
7
  6
CONTINUOUS
 10
-152.2399596741
 20
152.4476260977
 11
-152.2483772097
 21
152.4430705425
  0
LINE
  5
37C
100
AcDbEntity
  8
0
100
AcDbLine
 62
7
  6
CONTINUOUS
 10
-153.1173467041
 20
152.4223422677
 11
-153.1558115681
 21
152.4016506453
  0
LINE
  5
37D
100
AcDbEntity
  8
0
100
AcDbLine
 62
7
  6
CONTINUOUS
 10
164.2636983951
 20
-31.4591970171
 11
164.3215991963
 21
-31.4533928487
  0
LINE
  5
37E
100
AcDbEntity
  8
0
100
AcDbLine
 62
7
  6
CONTINUOUS
 10
164.1013949203
 20
-30.8956291255
 11
164.1435350863
 21
-30.8920777355
  0
LINE
  5
37F
100
AcDbEntity
  8
0
100
AcDbLine
 62
7
  6
CONTINUOUS
 10
164.2051189579
 20
-31.4638299947
 11
164.2636983951
 21
-31.4591970171
  0
LINE
  5
380
100
AcDbEntity
  8
0
100
AcDbLine
 62
7
  6
CONTINUOUS
 10
164.1459671191
 20
-31.4672788519
 11
164.2051189579
 21
-31.4638299947
  0
LINE
  5
381
100
AcDbEntity
  8
0
100
AcDbLine
 62
7
  6
CONTINUOUS
 10
164.0583633935
 20
-30.8980857063
 11
164.1013949203
 21
-30.8956291255
  0
LINE
  5
382
100
AcDbEntity
  8
0
100
AcDbLine
 62
7
  6
CONTINUOUS
 10
164.0863491115
 20
-31.4695306607
 11
164.1459671191
 21
-31.4672788519
  0
LINE
  5
383
100
AcDbEntity
  8
0
100
AcDbLine
 62
7
  6
CONTINUOUS
 10
164.0354930579
 20
-30.8989254851
 11
164.0583633935
 21
-30.8980857063
  0
LINE
  5
384
100
AcDbEntity
  8
0
100
AcDbLine
 62
7
  6
CONTINUOUS
 10
164.0263711683
 20
-31.4705724919
 11
164.0863491115
 21
-31.4695306607
  0
LINE
  5
385
100
AcDbEntity
  8
0
100
AcDbLine
 62
7
  6
CONTINUOUS
 10
163.9915095075
 20
-30.8996546455
 11
164.0354930579
 21
-30.8989254851
  0
LINE
  5
386
100
AcDbEntity
  8
0
100
AcDbLine
 62
7
  6
CONTINUOUS
 10
163.9661395231
 20
-31.4703914175
 11
164.0263711683
 21
-31.4705724919
  0
LINE
  5
387
100
AcDbEntity
  8
0
100
AcDbLine
 62
7
  6
CONTINUOUS
 10
163.9471342115
 20
-30.8992314115
 11
163.9915095075
 21
-30.8996546455
  0
LINE
  5
388
100
AcDbEntity
  8
0
100
AcDbLine
 62
7
  6
CONTINUOUS
 10
163.9057604095
 20
-31.4689745083
 11
163.9661395231
 21
-31.4703914175
  0
LINE
  5
389
100
AcDbEntity
  8
0
100
AcDbLine
 62
7
  6
CONTINUOUS
 10
163.9025294327
 20
-30.8976507731
 11
163.9471342115
 21
-30.8992314115
  0
LINE
  5
38A
100
AcDbEntity
  8
0
100
AcDbLine
 62
7
  6
CONTINUOUS
 10
163.8453400603
 20
-31.4663088359
 11
163.9057604095
 21
-31.4689745083
  0
LINE
  5
38B
100
AcDbEntity
  8
0
100
AcDbLine
 62
7
  6
CONTINUOUS
 10
163.8578510135
 20
-30.8949149479
 11
163.9025294327
 21
-30.8976507731
  0
LINE
  5
38C
100
AcDbEntity
  8
0
100
AcDbLine
 62
7
  6
CONTINUOUS
 10
163.7849847095
 20
-31.4623814715
 11
163.8453400603
 21
-31.4663088359
  0
LINE
  5
38D
100
AcDbEntity
  8
0
100
AcDbLine
 62
7
  6
CONTINUOUS
 10
163.7248005899
 20
-31.4571794863
 11
163.7849847095
 21
-31.4623814715
  0
LINE
  5
38E
100
AcDbEntity
  8
0
100
AcDbLine
 62
7
  6
CONTINUOUS
 10
163.8132465439
 20
-30.8910326839
 11
163.8578510135
 21
-30.8949149479
  0
LINE
  5
38F
100
AcDbEntity
  8
0
100
AcDbLine
 62
7
  6
CONTINUOUS
 10
163.6606245351
 20
-31.4502026775
 11
163.7248005899
 21
-31.4571794863
  0
LINE
  5
390
100
AcDbEntity
  8
0
100
AcDbLine
 62
7
  6
CONTINUOUS
 10
163.7688539635
 20
-30.8860184831
 11
163.8132465439
 21
-30.8910326839
  0
LINE
  5
391
100
AcDbEntity
  8
0
100
AcDbLine
 62
7
  6
CONTINUOUS
 10
167.2603344959
 20
-22.0887535211
 11
167.6430179283
 21
-22.1326969315
  0
LINE
  5
392
100
AcDbEntity
  8
0
100
AcDbLine
 62
7
  6
CONTINUOUS
 10
163.5967402507
 20
-31.4418719347
 11
163.6606245351
 21
-31.4502026775
  0
LINE
  5
393
100
AcDbEntity
  8
0
100
AcDbLine
 62
7
  6
CONTINUOUS
 10
163.7248005899
 20
-30.8798917743
 11
163.7688539635
 21
-30.8860184831
  0
LINE
  5
394
100
AcDbEntity
  8
0
100
AcDbLine
 62
7
  6
CONTINUOUS
 10
163.5331212123
 20
-31.4323103427
 11
163.5967402507
 21
-31.4418719347
  0
LINE
  5
395
100
AcDbEntity
  8
0
100
AcDbLine
 62
7
  6
CONTINUOUS
 10
163.6809205095
 20
-30.8726263371
 11
163.7248005899
 21
-30.8798917743
  0
LINE
  5
396
100
AcDbEntity
  8
0
100
AcDbLine
 62
7
  6
CONTINUOUS
 10
163.4697408955
 20
-31.4216409859
 11
163.5331212123
 21
-31.4323103427
  0
LINE
  5
397
100
AcDbEntity
  8
0
100
AcDbLine
 62
7
  6
CONTINUOUS
 10
163.4065727755
 20
-31.4099869499
 11
163.4697408955
 21
-31.4216409859
  0
LINE
  5
398
100
AcDbEntity
  8
0
100
AcDbLine
 62
7
  6
CONTINUOUS
 10
163.6369819755
 20
-30.8641785379
 11
163.6809205095
 21
-30.8726263371
  0
LINE
  5
399
100
AcDbEntity
  8
0
100
AcDbLine
 62
7
  6
CONTINUOUS
 10
163.3435903279
 20
-31.3974713191
 11
163.4065727755
 21
-31.4099869499
  0
LINE
  5
39A
100
AcDbEntity
  8
0
100
AcDbLine
 62
7
  6
CONTINUOUS
 10
163.2807670275
 20
-31.3842171787
 11
163.3435903279
 21
-31.3974713191
  0
LINE
  5
39B
100
AcDbEntity
  8
0
100
AcDbLine
 62
7
  6
CONTINUOUS
 10
163.5931263063
 20
-30.8545683655
 11
163.6369819755
 21
-30.8641785379
  0
LINE
  5
39C
100
AcDbEntity
  8
0
100
AcDbLine
 62
7
  6
CONTINUOUS
 10
163.2180763503
 20
-31.3703476139
 11
163.2807670275
 21
-31.3842171787
  0
LINE
  5
39D
100
AcDbEntity
  8
0
100
AcDbLine
 62
7
  6
CONTINUOUS
 10
163.1554917715
 20
-31.3559857091
 11
163.2180763503
 21
-31.3703476139
  0
LINE
  5
39E
100
AcDbEntity
  8
0
100
AcDbLine
 62
7
  6
CONTINUOUS
 10
163.0929867667
 20
-31.3412545495
 11
163.1554917715
 21
-31.3559857091
  0
LINE
  5
39F
100
AcDbEntity
  8
0
100
AcDbLine
 62
7
  6
CONTINUOUS
 10
162.9681093799
 20
-31.3111768059
 11
163.0929867667
 21
-31.3412545495
  0
LINE
  5
3A0
100
AcDbEntity
  8
0
100
AcDbLine
 62
7
  6
CONTINUOUS
 10
163.5660799371
 20
-30.8480478519
 11
163.5931263063
 21
-30.8545683655
  0
LINE
  5
3A1
100
AcDbEntity
  8
0
100
AcDbLine
 62
7
  6
CONTINUOUS
 10
163.5227246903
 20
-30.8366336767
 11
163.5660799371
 21
-30.8480478519
  0
LINE
  5
3A2
100
AcDbEntity
  8
0
100
AcDbLine
 62
7
  6
CONTINUOUS
 10
163.4798852767
 20
-30.8241643315
 11
163.5227246903
 21
-30.8366336767
  0
LINE
  5
3A3
100
AcDbEntity
  8
0
100
AcDbLine
 62
7
  6
CONTINUOUS
 10
163.4376946159
 20
-30.8106875091
 11
163.4798852767
 21
-30.8241643315
  0
LINE
  5
3A4
100
AcDbEntity
  8
0
100
AcDbLine
 62
7
  6
CONTINUOUS
 10
158.3420962415
 20
-32.6398591627
 11
158.7750531215
 21
-32.7903510999
  0
LINE
  5
3A5
100
AcDbEntity
  8
0
100
AcDbLine
 62
7
  6
CONTINUOUS
 10
158.0679463407
 20
-31.8920898571
 11
157.6349894603
 21
-31.7415979195
  0
LINE
  5
3A6
100
AcDbEntity
  8
0
100
AcDbLine
 62
7
  6
CONTINUOUS
 10
-150.2306102569
 20
81.9047707061
 11
-149.7976533769
 21
81.7542787689
  0
LINE
  5
3A7
100
AcDbEntity
  8
0
100
AcDbLine
 62
7
  6
CONTINUOUS
 10
-149.1852559129
 20
83.7876575193
 11
-149.5235034757
 21
83.9052293453
  0
LINE
  5
3A8
100
AcDbEntity
  8
0
100
AcDbLine
 62
7
  6
CONTINUOUS
 10
-149.8617510381
 20
86.0641532013
 11
-149.5235034757
 21
85.9465813749
  0
LINE
  5
3A9
100
AcDbEntity
  8
0
100
AcDbLine
 62
7
  6
CONTINUOUS
 10
-150.2306102569
 20
87.1306319021
 11
-150.6635671369
 21
87.2811238397
  0
LINE
  5
3AA
100
AcDbEntity
  8
0
100
AcDbLine
 62
7
  6
CONTINUOUS
 10
163.3962785099
 20
-30.7962554227
 11
163.4376946159
 21
-30.8106875091
  0
LINE
  5
3AB
100
AcDbEntity
  8
0
100
AcDbLine
 62
7
  6
CONTINUOUS
 10
163.3557541659
 20
-30.7809239139
 11
163.3962785099
 21
-30.7962554227
  0
LINE
  5
3AC
100
AcDbEntity
  8
0
100
AcDbLine
 62
7
  6
CONTINUOUS
 10
167.6430179283
 20
-22.1326969315
 11
167.9674412771
 21
-22.2578371771
  0
LINE
  5
3AD
100
AcDbEntity
  8
0
100
AcDbLine
 62
7
  6
CONTINUOUS
 10
163.3162290051
 20
-30.7647515223
 11
163.3557541659
 21
-30.7809239139
  0
LINE
  5
3AE
100
AcDbEntity
  8
0
100
AcDbLine
 62
7
  6
CONTINUOUS
 10
163.5495724359
 20
-29.7384349787
 11
163.5176938087
 21
-29.7252030835
  0
LINE
  5
3AF
100
AcDbEntity
  8
0
100
AcDbLine
 62
7
  6
CONTINUOUS
 10
163.2777997691
 20
-30.7477985471
 11
163.3162290051
 21
-30.7647515223
  0
LINE
  5
3B0
100
AcDbEntity
  8
0
100
AcDbLine
 62
7
  6
CONTINUOUS
 10
163.5818967235
 20
-29.7530920395
 11
163.5495724359
 21
-29.7384349787
  0
LINE
  5
3B1
100
AcDbEntity
  8
0
100
AcDbLine
 62
7
  6
CONTINUOUS
 10
163.2405519347
 20
-30.7301261367
 11
163.2777997691
 21
-30.7477985471
  0
LINE
  5
3B2
100
AcDbEntity
  8
0
100
AcDbLine
 62
7
  6
CONTINUOUS
 10
163.6146203279
 20
-29.7691879079
 11
163.5818967235
 21
-29.7530920395
  0
LINE
  5
3B3
100
AcDbEntity
  8
0
100
AcDbLine
 62
7
  6
CONTINUOUS
 10
163.5780166615
 20
-28.9388007583
 11
163.5176938087
 21
-28.9086622715
  0
LINE
  5
3B4
100
AcDbEntity
  8
0
100
AcDbLine
 62
7
  6
CONTINUOUS
 10
163.2045594267
 20
-30.7117954271
 11
163.2405519347
 21
-30.7301261367
  0
LINE
  5
3B5
100
AcDbEntity
  8
0
100
AcDbLine
 62
7
  6
CONTINUOUS
 10
163.6476897439
 20
-29.7867304823
 11
163.6146203279
 21
-29.7691879079
  0
LINE
  5
3B6
100
AcDbEntity
  8
0
100
AcDbLine
 62
7
  6
CONTINUOUS
 10
163.6390323535
 20
-28.9718268123
 11
163.5780166615
 21
-28.9388007583
  0
LINE
  5
3B7
100
AcDbEntity
  8
0
100
AcDbLine
 62
7
  6
CONTINUOUS
 10
163.1698846035
 20
-30.6928667519
 11
163.2045594267
 21
-30.7117954271
  0
LINE
  5
3B8
100
AcDbEntity
  8
0
100
AcDbLine
 62
7
  6
CONTINUOUS
 10
163.6810441767
 20
-29.8057210487
 11
163.6476897439
 21
-29.7867304823
  0
LINE
  5
3B9
100
AcDbEntity
  8
0
100
AcDbLine
 62
7
  6
CONTINUOUS
 10
-151.9597882005
 20
153.2196001509
 11
-151.9971797529
 21
153.2409009797
  0
LINE
  5
3BA
100
AcDbEntity
  8
0
100
AcDbLine
 62
7
  6
CONTINUOUS
 10
268.3766041635
 20
-94.9388603151
 11
268.7301575963
 21
-95.1429623671
  0
LINE
  5
3BB
100
AcDbEntity
  8
0
100
AcDbLine
 62
7
  6
CONTINUOUS
 10
153.9667270095
 20
-27.5648083843
 11
153.8253056535
 21
-27.4831675731
  0
LINE
  5
3BC
100
AcDbEntity
  8
0
100
AcDbLine
 62
7
  6
CONTINUOUS
 10
-145.9879695697
 20
145.5953521333
 11
-146.1293909261
 21
145.6769929445
  0
LINE
  5
3BD
100
AcDbEntity
  8
0
100
AcDbLine
 62
7
  6
CONTINUOUS
 10
153.8253056535
 20
-27.3198594107
 11
-145.9879695697
 21
145.7586602957
  0
LINE
  5
3BE
100
AcDbEntity
  8
0
100
AcDbLine
 62
7
  6
CONTINUOUS
 10
160.8963734651
 20
-29.6055101835
 11
155.3809405719
 21
-26.4215185475
  0
LINE
  5
3BF
100
AcDbEntity
  8
0
100
AcDbLine
 62
7
  6
CONTINUOUS
 10
-147.5436044885
 20
148.4530990049
 11
-153.0590373817
 21
151.6370906413
  0
LINE
  5
3C0
100
AcDbEntity
  8
0
100
AcDbLine
 62
7
  6
CONTINUOUS
 10
163.0176938087
 20
-30.5912284847
 11
162.6825648879
 21
-30.3977626767
  0
LINE
  5
3C1
100
AcDbEntity
  8
0
100
AcDbLine
 62
7
  6
CONTINUOUS
 10
-153.0590373817
 20
152.4532333529
 11
-152.3545854609
 21
152.0465619153
  0
LINE
  5
3C2
100
AcDbEntity
  8
0
100
AcDbLine
 62
7
  6
CONTINUOUS
 10
165.1390141523
 20
-31.2385918071
 11
164.4319073711
 21
-30.8303877515
  0
LINE
  5
3C3
100
AcDbEntity
  8
0
100
AcDbLine
 62
7
  6
CONTINUOUS
 10
-152.3519306005
 20
152.0452946969
 11
161.6034802463
 21
-29.1973061275
  0
LINE
  5
3C4
100
AcDbEntity
  8
0
100
AcDbLine
 62
7
  6
CONTINUOUS
 10
-151.8519306005
 20
152.3338058529
 11
-151.5431368769
 21
152.1555430309
  0
LINE
  5
3C5
100
AcDbEntity
  8
0
100
AcDbLine
 62
7
  6
CONTINUOUS
 10
163.5176938087
 20
-29.7252030835
 11
161.7944566551
 21
-28.7303994495
  0
LINE
  5
3C6
100
AcDbEntity
  8
0
100
AcDbLine
 62
7
  6
CONTINUOUS
 10
-150.2306102569
 20
151.6372233413
 11
159.4821599027
 21
-27.1561531479
  0
LINE
  5
3C7
100
AcDbEntity
  8
0
100
AcDbLine
 62
7
  6
CONTINUOUS
 10
-151.8519306005
 20
153.1503466649
 11
-151.6950763509
 21
153.0597966341
  0
LINE
  5
3C8
100
AcDbEntity
  8
0
100
AcDbLine
 62
7
  6
CONTINUOUS
 10
163.5176938087
 20
-28.9086622715
 11
163.3497980455
 21
-28.8117381103
  0
LINE
  5
3C9
100
AcDbEntity
  8
0
100
AcDbLine
 62
7
  6
CONTINUOUS
 10
163.7006099091
 20
-29.0077425155
 11
163.6390323535
 21
-28.9718268123
  0
LINE
  5
3CA
100
AcDbEntity
  8
0
100
AcDbLine
 62
7
  6
CONTINUOUS
 10
163.1365784895
 20
-30.6733989383
 11
163.1698846035
 21
-30.6928667519
  0
LINE
  5
3CB
100
AcDbEntity
  8
0
100
AcDbLine
 62
7
  6
CONTINUOUS
 10
-151.9449258561
 20
152.4011502837
 11
-151.9605057413
 21
152.4103079637
  0
LINE
  5
3CC
100
AcDbEntity
  8
0
100
AcDbLine
 62
7
  6
CONTINUOUS
 10
-151.9220342357
 20
153.1966787845
 11
-151.9597882005
 21
153.2196001509
  0
LINE
  5
3CD
100
AcDbEntity
  8
0
100
AcDbLine
 62
7
  6
CONTINUOUS
 10
163.7146155407
 20
-29.8261534531
 11
163.6810441767
 21
-29.8057210487
  0
LINE
  5
3CE
100
AcDbEntity
  8
0
100
AcDbLine
 62
7
  6
CONTINUOUS
 10
163.1046812107
 20
-30.6534486943
 11
163.1365784895
 21
-30.6733989383
  0
LINE
  5
3CF
100
AcDbEntity
  8
0
100
AcDbLine
 62
7
  6
CONTINUOUS
 10
163.7626053415
 20
-29.0465346887
 11
163.7006099091
 21
-29.0077425155
  0
LINE
  5
3D0
100
AcDbEntity
  8
0
100
AcDbLine
 62
7
  6
CONTINUOUS
 10
163.7483285951
 20
-29.8480133315
 11
163.7146155407
 21
-29.8261534531
  0
LINE
  5
3D1
100
AcDbEntity
  8
0
100
AcDbLine
 62
7
  6
CONTINUOUS
 10
163.0742226031
 20
-30.6330700923
 11
163.1046812107
 21
-30.6534486943
  0
LINE
  5
3D2
100
AcDbEntity
  8
0
100
AcDbLine
 62
7
  6
CONTINUOUS
 10
158.7750531215
 20
-32.7903510999
 11
158.9636566347
 21
-32.9175108739
  0
LINE
  5
3D3
100
AcDbEntity
  8
0
100
AcDbLine
 62
7
  6
CONTINUOUS
 10
157.6349894603
 20
-36.7685616171
 11
158.0679463407
 21
-37.1179510531
  0
LINE
  5
3D4
100
AcDbEntity
  8
0
100
AcDbLine
 62
7
  6
CONTINUOUS
 10
171.3850819643
 20
-80.1908724715
 11
171.1321675183
 21
-79.8997837807
  0
LINE
  5
3D5
100
AcDbEntity
  8
0
100
AcDbLine
 62
7
  6
CONTINUOUS
 10
173.0350819643
 20
-77.3329886471
 11
173.2879964103
 21
-77.6240773379
  0
LINE
  5
3D6
100
AcDbEntity
  8
0
100
AcDbLine
 62
7
  6
CONTINUOUS
 10
157.2679463407
 20
-95.2277126747
 11
157.6349894603
 21
-95.7228082351
  0
LINE
  5
3D7
100
AcDbEntity
  8
0
100
AcDbLine
 62
7
  6
CONTINUOUS
 10
158.4368055591
 20
-93.7987785351
 11
158.1500531215
 21
-93.4119851287
  0
LINE
  5
3D8
100
AcDbEntity
  8
0
100
AcDbLine
 62
7
  6
CONTINUOUS
 10
158.8679463407
 20
-91.6908214715
 11
158.5009032207
 21
-91.1957259111
  0
LINE
  5
3D9
100
AcDbEntity
  8
0
100
AcDbLine
 62
7
  6
CONTINUOUS
 10
157.2679463407
 20
-82.1630596847
 11
157.6349894603
 21
-82.6581552447
  0
LINE
  5
3DA
100
AcDbEntity
  8
0
100
AcDbLine
 62
7
  6
CONTINUOUS
 10
158.8679463407
 20
-78.6261684811
 11
158.5009032207
 21
-78.1310729211
  0
LINE
  5
3DB
100
AcDbEntity
  8
0
100
AcDbLine
 62
7
  6
CONTINUOUS
 10
3.5546305967
 20
-47.2219498735
 11
3.4944039731
 21
-47.6077598283
  0
LINE
  5
3DC
100
AcDbEntity
  8
0
100
AcDbLine
 62
7
  6
CONTINUOUS
 10
2.8734176699
 20
-47.5657175531
 11
2.7872971919
 21
-48.0159638843
  0
LINE
  5
3DD
100
AcDbEntity
  8
0
100
AcDbLine
 62
7
  6
CONTINUOUS
 10
4.9639184139
 20
-49.7724631943
 11
5.0500388919
 21
-49.3222168631
  0
LINE
  5
3DE
100
AcDbEntity
  8
0
100
AcDbLine
 62
7
  6
CONTINUOUS
 10
6.7754894303
 20
64.6129330409
 11
6.6613087291
 21
64.2815553761
  0
LINE
  5
3DF
100
AcDbEntity
  8
0
100
AcDbLine
 62
7
  6
CONTINUOUS
 10
7.9445359775
 20
64.0941370633
 11
7.8684155103
 21
63.8732186201
  0
LINE
  5
3E0
100
AcDbEntity
  8
0
100
AcDbLine
 62
7
  6
CONTINUOUS
 10
10.9613415899
 20
64.7665858233
 11
11.0755222915
 21
65.0979634881
  0
LINE
  5
3E1
100
AcDbEntity
  8
0
100
AcDbLine
 62
7
  6
CONTINUOUS
 10
-153.0590373817
 20
152.4532333529
 11
-153.1173467041
 21
152.4223422677
  0
LINE
  5
3E2
100
AcDbEntity
  8
0
100
AcDbLine
 62
7
  6
CONTINUOUS
 10
-51.2356608909
 20
206.3364341333
 11
-51.3293213477
 21
206.2887330601
  0
LINE
  5
3E3
100
AcDbEntity
  8
0
100
AcDbLine
 62
7
  6
CONTINUOUS
 10
-140.3311153201
 20
154.9027230885
 11
-140.4247757585
 21
154.8550220237
  0
LINE
  5
3E4
100
AcDbEntity
  8
0
100
AcDbLine
 62
7
  6
CONTINUOUS
 10
-152.7044857801
 20
153.3316243509
 11
-152.7267568609
 21
153.3208777353
  0
LINE
  5
3E5
100
AcDbEntity
  8
0
100
AcDbLine
 62
7
  6
CONTINUOUS
 10
164.7010180611
 20
-31.3818369599
 11
164.7516084647
 21
-31.3678727399
  0
LINE
  5
3E6
100
AcDbEntity
  8
0
100
AcDbLine
 62
7
  6
CONTINUOUS
 10
164.3356388803
 20
-30.8595393075
 11
164.3694802363
 21
-30.8504891491
  0
LINE
  5
3E7
100
AcDbEntity
  8
0
100
AcDbLine
 62
7
  6
CONTINUOUS
 10
164.6496636479
 20
-31.3950261579
 11
164.7010180611
 21
-31.3818369599
  0
LINE
  5
3E8
100
AcDbEntity
  8
0
100
AcDbLine
 62
7
  6
CONTINUOUS
 10
164.5974603359
 20
-31.4073542199
 11
164.6496636479
 21
-31.3950261579
  0
LINE
  5
3E9
100
AcDbEntity
  8
0
100
AcDbLine
 62
7
  6
CONTINUOUS
 10
164.3001338331
 20
-30.8678288555
 11
164.3356388803
 21
-30.8595393075
  0
LINE
  5
3EA
100
AcDbEntity
  8
0
100
AcDbLine
 62
7
  6
CONTINUOUS
 10
164.5443232347
 20
-31.4187350323
 11
164.5974603359
 21
-31.4073542199
  0
LINE
  5
3EB
100
AcDbEntity
  8
0
100
AcDbLine
 62
7
  6
CONTINUOUS
 10
164.2630549379
 20
-30.8752897355
 11
164.3001338331
 21
-30.8678288555
  0
LINE
  5
3EC
100
AcDbEntity
  8
0
100
AcDbLine
 62
7
  6
CONTINUOUS
 10
158.5009032207
 20
-37.2684429903
 11
158.8679463407
 21
-37.1971263959
  0
LINE
  5
3ED
100
AcDbEntity
  8
0
100
AcDbLine
 62
7
  6
CONTINUOUS
 10
157.9750531215
 20
-32.7111757571
 11
158.3420962415
 21
-32.6398591627
  0
LINE
  5
3EE
100
AcDbEntity
  8
0
100
AcDbLine
 62
7
  6
CONTINUOUS
 10
157.6349894603
 20
-31.7415979195
 11
157.2679463407
 21
-31.8129145139
  0
LINE
  5
3EF
100
AcDbEntity
  8
0
100
AcDbLine
 62
7
  6
CONTINUOUS
 10
164.4901674547
 20
-31.4290824819
 11
164.5443232347
 21
-31.4187350323
  0
LINE
  5
3F0
100
AcDbEntity
  8
0
100
AcDbLine
 62
7
  6
CONTINUOUS
 10
164.2245101015
 20
-30.8818572391
 11
164.2630549379
 21
-30.8752897355
  0
LINE
  5
3F1
100
AcDbEntity
  8
0
100
AcDbLine
 62
7
  6
CONTINUOUS
 10
164.4349399595
 20
-31.4383226523
 11
164.4901674547
 21
-31.4290824819
  0
LINE
  5
3F2
100
AcDbEntity
  8
0
100
AcDbLine
 62
7
  6
CONTINUOUS
 10
164.3787151291
 20
-31.4464304175
 11
164.4349399595
 21
-31.4383226523
  0
LINE
  5
3F3
100
AcDbEntity
  8
0
100
AcDbLine
 62
7
  6
CONTINUOUS
 10
164.1846238127
 20
-30.8874713123
 11
164.2245101015
 21
-30.8818572391
  0
LINE
  5
3F4
100
AcDbEntity
  8
0
100
AcDbLine
 62
7
  6
CONTINUOUS
 10
164.3215991963
 20
-31.4533928487
 11
164.3787151291
 21
-31.4464304175
  0
LINE
  5
3F5
100
AcDbEntity
  8
0
100
AcDbLine
 62
7
  6
CONTINUOUS
 10
166.8776510635
 20
-22.1326969315
 11
167.2603344959
 21
-22.0887535211
  0
LINE
  5
3F6
100
AcDbEntity
  8
0
100
AcDbLine
 62
7
  6
CONTINUOUS
 10
166.5532277147
 20
-20.5753647971
 11
165.9792025663
 21
-20.6412799127
  0
LINE
  5
3F7
100
AcDbEntity
  8
0
100
AcDbLine
 62
7
  6
CONTINUOUS
 10
164.1435350863
 20
-30.8920777355
 11
164.1846238127
 21
-30.8874713123
  0
LINE
  5
3F8
100
AcDbEntity
  8
0
100
AcDbLine
 62
7
  6
CONTINUOUS
 10
167.1272528631
 20
-20.6412799127
 11
166.5532277147
 21
-20.5753647971
  0
LINE
  5
3F9
100
AcDbEntity
  8
0
100
AcDbLine
 62
7
  6
CONTINUOUS
 10
260.8590496111
 20
-28.8307066647
 11
260.4805363939
 21
-28.7571614267
  0
LINE
  5
3FA
100
AcDbEntity
  8
0
100
AcDbLine
 62
7
  6
CONTINUOUS
 10
261.7520231763
 20
-25.8257323643
 11
262.1305363939
 21
-25.8992776023
  0
LINE
  5
3FB
100
AcDbEntity
  8
0
100
AcDbLine
 62
7
  6
CONTINUOUS
 10
-150.2306102569
 20
94.9694236965
 11
-149.7976533769
 21
94.8189317589
  0
LINE
  5
3FC
100
AcDbEntity
  8
0
100
AcDbLine
 62
7
  6
CONTINUOUS
 10
-149.9564603557
 20
99.4475155869
 11
-149.5235034757
 21
99.2970236493
  0
LINE
  5
3FD
100
AcDbEntity
  8
0
100
AcDbLine
 62
7
  6
CONTINUOUS
 10
-150.2306102569
 20
100.1952848925
 11
-150.6635671369
 21
100.3457768297
  0
LINE
  5
3FE
100
AcDbEntity
  8
0
100
AcDbLine
 62
7
  6
CONTINUOUS
 10
167.6138878867
 20
-20.8289902815
 11
167.1272528631
 21
-20.6412799127
  0
LINE
  5
3FF
100
AcDbEntity
  8
0
100
AcDbLine
 62
7
  6
CONTINUOUS
 10
8.1613087291
 20
63.4650145641
 11
8.2549691683
 21
63.4173134993
  0
LINE
  5
400
100
AcDbEntity
  8
0
100
AcDbLine
 62
7
  6
CONTINUOUS
 10
-151.9758794681
 20
152.4187415829
 11
-151.9910284681
 21
152.4264596421
  0
LINE
  5
401
100
AcDbEntity
  8
0
100
AcDbLine
 62
7
  6
CONTINUOUS
 10
-151.9971797529
 20
153.2409009797
 11
-152.0341562661
 21
153.2605890449
  0
LINE
  5
402
100
AcDbEntity
  8
0
100
AcDbLine
 62
7
  6
CONTINUOUS
 10
-151.9605057413
 20
152.4103079637
 11
-151.9758794681
 21
152.4187415829
  0
LINE
  5
403
100
AcDbEntity
  8
0
100
AcDbLine
 62
7
  6
CONTINUOUS
 10
-142.8059890545
 20
155.9233659281
 11
-141.3917754921
 21
155.1069578165
  0
LINE
  5
404
100
AcDbEntity
  8
0
100
AcDbLine
 62
7
  6
CONTINUOUS
 10
165.4925675431
 20
-22.0536024491
 11
166.9067811055
 21
-22.8700105611
  0
LINE
  5
405
100
AcDbEntity
  8
0
100
AcDbLine
 62
7
  6
CONTINUOUS
 10
169.0281014487
 20
-22.4619392051
 11
167.6138878867
 21
-21.6455310931
  0
LINE
  5
406
100
AcDbEntity
  8
0
100
AcDbLine
 62
7
  6
CONTINUOUS
 10
-139.2704551485
 20
155.5150291721
 11
-140.6846687109
 21
156.3314372841
  0
LINE
  5
407
100
AcDbEntity
  8
0
100
AcDbLine
 62
7
  6
CONTINUOUS
 10
169.0281014487
 20
-21.6453983931
 11
167.6138878867
 21
-20.8289902815
  0
LINE
  5
408
100
AcDbEntity
  8
0
100
AcDbLine
 62
7
  6
CONTINUOUS
 10
-139.2704551485
 20
156.3315699841
 11
-140.6846687109
 21
157.1479780961
  0
LINE
  5
409
100
AcDbEntity
  8
0
100
AcDbLine
 62
7
  6
CONTINUOUS
 10
163.8248626359
 20
-29.0881738547
 11
163.7626053415
 21
-29.0465346887
  0
LINE
  5
40A
100
AcDbEntity
  8
0
100
AcDbLine
 62
7
  6
CONTINUOUS
 10
163.7821012439
 20
-29.8712774403
 11
163.7483285951
 21
-29.8480133315
  0
LINE
  5
40B
100
AcDbEntity
  8
0
100
AcDbLine
 62
7
  6
CONTINUOUS
 10
169.2146456955
 20
-22.5931594859
 11
169.0281014487
 21
-22.4619392051
  0
LINE
  5
40C
100
AcDbEntity
  8
0
100
AcDbLine
 62
7
  6
CONTINUOUS
 10
163.8872150607
 20
-29.1326135127
 11
163.8248626359
 21
-29.0881738547
  0
LINE
  5
40D
100
AcDbEntity
  8
0
100
AcDbLine
 62
7
  6
CONTINUOUS
 10
163.0452229495
 20
-30.6123141471
 11
163.0742226031
 21
-30.6330700923
  0
LINE
  5
40E
100
AcDbEntity
  8
0
100
AcDbLine
 62
7
  6
CONTINUOUS
 10
163.8158450167
 20
-29.8959131103
 11
163.7821012439
 21
-29.8712774403
  0
LINE
  5
40F
100
AcDbEntity
  8
0
100
AcDbLine
 62
7
  6
CONTINUOUS
 10
163.9494867947
 20
-29.1797897663
 11
163.8872150607
 21
-29.1326135127
  0
LINE
  5
410
100
AcDbEntity
  8
0
100
AcDbLine
 62
7
  6
CONTINUOUS
 10
163.0176938087
 20
-30.5912284847
 11
163.0452229495
 21
-30.6123141471
  0
LINE
  5
411
100
AcDbEntity
  8
0
100
AcDbLine
 62
7
  6
CONTINUOUS
 10
163.8494657351
 20
-29.9218778683
 11
163.8158450167
 21
-29.8959131103
  0
LINE
  5
412
100
AcDbEntity
  8
0
100
AcDbLine
 62
7
  6
CONTINUOUS
 10
164.0114948471
 20
-29.2296213431
 11
163.9494867947
 21
-29.1797897663
  0
LINE
  5
413
100
AcDbEntity
  8
0
100
AcDbLine
 62
7
  6
CONTINUOUS
 10
158.5009032207
 20
-32.2414792931
 11
158.0679463407
 21
-31.8920898571
  0
LINE
  5
414
100
AcDbEntity
  8
0
100
AcDbLine
 62
7
  6
CONTINUOUS
 10
163.8828643763
 20
-29.9491192503
 11
163.8494657351
 21
-29.9218778683
  0
LINE
  5
415
100
AcDbEntity
  8
0
100
AcDbLine
 62
7
  6
CONTINUOUS
 10
164.0730512155
 20
-29.2820100247
 11
164.0114948471
 21
-29.2296213431
  0
LINE
  5
416
100
AcDbEntity
  8
0
100
AcDbLine
 62
7
  6
CONTINUOUS
 10
163.9159381235
 20
-29.9775748431
 11
163.8828643763
 21
-29.9491192503
  0
LINE
  5
417
100
AcDbEntity
  8
0
100
AcDbLine
 62
7
  6
CONTINUOUS
 10
164.1106666043
 20
-29.3155090167
 11
164.0730512155
 21
-29.2820100247
  0
LINE
  5
418
100
AcDbEntity
  8
0
100
AcDbLine
 62
7
  6
CONTINUOUS
 10
163.9485815867
 20
-30.0071725687
 11
163.9159381235
 21
-29.9775748431
  0
LINE
  5
419
100
AcDbEntity
  8
0
100
AcDbLine
 62
7
  6
CONTINUOUS
 10
164.1710895511
 20
-29.3717735311
 11
164.1106666043
 21
-29.3155090167
  0
LINE
  5
41A
100
AcDbEntity
  8
0
100
AcDbLine
 62
7
  6
CONTINUOUS
 10
163.9806881667
 20
-30.0378312279
 11
163.9485815867
 21
-30.0071725687
  0
LINE
  5
41B
100
AcDbEntity
  8
0
100
AcDbLine
 62
7
  6
CONTINUOUS
 10
-152.2312501881
 20
152.4517365053
 11
-152.2399596741
 21
152.4476260977
  0
LINE
  5
41C
100
AcDbEntity
  8
0
100
AcDbLine
 62
7
  6
CONTINUOUS
 10
-152.6815640637
 20
153.3413291173
 11
-152.7044857801
 21
153.3316243509
  0
LINE
  5
41D
100
AcDbEntity
  8
0
100
AcDbLine
 62
7
  6
CONTINUOUS
 10
-53.2238996017
 20
208.7693995093
 11
-53.7105346249
 21
208.5816891409
  0
LINE
  5
41E
100
AcDbEntity
  8
0
100
AcDbLine
 62
7
  6
CONTINUOUS
 10
-52.6498744529
 20
207.1528422449
 11
-52.3254511041
 21
207.2779824909
  0
LINE
  5
41F
100
AcDbEntity
  8
0
100
AcDbLine
 62
7
  6
CONTINUOUS
 10
4.3516249219
 20
-50.1260476103
 11
4.7186680419
 21
-50.0547310159
  0
LINE
  5
420
100
AcDbEntity
  8
0
100
AcDbLine
 62
7
  6
CONTINUOUS
 10
3.4857111619
 20
-47.2121331375
 11
3.1186680419
 21
-47.2834497319
  0
LINE
  5
421
100
AcDbEntity
  8
0
100
AcDbLine
 62
7
  6
CONTINUOUS
 10
7.1006485571
 20
63.6692492921
 11
7.5872835803
 21
63.4815389237
  0
LINE
  5
422
100
AcDbEntity
  8
0
100
AcDbLine
 62
7
  6
CONTINUOUS
 10
9.5755222915
 20
64.2814226761
 11
9.2510989427
 21
64.4065629217
  0
LINE
  5
423
100
AcDbEntity
  8
0
100
AcDbLine
 62
7
  6
CONTINUOUS
 10
10.6361824631
 20
65.7102695717
 11
10.1495474399
 21
65.8979799405
  0
LINE
  5
424
100
AcDbEntity
  8
0
100
AcDbLine
 62
7
  6
CONTINUOUS
 10
-152.0706682757
 20
153.2786762837
 11
-152.1066697913
 21
153.2951786113
  0
LINE
  5
425
100
AcDbEntity
  8
0
100
AcDbLine
 62
7
  6
CONTINUOUS
 10
-151.9910284681
 20
152.4264596421
 11
-152.0059354389
 21
152.4334721001
  0
LINE
  5
426
100
AcDbEntity
  8
0
100
AcDbLine
 62
7
  6
CONTINUOUS
 10
-152.0341562661
 20
153.2605890449
 11
-152.0706682757
 21
153.2786762837
  0
LINE
  5
427
100
AcDbEntity
  8
0
100
AcDbLine
 62
7
  6
CONTINUOUS
 10
165.1674084159
 20
-21.7726740299
 11
165.4925675431
 21
-22.0536024491
  0
LINE
  5
428
100
AcDbEntity
  8
0
100
AcDbLine
 62
7
  6
CONTINUOUS
 10
167.9674412771
 20
-22.2578371771
 11
168.1842140283
 21
-22.4451227899
  0
LINE
  5
429
100
AcDbEntity
  8
0
100
AcDbLine
 62
7
  6
CONTINUOUS
 10
169.2902554915
 20
-22.6659748831
 11
169.2146456955
 21
-22.5931594859
  0
LINE
  5
42A
100
AcDbEntity
  8
0
100
AcDbLine
 62
7
  6
CONTINUOUS
 10
164.2310367431
 20
-29.4306937711
 11
164.1710895511
 21
-29.3717735311
  0
LINE
  5
42B
100
AcDbEntity
  8
0
100
AcDbLine
 62
7
  6
CONTINUOUS
 10
164.0121515287
 20
-30.0694612967
 11
163.9806881667
 21
-30.0378312279
  0
LINE
  5
42C
100
AcDbEntity
  8
0
100
AcDbLine
 62
7
  6
CONTINUOUS
 10
164.2903139411
 20
-29.4921355859
 11
164.2310367431
 21
-29.4306937711
  0
LINE
  5
42D
100
AcDbEntity
  8
0
100
AcDbLine
 62
7
  6
CONTINUOUS
 10
164.0339067683
 20
-30.0923102183
 11
164.0121515287
 21
-30.0694612967
  0
LINE
  5
42E
100
AcDbEntity
  8
0
100
AcDbLine
 62
7
  6
CONTINUOUS
 10
164.3487205235
 20
-29.5559418931
 11
164.2903139411
 21
-29.4921355859
  0
LINE
  5
42F
100
AcDbEntity
  8
0
100
AcDbLine
 62
7
  6
CONTINUOUS
 10
164.0640062967
 20
-30.1253396315
 11
164.0339067683
 21
-30.0923102183
  0
LINE
  5
430
100
AcDbEntity
  8
0
100
AcDbLine
 62
7
  6
CONTINUOUS
 10
164.4060521063
 20
-29.6219336039
 11
164.3487205235
 21
-29.5559418931
  0
LINE
  5
431
100
AcDbEntity
  8
0
100
AcDbLine
 62
7
  6
CONTINUOUS
 10
164.0931486767
 20
-30.1590152067
 11
164.0640062967
 21
-30.1253396315
  0
LINE
  5
432
100
AcDbEntity
  8
0
100
AcDbLine
 62
7
  6
CONTINUOUS
 10
164.4621034531
 20
-29.6899111923
 11
164.4060521063
 21
-29.6219336039
  0
LINE
  5
433
100
AcDbEntity
  8
0
100
AcDbLine
 62
7
  6
CONTINUOUS
 10
164.1212471995
 20
-30.1932261063
 11
164.0931486767
 21
-30.1590152067
  0
LINE
  5
434
100
AcDbEntity
  8
0
100
AcDbLine
 62
7
  6
CONTINUOUS
 10
164.5166715803
 20
-29.7596568991
 11
164.4621034531
 21
-29.6899111923
  0
LINE
  5
435
100
AcDbEntity
  8
0
100
AcDbLine
 62
7
  6
CONTINUOUS
 10
164.1484548811
 20
-30.2281505819
 11
164.1212471995
 21
-30.1932261063
  0
LINE
  5
436
100
AcDbEntity
  8
0
100
AcDbLine
 62
7
  6
CONTINUOUS
 10
157.2679463407
 20
-36.2734660567
 11
157.6349894603
 21
-36.7685616171
  0
LINE
  5
437
100
AcDbEntity
  8
0
100
AcDbLine
 62
7
  6
CONTINUOUS
 10
158.8679463407
 20
-32.7365748531
 11
158.5009032207
 21
-32.2414792931
  0
LINE
  5
438
100
AcDbEntity
  8
0
100
AcDbLine
 62
7
  6
CONTINUOUS
 10
157.0226959687
 20
-94.6622848011
 11
157.2679463407
 21
-95.2277126747
  0
LINE
  5
439
100
AcDbEntity
  8
0
100
AcDbLine
 62
7
  6
CONTINUOUS
 10
100.0144796051
 20
-104.1440215723
 11
100.1006000831
 21
-104.6937004907
  0
LINE
  5
43A
100
AcDbEntity
  8
0
100
AcDbLine
 62
7
  6
CONTINUOUS
 10
102.2772213047
 20
-105.4502745511
 11
102.1911008267
 21
-104.9005956323
  0
LINE
  5
43B
100
AcDbEntity
  8
0
100
AcDbLine
 62
7
  6
CONTINUOUS
 10
-94.1085143713
 20
8.8446079561
 11
-94.3537647433
 21
8.5623401345
  0
LINE
  5
43C
100
AcDbEntity
  8
0
100
AcDbLine
 62
7
  6
CONTINUOUS
 10
-92.5085143713
 20
6.0733266721
 11
-92.2632639993
 21
6.3555944933
  0
LINE
  5
43D
100
AcDbEntity
  8
0
100
AcDbLine
 62
7
  6
CONTINUOUS
 10
-151.3619811069
 20
99.5419460829
 11
-150.6548743257
 21
99.9501501389
  0
LINE
  5
43E
100
AcDbEntity
  8
0
100
AcDbLine
 62
7
  6
CONTINUOUS
 10
-150.6548743257
 20
98.6436848397
 11
-149.9477675445
 21
99.0518888957
  0
LINE
  5
43F
100
AcDbEntity
  8
0
100
AcDbLine
 62
7
  6
CONTINUOUS
 10
-151.3619811069
 20
96.9290154849
 11
-150.6548743257
 21
97.3372195409
  0
LINE
  5
440
100
AcDbEntity
  8
0
100
AcDbLine
 62
8
  6
CONTINUOUS
 10
-149.0992394069
 20
97.5815846341
 11
-149.2815416205
 21
97.4763438061
  0
LINE
  5
441
100
AcDbEntity
  8
0
100
AcDbLine
 62
7
  6
CONTINUOUS
 10
-153.3518493329
 20
92.9451019365
 11
-154.0589561141
 21
92.5368978805
  0
LINE
  5
442
100
AcDbEntity
  8
0
100
AcDbLine
 62
8
  6
CONTINUOUS
 10
-152.6799138129
 20
92.6567451569
 11
-153.0590373817
 21
92.4378817793
  0
LINE
  5
443
100
AcDbEntity
  8
0
100
AcDbLine
 62
7
  6
CONTINUOUS
 10
-152.2222444029
 20
152.4553997697
 11
-152.2312501881
 21
152.4517365053
  0
LINE
  5
444
100
AcDbEntity
  8
0
100
AcDbLine
 62
7
  6
CONTINUOUS
 10
-142.3193540313
 20
157.3356884645
 11
-142.8059890545
 21
157.1479780961
  0
LINE
  5
445
100
AcDbEntity
  8
0
100
AcDbLine
 62
7
  6
CONTINUOUS
 10
-141.7453288825
 20
155.7191312001
 11
-141.4209055337
 21
155.8442714457
  0
LINE
  5
446
100
AcDbEntity
  8
0
100
AcDbLine
 62
7
  6
CONTINUOUS
 10
-152.1066697913
 20
153.2951786113
 11
-152.1421185613
 21
153.3101156721
  0
LINE
  5
447
100
AcDbEntity
  8
0
100
AcDbLine
 62
7
  6
CONTINUOUS
 10
-152.0059354389
 20
152.4334721001
 11
-152.0205844597
 21
152.4397902853
  0
LINE
  5
448
100
AcDbEntity
  8
0
100
AcDbLine
 62
7
  6
CONTINUOUS
 10
-49.9128466765
 20
206.7447045393
 11
-49.9884564721
 21
206.8175199365
  0
LINE
  5
449
100
AcDbEntity
  8
0
100
AcDbLine
 62
7
  6
CONTINUOUS
 10
164.5695589527
 20
-29.8309375239
 11
164.5166715803
 21
-29.7596568991
  0
LINE
  5
44A
100
AcDbEntity
  8
0
100
AcDbLine
 62
7
  6
CONTINUOUS
 10
164.1748762111
 20
-30.2639177815
 11
164.1484548811
 21
-30.2281505819
  0
LINE
  5
44B
100
AcDbEntity
  8
0
100
AcDbLine
 62
7
  6
CONTINUOUS
 10
164.5703373911
 20
-29.8320156543
 11
164.5695589527
 21
-29.8309375239
  0
LINE
  5
44C
100
AcDbEntity
  8
0
100
AcDbLine
 62
7
  6
CONTINUOUS
 10
164.6212471995
 20
-29.9044884171
 11
164.5703373911
 21
-29.8320156543
  0
LINE
  5
44D
100
AcDbEntity
  8
0
100
AcDbLine
 62
7
  6
CONTINUOUS
 10
164.2004318251
 20
-30.3004286147
 11
164.1748762111
 21
-30.2639177815
  0
LINE
  5
44E
100
AcDbEntity
  8
0
100
AcDbLine
 62
7
  6
CONTINUOUS
 10
164.6702034343
 20
-29.9781158819
 11
164.6212471995
 21
-29.9044884171
  0
LINE
  5
44F
100
AcDbEntity
  8
0
100
AcDbLine
 62
7
  6
CONTINUOUS
 10
164.2250413271
 20
-30.3375725407
 11
164.2004318251
 21
-30.3004286147
  0
LINE
  5
450
100
AcDbEntity
  8
0
100
AcDbLine
 62
7
  6
CONTINUOUS
 10
164.7173587775
 20
-30.0531181935
 11
164.6702034343
 21
-29.9781158819
  0
LINE
  5
451
100
AcDbEntity
  8
0
100
AcDbLine
 62
7
  6
CONTINUOUS
 10
164.2486244603
 20
-30.3752279819
 11
164.2250413271
 21
-30.3375725407
  0
LINE
  5
452
100
AcDbEntity
  8
0
100
AcDbLine
 62
7
  6
CONTINUOUS
 10
164.7625467607
 20
-30.1292394991
 11
164.7173587775
 21
-30.0531181935
  0
LINE
  5
453
100
AcDbEntity
  8
0
100
AcDbLine
 62
7
  6
CONTINUOUS
 10
164.2711024467
 20
-30.4132631231
 11
164.2486244603
 21
-30.3752279819
  0
LINE
  5
454
100
AcDbEntity
  8
0
100
AcDbLine
 62
7
  6
CONTINUOUS
 10
158.1500531215
 20
-93.4119851287
 11
157.9584512687
 21
-92.9702446023
  0
LINE
  5
455
100
AcDbEntity
  8
0
100
AcDbLine
 62
7
  6
CONTINUOUS
 10
159.1131967123
 20
-92.2562493451
 11
158.8679463407
 21
-91.6908214715
  0
LINE
  5
456
100
AcDbEntity
  8
0
100
AcDbLine
 62
7
  6
CONTINUOUS
 10
157.0226959687
 20
-81.5976318111
 11
157.2679463407
 21
-82.1630596847
  0
LINE
  5
457
100
AcDbEntity
  8
0
100
AcDbLine
 62
7
  6
CONTINUOUS
 10
159.1131967123
 20
-79.1915963547
 11
158.8679463407
 21
-78.6261684811
  0
LINE
  5
458
100
AcDbEntity
  8
0
100
AcDbLine
 62
7
  6
CONTINUOUS
 10
-150.6548743257
 20
86.8854971485
 11
-151.3619811069
 21
86.4772930929
  0
LINE
  5
459
100
AcDbEntity
  8
0
100
AcDbLine
 62
7
  6
CONTINUOUS
 10
-150.4073869521
 20
85.4361604301
 11
-149.7002801709
 21
85.8443644861
  0
LINE
  5
45A
100
AcDbEntity
  8
0
100
AcDbLine
 62
7
  6
CONTINUOUS
 10
-150.6548743257
 20
84.2725665505
 11
-151.3619811069
 21
83.8643624945
  0
LINE
  5
45B
100
AcDbEntity
  8
0
100
AcDbLine
 62
7
  6
CONTINUOUS
 10
-152.6579913613
 20
153.3499827125
 11
-152.6815640637
 21
153.3413291173
  0
LINE
  5
45C
100
AcDbEntity
  8
0
100
AcDbLine
 62
7
  6
CONTINUOUS
 10
-152.2129375493
 20
152.4586120269
 11
-152.2222444029
 21
152.4553997697
  0
LINE
  5
45D
100
AcDbEntity
  8
0
100
AcDbLine
 62
7
  6
CONTINUOUS
 10
255.9731054931
 20
29.3010141133
 11
256.3557889255
 21
29.3449575237
  0
LINE
  5
45E
100
AcDbEntity
  8
0
100
AcDbLine
 62
7
  6
CONTINUOUS
 10
255.6486821443
 20
30.8583462477
 11
255.0746569959
 21
30.7924311321
  0
LINE
  5
45F
100
AcDbEntity
  8
0
100
AcDbLine
 62
7
  6
CONTINUOUS
 10
-150.2306102569
 20
140.8590173245
 11
-149.7976533769
 21
140.7085253869
  0
LINE
  5
460
100
AcDbEntity
  8
0
100
AcDbLine
 62
7
  6
CONTINUOUS
 10
-149.9564603557
 20
145.3371092149
 11
-149.5235034757
 21
145.1866172773
  0
LINE
  5
461
100
AcDbEntity
  8
0
100
AcDbLine
 62
7
  6
CONTINUOUS
 10
-150.2306102569
 20
146.0848785205
 11
-150.6635671369
 21
146.2353704577
  0
LINE
  5
462
100
AcDbEntity
  8
0
100
AcDbLine
 62
7
  6
CONTINUOUS
 10
-152.0349610873
 20
152.4454267853
 11
-152.0490524353
 21
152.4503953133
  0
LINE
  5
463
100
AcDbEntity
  8
0
100
AcDbLine
 62
7
  6
CONTINUOUS
 10
-152.1421185613
 20
153.3101156721
 11
-152.1769762833
 21
153.3235105377
  0
LINE
  5
464
100
AcDbEntity
  8
0
100
AcDbLine
 62
7
  6
CONTINUOUS
 10
-140.6555386689
 20
155.8442714457
 11
-140.3311153201
 21
155.7191312001
  0
LINE
  5
465
100
AcDbEntity
  8
0
100
AcDbLine
 62
7
  6
CONTINUOUS
 10
-140.6846687109
 20
157.1479780961
 11
-141.1713037341
 21
157.3356884645
  0
LINE
  5
466
100
AcDbEntity
  8
0
100
AcDbLine
 62
7
  6
CONTINUOUS
 10
-152.0205844597
 20
152.4397902853
 11
-152.0349610873
 21
152.4454267853
  0
LINE
  5
467
100
AcDbEntity
  8
0
100
AcDbLine
 62
8
  6
CONTINUOUS
 10
260.5984296127
 20
-28.2673077983
 11
260.1388102203
 21
-28.0019751707
  0
LINE
  5
468
100
AcDbEntity
  8
0
100
AcDbLine
 62
7
  6
CONTINUOUS
 10
262.4722625827
 20
-26.6546828223
 11
261.7651558015
 21
-26.2464787663
  0
LINE
  5
469
100
AcDbEntity
  8
0
100
AcDbLine
 62
7
  6
CONTINUOUS
 10
-54.0356937517
 20
207.6380053921
 11
-53.7105346249
 21
207.3570769729
  0
LINE
  5
46A
100
AcDbEntity
  8
0
100
AcDbLine
 62
7
  6
CONTINUOUS
 10
-51.2356608909
 20
207.1528422449
 11
-51.0188881393
 21
206.9655566321
  0
LINE
  5
46B
100
AcDbEntity
  8
0
100
AcDbLine
 62
7
  6
CONTINUOUS
 10
164.7997345907
 20
-30.1954312867
 11
164.7625467607
 21
-30.1292394991
  0
LINE
  5
46C
100
AcDbEntity
  8
0
100
AcDbLine
 62
7
  6
CONTINUOUS
 10
164.2923994691
 20
-30.4515371119
 11
164.2711024467
 21
-30.4132631231
  0
LINE
  5
46D
100
AcDbEntity
  8
0
100
AcDbLine
 62
7
  6
CONTINUOUS
 10
164.8408116927
 20
-30.2728364523
 11
164.7997345907
 21
-30.1954312867
  0
LINE
  5
46E
100
AcDbEntity
  8
0
100
AcDbLine
 62
7
  6
CONTINUOUS
 10
164.3047038623
 20
-30.4747915919
 11
164.2923994691
 21
-30.4515371119
  0
LINE
  5
46F
100
AcDbEntity
  8
0
100
AcDbLine
 62
7
  6
CONTINUOUS
 10
164.3239412999
 20
-30.5131033583
 11
164.3047038623
 21
-30.4747915919
  0
LINE
  5
470
100
AcDbEntity
  8
0
100
AcDbLine
 62
7
  6
CONTINUOUS
 10
164.8794355983
 20
-30.3504238683
 11
164.8408116927
 21
-30.2728364523
  0
LINE
  5
471
100
AcDbEntity
  8
0
100
AcDbLine
 62
7
  6
CONTINUOUS
 10
164.3417957311
 20
-30.5511864739
 11
164.3239412999
 21
-30.5131033583
  0
LINE
  5
472
100
AcDbEntity
  8
0
100
AcDbLine
 62
7
  6
CONTINUOUS
 10
164.9154965407
 20
-30.4279007595
 11
164.8794355983
 21
-30.3504238683
  0
LINE
  5
473
100
AcDbEntity
  8
0
100
AcDbLine
 62
7
  6
CONTINUOUS
 10
157.0226959687
 20
-35.7080381831
 11
157.2679463407
 21
-36.2734660567
  0
LINE
  5
474
100
AcDbEntity
  8
0
100
AcDbLine
 62
7
  6
CONTINUOUS
 10
159.1131967123
 20
-33.3020027267
 11
158.8679463407
 21
-32.7365748531
  0
LINE
  5
475
100
AcDbEntity
  8
0
100
AcDbLine
 62
7
  6
CONTINUOUS
 10
104.6813843611
 20
121.2260211757
 11
104.6813843611
 21
120.4094803641
  0
LINE
  5
476
100
AcDbEntity
  8
0
100
AcDbLine
 62
7
  6
CONTINUOUS
 10
106.0955979231
 20
122.0424292877
 11
106.0955979231
 21
121.2258884757
  0
LINE
  5
477
100
AcDbEntity
  8
0
100
AcDbLine
 62
8
  6
CONTINUOUS
 10
107.1562580951
 20
120.6135823917
 11
107.1562580951
 21
120.2055110361
  0
LINE
  5
478
100
AcDbEntity
  8
0
100
AcDbLine
 62
7
  6
CONTINUOUS
 10
-152.6337671641
 20
153.3575732061
 11
-152.6579913613
 21
153.3499827125
  0
LINE
  5
479
100
AcDbEntity
  8
0
100
AcDbLine
 62
7
  6
CONTINUOUS
 10
-152.2033246401
 20
152.4613675785
 11
-152.2129375493
 21
152.4586120269
  0
LINE
  5
47A
100
AcDbEntity
  8
0
100
AcDbLine
 62
7
  6
CONTINUOUS
 10
256.3557889255
 20
29.3449575237
 11
256.7384723579
 21
29.3010141133
  0
LINE
  5
47B
100
AcDbEntity
  8
0
100
AcDbLine
 62
7
  6
CONTINUOUS
 10
256.2227072927
 20
30.7924311321
 11
255.6486821443
 21
30.8583462477
  0
LINE
  5
47C
100
AcDbEntity
  8
0
100
AcDbLine
 62
7
  6
CONTINUOUS
 10
7.5872835803
 20
63.4815389237
 11
8.1613087291
 21
63.4156238081
  0
LINE
  5
47D
100
AcDbEntity
  8
0
100
AcDbLine
 62
7
  6
CONTINUOUS
 10
9.2510989427
 20
64.4065629217
 11
8.8684155103
 21
64.4505063321
  0
LINE
  5
47E
100
AcDbEntity
  8
0
100
AcDbLine
 62
7
  6
CONTINUOUS
 10
10.1495474399
 20
65.8979799405
 11
9.5755222915
 21
65.9638950561
  0
LINE
  5
47F
100
AcDbEntity
  8
0
100
AcDbLine
 62
7
  6
CONTINUOUS
 10
-152.2112087613
 20
153.3353893561
 11
-152.2447860045
 21
153.3457809541
  0
LINE
  5
480
100
AcDbEntity
  8
0
100
AcDbLine
 62
7
  6
CONTINUOUS
 10
-152.0490524353
 20
152.4503953133
 11
-152.0628472313
 21
152.4547105561
  0
LINE
  5
481
100
AcDbEntity
  8
0
100
AcDbLine
 62
7
  6
CONTINUOUS
 10
-152.1769762833
 20
153.3235105377
 11
-152.2112087613
 21
153.3353893561
  0
LINE
  5
482
100
AcDbEntity
  8
0
100
AcDbLine
 62
7
  6
CONTINUOUS
 10
-49.9884564721
 20
206.8175199365
 11
-50.1750007189
 21
206.9487402173
  0
LINE
  5
483
100
AcDbEntity
  8
0
100
AcDbLine
 62
7
  6
CONTINUOUS
 10
107.3730308463
 20
120.4262967789
 11
107.4150285491
 21
120.3548960393
  0
LINE
  5
484
100
AcDbEntity
  8
0
100
AcDbLine
 62
7
  6
CONTINUOUS
 10
164.3582225931
 20
-30.5888847083
 11
164.3417957311
 21
-30.5511864739
  0
LINE
  5
485
100
AcDbEntity
  8
0
100
AcDbLine
 62
7
  6
CONTINUOUS
 10
164.9489037847
 20
-30.5049797027
 11
164.9154965407
 21
-30.4279007595
  0
LINE
  5
486
100
AcDbEntity
  8
0
100
AcDbLine
 62
7
  6
CONTINUOUS
 10
164.3731882795
 20
-30.6260459155
 11
164.3582225931
 21
-30.5888847083
  0
LINE
  5
487
100
AcDbEntity
  8
0
100
AcDbLine
 62
7
  6
CONTINUOUS
 10
164.9795868595
 20
-30.5813832091
 11
164.9489037847
 21
-30.5049797027
  0
LINE
  5
488
100
AcDbEntity
  8
0
100
AcDbLine
 62
7
  6
CONTINUOUS
 10
164.9858980163
 20
-30.5978944691
 11
164.9795868595
 21
-30.5813832091
  0
LINE
  5
489
100
AcDbEntity
  8
0
100
AcDbLine
 62
7
  6
CONTINUOUS
 10
164.3866708931
 20
-30.6625248639
 11
164.3731882795
 21
-30.6260459155
  0
LINE
  5
48A
100
AcDbEntity
  8
0
100
AcDbLine
 62
7
  6
CONTINUOUS
 10
165.0134824279
 20
-30.6739004239
 11
164.9858980163
 21
-30.5978944691
  0
LINE
  5
48B
100
AcDbEntity
  8
0
100
AcDbLine
 62
7
  6
CONTINUOUS
 10
104.2420445327
 20
120.6137150921
 11
104.3562252339
 21
120.2823374273
  0
LINE
  5
48C
100
AcDbEntity
  8
0
100
AcDbLine
 62
7
  6
CONTINUOUS
 10
105.5252717815
 20
119.9844598929
 11
105.4491513139
 21
120.2053783361
  0
LINE
  5
48D
100
AcDbEntity
  8
0
100
AcDbLine
 62
7
  6
CONTINUOUS
 10
108.6562580951
 20
121.4301232037
 11
108.5420773939
 21
121.7615008685
  0
LINE
  5
48E
100
AcDbEntity
  8
0
100
AcDbLine
 62
7
  6
CONTINUOUS
 10
104.3562252339
 20
120.9450927565
 11
104.2420445327
 21
120.6137150921
  0
LINE
  5
48F
100
AcDbEntity
  8
0
100
AcDbLine
 62
7
  6
CONTINUOUS
 10
105.4491513139
 20
120.2053783361
 11
105.5252717815
 21
120.4262967789
  0
LINE
  5
490
100
AcDbEntity
  8
0
100
AcDbLine
 62
7
  6
CONTINUOUS
 10
108.5420773939
 20
121.0987455389
 11
108.6562580951
 21
121.4301232037
  0
LINE
  5
491
100
AcDbEntity
  8
0
100
AcDbLine
 62
7
  6
CONTINUOUS
 10
-152.2447860045
 20
153.3457809541
 11
-152.2776822717
 21
153.3547164077
  0
LINE
  5
492
100
AcDbEntity
  8
0
100
AcDbLine
 62
7
  6
CONTINUOUS
 10
-152.0628472313
 20
152.4547105561
 11
-152.0763358533
 21
152.4583879993
  0
LINE
  5
493
100
AcDbEntity
  8
0
100
AcDbLine
 62
7
  6
CONTINUOUS
 10
256.7384723579
 20
29.3010141133
 11
257.0628957067
 21
29.1758738677
  0
LINE
  5
494
100
AcDbEntity
  8
0
100
AcDbLine
 62
7
  6
CONTINUOUS
 10
256.7093423159
 20
30.6047207633
 11
256.2227072927
 21
30.7924311321
  0
LINE
  5
495
100
AcDbEntity
  8
0
100
AcDbLine
 62
7
  6
CONTINUOUS
 10
104.3562252339
 20
120.2823374273
 11
104.6813843611
 21
120.0014090081
  0
LINE
  5
496
100
AcDbEntity
  8
0
100
AcDbLine
 62
7
  6
CONTINUOUS
 10
105.7420445327
 20
119.7971742801
 11
105.5252717815
 21
119.9844598929
  0
LINE
  5
497
100
AcDbEntity
  8
0
100
AcDbLine
 62
7
  6
CONTINUOUS
 10
107.1562580951
 20
120.6135823917
 11
107.3730308463
 21
120.4262967789
  0
LINE
  5
498
100
AcDbEntity
  8
0
100
AcDbLine
 62
7
  6
CONTINUOUS
 10
108.5420773939
 20
121.7615008685
 11
108.2169182667
 21
122.0424292877
  0
LINE
  5
499
100
AcDbEntity
  8
0
100
AcDbLine
 62
7
  6
CONTINUOUS
 10
165.0532277147
 20
-21.4412963651
 11
165.1674084159
 21
-21.7726740299
  0
LINE
  5
49A
100
AcDbEntity
  8
0
100
AcDbLine
 62
7
  6
CONTINUOUS
 10
168.1842140283
 20
-22.4451227899
 11
168.2603344959
 21
-22.6660412331
  0
LINE
  5
49B
100
AcDbEntity
  8
0
100
AcDbLine
 62
7
  6
CONTINUOUS
 10
164.3986606319
 20
-30.6981858679
 11
164.3866708931
 21
-30.6625248639
  0
LINE
  5
49C
100
AcDbEntity
  8
0
100
AcDbLine
 62
7
  6
CONTINUOUS
 10
165.0384448307
 20
-30.7492579539
 11
165.0134824279
 21
-30.6739004239
  0
LINE
  5
49D
100
AcDbEntity
  8
0
100
AcDbLine
 62
7
  6
CONTINUOUS
 10
164.4091597831
 20
-30.7329050983
 11
164.3986606319
 21
-30.6981858679
  0
LINE
  5
49E
100
AcDbEntity
  8
0
100
AcDbLine
 62
7
  6
CONTINUOUS
 10
165.0607513583
 20
-30.8237114647
 11
165.0384448307
 21
-30.7492579539
  0
LINE
  5
49F
100
AcDbEntity
  8
0
100
AcDbLine
 62
7
  6
CONTINUOUS
 10
164.4181823375
 20
-30.7665724635
 11
164.4091597831
 21
-30.7329050983
  0
LINE
  5
4A0
100
AcDbEntity
  8
0
100
AcDbLine
 62
7
  6
CONTINUOUS
 10
165.0803846315
 20
-30.8970132391
 11
165.0607513583
 21
-30.8237114647
  0
LINE
  5
4A1
100
AcDbEntity
  8
0
100
AcDbLine
 62
7
  6
CONTINUOUS
 10
156.9365754907
 20
-94.1126058827
 11
157.0226959687
 21
-94.6622848011
  0
LINE
  5
4A2
100
AcDbEntity
  8
0
100
AcDbLine
 62
7
  6
CONTINUOUS
 10
157.9584512687
 20
-92.9702446023
 11
157.8911696451
 21
-92.5408079475
  0
LINE
  5
4A3
100
AcDbEntity
  8
0
100
AcDbLine
 62
7
  6
CONTINUOUS
 10
156.9365754907
 20
-81.0479528923
 11
157.0226959687
 21
-81.5976318111
  0
LINE
  5
4A4
100
AcDbEntity
  8
0
100
AcDbLine
 62
7
  6
CONTINUOUS
 10
159.1993171903
 20
-92.8059282635
 11
159.1131967123
 21
-92.2562493451
  0
LINE
  5
4A5
100
AcDbEntity
  8
0
100
AcDbLine
 62
7
  6
CONTINUOUS
 10
-92.8755574913
 20
6.0020100777
 11
-92.5085143713
 21
6.0733266721
  0
LINE
  5
4A6
100
AcDbEntity
  8
0
100
AcDbLine
 62
7
  6
CONTINUOUS
 10
-93.7414712513
 20
8.9159245505
 11
-94.1085143713
 21
8.8446079561
  0
LINE
  5
4A7
100
AcDbEntity
  8
0
100
AcDbLine
 62
7
  6
CONTINUOUS
 10
-149.0992394069
 20
83.7855760225
 11
-149.1852559129
 21
83.7876575193
  0
LINE
  5
4A8
100
AcDbEntity
  8
0
100
AcDbLine
 62
7
  6
CONTINUOUS
 10
-152.0763358533
 20
152.4583879993
 11
-152.0895103417
 21
152.4614437425
  0
LINE
  5
4A9
100
AcDbEntity
  8
0
100
AcDbLine
 62
7
  6
CONTINUOUS
 10
-152.2776822717
 20
153.3547164077
 11
-152.3098760533
 21
153.3622285789
  0
LINE
  5
4AA
100
AcDbEntity
  8
0
100
AcDbLine
 62
7
  6
CONTINUOUS
 10
105.8357049695
 20
119.7494732161
 11
105.7420445327
 21
119.7971742801
  0
LINE
  5
4AB
100
AcDbEntity
  8
0
100
AcDbLine
 62
7
  6
CONTINUOUS
 10
-53.7105346249
 20
207.3570769729
 11
-52.2963210625
 21
206.5406688613
  0
LINE
  5
4AC
100
AcDbEntity
  8
0
100
AcDbLine
 62
7
  6
CONTINUOUS
 10
254.5880219723
 20
29.3801085957
 11
256.0022355347
 21
28.5637004841
  0
LINE
  5
4AD
100
AcDbEntity
  8
0
100
AcDbLine
 62
7
  6
CONTINUOUS
 10
258.1235558783
 20
28.9717718397
 11
256.7093423159
 21
29.7881799517
  0
LINE
  5
4AE
100
AcDbEntity
  8
0
100
AcDbLine
 62
7
  6
CONTINUOUS
 10
-50.1750007189
 20
206.9487402173
 11
-51.5892142813
 21
207.7651483289
  0
LINE
  5
4AF
100
AcDbEntity
  8
0
100
AcDbLine
 62
7
  6
CONTINUOUS
 10
258.1235558783
 20
29.7883126517
 11
256.7093423159
 21
30.6047207633
  0
LINE
  5
4B0
100
AcDbEntity
  8
0
100
AcDbLine
 62
7
  6
CONTINUOUS
 10
-50.1750007189
 20
207.7652810289
 11
-51.5892142813
 21
208.5816891409
  0
LINE
  5
4B1
100
AcDbEntity
  8
0
100
AcDbLine
 62
7
  6
CONTINUOUS
 10
268.3766042055
 20
30.2311758461
 11
267.1700996795
 21
30.9276760837
  0
LINE
  5
4B2
100
AcDbEntity
  8
0
100
AcDbLine
 62
7
  6
CONTINUOUS
 10
267.1694974243
 20
30.9282502913
 11
267.0016016611
 21
31.0251744525
  0
LINE
  5
4B3
100
AcDbEntity
  8
0
100
AcDbLine
 62
7
  6
CONTINUOUS
 10
266.9624289459
 20
32.4414842033
 11
267.6694974243
 21
32.0333022593
  0
LINE
  5
4B4
100
AcDbEntity
  8
0
100
AcDbLine
 62
7
  6
CONTINUOUS
 10
-45.5788066413
 20
213.6841071397
 11
-44.1932157917
 21
212.8842225685
  0
LINE
  5
4B5
100
AcDbEntity
  8
0
100
AcDbLine
 62
7
  6
CONTINUOUS
 10
265.5765699259
 20
34.0579316981
 11
268.3766042055
 21
32.4415063149
  0
LINE
  5
4B6
100
AcDbEntity
  8
0
100
AcDbLine
 62
7
  6
CONTINUOUS
 10
265.5481770807
 20
34.0744552389
 11
-44.1645930789
 21
212.8678317277
  0
LINE
  5
4B7
100
AcDbEntity
  8
0
100
AcDbLine
 62
7
  6
CONTINUOUS
 10
260.4805363939
 20
-28.7571614267
 11
260.2276219479
 21
-28.4660727359
  0
LINE
  5
4B8
100
AcDbEntity
  8
0
100
AcDbLine
 62
7
  6
CONTINUOUS
 10
262.1305363939
 20
-25.8992776023
 11
262.3834508399
 21
-26.1903662931
  0
LINE
  5
4B9
100
AcDbEntity
  8
0
100
AcDbLine
 62
7
  6
CONTINUOUS
 10
165.0973441999
 20
-30.9689273587
 11
165.0803846315
 21
-30.8970132391
  0
LINE
  5
4BA
100
AcDbEntity
  8
0
100
AcDbLine
 62
7
  6
CONTINUOUS
 10
164.4257532459
 20
-30.7990930027
 11
164.4181823375
 21
-30.7665724635
  0
LINE
  5
4BB
100
AcDbEntity
  8
0
100
AcDbLine
 62
7
  6
CONTINUOUS
 10
165.1116465115
 20
-31.0392333331
 11
165.0973441999
 21
-30.9689273587
  0
LINE
  5
4BC
100
AcDbEntity
  8
0
100
AcDbLine
 62
7
  6
CONTINUOUS
 10
164.4319073711
 20
-30.8303877515
 11
164.4257532459
 21
-30.7990930027
  0
LINE
  5
4BD
100
AcDbEntity
  8
0
100
AcDbLine
 62
7
  6
CONTINUOUS
 10
171.1321675183
 20
-79.8997837807
 11
171.0433557751
 21
-79.4354672515
  0
LINE
  5
4BE
100
AcDbEntity
  8
0
100
AcDbLine
 62
7
  6
CONTINUOUS
 10
173.2879964103
 20
-77.6240773379
 11
173.3768081531
 21
-78.0883938671
  0
LINE
  5
4BF
100
AcDbEntity
  8
0
100
AcDbLine
 62
7
  6
CONTINUOUS
 10
165.1233244083
 20
-31.1077292867
 11
165.1116465115
 21
-31.0392333331
  0
LINE
  5
4C0
100
AcDbEntity
  8
0
100
AcDbLine
 62
7
  6
CONTINUOUS
 10
172.6018841967
 20
-77.2666948255
 11
172.6697013719
 21
-77.6801898111
  0
LINE
  5
4C1
100
AcDbEntity
  8
0
100
AcDbLine
 62
7
  6
CONTINUOUS
 10
159.1993171903
 20
-79.7412752735
 11
159.1131967123
 21
-79.1915963547
  0
LINE
  5
4C2
100
AcDbEntity
  8
0
100
AcDbLine
 62
7
  6
CONTINUOUS
 10
156.9365754907
 20
-35.1583592647
 11
157.0226959687
 21
-35.7080381831
  0
LINE
  5
4C3
100
AcDbEntity
  8
0
100
AcDbLine
 62
7
  6
CONTINUOUS
 10
159.1993171903
 20
-33.8516816455
 11
159.1131967123
 21
-33.3020027267
  0
LINE
  5
4C4
100
AcDbEntity
  8
0
100
AcDbLine
 62
7
  6
CONTINUOUS
 10
165.1390141523
 20
-31.2385918071
 11
165.1324261699
 21
-31.1742345851
  0
LINE
  5
4C5
100
AcDbEntity
  8
0
100
AcDbLine
 62
7
  6
CONTINUOUS
 10
100.7818130099
 20
-103.3500075615
 11
100.7215863863
 21
-103.7358175163
  0
LINE
  5
4C6
100
AcDbEntity
  8
0
100
AcDbLine
 62
7
  6
CONTINUOUS
 10
100.1006000831
 20
-103.6937752411
 11
100.0144796051
 21
-104.1440215723
  0
LINE
  5
4C7
100
AcDbEntity
  8
0
100
AcDbLine
 62
7
  6
CONTINUOUS
 10
102.1911008267
 20
-105.9005208823
 11
102.2772213047
 21
-105.4502745511
  0
LINE
  5
4C8
100
AcDbEntity
  8
0
100
AcDbLine
 62
7
  6
CONTINUOUS
 10
7.1006485571
 20
64.8938614601
 11
6.7754894303
 21
64.6129330409
  0
LINE
  5
4C9
100
AcDbEntity
  8
0
100
AcDbLine
 62
7
  6
CONTINUOUS
 10
8.1613087291
 20
64.2814226761
 11
7.9445359775
 21
64.0941370633
  0
LINE
  5
4CA
100
AcDbEntity
  8
0
100
AcDbLine
 62
7
  6
CONTINUOUS
 10
10.6361824631
 20
64.4856574041
 11
10.9613415899
 21
64.7665858233
  0
LINE
  5
4CB
100
AcDbEntity
  8
0
100
AcDbLine
 62
7
  6
CONTINUOUS
 10
7.1006485571
 20
64.0773206481
 11
6.8384945147
 21
63.8732849701
  0
LINE
  5
4CC
100
AcDbEntity
  8
0
100
AcDbLine
 62
7
  6
CONTINUOUS
 10
8.1613087291
 20
63.4156238081
 11
8.7353338775
 21
63.4815389237
  0
LINE
  5
4CD
100
AcDbEntity
  8
0
100
AcDbLine
 62
7
  6
CONTINUOUS
 10
8.8684155103
 20
64.4505063321
 11
8.4857320779
 21
64.4065629217
  0
LINE
  5
4CE
100
AcDbEntity
  8
0
100
AcDbLine
 62
7
  6
CONTINUOUS
 10
9.5755222915
 20
65.9638950561
 11
9.0014971427
 21
65.8979799405
  0
LINE
  5
4CF
100
AcDbEntity
  8
0
100
AcDbLine
 62
7
  6
CONTINUOUS
 10
-152.0895103417
 20
152.4614437425
 11
-152.1023643889
 21
152.4638942953
  0
LINE
  5
4D0
100
AcDbEntity
  8
0
100
AcDbLine
 62
7
  6
CONTINUOUS
 10
-152.3098760533
 20
153.3622285789
 11
-152.3413500053
 21
153.3683516365
  0
LINE
  5
4D1
100
AcDbEntity
  8
0
100
AcDbLine
 62
7
  6
CONTINUOUS
 10
104.6813843611
 20
120.0014090081
 11
105.1680193843
 21
119.8136986397
  0
LINE
  5
4D2
100
AcDbEntity
  8
0
100
AcDbLine
 62
7
  6
CONTINUOUS
 10
106.8318347463
 20
120.7387226377
 11
107.1562580951
 21
120.6135823917
  0
LINE
  5
4D3
100
AcDbEntity
  8
0
100
AcDbLine
 62
7
  6
CONTINUOUS
 10
108.2169182667
 20
122.0424292877
 11
107.7302832435
 21
122.2301396561
  0
LINE
  5
4D4
100
AcDbEntity
  8
0
100
AcDbLine
 62
7
  6
CONTINUOUS
 10
268.4086236559
 20
30.2087703345
 11
268.3766042055
 21
30.2311758461
  0
LINE
  5
4D5
100
AcDbEntity
  8
0
100
AcDbLine
 62
7
  6
CONTINUOUS
 10
258.3101001251
 20
28.8405515589
 11
258.1235558783
 21
28.9717718397
  0
LINE
  5
4D6
100
AcDbEntity
  8
0
100
AcDbLine
 62
7
  6
CONTINUOUS
 10
267.1694974243
 20
30.9282502913
 11
267.2219567671
 21
30.8903558901
  0
LINE
  5
4D7
100
AcDbEntity
  8
0
100
AcDbLine
 62
7
  6
CONTINUOUS
 10
268.4522435391
 20
30.1766342521
 11
268.4086236559
 21
30.2087703345
  0
LINE
  5
4D8
100
AcDbEntity
  8
0
100
AcDbLine
 62
7
  6
CONTINUOUS
 10
267.2219567671
 20
30.8903558901
 11
267.2750201795
 21
30.8492075065
  0
LINE
  5
4D9
100
AcDbEntity
  8
0
100
AcDbLine
 62
7
  6
CONTINUOUS
 10
268.4940603075
 20
30.1439092185
 11
268.4522435391
 21
30.1766342521
  0
LINE
  5
4DA
100
AcDbEntity
  8
0
100
AcDbLine
 62
7
  6
CONTINUOUS
 10
254.2628628455
 20
29.6610370149
 11
254.5880219723
 21
29.3801085957
  0
LINE
  5
4DB
100
AcDbEntity
  8
0
100
AcDbLine
 62
7
  6
CONTINUOUS
 10
257.0628957067
 20
29.1758738677
 11
257.2796684579
 21
28.9885882549
  0
LINE
  5
4DC
100
AcDbEntity
  8
0
100
AcDbLine
 62
7
  6
CONTINUOUS
 10
165.1324261699
 20
-31.1742345851
 11
165.1233244083
 21
-31.1077292867
  0
LINE
  5
4DD
100
AcDbEntity
  8
0
100
AcDbLine
 62
7
  6
CONTINUOUS
 10
153.8253056535
 20
-27.4831675731
 11
153.8253056535
 21
-27.3198594107
  0
LINE
  5
4DE
100
AcDbEntity
  8
0
100
AcDbLine
 62
7
  6
CONTINUOUS
 10
153.9667270095
 20
-27.2381920595
 11
153.9667270095
 21
-27.5648083843
  0
LINE
  5
4DF
100
AcDbEntity
  8
0
100
AcDbLine
 62
7
  6
CONTINUOUS
 10
156.9365754907
 20
-32.5454286663
 11
156.9365754907
 21
-35.1583592647
  0
LINE
  5
4E0
100
AcDbEntity
  8
0
100
AcDbLine
 62
7
  6
CONTINUOUS
 10
156.9365754907
 20
-78.4350222943
 11
156.9365754907
 21
-81.0479528923
  0
LINE
  5
4E1
100
AcDbEntity
  8
0
100
AcDbLine
 62
7
  6
CONTINUOUS
 10
156.9365754907
 20
-91.4996752847
 11
156.9365754907
 21
-94.1126058827
  0
LINE
  5
4E2
100
AcDbEntity
  8
0
100
AcDbLine
 62
7
  6
CONTINUOUS
 10
157.6436822719
 20
-32.1372246107
 11
157.6436822719
 21
-34.7501552087
  0
LINE
  5
4E3
100
AcDbEntity
  8
0
100
AcDbLine
 62
7
  6
CONTINUOUS
 10
157.6436822719
 20
-78.0268182387
 11
157.6436822719
 21
-80.6397488367
  0
LINE
  5
4E4
100
AcDbEntity
  8
0
100
AcDbLine
 62
7
  6
CONTINUOUS
 10
157.6436822719
 20
-91.0914712287
 11
157.6436822719
 21
-93.7044018267
  0
LINE
  5
4E5
100
AcDbEntity
  8
0
100
AcDbLine
 62
7
  6
CONTINUOUS
 10
159.1993171903
 20
-95.4188588615
 11
159.1993171903
 21
-92.8059282635
  0
LINE
  5
4E6
100
AcDbEntity
  8
0
100
AcDbLine
 62
7
  6
CONTINUOUS
 10
159.1993171903
 20
-82.3542058715
 11
159.1993171903
 21
-79.7412752735
  0
LINE
  5
4E7
100
AcDbEntity
  8
0
100
AcDbLine
 62
7
  6
CONTINUOUS
 10
159.1993171903
 20
-36.4646122435
 11
159.1993171903
 21
-33.8516816455
  0
LINE
  5
4E8
100
AcDbEntity
  8
0
100
AcDbLine
 62
7
  6
CONTINUOUS
 10
159.4821599027
 20
-27.9726939599
 11
159.4821599027
 21
-27.1561531479
  0
LINE
  5
4E9
100
AcDbEntity
  8
0
100
AcDbLine
 62
7
  6
CONTINUOUS
 10
162.3105870275
 20
-154.5361217019
 11
162.3105870275
 21
-91.2542087807
  0
LINE
  5
4EA
100
AcDbEntity
  8
0
100
AcDbLine
 62
8
  6
CONTINUOUS
 10
162.3105870275
 20
-89.0235104963
 11
162.3105870275
 21
-87.7780177631
  0
LINE
  5
4EB
100
AcDbEntity
  8
0
100
AcDbLine
 62
7
  6
CONTINUOUS
 10
162.3105870275
 20
-86.7632343155
 11
162.3105870275
 21
-32.0549999191
  0
LINE
  5
4EC
100
AcDbEntity
  8
0
100
AcDbLine
 62
7
  6
CONTINUOUS
 10
163.0176938087
 20
-154.1279176459
 11
163.0176938087
 21
-90.8460047251
  0
LINE
  5
4ED
100
AcDbEntity
  8
0
100
AcDbLine
 62
7
  6
CONTINUOUS
 10
163.0176938087
 20
-86.3550302595
 11
163.0176938087
 21
-31.6467958631
  0
LINE
  5
4EE
100
AcDbEntity
  8
0
100
AcDbLine
 62
7
  6
CONTINUOUS
 10
163.5176938087
 20
-28.9086622715
 11
163.5176938087
 21
-29.7252030835
  0
LINE
  5
4EF
100
AcDbEntity
  8
0
100
AcDbLine
 62
7
  6
CONTINUOUS
 10
163.7248005899
 20
-155.3529279139
 11
163.7248005899
 21
-154.5363871019
  0
LINE
  5
4F0
100
AcDbEntity
  8
0
100
AcDbLine
 62
7
  6
CONTINUOUS
 10
165.1390141523
 20
-31.2385918071
 11
165.1390141523
 21
-154.5362544019
  0
LINE
  5
4F1
100
AcDbEntity
  8
0
100
AcDbLine
 62
8
  6
CONTINUOUS
 10
166.5532277147
 20
-22.2578371771
 11
166.5532277147
 21
-22.6659085331
  0
LINE
  5
4F2
100
AcDbEntity
  8
0
100
AcDbLine
 62
7
  6
CONTINUOUS
 10
166.5532277147
 20
-27.1561531479
 11
166.5532277147
 21
-27.9726939599
  0
LINE
  5
4F3
100
AcDbEntity
  8
0
100
AcDbLine
 62
7
  6
CONTINUOUS
 10
167.6138878867
 20
-20.8289902815
 11
167.6138878867
 21
-21.6455310931
  0
LINE
  5
4F4
100
AcDbEntity
  8
0
100
AcDbLine
 62
7
  6
CONTINUOUS
 10
104.6813843611
 20
121.2260211757
 11
104.3562252339
 21
120.9450927565
  0
LINE
  5
4F5
100
AcDbEntity
  8
0
100
AcDbLine
 62
7
  6
CONTINUOUS
 10
105.5252717815
 20
120.4262967789
 11
105.7420445327
 21
120.6135823917
  0
LINE
  5
4F6
100
AcDbEntity
  8
0
100
AcDbLine
 62
7
  6
CONTINUOUS
 10
108.2169182667
 20
120.8178171197
 11
108.5420773939
 21
121.0987455389
  0
LINE
  5
4F7
100
AcDbEntity
  8
0
100
AcDbLine
 62
7
  6
CONTINUOUS
 10
104.6813843611
 20
120.4094803641
 11
104.4192303183
 21
120.2054446861
  0
LINE
  5
4F8
100
AcDbEntity
  8
0
100
AcDbLine
 62
7
  6
CONTINUOUS
 10
-152.3560215229
 20
153.3707802461
 11
-152.3866287257
 21
153.3749505117
  0
LINE
  5
4F9
100
AcDbEntity
  8
0
100
AcDbLine
 62
7
  6
CONTINUOUS
 10
-152.1023643889
 20
152.4638942953
 11
-152.1148933037
 21
152.4657563697
  0
LINE
  5
4FA
100
AcDbEntity
  8
0
100
AcDbLine
 62
7
  6
CONTINUOUS
 10
-152.3413500053
 20
153.3683516365
 11
-152.3560215229
 21
153.3707802461
  0
LINE
  5
4FB
100
AcDbEntity
  8
0
100
AcDbLine
 62
7
  6
CONTINUOUS
 10
267.2750201795
 20
30.8492075065
 11
267.3285199607
 21
30.8048298393
  0
LINE
  5
4FC
100
AcDbEntity
  8
0
100
AcDbLine
 62
7
  6
CONTINUOUS
 10
268.5340487535
 20
30.1106564633
 11
268.4940603075
 21
30.1439092185
  0
LINE
  5
4FD
100
AcDbEntity
  8
0
100
AcDbLine
 62
7
  6
CONTINUOUS
 10
268.5721892683
 20
30.0769359505
 11
268.5340487535
 21
30.1106564633
  0
LINE
  5
4FE
100
AcDbEntity
  8
0
100
AcDbLine
 62
7
  6
CONTINUOUS
 10
267.3285199607
 20
30.8048298393
 11
267.3822753179
 21
30.7572714253
  0
LINE
  5
4FF
100
AcDbEntity
  8
0
100
AcDbLine
 62
7
  6
CONTINUOUS
 10
268.6084677619
 20
30.0428059677
 11
268.5721892683
 21
30.0769359505
  0
LINE
  5
500
100
AcDbEntity
  8
0
100
AcDbLine
 62
7
  6
CONTINUOUS
 10
267.3822753179
 20
30.7572714253
 11
267.4360947651
 21
30.7066048317
  0
LINE
  5
501
100
AcDbEntity
  8
0
100
AcDbLine
 62
7
  6
CONTINUOUS
 10
258.3857099207
 20
28.7677361617
 11
258.3101001251
 21
28.8405515589
  0
LINE
  5
502
100
AcDbEntity
  8
0
100
AcDbLine
 62
7
  6
CONTINUOUS
 10
267.4360947651
 20
30.7066048317
 11
267.4897788771
 21
30.6529261721
  0
LINE
  5
503
100
AcDbEntity
  8
0
100
AcDbLine
 62
7
  6
CONTINUOUS
 10
268.6428754987
 20
30.0083227437
 11
268.6084677619
 21
30.0428059677
  0
LINE
  5
504
100
AcDbEntity
  8
0
100
AcDbLine
 62
7
  6
CONTINUOUS
 10
169.0281014487
 20
-21.6453983931
 11
169.0281014487
 21
-22.4619392051
  0
LINE
  5
505
100
AcDbEntity
  8
0
100
AcDbLine
 62
7
  6
CONTINUOUS
 10
158.5982764263
 20
-92.1326038915
 11
158.6132404891
 21
-91.9542241227
  0
LINE
  5
506
100
AcDbEntity
  8
0
100
AcDbLine
 62
7
  6
CONTINUOUS
 10
3.1186680419
 20
-47.2834497319
 11
2.8734176699
 21
-47.5657175531
  0
LINE
  5
507
100
AcDbEntity
  8
0
100
AcDbLine
 62
8
  6
CONTINUOUS
 10
-93.7327784401
 20
8.5202978593
 11
-93.3083304917
 21
8.7653264445
  0
LINE
  5
508
100
AcDbEntity
  8
0
100
AcDbLine
 62
7
  6
CONTINUOUS
 10
-93.7327784401
 20
8.5202978593
 11
-94.4398852213
 21
8.1120938033
  0
LINE
  5
509
100
AcDbEntity
  8
0
100
AcDbLine
 62
7
  6
CONTINUOUS
 10
106.0955979231
 20
122.0424292877
 11
104.6813843611
 21
121.2260211757
  0
LINE
  5
50A
100
AcDbEntity
  8
0
100
AcDbLine
 62
7
  6
CONTINUOUS
 10
8.5148621195
 20
65.7102695717
 11
7.1006485571
 21
64.8938614601
  0
LINE
  5
50B
100
AcDbEntity
  8
0
100
AcDbLine
 62
7
  6
CONTINUOUS
 10
106.0955979231
 20
121.2258884757
 11
104.6813843611
 21
120.4094803641
  0
LINE
  5
50C
100
AcDbEntity
  8
0
100
AcDbLine
 62
7
  6
CONTINUOUS
 10
8.5148621195
 20
64.8937287601
 11
7.1006485571
 21
64.0773206481
  0
LINE
  5
50D
100
AcDbEntity
  8
0
100
AcDbLine
 62
7
  6
CONTINUOUS
 10
-152.3866287257
 20
153.3749505117
 11
-152.4166290301
 21
153.3778286377
  0
LINE
  5
50E
100
AcDbEntity
  8
0
100
AcDbLine
 62
7
  6
CONTINUOUS
 10
-152.1148933037
 20
152.4657563697
 11
-152.1270939553
 21
152.4670466601
  0
LINE
  5
50F
100
AcDbEntity
  8
0
100
AcDbLine
 62
7
  6
CONTINUOUS
 10
105.1680193843
 20
119.8136986397
 11
105.7420445327
 21
119.7477835237
  0
LINE
  5
510
100
AcDbEntity
  8
0
100
AcDbLine
 62
7
  6
CONTINUOUS
 10
106.4491513139
 20
120.7826660481
 11
106.8318347463
 21
120.7387226377
  0
LINE
  5
511
100
AcDbEntity
  8
0
100
AcDbLine
 62
7
  6
CONTINUOUS
 10
107.7302832435
 20
122.2301396561
 11
107.1562580951
 21
122.2960547717
  0
LINE
  5
512
100
AcDbEntity
  8
0
100
AcDbLine
 62
7
  6
CONTINUOUS
 10
-141.0382221013
 20
155.8882148565
 11
-140.6555386689
 21
155.8442714457
  0
LINE
  5
513
100
AcDbEntity
  8
0
100
AcDbLine
 62
7
  6
CONTINUOUS
 10
-141.1713037341
 20
157.3356884645
 11
-141.7453288825
 21
157.4016035801
  0
LINE
  5
514
100
AcDbEntity
  8
0
100
AcDbLine
 62
7
  6
CONTINUOUS
 10
-51.5600842397
 20
207.2779824909
 11
-51.2356608909
 21
207.1528422449
  0
LINE
  5
515
100
AcDbEntity
  8
0
100
AcDbLine
 62
7
  6
CONTINUOUS
 10
-51.5892142813
 20
208.5816891409
 11
-52.0758493045
 21
208.7693995093
  0
LINE
  5
516
100
AcDbEntity
  8
0
100
AcDbLine
 62
7
  6
CONTINUOUS
 10
267.4897788771
 20
30.6529261721
 11
267.5431233103
 21
30.5963539477
  0
LINE
  5
517
100
AcDbEntity
  8
0
100
AcDbLine
 62
7
  6
CONTINUOUS
 10
268.6754088659
 20
29.9735400985
 11
268.6428754987
 21
30.0083227437
  0
LINE
  5
518
100
AcDbEntity
  8
0
100
AcDbLine
 62
7
  6
CONTINUOUS
 10
267.5431233103
 20
30.5963539477
 11
267.5959219675
 21
30.5370272529
  0
LINE
  5
519
100
AcDbEntity
  8
0
100
AcDbLine
 62
7
  6
CONTINUOUS
 10
268.7060690735
 20
29.9385091313
 11
268.6754088659
 21
29.9735400985
  0
LINE
  5
51A
100
AcDbEntity
  8
0
100
AcDbLine
 62
7
  6
CONTINUOUS
 10
267.5959219675
 20
30.5370272529
 11
267.6479701799
 21
30.4751034285
  0
LINE
  5
51B
100
AcDbEntity
  8
0
100
AcDbLine
 62
7
  6
CONTINUOUS
 10
268.7348617927
 20
29.9032779477
 11
268.7060690735
 21
29.9385091313
  0
LINE
  5
51C
100
AcDbEntity
  8
0
100
AcDbLine
 62
7
  6
CONTINUOUS
 10
267.6479701799
 20
30.4751034285
 11
267.6589168291
 21
30.4616234461
  0
LINE
  5
51D
100
AcDbEntity
  8
0
100
AcDbLine
 62
7
  6
CONTINUOUS
 10
267.6589168291
 20
30.4616234461
 11
267.7097627131
 21
30.3968239541
  0
LINE
  5
51E
100
AcDbEntity
  8
0
100
AcDbLine
 62
7
  6
CONTINUOUS
 10
157.7039088955
 20
-31.7514146559
 11
157.6436822719
 21
-32.1372246107
  0
LINE
  5
51F
100
AcDbEntity
  8
0
100
AcDbLine
 62
7
  6
CONTINUOUS
 10
158.3507890531
 20
-33.0354858535
 11
158.4110156767
 21
-32.6496758987
  0
LINE
  5
520
100
AcDbEntity
  8
0
100
AcDbLine
 62
7
  6
CONTINUOUS
 10
157.7039088955
 20
-77.6410082839
 11
157.6436822719
 21
-78.0268182387
  0
LINE
  5
521
100
AcDbEntity
  8
0
100
AcDbLine
 62
7
  6
CONTINUOUS
 10
158.3507890531
 20
-78.9250794815
 11
158.4110156767
 21
-78.5392695267
  0
LINE
  5
522
100
AcDbEntity
  8
0
100
AcDbLine
 62
7
  6
CONTINUOUS
 10
157.7039088955
 20
-90.7056612739
 11
157.6436822719
 21
-91.0914712287
  0
LINE
  5
523
100
AcDbEntity
  8
0
100
AcDbLine
 62
7
  6
CONTINUOUS
 10
157.0226959687
 20
-32.0951823351
 11
156.9365754907
 21
-32.5454286663
  0
LINE
  5
524
100
AcDbEntity
  8
0
100
AcDbLine
 62
7
  6
CONTINUOUS
 10
157.6436822719
 20
-33.4436899095
 11
157.7298027499
 21
-32.9934435783
  0
LINE
  5
525
100
AcDbEntity
  8
0
100
AcDbLine
 62
7
  6
CONTINUOUS
 10
159.1131967123
 20
-36.9148585747
 11
159.1993171903
 21
-36.4646122435
  0
LINE
  5
526
100
AcDbEntity
  8
0
100
AcDbLine
 62
7
  6
CONTINUOUS
 10
4.7186680419
 20
-50.0547310159
 11
4.9639184139
 21
-49.7724631943
  0
LINE
  5
527
100
AcDbEntity
  8
0
100
AcDbLine
 62
7
  6
CONTINUOUS
 10
9.2219689007
 20
63.6692492921
 11
10.6361824631
 21
64.4856574041
  0
LINE
  5
528
100
AcDbEntity
  8
0
100
AcDbLine
 62
7
  6
CONTINUOUS
 10
106.8027047043
 20
120.0014090081
 11
108.2169182667
 21
120.8178171197
  0
LINE
  5
529
100
AcDbEntity
  8
0
100
AcDbLine
 62
7
  6
CONTINUOUS
 10
106.5822329467
 20
122.2301396561
 11
106.0955979231
 21
122.0424292877
  0
LINE
  5
52A
100
AcDbEntity
  8
0
100
AcDbLine
 62
7
  6
CONTINUOUS
 10
105.7420445327
 20
119.7477835237
 11
106.3160696811
 21
119.8136986397
  0
LINE
  5
52B
100
AcDbEntity
  8
0
100
AcDbLine
 62
7
  6
CONTINUOUS
 10
106.0664678815
 20
120.7387226377
 11
106.4491513139
 21
120.7826660481
  0
LINE
  5
52C
100
AcDbEntity
  8
0
100
AcDbLine
 62
7
  6
CONTINUOUS
 10
107.1562580951
 20
122.2960547717
 11
106.5822329467
 21
122.2301396561
  0
LINE
  5
52D
100
AcDbEntity
  8
0
100
AcDbLine
 62
7
  6
CONTINUOUS
 10
-152.4166290301
 20
153.3778286377
 11
-152.4460106545
 21
153.3794431033
  0
LINE
  5
52E
100
AcDbEntity
  8
0
100
AcDbLine
 62
7
  6
CONTINUOUS
 10
-152.1270939553
 20
152.4670466601
 11
-152.1389646897
 21
152.4677816257
  0
LINE
  5
52F
100
AcDbEntity
  8
0
100
AcDbLine
 62
7
  6
CONTINUOUS
 10
268.7617967443
 20
29.8678914329
 11
268.7348617927
 21
29.9032779477
  0
LINE
  5
530
100
AcDbEntity
  8
0
100
AcDbLine
 62
7
  6
CONTINUOUS
 10
267.7097627131
 20
30.3968239541
 11
267.7598310211
 21
30.3293247429
  0
LINE
  5
531
100
AcDbEntity
  8
0
100
AcDbLine
 62
7
  6
CONTINUOUS
 10
268.7868872439
 20
29.8323910701
 11
268.7617967443
 21
29.8678914329
  0
LINE
  5
532
100
AcDbEntity
  8
0
100
AcDbLine
 62
7
  6
CONTINUOUS
 10
267.7598310211
 20
30.3293247429
 11
267.8089164059
 21
30.2593258289
  0
LINE
  5
533
100
AcDbEntity
  8
0
100
AcDbLine
 62
7
  6
CONTINUOUS
 10
267.8089164059
 20
30.2593258289
 11
267.8568150487
 21
30.1870497889
  0
LINE
  5
534
100
AcDbEntity
  8
0
100
AcDbLine
 62
7
  6
CONTINUOUS
 10
268.8101497083
 20
29.7968148037
 11
268.7868872439
 21
29.8323910701
  0
LINE
  5
535
100
AcDbEntity
  8
0
100
AcDbLine
 62
7
  6
CONTINUOUS
 10
267.8568150487
 20
30.1870497889
 11
267.9033280191
 21
30.1127383933
  0
LINE
  5
536
100
AcDbEntity
  8
0
100
AcDbLine
 62
7
  6
CONTINUOUS
 10
171.0433557751
 20
-79.4354672515
 11
171.1321675183
 21
-78.8686108667
  0
LINE
  5
537
100
AcDbEntity
  8
0
100
AcDbLine
 62
7
  6
CONTINUOUS
 10
173.3768081531
 20
-78.0883938671
 11
173.2879964103
 21
-78.6552502519
  0
LINE
  5
538
100
AcDbEntity
  8
0
100
AcDbLine
 62
7
  6
CONTINUOUS
 10
157.0226959687
 20
-77.9847759631
 11
156.9365754907
 21
-78.4350222943
  0
LINE
  5
539
100
AcDbEntity
  8
0
100
AcDbLine
 62
7
  6
CONTINUOUS
 10
157.6436822719
 20
-79.3332835375
 11
157.7298027499
 21
-78.8830372063
  0
LINE
  5
53A
100
AcDbEntity
  8
0
100
AcDbLine
 62
7
  6
CONTINUOUS
 10
157.0226959687
 20
-91.0494289535
 11
156.9365754907
 21
-91.4996752847
  0
LINE
  5
53B
100
AcDbEntity
  8
0
100
AcDbLine
 62
7
  6
CONTINUOUS
 10
159.1131967123
 20
-82.8044522027
 11
159.1993171903
 21
-82.3542058715
  0
LINE
  5
53C
100
AcDbEntity
  8
0
100
AcDbLine
 62
7
  6
CONTINUOUS
 10
157.8911696451
 20
-92.5408079475
 11
157.9584512687
 21
-92.1890530011
  0
LINE
  5
53D
100
AcDbEntity
  8
0
100
AcDbLine
 62
7
  6
CONTINUOUS
 10
159.1131967123
 20
-95.8691051927
 11
159.1993171903
 21
-95.4188588615
  0
LINE
  5
53E
100
AcDbEntity
  8
0
100
AcDbLine
 62
7
  6
CONTINUOUS
 10
105.7420445327
 20
120.6135823917
 11
106.0664678815
 21
120.7387226377
  0
LINE
  5
53F
100
AcDbEntity
  8
0
100
AcDbLine
 62
7
  6
CONTINUOUS
 10
106.3160696811
 20
119.8136986397
 11
106.8027047043
 21
120.0014090081
  0
LINE
  5
540
100
AcDbEntity
  8
0
100
AcDbLine
 62
7
  6
CONTINUOUS
 10
-152.4460106545
 20
153.3794431033
 11
-152.4747638753
 21
153.3798218609
  0
LINE
  5
541
100
AcDbEntity
  8
0
100
AcDbLine
 62
7
  6
CONTINUOUS
 10
-152.1389646897
 20
152.4677816257
 11
-152.1505052309
 21
152.4679772697
  0
LINE
  5
542
100
AcDbEntity
  8
0
100
AcDbLine
 62
7
  6
CONTINUOUS
 10
268.8273145287
 20
29.7685658017
 11
268.8101497083
 21
29.7968148037
  0
LINE
  5
543
100
AcDbEntity
  8
0
100
AcDbLine
 62
7
  6
CONTINUOUS
 10
267.9033280191
 20
30.1127383933
 11
267.9418947519
 21
30.0477103701
  0
LINE
  5
544
100
AcDbEntity
  8
0
100
AcDbLine
 62
7
  6
CONTINUOUS
 10
268.8475425315
 20
29.7326037593
 11
268.8273145287
 21
29.7685658017
  0
LINE
  5
545
100
AcDbEntity
  8
0
100
AcDbLine
 62
7
  6
CONTINUOUS
 10
267.9418947519
 20
30.0477103701
 11
267.9852448019
 21
29.9704835257
  0
LINE
  5
546
100
AcDbEntity
  8
0
100
AcDbLine
 62
7
  6
CONTINUOUS
 10
267.9852448019
 20
29.9704835257
 11
268.0266407479
 21
29.8921105633
  0
LINE
  5
547
100
AcDbEntity
  8
0
100
AcDbLine
 62
7
  6
CONTINUOUS
 10
268.8660896287
 20
29.6964683505
 11
268.8475425315
 21
29.7326037593
  0
LINE
  5
548
100
AcDbEntity
  8
0
100
AcDbLine
 62
7
  6
CONTINUOUS
 10
268.0266407479
 20
29.8921105633
 11
268.0659440339
 21
29.8128639457
  0
LINE
  5
549
100
AcDbEntity
  8
0
100
AcDbLine
 62
7
  6
CONTINUOUS
 10
165.1674084159
 20
-21.1099187007
 11
165.0532277147
 21
-21.4412963651
  0
LINE
  5
54A
100
AcDbEntity
  8
0
100
AcDbLine
 62
7
  6
CONTINUOUS
 10
168.2603344959
 20
-22.6660412331
 11
168.1842140283
 21
-22.8869596763
  0
LINE
  5
54B
100
AcDbEntity
  8
0
100
AcDbLine
 62
7
  6
CONTINUOUS
 10
9.0014971427
 20
65.8979799405
 11
8.5148621195
 21
65.7102695717
  0
LINE
  5
54C
100
AcDbEntity
  8
0
100
AcDbLine
 62
7
  6
CONTINUOUS
 10
8.4857320779
 20
64.4065629217
 11
8.1613087291
 21
64.2814226761
  0
LINE
  5
54D
100
AcDbEntity
  8
0
100
AcDbLine
 62
7
  6
CONTINUOUS
 10
8.7353338775
 20
63.4815389237
 11
9.2219689007
 21
63.6692492921
  0
LINE
  5
54E
100
AcDbEntity
  8
0
100
AcDbLine
 62
7
  6
CONTINUOUS
 10
-149.7976533769
 20
81.7542787689
 11
-149.4306102569
 21
81.8255953633
  0
LINE
  5
54F
100
AcDbEntity
  8
0
100
AcDbLine
 62
7
  6
CONTINUOUS
 10
-150.1485034757
 20
86.0084371117
 11
-149.8617510381
 21
86.0641532013
  0
LINE
  5
550
100
AcDbEntity
  8
0
100
AcDbLine
 62
7
  6
CONTINUOUS
 10
-150.6635671369
 20
87.2811238397
 11
-151.0306102569
 21
87.2098072453
  0
LINE
  5
551
100
AcDbEntity
  8
0
100
AcDbLine
 62
7
  6
CONTINUOUS
 10
-149.7976533769
 20
94.8189317589
 11
-149.4306102569
 21
94.8902483533
  0
LINE
  5
552
100
AcDbEntity
  8
0
100
AcDbLine
 62
7
  6
CONTINUOUS
 10
-153.1031012401
 20
93.0303115641
 11
-153.1376255589
 21
93.0244340009
  0
LINE
  5
553
100
AcDbEntity
  8
0
100
AcDbLine
 62
7
  6
CONTINUOUS
 10
-152.4747638753
 20
153.3798218609
 11
-152.5028809153
 21
153.3789920517
  0
LINE
  5
554
100
AcDbEntity
  8
0
100
AcDbLine
 62
7
  6
CONTINUOUS
 10
-152.1505052309
 20
152.4679772697
 11
-152.1617165537
 21
152.4676489253
  0
LINE
  5
555
100
AcDbEntity
  8
0
100
AcDbLine
 62
7
  6
CONTINUOUS
 10
268.8829668419
 20
29.6601907637
 11
268.8660896287
 21
29.6964683505
  0
LINE
  5
556
100
AcDbEntity
  8
0
100
AcDbLine
 62
7
  6
CONTINUOUS
 10
268.0659440339
 20
29.8128639457
 11
268.1032689271
 21
29.7325014293
  0
LINE
  5
557
100
AcDbEntity
  8
0
100
AcDbLine
 62
7
  6
CONTINUOUS
 10
268.1032689271
 20
29.7325014293
 11
268.1036593723
 21
29.7316315181
  0
LINE
  5
558
100
AcDbEntity
  8
0
100
AcDbLine
 62
7
  6
CONTINUOUS
 10
268.1036593723
 20
29.7316315181
 11
268.1389704567
 21
29.6501543965
  0
LINE
  5
559
100
AcDbEntity
  8
0
100
AcDbLine
 62
7
  6
CONTINUOUS
 10
268.8981857143
 20
29.6238004061
 11
268.8829668419
 21
29.6601907637
  0
LINE
  5
55A
100
AcDbEntity
  8
0
100
AcDbLine
 62
7
  6
CONTINUOUS
 10
268.1389704567
 20
29.6501543965
 11
268.1721105011
 21
29.5679870449
  0
LINE
  5
55B
100
AcDbEntity
  8
0
100
AcDbLine
 62
7
  6
CONTINUOUS
 10
268.1721105011
 20
29.5679870449
 11
268.2029761059
 21
29.4854175489
  0
LINE
  5
55C
100
AcDbEntity
  8
0
100
AcDbLine
 62
7
  6
CONTINUOUS
 10
268.9117580779
 20
29.5873248761
 11
268.8981857143
 21
29.6238004061
  0
LINE
  5
55D
100
AcDbEntity
  8
0
100
AcDbLine
 62
7
  6
CONTINUOUS
 10
268.2029761059
 20
29.4854175489
 11
268.2314799935
 21
29.4027310005
  0
LINE
  5
55E
100
AcDbEntity
  8
0
100
AcDbLine
 62
7
  6
CONTINUOUS
 10
254.1486821443
 20
29.9924146797
 11
254.2628628455
 21
29.6610370149
  0
LINE
  5
55F
100
AcDbEntity
  8
0
100
AcDbLine
 62
7
  6
CONTINUOUS
 10
257.2796684579
 20
28.9885882549
 11
257.3557889255
 21
28.7676698117
  0
LINE
  5
560
100
AcDbEntity
  8
0
100
AcDbLine
 62
7
  6
CONTINUOUS
 10
260.2276219479
 20
-28.4660727359
 11
260.1388102047
 21
-28.0017562067
  0
LINE
  5
561
100
AcDbEntity
  8
0
100
AcDbLine
 62
7
  6
CONTINUOUS
 10
-150.3235034757
 20
99.3761989925
 11
-149.9564603557
 21
99.4475155869
  0
LINE
  5
562
100
AcDbEntity
  8
0
100
AcDbLine
 62
7
  6
CONTINUOUS
 10
-150.6635671369
 20
100.3457768297
 11
-151.0306102569
 21
100.2744602353
  0
LINE
  5
563
100
AcDbEntity
  8
0
100
AcDbLine
 62
7
  6
CONTINUOUS
 10
-51.9427676717
 20
207.3219259013
 11
-51.5600842397
 21
207.2779824909
  0
LINE
  5
564
100
AcDbEntity
  8
0
100
AcDbLine
 62
7
  6
CONTINUOUS
 10
-52.0758493045
 20
208.7693995093
 11
-52.6498744529
 21
208.8353146249
  0
LINE
  5
565
100
AcDbEntity
  8
0
100
AcDbLine
 62
7
  6
CONTINUOUS
 10
268.9236958175
 20
29.5507899569
 11
268.9117580779
 21
29.5873248761
  0
LINE
  5
566
100
AcDbEntity
  8
0
100
AcDbLine
 62
7
  6
CONTINUOUS
 10
268.2314799935
 20
29.4027310005
 11
268.2575518311
 21
29.3202053293
  0
LINE
  5
567
100
AcDbEntity
  8
0
100
AcDbLine
 62
7
  6
CONTINUOUS
 10
268.2575518311
 20
29.3202053293
 11
268.2811385911
 21
29.2381074965
  0
LINE
  5
568
100
AcDbEntity
  8
0
100
AcDbLine
 62
7
  6
CONTINUOUS
 10
268.9340106295
 20
29.5142196393
 11
268.9236958175
 21
29.5507899569
  0
LINE
  5
569
100
AcDbEntity
  8
0
100
AcDbLine
 62
7
  6
CONTINUOUS
 10
268.2811385911
 20
29.2381074965
 11
268.3022044547
 21
29.1566901845
  0
LINE
  5
56A
100
AcDbEntity
  8
0
100
AcDbLine
 62
7
  6
CONTINUOUS
 10
268.9427137831
 20
29.4776361633
 11
268.9340106295
 21
29.5142196393
  0
LINE
  5
56B
100
AcDbEntity
  8
0
100
AcDbLine
 62
7
  6
CONTINUOUS
 10
268.3022044547
 20
29.1566901845
 11
268.3207303035
 21
29.0761890541
  0
LINE
  5
56C
100
AcDbEntity
  8
0
100
AcDbLine
 62
7
  6
CONTINUOUS
 10
262.3834508399
 20
-26.1903662931
 11
262.4722625827
 21
-26.6546828223
  0
LINE
  5
56D
100
AcDbEntity
  8
0
100
AcDbLine
 62
7
  6
CONTINUOUS
 10
261.6973386263
 20
-25.8329837807
 11
261.7651558015
 21
-26.2464787663
  0
LINE
  5
56E
100
AcDbEntity
  8
0
100
AcDbLine
 62
7
  6
CONTINUOUS
 10
268.9592547391
 20
29.3680045917
 11
268.9553266639
 21
29.4045103997
  0
LINE
  5
56F
100
AcDbEntity
  8
0
100
AcDbLine
 62
8
  6
CONTINUOUS
 10
255.6486821443
 20
29.1758738677
 11
255.6486821443
 21
28.7678025117
  0
LINE
  5
570
100
AcDbEntity
  8
0
100
AcDbLine
 62
7
  6
CONTINUOUS
 10
-152.1617165537
 20
152.4676489253
 11
-152.1726007457
 21
152.4668110469
  0
LINE
  5
571
100
AcDbEntity
  8
0
100
AcDbLine
 62
7
  6
CONTINUOUS
 10
-152.5028809153
 20
153.3789920517
 11
-152.5303558021
 21
153.3769797245
  0
LINE
  5
572
100
AcDbEntity
  8
0
100
AcDbLine
 62
7
  6
CONTINUOUS
 10
268.3207303035
 20
29.0761890541
 11
268.3308651259
 21
29.0272124553
  0
LINE
  5
573
100
AcDbEntity
  8
0
100
AcDbLine
 62
7
  6
CONTINUOUS
 10
268.9498158871
 20
29.4410600917
 11
268.9427137831
 21
29.4776361633
  0
LINE
  5
574
100
AcDbEntity
  8
0
100
AcDbLine
 62
7
  6
CONTINUOUS
 10
268.3308651259
 20
29.0272124553
 11
268.3454756747
 21
28.9476643205
  0
LINE
  5
575
100
AcDbEntity
  8
0
100
AcDbLine
 62
7
  6
CONTINUOUS
 10
268.3454756747
 20
28.9476643205
 11
268.3576436771
 21
28.8690031817
  0
LINE
  5
576
100
AcDbEntity
  8
0
100
AcDbLine
 62
7
  6
CONTINUOUS
 10
268.9553266639
 20
29.4045103997
 11
268.9498158871
 21
29.4410600917
  0
LINE
  5
577
100
AcDbEntity
  8
0
100
AcDbLine
 62
7
  6
CONTINUOUS
 10
268.3576436771
 20
28.8690031817
 11
268.3673780203
 21
28.7914413401
  0
LINE
  5
578
100
AcDbEntity
  8
0
100
AcDbLine
 62
7
  6
CONTINUOUS
 10
268.3673780203
 20
28.7914413401
 11
268.3746997891
 21
28.7151782693
  0
LINE
  5
579
100
AcDbEntity
  8
0
100
AcDbLine
 62
7
  6
CONTINUOUS
 10
268.3746997891
 20
28.7151782693
 11
268.3796415559
 21
28.6403985233
  0
LINE
  5
57A
100
AcDbEntity
  8
0
100
AcDbLine
 62
7
  6
CONTINUOUS
 10
268.9616074447
 20
29.3315588329
 11
268.9592547391
 21
29.3680045917
  0
LINE
  5
57B
100
AcDbEntity
  8
0
100
AcDbLine
 62
7
  6
CONTINUOUS
 10
268.3796415559
 20
28.6403985233
 11
268.3822464371
 21
28.5672700597
  0
LINE
  5
57C
100
AcDbEntity
  8
0
100
AcDbLine
 62
7
  6
CONTINUOUS
 10
268.9623906431
 20
29.2951881009
 11
268.9616074447
 21
29.3315588329
  0
LINE
  5
57D
100
AcDbEntity
  8
0
100
AcDbLine
 62
7
  6
CONTINUOUS
 10
268.3822464371
 20
28.5672700597
 11
268.3825669567
 21
28.4959430117
  0
LINE
  5
57E
100
AcDbEntity
  8
0
100
AcDbLine
 62
7
  6
CONTINUOUS
 10
256.7093423159
 20
30.6047207633
 11
256.7093423159
 21
29.7881799517
  0
LINE
  5
57F
100
AcDbEntity
  8
0
100
AcDbLine
 62
7
  6
CONTINUOUS
 10
258.1235558783
 20
29.7883126517
 11
258.1235558783
 21
28.9717718397
  0
LINE
  5
580
100
AcDbEntity
  8
0
100
AcDbLine
 62
7
  6
CONTINUOUS
 10
265.5481770807
 20
29.1758738677
 11
265.5481770807
 21
29.9924146797
  0
LINE
  5
581
100
AcDbEntity
  8
0
100
AcDbLine
 62
7
  6
CONTINUOUS
 10
267.0126431751
 20
31.2168941473
 11
267.0126431751
 21
32.0334349593
  0
LINE
  5
582
100
AcDbEntity
  8
0
100
AcDbLine
 62
7
  6
CONTINUOUS
 10
268.3766042055
 20
-94.9384622391
 11
268.3766042055
 21
28.3592003557
  0
LINE
  5
583
100
AcDbEntity
  8
0
100
AcDbLine
 62
7
  6
CONTINUOUS
 10
268.9623906431
 20
-93.8333633547
 11
268.9623906431
 21
29.4168090865
  0
LINE
  5
584
100
AcDbEntity
  8
0
100
AcDbLine
 62
7
  6
CONTINUOUS
 10
269.7908177679
 20
28.3590676557
 11
269.7908177679
 21
-93.3055133151
  0
LINE
  5
585
100
AcDbEntity
  8
0
100
AcDbLine
 62
7
  6
CONTINUOUS
 10
270.4979245491
 20
28.7672717117
 11
270.4979245491
 21
-92.8973092595
  0
LINE
  5
586
100
AcDbEntity
  8
0
100
AcDbLine
 62
7
  6
CONTINUOUS
 10
171.1321675183
 20
-78.8686108667
 11
171.3850819643
 21
-78.2855133723
  0
LINE
  5
587
100
AcDbEntity
  8
0
100
AcDbLine
 62
7
  6
CONTINUOUS
 10
173.2879964103
 20
-78.6552502519
 11
173.0350819643
 21
-79.2383477463
  0
LINE
  5
588
100
AcDbEntity
  8
0
100
AcDbLine
 62
7
  6
CONTINUOUS
 10
166.2944572607
 20
-22.5165235295
 11
166.3364549635
 21
-22.4451227899
  0
LINE
  5
589
100
AcDbEntity
  8
0
100
AcDbLine
 62
7
  6
CONTINUOUS
 10
-152.1726007457
 20
152.4668110469
 11
-152.1831608469
 21
152.4654770157
  0
LINE
  5
58A
100
AcDbEntity
  8
0
100
AcDbLine
 62
7
  6
CONTINUOUS
 10
-152.5303558021
 20
153.3769797245
 11
-152.5571841969
 21
153.3738095637
  0
LINE
  5
58B
100
AcDbEntity
  8
0
100
AcDbLine
 62
7
  6
CONTINUOUS
 10
-141.4209055337
 20
155.8442714457
 11
-141.0382221013
 21
155.8882148565
  0
LINE
  5
58C
100
AcDbEntity
  8
0
100
AcDbLine
 62
7
  6
CONTINUOUS
 10
-141.7453288825
 20
157.4016035801
 11
-142.3193540313
 21
157.3356884645
  0
LINE
  5
58D
100
AcDbEntity
  8
0
100
AcDbLine
 62
7
  6
CONTINUOUS
 10
268.9623906435
 20
-93.8333633547
 11
268.9618908323
 21
-93.8674937927
  0
LINE
  5
58E
100
AcDbEntity
  8
0
100
AcDbLine
 62
7
  6
CONTINUOUS
 10
268.9616074447
 20
29.2588173689
 11
268.9623906431
 21
29.2951881009
  0
LINE
  5
58F
100
AcDbEntity
  8
0
100
AcDbLine
 62
7
  6
CONTINUOUS
 10
268.3825669567
 20
28.4959430117
 11
268.3806637559
 21
28.4265489113
  0
LINE
  5
590
100
AcDbEntity
  8
0
100
AcDbLine
 62
7
  6
CONTINUOUS
 10
268.9618908323
 20
-93.8674937927
 11
268.9603925639
 21
-93.9015458259
  0
LINE
  5
591
100
AcDbEntity
  8
0
100
AcDbLine
 62
7
  6
CONTINUOUS
 10
268.3806637559
 20
28.4265489113
 11
268.3766042055
 21
28.3592003557
  0
LINE
  5
592
100
AcDbEntity
  8
0
100
AcDbLine
 62
7
  6
CONTINUOUS
 10
268.9592547391
 20
29.2223716101
 11
268.9616074447
 21
29.2588173689
  0
LINE
  5
593
100
AcDbEntity
  8
0
100
AcDbLine
 62
7
  6
CONTINUOUS
 10
268.9553266639
 20
29.1858658021
 11
268.9592547391
 21
29.2223716101
  0
LINE
  5
594
100
AcDbEntity
  8
0
100
AcDbLine
 62
8
  6
CONTINUOUS
 10
3.4944039731
 20
-47.6077598283
 11
3.9188519215
 21
-47.3627312435
  0
LINE
  5
595
100
AcDbEntity
  8
0
100
AcDbLine
 62
7
  6
CONTINUOUS
 10
3.4944039731
 20
-47.6077598283
 11
2.7872971919
 21
-48.0159638843
  0
LINE
  5
596
100
AcDbEntity
  8
0
100
AcDbLine
 62
7
  6
CONTINUOUS
 10
-149.7976533769
 20
140.7085253869
 11
-149.4306102569
 21
140.7798419813
  0
LINE
  5
597
100
AcDbEntity
  8
0
100
AcDbLine
 62
7
  6
CONTINUOUS
 10
-150.3235034757
 20
145.2657926201
 11
-149.9564603557
 21
145.3371092149
  0
LINE
  5
598
100
AcDbEntity
  8
0
100
AcDbLine
 62
7
  6
CONTINUOUS
 10
-150.6635671369
 20
146.2353704577
 11
-151.0306102569
 21
146.1640538633
  0
LINE
  5
599
100
AcDbEntity
  8
0
100
AcDbLine
 62
7
  6
CONTINUOUS
 10
-152.1831608469
 20
152.4654770157
 11
-152.1934006749
 21
152.4636589573
  0
LINE
  5
59A
100
AcDbEntity
  8
0
100
AcDbLine
 62
7
  6
CONTINUOUS
 10
-152.5571841969
 20
153.3738095637
 11
-152.5833631937
 21
153.3695046333
  0
LINE
  5
59B
100
AcDbEntity
  8
0
100
AcDbLine
 62
7
  6
CONTINUOUS
 10
268.9603925639
 20
-93.9015458259
 11
268.9578963047
 21
-93.9355367815
  0
LINE
  5
59C
100
AcDbEntity
  8
0
100
AcDbLine
 62
7
  6
CONTINUOUS
 10
268.9578963047
 20
-93.9355367815
 11
268.9544006479
 21
-93.9694839023
  0
LINE
  5
59D
100
AcDbEntity
  8
0
100
AcDbLine
 62
7
  6
CONTINUOUS
 10
268.9498158871
 20
29.1493161105
 11
268.9553266639
 21
29.1858658021
  0
LINE
  5
59E
100
AcDbEntity
  8
0
100
AcDbLine
 62
7
  6
CONTINUOUS
 10
260.1388102047
 20
-28.0017562067
 11
260.2276219479
 21
-27.4348998219
  0
LINE
  5
59F
100
AcDbEntity
  8
0
100
AcDbLine
 62
7
  6
CONTINUOUS
 10
262.4722625827
 20
-26.6546828223
 11
262.3834508399
 21
-27.2215392071
  0
LINE
  5
5A0
100
AcDbEntity
  8
0
100
AcDbLine
 62
7
  6
CONTINUOUS
 10
268.9427137831
 20
29.1127400385
 11
268.9498158871
 21
29.1493161105
  0
LINE
  5
5A1
100
AcDbEntity
  8
0
100
AcDbLine
 62
7
  6
CONTINUOUS
 10
268.9340106295
 20
29.0761565629
 11
268.9427137831
 21
29.1127400385
  0
LINE
  5
5A2
100
AcDbEntity
  8
0
100
AcDbLine
 62
7
  6
CONTINUOUS
 10
268.9236958175
 20
29.0395862449
 11
268.9340106295
 21
29.0761565629
  0
LINE
  5
5A3
100
AcDbEntity
  8
0
100
AcDbLine
 62
7
  6
CONTINUOUS
 10
254.2628628455
 20
30.3237923441
 11
254.1486821443
 21
29.9924146797
  0
LINE
  5
5A4
100
AcDbEntity
  8
0
100
AcDbLine
 62
7
  6
CONTINUOUS
 10
257.3557889255
 20
28.7676698117
 11
257.2796684579
 21
28.5467513685
  0
LINE
  5
5A5
100
AcDbEntity
  8
0
100
AcDbLine
 62
7
  6
CONTINUOUS
 10
157.2679463407
 20
-31.8129145139
 11
157.0226959687
 21
-32.0951823351
  0
LINE
  5
5A6
100
AcDbEntity
  8
0
100
AcDbLine
 62
7
  6
CONTINUOUS
 10
157.7298027499
 20
-32.9934435783
 11
157.9750531215
 21
-32.7111757571
  0
LINE
  5
5A7
100
AcDbEntity
  8
0
100
AcDbLine
 62
7
  6
CONTINUOUS
 10
100.3458504551
 20
-103.4115074195
 11
100.1006000831
 21
-103.6937752411
  0
LINE
  5
5A8
100
AcDbEntity
  8
0
100
AcDbLine
 62
7
  6
CONTINUOUS
 10
158.8679463407
 20
-37.1971263959
 11
159.1131967123
 21
-36.9148585747
  0
LINE
  5
5A9
100
AcDbEntity
  8
0
100
AcDbLine
 62
7
  6
CONTINUOUS
 10
101.9458504551
 20
-106.1827887035
 11
102.1911008267
 21
-105.9005208823
  0
LINE
  5
5AA
100
AcDbEntity
  8
0
100
AcDbLine
 62
7
  6
CONTINUOUS
 10
-152.1934006749
 20
152.4636589573
 11
-152.2033246401
 21
152.4613675785
  0
LINE
  5
5AB
100
AcDbEntity
  8
0
100
AcDbLine
 62
7
  6
CONTINUOUS
 10
-152.5833631937
 20
153.3695046333
 11
-152.6088910949
 21
153.3640861369
  0
LINE
  5
5AC
100
AcDbEntity
  8
0
100
AcDbLine
 62
7
  6
CONTINUOUS
 10
-52.3254511041
 20
207.2779824909
 11
-51.9427676717
 21
207.3219259013
  0
LINE
  5
5AD
100
AcDbEntity
  8
0
100
AcDbLine
 62
7
  6
CONTINUOUS
 10
268.9544006479
 20
-93.9694839023
 11
268.9499023179
 21
-94.0034043199
  0
LINE
  5
5AE
100
AcDbEntity
  8
0
100
AcDbLine
 62
7
  6
CONTINUOUS
 10
268.9499023179
 20
-94.0034043199
 11
268.9443961739
 21
-94.0373150351
  0
LINE
  5
5AF
100
AcDbEntity
  8
0
100
AcDbLine
 62
7
  6
CONTINUOUS
 10
268.9443961739
 20
-94.0373150351
 11
268.9378752179
 21
-94.0712328927
  0
LINE
  5
5B0
100
AcDbEntity
  8
0
100
AcDbLine
 62
7
  6
CONTINUOUS
 10
268.9117580779
 20
29.0030513261
 11
268.9236958175
 21
29.0395862449
  0
LINE
  5
5B1
100
AcDbEntity
  8
0
100
AcDbLine
 62
7
  6
CONTINUOUS
 10
268.8981857143
 20
28.9665757961
 11
268.9117580779
 21
29.0030513261
  0
LINE
  5
5B2
100
AcDbEntity
  8
0
100
AcDbLine
 62
7
  6
CONTINUOUS
 10
268.8829668419
 20
28.9301854385
 11
268.8981857143
 21
28.9665757961
  0
LINE
  5
5B3
100
AcDbEntity
  8
0
100
AcDbLine
 62
7
  6
CONTINUOUS
 10
268.8660896287
 20
28.8939078513
 11
268.8829668419
 21
28.9301854385
  0
LINE
  5
5B4
100
AcDbEntity
  8
0
100
AcDbLine
 62
7
  6
CONTINUOUS
 10
255.3899116903
 20
28.9171875153
 11
255.4319093931
 21
28.9885882549
  0
LINE
  5
5B5
100
AcDbEntity
  8
0
100
AcDbLine
 62
7
  6
CONTINUOUS
 10
171.3850819643
 20
-78.2855133723
 11
171.7635951815
 21
-77.7749460755
  0
LINE
  5
5B6
100
AcDbEntity
  8
0
100
AcDbLine
 62
7
  6
CONTINUOUS
 10
165.4925675431
 20
-20.8289902815
 11
165.1674084159
 21
-21.1099187007
  0
LINE
  5
5B7
100
AcDbEntity
  8
0
100
AcDbLine
 62
7
  6
CONTINUOUS
 10
166.3364549635
 20
-22.4451227899
 11
166.5532277147
 21
-22.2578371771
  0
LINE
  5
5B8
100
AcDbEntity
  8
0
100
AcDbLine
 62
7
  6
CONTINUOUS
 10
168.1842140283
 20
-22.8869596763
 11
167.9674412771
 21
-23.0742452891
  0
LINE
  5
5B9
100
AcDbEntity
  8
0
100
AcDbLine
 62
7
  6
CONTINUOUS
 10
-152.6088910949
 20
153.3640861369
 11
-152.6337671641
 21
153.3575732061
  0
LINE
  5
5BA
100
AcDbEntity
  8
0
100
AcDbLine
 62
7
  6
CONTINUOUS
 10
-52.6498744529
 20
208.8353146249
 11
-53.2238996017
 21
208.7693995093
  0
LINE
  5
5BB
100
AcDbEntity
  8
0
100
AcDbLine
 62
7
  6
CONTINUOUS
 10
268.9378752179
 20
-94.0712328927
 11
268.9303306059
 21
-94.1051745635
  0
LINE
  5
5BC
100
AcDbEntity
  8
0
100
AcDbLine
 62
7
  6
CONTINUOUS
 10
268.9303306059
 20
-94.1051745635
 11
268.9242153603
 21
-94.1298038499
  0
LINE
  5
5BD
100
AcDbEntity
  8
0
100
AcDbLine
 62
7
  6
CONTINUOUS
 10
260.2276219479
 20
-27.4348998219
 11
260.4805363939
 21
-26.8518023275
  0
LINE
  5
5BE
100
AcDbEntity
  8
0
100
AcDbLine
 62
7
  6
CONTINUOUS
 10
262.3834508399
 20
-27.2215392071
 11
262.1305363939
 21
-27.8046367015
  0
LINE
  5
5BF
100
AcDbEntity
  8
0
100
AcDbLine
 62
7
  6
CONTINUOUS
 10
268.8475425315
 20
28.8577724425
 11
268.8660896287
 21
28.8939078513
  0
LINE
  5
5C0
100
AcDbEntity
  8
0
100
AcDbLine
 62
7
  6
CONTINUOUS
 10
268.8273145287
 20
28.8218104001
 11
268.8475425315
 21
28.8577724425
  0
LINE
  5
5C1
100
AcDbEntity
  8
0
100
AcDbLine
 62
7
  6
CONTINUOUS
 10
268.8101497083
 20
28.7935613981
 11
268.8273145287
 21
28.8218104001
  0
LINE
  5
5C2
100
AcDbEntity
  8
0
100
AcDbLine
 62
7
  6
CONTINUOUS
 10
268.7868872439
 20
28.7579851317
 11
268.8101497083
 21
28.7935613981
  0
LINE
  5
5C3
100
AcDbEntity
  8
0
100
AcDbLine
 62
7
  6
CONTINUOUS
 10
268.7617967443
 20
28.7224847689
 11
268.7868872439
 21
28.7579851317
  0
LINE
  5
5C4
100
AcDbEntity
  8
0
100
AcDbLine
 62
7
  6
CONTINUOUS
 10
173.0350819643
 20
-79.2383477463
 11
172.6565687467
 21
-79.7489150431
  0
LINE
  5
5C5
100
AcDbEntity
  8
0
100
AcDbLine
 62
7
  6
CONTINUOUS
 10
157.2679463407
 20
-77.7025081419
 11
157.0226959687
 21
-77.9847759631
  0
LINE
  5
5C6
100
AcDbEntity
  8
0
100
AcDbLine
 62
7
  6
CONTINUOUS
 10
157.7298027499
 20
-78.8830372063
 11
157.9750531215
 21
-78.6007693851
  0
LINE
  5
5C7
100
AcDbEntity
  8
0
100
AcDbLine
 62
7
  6
CONTINUOUS
 10
158.8679463407
 20
-83.0867200239
 11
159.1131967123
 21
-82.8044522027
  0
LINE
  5
5C8
100
AcDbEntity
  8
0
100
AcDbLine
 62
7
  6
CONTINUOUS
 10
157.2679463407
 20
-90.7671611319
 11
157.0226959687
 21
-91.0494289535
  0
LINE
  5
5C9
100
AcDbEntity
  8
0
100
AcDbLine
 62
7
  6
CONTINUOUS
 10
157.9584512687
 20
-92.1890530011
 11
158.1500531215
 21
-91.9685312655
  0
LINE
  5
5CA
100
AcDbEntity
  8
0
100
AcDbLine
 62
7
  6
CONTINUOUS
 10
254.5880219723
 20
30.6047207633
 11
254.2628628455
 21
30.3237923441
  0
LINE
  5
5CB
100
AcDbEntity
  8
0
100
AcDbLine
 62
7
  6
CONTINUOUS
 10
268.9242153603
 20
-94.1298038499
 11
268.9149889855
 21
-94.1634014603
  0
LINE
  5
5CC
100
AcDbEntity
  8
0
100
AcDbLine
 62
7
  6
CONTINUOUS
 10
268.9149889855
 20
-94.1634014603
 11
268.9046824283
 21
-94.1971514903
  0
LINE
  5
5CD
100
AcDbEntity
  8
0
100
AcDbLine
 62
7
  6
CONTINUOUS
 10
268.9046824283
 20
-94.1971514903
 11
268.8932993459
 21
-94.2309978955
  0
LINE
  5
5CE
100
AcDbEntity
  8
0
100
AcDbLine
 62
7
  6
CONTINUOUS
 10
268.7348617927
 20
28.6870982545
 11
268.7617967443
 21
28.7224847689
  0
LINE
  5
5CF
100
AcDbEntity
  8
0
100
AcDbLine
 62
7
  6
CONTINUOUS
 10
268.7060690735
 20
28.6518670705
 11
268.7348617927
 21
28.6870982545
  0
LINE
  5
5D0
100
AcDbEntity
  8
0
100
AcDbLine
 62
7
  6
CONTINUOUS
 10
158.8679463407
 20
-96.1513730143
 11
159.1131967123
 21
-95.8691051927
  0
LINE
  5
5D1
100
AcDbEntity
  8
0
100
AcDbLine
 62
7
  6
CONTINUOUS
 10
268.6754088659
 20
28.6168361033
 11
268.7060690735
 21
28.6518670705
  0
LINE
  5
5D2
100
AcDbEntity
  8
0
100
AcDbLine
 62
7
  6
CONTINUOUS
 10
268.6428754987
 20
28.5820534581
 11
268.6754088659
 21
28.6168361033
  0
LINE
  5
5D3
100
AcDbEntity
  8
0
100
AcDbLine
 62
7
  6
CONTINUOUS
 10
268.6084677619
 20
28.5475702341
 11
268.6428754987
 21
28.5820534581
  0
LINE
  5
5D4
100
AcDbEntity
  8
0
100
AcDbLine
 62
7
  6
CONTINUOUS
 10
268.5721892683
 20
28.5134402513
 11
268.6084677619
 21
28.5475702341
  0
LINE
  5
5D5
100
AcDbEntity
  8
0
100
AcDbLine
 62
7
  6
CONTINUOUS
 10
268.5340487535
 20
28.4797197385
 11
268.5721892683
 21
28.5134402513
  0
LINE
  5
5D6
100
AcDbEntity
  8
0
100
AcDbLine
 62
7
  6
CONTINUOUS
 10
255.4319093931
 20
28.9885882549
 11
255.6486821443
 21
29.1758738677
  0
LINE
  5
5D7
100
AcDbEntity
  8
0
100
AcDbLine
 62
7
  6
CONTINUOUS
 10
257.2796684579
 20
28.5467513685
 11
257.0628957067
 21
28.3594657561
  0
LINE
  5
5D8
100
AcDbEntity
  8
0
100
AcDbLine
 62
7
  6
CONTINUOUS
 10
268.4940603075
 20
28.4464669833
 11
268.5340487535
 21
28.4797197385
  0
LINE
  5
5D9
100
AcDbEntity
  8
0
100
AcDbLine
 62
7
  6
CONTINUOUS
 10
268.4522435391
 20
28.4137419501
 11
268.4940603075
 21
28.4464669833
  0
LINE
  5
5DA
100
AcDbEntity
  8
0
100
AcDbLine
 62
7
  6
CONTINUOUS
 10
268.4086236559
 20
28.3816058673
 11
268.4522435391
 21
28.4137419501
  0
LINE
  5
5DB
100
AcDbEntity
  8
0
100
AcDbLine
 62
7
  6
CONTINUOUS
 10
268.3766042055
 20
28.3592003557
 11
268.4086236559
 21
28.3816058673
  0
LINE
  5
5DC
100
AcDbEntity
  8
0
100
AcDbLine
 62
7
  6
CONTINUOUS
 10
155.0881286207
 20
-25.9142983907
 11
154.3810218395
 21
-26.3225024463
  0
LINE
  5
5DD
100
AcDbEntity
  8
0
100
AcDbLine
 62
7
  6
CONTINUOUS
 10
155.3809405719
 20
-26.4215185475
 11
156.0880473531
 21
-26.0133144915
  0
LINE
  5
5DE
100
AcDbEntity
  8
0
100
AcDbLine
 62
8
  6
CONTINUOUS
 10
153.8253056535
 20
-27.3198594107
 11
153.9667270095
 21
-27.2382185995
  0
LINE
  5
5DF
100
AcDbEntity
  8
0
100
AcDbLine
 62
7
  6
CONTINUOUS
 10
153.8253056535
 20
-27.4831675731
 11
153.9667270095
 21
-27.4015267619
  0
LINE
  5
5E0
100
AcDbEntity
  8
0
100
AcDbLine
 62
7
  6
CONTINUOUS
 10
268.3766042055
 20
32.4415063149
 11
267.6694974243
 21
32.0333022593
  0
LINE
  5
5E1
100
AcDbEntity
  8
0
100
AcDbLine
 62
7
  6
CONTINUOUS
 10
160.8963734651
 20
-29.6055101835
 11
161.6034802463
 21
-29.1973061275
  0
LINE
  5
5E2
100
AcDbEntity
  8
0
100
AcDbLine
 62
7
  6
CONTINUOUS
 10
156.9365754907
 20
-32.5454286663
 11
157.6436822719
 21
-32.1372246107
  0
LINE
  5
5E3
100
AcDbEntity
  8
0
100
AcDbLine
 62
7
  6
CONTINUOUS
 10
166.5532277147
 20
-27.1561531479
 11
265.5481770807
 21
29.9924146797
  0
LINE
  5
5E4
100
AcDbEntity
  8
0
100
AcDbLine
 62
8
  6
CONTINUOUS
 10
163.5176938087
 20
-28.9086622715
 11
163.7248005899
 21
-28.7891020715
  0
LINE
  5
5E5
100
AcDbEntity
  8
0
100
AcDbLine
 62
8
  6
CONTINUOUS
 10
266.9623906431
 20
30.8086900913
 11
267.1694974243
 21
30.9282502913
  0
LINE
  5
5E6
100
AcDbEntity
  8
0
100
AcDbLine
 62
7
  6
CONTINUOUS
 10
166.5532277147
 20
-27.9726939599
 11
265.5481770807
 21
29.1758738677
  0
LINE
  5
5E7
100
AcDbEntity
  8
0
100
AcDbLine
 62
7
  6
CONTINUOUS
 10
157.6436822719
 20
-33.4436899095
 11
158.3507890531
 21
-33.0354858535
  0
LINE
  5
5E8
100
AcDbEntity
  8
0
100
AcDbLine
 62
7
  6
CONTINUOUS
 10
268.3766042055
 20
30.2311758461
 11
267.9558789699
 21
29.9882963373
  0
LINE
  5
5E9
100
AcDbEntity
  8
0
100
AcDbLine
 62
7
  6
CONTINUOUS
 10
162.8019585551
 20
-30.7157697959
 11
163.0176938087
 21
-30.5912284847
  0
LINE
  5
5EA
100
AcDbEntity
  8
0
100
AcDbLine
 62
7
  6
CONTINUOUS
 10
162.3105870275
 20
-32.0549999191
 11
163.0176938087
 21
-31.6467958631
  0
LINE
  5
5EB
100
AcDbEntity
  8
0
100
AcDbLine
 62
7
  6
CONTINUOUS
 10
156.9365754907
 20
-35.1583592647
 11
157.6436822719
 21
-34.7501552087
  0
LINE
  5
5EC
100
AcDbEntity
  8
0
100
AcDbLine
 62
7
  6
CONTINUOUS
 10
268.3766042055
 20
28.3592003557
 11
165.1390141523
 21
-31.2385918071
  0
LINE
  5
5ED
100
AcDbEntity
  8
0
100
AcDbLine
 62
7
  6
CONTINUOUS
 10
257.0628957067
 20
28.3594657561
 11
256.9692353819
 21
28.3117647421
  0
LINE
  5
5EE
100
AcDbEntity
  8
0
100
AcDbLine
 62
7
  6
CONTINUOUS
 10
167.9674412771
 20
-23.0742452891
 11
167.8737807835
 21
-23.1219463783
  0
LINE
  5
5EF
100
AcDbEntity
  8
0
100
AcDbLine
 62
7
  6
CONTINUOUS
 10
255.0746569959
 20
30.7924311321
 11
254.5880219723
 21
30.6047207633
  0
LINE
  5
5F0
100
AcDbEntity
  8
0
100
AcDbLine
 62
7
  6
CONTINUOUS
 10
255.6486821443
 20
29.1758738677
 11
255.9731054931
 21
29.3010141133
  0
LINE
  5
5F1
100
AcDbEntity
  8
0
100
AcDbLine
 62
7
  6
CONTINUOUS
 10
268.8932993459
 20
-94.2309978955
 11
268.8808466599
 21
-94.2648825183
  0
LINE
  5
5F2
100
AcDbEntity
  8
0
100
AcDbLine
 62
7
  6
CONTINUOUS
 10
268.8808466599
 20
-94.2648825183
 11
268.8673346127
 21
-94.2987455043
  0
LINE
  5
5F3
100
AcDbEntity
  8
0
100
AcDbLine
 62
7
  6
CONTINUOUS
 10
260.4805363939
 20
-26.8518023275
 11
260.8590496111
 21
-26.3412350307
  0
LINE
  5
5F4
100
AcDbEntity
  8
0
100
AcDbLine
 62
7
  6
CONTINUOUS
 10
262.1305363939
 20
-27.8046367015
 11
261.7520231763
 21
-28.3152039983
  0
LINE
  5
5F5
100
AcDbEntity
  8
0
100
AcDbLine
 62
7
  6
CONTINUOUS
 10
270.4979245491
 20
28.7672717117
 11
269.7908177679
 21
28.3590676557
  0
LINE
  5
5F6
100
AcDbEntity
  8
0
100
AcDbLine
 62
7
  6
CONTINUOUS
 10
165.9792025663
 20
-20.6412799127
 11
165.4925675431
 21
-20.8289902815
  0
LINE
  5
5F7
100
AcDbEntity
  8
0
100
AcDbLine
 62
7
  6
CONTINUOUS
 10
166.5532277147
 20
-22.2578371771
 11
166.8776510635
 21
-22.1326969315
  0
LINE
  5
5F8
100
AcDbEntity
  8
0
100
AcDbLine
 62
7
  6
CONTINUOUS
 10
268.8673346127
 20
-94.2987455043
 11
268.8527767715
 21
-94.3325257519
  0
LINE
  5
5F9
100
AcDbEntity
  8
0
100
AcDbLine
 62
7
  6
CONTINUOUS
 10
268.8527767715
 20
-94.3325257519
 11
268.8371899807
 21
-94.3661613899
  0
LINE
  5
5FA
100
AcDbEntity
  8
0
100
AcDbLine
 62
7
  6
CONTINUOUS
 10
268.8371899807
 20
-94.3661613899
 11
268.8205942611
 21
-94.3995902715
  0
LINE
  5
5FB
100
AcDbEntity
  8
0
100
AcDbLine
 62
7
  6
CONTINUOUS
 10
171.7635951815
 20
-77.7749460755
 11
172.2100819643
 21
-77.4146382199
  0
LINE
  5
5FC
100
AcDbEntity
  8
0
100
AcDbLine
 62
7
  6
CONTINUOUS
 10
172.6565687467
 20
-79.7489150431
 11
172.2100819643
 21
-80.1092228991
  0
LINE
  5
5FD
100
AcDbEntity
  8
0
100
AcDbLine
 62
7
  6
CONTINUOUS
 10
165.0438605287
 20
-31.2726343123
 11
165.1390141523
 21
-31.2385918071
  0
LINE
  5
5FE
100
AcDbEntity
  8
0
100
AcDbLine
 62
7
  6
CONTINUOUS
 10
164.9960714919
 20
-31.2894402807
 11
165.0438605287
 21
-31.2726343123
  0
LINE
  5
5FF
100
AcDbEntity
  8
0
100
AcDbLine
 62
7
  6
CONTINUOUS
 10
164.9480277859
 20
-31.3059879083
 11
164.9960714919
 21
-31.2894402807
  0
LINE
  5
600
100
AcDbEntity
  8
0
100
AcDbLine
 62
7
  6
CONTINUOUS
 10
164.4015869847
 20
-30.8407484159
 11
164.4319073711
 21
-30.8303877515
  0
LINE
  5
601
100
AcDbEntity
  8
0
100
AcDbLine
 62
7
  6
CONTINUOUS
 10
164.8996445199
 20
-31.3221910815
 11
164.9480277859
 21
-31.3059879083
  0
LINE
  5
602
100
AcDbEntity
  8
0
100
AcDbLine
 62
7
  6
CONTINUOUS
 10
164.8508368043
 20
-31.3379636871
 11
164.8996445199
 21
-31.3221910815
  0
LINE
  5
603
100
AcDbEntity
  8
0
100
AcDbLine
 62
7
  6
CONTINUOUS
 10
164.8015197491
 20
-31.3532196111
 11
164.8508368043
 21
-31.3379636871
  0
LINE
  5
604
100
AcDbEntity
  8
0
100
AcDbLine
 62
7
  6
CONTINUOUS
 10
164.3694802363
 20
-30.8504891491
 11
164.4015869847
 21
-30.8407484159
  0
LINE
  5
605
100
AcDbEntity
  8
0
100
AcDbLine
 62
7
  6
CONTINUOUS
 10
164.7516084647
 20
-31.3678727399
 11
164.8015197491
 21
-31.3532196111
  0
LINE
  5
606
100
AcDbEntity
  8
0
100
AcDbLine
 62
7
  6
CONTINUOUS
 10
268.8205942611
 20
-94.3995902715
 11
268.8103102271
 21
-94.4192447371
  0
LINE
  5
607
100
AcDbEntity
  8
0
100
AcDbLine
 62
7
  6
CONTINUOUS
 10
268.8103102271
 20
-94.4192447371
 11
268.7918243991
 21
-94.4528435527
  0
LINE
  5
608
100
AcDbEntity
  8
0
100
AcDbLine
 62
7
  6
CONTINUOUS
 10
268.7918243991
 20
-94.4528435527
 11
268.7723002779
 21
-94.4862516171
  0
LINE
  5
609
100
AcDbEntity
  8
0
100
AcDbLine
 62
7
  6
CONTINUOUS
 10
260.8590496111
 20
-26.3412350307
 11
261.3055363939
 21
-25.9809271751
  0
LINE
  5
60A
100
AcDbEntity
  8
0
100
AcDbLine
 62
7
  6
CONTINUOUS
 10
261.7520231763
 20
-28.3152039983
 11
261.3055363939
 21
-28.6755118543
  0
LINE
  5
60B
100
AcDbEntity
  8
0
100
AcDbLine
 62
7
  6
CONTINUOUS
 10
100.7215863863
 20
-103.7358175163
 11
100.0144796051
 21
-104.1440215723
  0
LINE
  5
60C
100
AcDbEntity
  8
0
100
AcDbLine
 62
8
  6
CONTINUOUS
 10
100.7215863863
 20
-103.7358175163
 11
101.1460343347
 21
-103.4907889311
  0
LINE
  5
60D
100
AcDbEntity
  8
0
100
AcDbLine
 62
7
  6
CONTINUOUS
 10
156.9365754907
 20
-78.4350222943
 11
157.6436822719
 21
-78.0268182387
  0
LINE
  5
60E
100
AcDbEntity
  8
0
100
AcDbLine
 62
7
  6
CONTINUOUS
 10
157.6436822719
 20
-79.3332835375
 11
158.3507890531
 21
-78.9250794815
  0
LINE
  5
60F
100
AcDbEntity
  8
0
100
AcDbLine
 62
7
  6
CONTINUOUS
 10
156.9365754907
 20
-81.0479528923
 11
157.6436822719
 21
-80.6397488367
  0
LINE
  5
610
100
AcDbEntity
  8
0
100
AcDbLine
 62
7
  6
CONTINUOUS
 10
268.7723002779
 20
-94.4862516171
 11
268.7517266203
 21
-94.5194700859
  0
LINE
  5
611
100
AcDbEntity
  8
0
100
AcDbLine
 62
7
  6
CONTINUOUS
 10
268.7517266203
 20
-94.5194700859
 11
268.7300914695
 21
-94.5524995295
  0
LINE
  5
612
100
AcDbEntity
  8
0
100
AcDbLine
 62
7
  6
CONTINUOUS
 10
268.7300914695
 20
-94.5524995295
 11
268.7073822003
 21
-94.5853399155
  0
LINE
  5
613
100
AcDbEntity
  8
0
100
AcDbLine
 62
7
  6
CONTINUOUS
 10
268.7073822003
 20
-94.5853399155
 11
268.6835855639
 21
-94.6179905987
  0
LINE
  5
614
100
AcDbEntity
  8
0
100
AcDbLine
 62
7
  6
CONTINUOUS
 10
162.3105870275
 20
-86.7632343155
 11
163.0176938087
 21
-86.3550302595
  0
LINE
  5
615
100
AcDbEntity
  8
0
100
AcDbLine
 62
7
  6
CONTINUOUS
 10
161.6891447831
 20
-88.1367687347
 11
162.3962515643
 21
-87.7285646791
  0
LINE
  5
616
100
AcDbEntity
  8
0
100
AcDbLine
 62
7
  6
CONTINUOUS
 10
161.6034802463
 20
-88.3965149895
 11
160.8963734651
 21
-88.8047190451
  0
LINE
  5
617
100
AcDbEntity
  8
0
100
AcDbLine
 62
7
  6
CONTINUOUS
 10
157.6436822719
 20
-91.0914712287
 11
156.9365754907
 21
-91.4996752847
  0
LINE
  5
618
100
AcDbEntity
  8
0
100
AcDbLine
 62
7
  6
CONTINUOUS
 10
157.8911696451
 20
-92.5408079475
 11
158.5982764263
 21
-92.1326038915
  0
LINE
  5
619
100
AcDbEntity
  8
0
100
AcDbLine
 62
7
  6
CONTINUOUS
 10
157.6436822719
 20
-93.7044018267
 11
156.9365754907
 21
-94.1126058827
  0
LINE
  5
61A
100
AcDbEntity
  8
0
100
AcDbLine
 62
7
  6
CONTINUOUS
 10
163.0176938087
 20
-90.8460047251
 11
162.3105870275
 21
-91.2542087807
  0
LINE
  5
61B
100
AcDbEntity
  8
0
100
AcDbLine
 62
7
  6
CONTINUOUS
 10
260.5984296127
 20
-28.2673077983
 11
260.2066273803
 21
-28.4152511923
  0
LINE
  5
61C
100
AcDbEntity
  8
0
100
AcDbLine
 62
7
  6
CONTINUOUS
 10
261.3055363939
 20
-25.9809271751
 11
261.7520231763
 21
-25.8257323643
  0
LINE
  5
61D
100
AcDbEntity
  8
0
100
AcDbLine
 62
7
  6
CONTINUOUS
 10
261.3055363939
 20
-28.6755118543
 11
260.8590496111
 21
-28.8307066647
  0
LINE
  5
61E
100
AcDbEntity
  8
0
100
AcDbLine
 62
7
  6
CONTINUOUS
 10
268.6835855639
 20
-94.6179905987
 11
268.6586877335
 21
-94.6504503099
  0
LINE
  5
61F
100
AcDbEntity
  8
0
100
AcDbLine
 62
7
  6
CONTINUOUS
 10
268.6586877335
 20
-94.6504503099
 11
268.6326743519
 21
-94.6827171463
  0
LINE
  5
620
100
AcDbEntity
  8
0
100
AcDbLine
 62
7
  6
CONTINUOUS
 10
268.6326743519
 20
-94.6827171463
 11
268.6055305799
 21
-94.7147885671
  0
LINE
  5
621
100
AcDbEntity
  8
0
100
AcDbLine
 62
7
  6
CONTINUOUS
 10
268.6055305799
 20
-94.7147885671
 11
268.5772411459
 21
-94.7466613887
  0
LINE
  5
622
100
AcDbEntity
  8
0
100
AcDbLine
 62
7
  6
CONTINUOUS
 10
268.5772411459
 20
-94.7466613887
 11
268.5477903947
 21
-94.7783317819
  0
LINE
  5
623
100
AcDbEntity
  8
0
100
AcDbLine
 62
7
  6
CONTINUOUS
 10
268.5477903947
 20
-94.7783317819
 11
268.5171623379
 21
-94.8097952723
  0
LINE
  5
624
100
AcDbEntity
  8
0
100
AcDbLine
 62
7
  6
CONTINUOUS
 10
268.5171623379
 20
-94.8097952723
 11
268.4853407043
 21
-94.8410467415
  0
LINE
  5
625
100
AcDbEntity
  8
0
100
AcDbLine
 62
7
  6
CONTINUOUS
 10
268.4853407043
 20
-94.8410467415
 11
268.4523089903
 21
-94.8720804315
  0
LINE
  5
626
100
AcDbEntity
  8
0
100
AcDbLine
 62
7
  6
CONTINUOUS
 10
268.4523089903
 20
-94.8720804315
 11
268.4180505095
 21
-94.9028899483
  0
LINE
  5
627
100
AcDbEntity
  8
0
100
AcDbLine
 62
7
  6
CONTINUOUS
 10
268.4180505095
 20
-94.9028899483
 11
268.3825484447
 21
-94.9334682707
  0
LINE
  5
628
100
AcDbEntity
  8
0
100
AcDbLine
 62
7
  6
CONTINUOUS
 10
268.3825484447
 20
-94.9334682707
 11
268.3766042055
 21
-94.9384622391
  0
LINE
  5
629
100
AcDbEntity
  8
0
100
AcDbLine
 62
7
  6
CONTINUOUS
 10
163.0176938087
 20
-154.1279176459
 11
162.3105870275
 21
-154.5361217019
  0
LINE
  5
62A
100
AcDbEntity
  8
0
100
AcDbLine
 62
7
  6
CONTINUOUS
 10
161.8962921979
 20
-155.4518113151
 11
162.6033989791
 21
-155.0436072591
  0
LINE
  5
62B
100
AcDbEntity
  8
0
100
AcDbLine
 62
7
  6
CONTINUOUS
 10
270.4979245491
 20
-92.8973092595
 11
269.7908177679
 21
-93.3055133151
  0
LINE
  5
62C
100
AcDbEntity
  8
0
100
AcDbLine
 62
7
  6
CONTINUOUS
 10
165.1390141523
 20
-154.5362544019
 11
268.3766042055
 21
-94.9384622391
  0
LINE
  5
62D
100
AcDbEntity
  8
0
100
AcDbLine
 62
7
  6
CONTINUOUS
 10
269.1693755235
 20
-94.6790477347
 11
269.8764823047
 21
-94.2708436787
  0
LINE
  5
62E
100
AcDbEntity
  8
0
100
AcDbLine
 62
8
  6
CONTINUOUS
 10
268.7301575963
 20
-95.1429623671
 11
268.3138579183
 21
-95.3832870559
  0
LINE
  5
62F
100
AcDbEntity
  8
0
100
AcDbLine
 62
7
  6
CONTINUOUS
 10
171.5029751831
 20
-79.7010188431
 11
171.1111729507
 21
-79.8489622371
  0
LINE
  5
630
100
AcDbEntity
  8
0
100
AcDbLine
 62
7
  6
CONTINUOUS
 10
172.2100819643
 20
-77.4146382199
 11
172.6565687467
 21
-77.2594434091
  0
LINE
  5
631
100
AcDbEntity
  8
0
100
AcDbLine
 62
7
  6
CONTINUOUS
 10
172.2100819643
 20
-80.1092228991
 11
171.7635951815
 21
-80.2644177095
  0
ARC
  5
632
100
AcDbEntity
  8
0
100
AcDbCircle
 62
7
  6
CONTINUOUS
 10
-151.4028187413
 20
28.4790170509
 40
3.0736096152
100
AcDbArc
 50
182.6054784857
 51
237.39452166
  0
ARC
  5
633
100
AcDbEntity
  8
0
100
AcDbCircle
 62
7
  6
CONTINUOUS
 10
6.7992141895
 20
-47.0061864787
 40
2.6188614644
100
AcDbArc
 50
193.3888567939
 51
226.6057666734
  0
ARC
  5
634
100
AcDbEntity
  8
0
100
AcDbCircle
 62
7
  6
CONTINUOUS
 10
-90.4279682237
 20
9.1218712093
 40
2.6188614644
100
AcDbArc
 50
193.3888567938
 51
226.6057666735
  0
ARC
  5
635
100
AcDbEntity
  8
0
100
AcDbCircle
 62
7
  6
CONTINUOUS
 10
5.7085595607
 20
-47.6137671915
 40
2.2141637372
100
AcDbArc
 50
179.8445476447
 51
251.0578433853
  0
ARC
  5
636
100
AcDbEntity
  8
0
100
AcDbCircle
 62
7
  6
CONTINUOUS
 10
-91.5186228525
 20
8.5142904965
 40
2.2141637372
100
AcDbArc
 50
179.8445476447
 51
251.0578433853
  0
ARC
  5
637
100
AcDbEntity
  8
0
100
AcDbCircle
 62
7
  6
CONTINUOUS
 10
-47.7001269849
 20
206.0442763033
 40
7.6851095396
100
AcDbArc
 50
62.6096722366
 51
117.3903277634
  0
ARC
  5
638
100
AcDbEntity
  8
0
100
AcDbCircle
 62
7
  6
CONTINUOUS
 10
-149.8676026397
 20
96.3217652897
 40
4.6104144228
100
AcDbArc
 50
182.6054784856
 51
237.39452166
  0
ARC
  5
639
100
AcDbEntity
  8
0
100
AcDbCircle
 62
7
  6
CONTINUOUS
 10
-142.5951148197
 20
145.5990828961
 40
3.3966054084
100
AcDbArc
 50
138.0280552504
 51
177.3071707515
  0
ARC
  5
63A
100
AcDbEntity
  8
0
100
AcDbCircle
 62
7
  6
CONTINUOUS
 10
-148.5038401813
 20
146.2632570205
 40
3.0870494256
100
AcDbArc
 50
18.1445295695
 51
57.3089562681
  0
ARC
  5
63B
100
AcDbEntity
  8
0
100
AcDbCircle
 62
7
  6
CONTINUOUS
 10
-149.1998231285
 20
145.8638875649
 40
3.0736096152
100
AcDbArc
 50
2.6054784857
 51
57.39452166
  0
ARC
  5
63C
100
AcDbEntity
  8
0
100
AcDbCircle
 62
7
  6
CONTINUOUS
 10
-149.1927910385
 20
153.1112346933
 40
2.5146963924
100
AcDbArc
 50
185.6947992512
 51
245.6253417064
  0
ARC
  5
63D
100
AcDbEntity
  8
0
100
AcDbCircle
 62
7
  6
CONTINUOUS
 10
-147.4366443589
 20
145.0731505361
 40
2.5145727504
100
AcDbArc
 50
183.0014931991
 51
228.60977274
  0
ARC
  5
63E
100
AcDbEntity
  8
0
100
AcDbCircle
 62
7
  6
CONTINUOUS
 10
-147.4366443589
 20
99.1835569081
 40
2.5145727504
100
AcDbArc
 50
183.0014931991
 51
228.60977274
  0
ARC
  5
63F
100
AcDbEntity
  8
0
100
AcDbCircle
 62
7
  6
CONTINUOUS
 10
-140.3311153201
 20
157.1540244437
 40
2.305532862
100
AcDbArc
 50
242.6096722366
 51
297.3903277634
  0
ARC
  5
640
100
AcDbEntity
  8
0
100
AcDbCircle
 62
7
  6
CONTINUOUS
 10
-51.2356608909
 20
208.5877354889
 40
2.305532862
100
AcDbArc
 50
242.6096722366
 51
297.3903277634
  0
ARC
  5
641
100
AcDbEntity
  8
0
100
AcDbCircle
 62
7
  6
CONTINUOUS
 10
-148.4392146957
 20
144.5391805841
 40
2.2156674908
100
AcDbArc
 50
180.1526252261
 51
252.6690973185
  0
ARC
  5
642
100
AcDbEntity
  8
0
100
AcDbCircle
 62
7
  6
CONTINUOUS
 10
-148.4392146957
 20
98.6495869561
 40
2.2156674908
100
AcDbArc
 50
180.1526252261
 51
252.6690973185
  0
ARC
  5
643
100
AcDbEntity
  8
0
100
AcDbCircle
 62
7
  6
CONTINUOUS
 10
-148.4407187381
 20
143.2208058057
 40
2.2141637372
100
AcDbArc
 50
179.8445476447
 51
251.0578433855
  0
ARC
  5
644
100
AcDbEntity
  8
0
100
AcDbCircle
 62
7
  6
CONTINUOUS
 10
-148.4407187381
 20
97.3312121777
 40
2.2141637372
100
AcDbArc
 50
179.8445476447
 51
251.057843385
  0
ARC
  5
645
100
AcDbEntity
  8
0
100
AcDbCircle
 62
7
  6
CONTINUOUS
 10
-148.4407187381
 20
84.2665591877
 40
2.2141637372
100
AcDbArc
 50
179.8445476447
 51
251.0578433854
  0
ARC
  5
646
100
AcDbEntity
  8
0
100
AcDbCircle
 62
7
  6
CONTINUOUS
 10
-149.4559751229
 20
153.6782436209
 40
2.183076584
100
AcDbArc
 50
110.7834207995
 51
249.2165792005
  0
ARC
  5
647
100
AcDbEntity
  8
0
100
AcDbCircle
 62
7
  6
CONTINUOUS
 10
9.5567514739
 20
63.0412401753
 40
2.1253817028
100
AcDbArc
 50
50.8597552375
 51
119.3545704572
  0
ARC
  5
648
100
AcDbEntity
  8
0
100
AcDbCircle
 62
7
  6
CONTINUOUS
 10
-141.7297715153
 20
154.5164871141
 40
2.0943457192
100
AcDbArc
 50
60.0653706233
 51
129.7203036825
  0
ARC
  5
649
100
AcDbEntity
  8
0
100
AcDbCircle
 62
7
  6
CONTINUOUS
 10
-52.6343170857
 20
205.9501981589
 40
2.0943457192
100
AcDbArc
 50
60.0653706233
 51
129.7203036821
  0
ARC
  5
64A
100
AcDbEntity
  8
0
100
AcDbCircle
 62
7
  6
CONTINUOUS
 10
-147.7335396277
 20
85.9495371593
 40
1.9695506228
100
AcDbArc
 50
183.0610118494
 51
226.0996052927
  0
ARC
  5
64B
100
AcDbEntity
  8
0
100
AcDbCircle
 62
7
  6
CONTINUOUS
 10
8.8692893307
 20
62.0837687601
 40
1.5520085252
100
AcDbArc
 50
80.7138039722
 51
117.1355068787
  0
ARC
  5
64C
100
AcDbEntity
  8
0
100
AcDbCircle
 62
7
  6
CONTINUOUS
 10
-51.9436414925
 20
204.9551883289
 40
1.5520085252
100
AcDbArc
 50
62.864493121
 51
99.286196018
  0
ARC
  5
64D
100
AcDbEntity
  8
0
100
AcDbCircle
 62
7
  6
CONTINUOUS
 10
-141.0390959213
 20
153.5214772857
 40
1.5520085236
100
AcDbArc
 50
62.8644931126
 51
99.2861955959
  0
ARC
  5
64E
100
AcDbEntity
  8
0
100
AcDbCircle
 62
7
  6
CONTINUOUS
 10
-46.4575668057
 20
212.4574631521
 40
1.5089317076
100
AcDbArc
 50
54.3824225248
 51
114.3071190461
  0
ARC
  5
64F
100
AcDbEntity
  8
0
100
AcDbCircle
 62
7
  6
CONTINUOUS
 10
-152.9377707101
 20
151.2275320389
 40
1.005954472
100
AcDbArc
 50
54.3824225248
 51
114.3071190461
  0
ARC
  5
650
100
AcDbEntity
  8
0
100
AcDbCircle
 62
7
  6
CONTINUOUS
 10
-153.6111022089
 20
150.9602715229
 40
0.8734183948
100
AcDbArc
 50
50.7967147643
 51
189.2140369905
  0
ARC
  5
651
100
AcDbEntity
  8
0
100
AcDbCircle
 62
7
  6
CONTINUOUS
 10
-153.6111022089
 20
91.7610626613
 40
0.8734183948
100
AcDbArc
 50
50.7967147643
 51
189.2140369905
  0
ARC
  5
652
100
AcDbEntity
  8
0
100
AcDbCircle
 62
7
  6
CONTINUOUS
 10
-139.5028456885
 20
155.7192639005
 40
0.6549229752
100
AcDbArc
 50
290.7834207995
 51
69.2165792005
  0
ARC
  5
653
100
AcDbEntity
  8
0
100
AcDbCircle
 62
7
  6
CONTINUOUS
 10
-50.4073912593
 20
207.1529749453
 40
0.6549229752
100
AcDbArc
 50
290.7834207995
 51
69.2165792005
  0
ARC
  5
654
100
AcDbEntity
  8
0
100
AcDbCircle
 62
7
  6
CONTINUOUS
 10
159.2401548247
 20
-91.3939304855
 40
3.0736096152
100
AcDbArc
 50
2.6054784856
 51
57.39452166
  0
ARC
  5
655
100
AcDbEntity
  8
0
100
AcDbCircle
 62
7
  6
CONTINUOUS
 10
159.9472616059
 20
-90.9857264295
 40
3.0736096152
100
AcDbArc
 50
2.6054784857
 51
57.39452166
  0
ARC
  5
656
100
AcDbEntity
  8
0
100
AcDbCircle
 62
7
  6
CONTINUOUS
 10
169.3058064195
 20
-77.0853279747
 40
2.6756700856
100
AcDbArc
 50
311.4758474397
 51
348.529529093
  0
ARC
  5
657
100
AcDbEntity
  8
0
100
AcDbCircle
 62
7
  6
CONTINUOUS
 10
104.0263966027
 20
-103.1342441663
 40
2.6188614644
100
AcDbArc
 50
193.3888567939
 51
226.6057666734
  0
ARC
  5
658
100
AcDbEntity
  8
0
100
AcDbCircle
 62
7
  6
CONTINUOUS
 10
160.8619122383
 20
-78.7934114691
 40
2.5145727504
100
AcDbArc
 50
183.0014931991
 51
228.60977274
  0
ARC
  5
659
100
AcDbEntity
  8
0
100
AcDbCircle
 62
7
  6
CONTINUOUS
 10
170.3344692787
 20
-77.7083305827
 40
2.3100243616
100
AcDbArc
 50
300.3872207907
 51
11.0217895705
  0
ARC
  5
65A
100
AcDbEntity
  8
0
100
AcDbCircle
 62
7
  6
CONTINUOUS
 10
170.3955572603
 20
-77.6903218587
 40
2.2741666824
100
AcDbArc
 50
288.3409903058
 51
0.2552695434
  0
ARC
  5
65B
100
AcDbEntity
  8
0
100
AcDbCircle
 62
7
  6
CONTINUOUS
 10
159.8593419015
 20
-79.3273814215
 40
2.2156674908
100
AcDbArc
 50
180.1526252261
 51
252.6690973185
  0
ARC
  5
65C
100
AcDbEntity
  8
0
100
AcDbCircle
 62
7
  6
CONTINUOUS
 10
102.9357419739
 20
-103.7418248791
 40
2.2141637372
100
AcDbArc
 50
179.8445476447
 51
251.0578433852
  0
ARC
  5
65D
100
AcDbEntity
  8
0
100
AcDbCircle
 62
7
  6
CONTINUOUS
 10
159.8578378595
 20
-80.6457561995
 40
2.2141637372
100
AcDbArc
 50
179.8445476447
 51
251.0578433852
  0
ARC
  5
65E
100
AcDbEntity
  8
0
100
AcDbCircle
 62
7
  6
CONTINUOUS
 10
159.8578378595
 20
-93.7104091899
 40
2.2141637372
100
AcDbArc
 50
179.8445476447
 51
251.0578433853
  0
ARC
  5
65F
100
AcDbEntity
  8
0
100
AcDbCircle
 62
7
  6
CONTINUOUS
 10
160.5650169695
 20
-92.0274312183
 40
1.9695506228
100
AcDbArc
 50
183.0610118494
 51
226.0996052926
  0
ARC
  5
660
100
AcDbEntity
  8
0
100
AcDbCircle
 62
7
  6
CONTINUOUS
 10
161.5906371407
 20
-86.5367223451
 40
1.4385766396
100
AcDbArc
 50
304.0563508414
 51
7.2558295519
  0
ARC
  5
661
100
AcDbEntity
  8
0
100
AcDbCircle
 62
7
  6
CONTINUOUS
 10
162.0376900039
 20
-154.2360911207
 40
0.98595586
100
AcDbArc
 50
305.0133328805
 51
6.2988475129
  0
ARC
  5
662
100
AcDbEntity
  8
0
100
AcDbCircle
 62
7
  6
CONTINUOUS
 10
164.2768654175
 20
-154.6761087959
 40
0.8734183948
100
AcDbArc
 50
230.7967147643
 51
9.2140369905
  0
ARC
  5
663
100
AcDbEntity
  8
0
100
AcDbCircle
 62
7
  6
CONTINUOUS
 10
161.4484382927
 20
-154.6759760959
 40
0.8734183948
100
AcDbArc
 50
230.7967147643
 51
9.2140369905
  0
ARC
  5
664
100
AcDbEntity
  8
0
100
AcDbCircle
 62
7
  6
CONTINUOUS
 10
163.0176938087
 20
-20.3325977231
 40
7.6851095396
100
AcDbArc
 50
242.6096722366
 51
297.3903277634
  0
ARC
  5
665
100
AcDbEntity
  8
0
100
AcDbCircle
 62
7
  6
CONTINUOUS
 10
163.0176938087
 20
-21.1491385351
 40
7.6851095396
100
AcDbArc
 50
242.6096722366
 51
297.3903277634
  0
ARC
  5
666
100
AcDbEntity
  8
0
100
AcDbCircle
 62
7
  6
CONTINUOUS
 10
157.2181604035
 20
-27.4794368103
 40
3.3966054084
100
AcDbArc
 50
138.0280552503
 51
177.3071707515
  0
ARC
  5
667
100
AcDbEntity
  8
0
100
AcDbCircle
 62
7
  6
CONTINUOUS
 10
159.2401548247
 20
-32.1947216235
 40
3.0736096152
100
AcDbArc
 50
2.6054784857
 51
57.39452166
  0
ARC
  5
668
100
AcDbEntity
  8
0
100
AcDbCircle
 62
7
  6
CONTINUOUS
 10
159.9472616059
 20
-31.7865175679
 40
3.0736096152
100
AcDbArc
 50
2.6054784857
 51
57.39452166
  0
ARC
  5
669
100
AcDbEntity
  8
0
100
AcDbCircle
 62
7
  6
CONTINUOUS
 10
160.8619122383
 20
-32.9038178411
 40
2.5145727504
100
AcDbArc
 50
183.0014931991
 51
228.60977274
  0
ARC
  5
66A
100
AcDbEntity
  8
0
100
AcDbCircle
 62
7
  6
CONTINUOUS
 10
167.9674412771
 20
-20.8229439335
 40
2.305532862
100
AcDbArc
 50
242.6096722366
 51
297.3903277634
  0
ARC
  5
66B
100
AcDbEntity
  8
0
100
AcDbCircle
 62
7
  6
CONTINUOUS
 10
159.8593419015
 20
-33.4377877935
 40
2.2156674908
100
AcDbArc
 50
180.1526252261
 51
252.6690973185
  0
ARC
  5
66C
100
AcDbEntity
  8
0
100
AcDbCircle
 62
7
  6
CONTINUOUS
 10
159.8578378595
 20
-34.7561625715
 40
2.2141637372
100
AcDbArc
 50
179.8445476447
 51
251.0578433852
  0
ARC
  5
66D
100
AcDbEntity
  8
0
100
AcDbCircle
 62
7
  6
CONTINUOUS
 10
166.5687850823
 20
-23.4604812631
 40
2.0943457192
100
AcDbArc
 50
60.0653706233
 51
129.7203036821
  0
ARC
  5
66E
100
AcDbEntity
  8
0
100
AcDbCircle
 62
7
  6
CONTINUOUS
 10
156.4000784171
 20
-26.9925610027
 40
1.8611448652
100
AcDbArc
 50
128.1727404735
 51
151.3282282672
  0
ARC
  5
66F
100
AcDbEntity
  8
0
100
AcDbCircle
 62
7
  6
CONTINUOUS
 10
167.2594606755
 20
-24.4554910939
 40
1.5520085256
100
AcDbArc
 50
62.8644931242
 51
99.2861961651
  0
ARC
  5
670
100
AcDbEntity
  8
0
100
AcDbCircle
 62
7
  6
CONTINUOUS
 10
155.5022072435
 20
-26.8310771499
 40
1.005954472
100
AcDbArc
 50
54.3824225248
 51
114.3071190461
  0
ARC
  5
671
100
AcDbEntity
  8
0
100
AcDbCircle
 62
7
  6
CONTINUOUS
 10
154.8288757443
 20
-27.0983376655
 40
0.8734183948
100
AcDbArc
 50
50.7967147643
 51
189.2140369905
  0
ARC
  5
672
100
AcDbEntity
  8
0
100
AcDbCircle
 62
7
  6
CONTINUOUS
 10
168.7957109087
 20
-22.2577044771
 40
0.6549229752
100
AcDbArc
 50
290.7834207995
 51
69.2165792005
  0
ARC
  5
673
100
AcDbEntity
  8
0
100
AcDbCircle
 62
7
  6
CONTINUOUS
 10
269.0279188427
 20
-93.0595694715
 40
1.4789337896
100
AcDbArc
 50
305.0133328635
 51
6.2988475298
  0
ARC
  5
674
100
AcDbEntity
  8
0
100
AcDbCircle
 62
7
  6
CONTINUOUS
 10
268.5202225495
 20
-93.5242408571
 40
1.2892842772
100
AcDbArc
 50
268.4252972729
 51
9.7674908838
  0
ARC
  5
675
100
AcDbEntity
  8
0
100
AcDbCircle
 62
7
  6
CONTINUOUS
 10
267.4252330943
 20
-95.0595902963
 40
0.9590510924
100
AcDbArc
 50
304.056350819
 51
7.2558295744
  0
ARC
  5
676
100
AcDbEntity
  8
0
100
AcDbCircle
 62
7
  6
CONTINUOUS
 10
265.1851694639
 20
28.1494850989
 40
4.6104144228
100
AcDbArc
 50
2.6054784857
 51
57.39452166
  0
ARC
  5
677
100
AcDbEntity
  8
0
100
AcDbCircle
 62
7
  6
CONTINUOUS
 10
265.8922762451
 20
28.5576891549
 40
4.6104144228
100
AcDbArc
 50
2.6054784857
 51
57.39452166
  0
ARC
  5
678
100
AcDbEntity
  8
0
100
AcDbCircle
 62
7
  6
CONTINUOUS
 10
258.4012608487
 20
-25.6516169299
 40
2.6756700856
100
AcDbArc
 50
311.4758474397
 51
348.529529093
  0
ARC
  5
679
100
AcDbEntity
  8
0
100
AcDbCircle
 62
7
  6
CONTINUOUS
 10
259.4299237083
 20
-26.2746195379
 40
2.3100243616
100
AcDbArc
 50
300.3872207907
 51
11.0217895707
  0
ARC
  5
67A
100
AcDbEntity
  8
0
100
AcDbCircle
 62
7
  6
CONTINUOUS
 10
259.4910116899
 20
-26.2566108139
 40
2.2741666824
100
AcDbArc
 50
288.3409903058
 51
0.2552695434
  0
ARC
  5
67B
100
AcDbEntity
  8
0
100
AcDbCircle
 62
7
  6
CONTINUOUS
 10
255.6642395115
 20
27.9732297817
 40
2.0943457192
100
AcDbArc
 50
60.0653706233
 51
129.7203036821
  0
ARC
  5
67C
100
AcDbEntity
  8
0
100
AcDbCircle
 62
7
  6
CONTINUOUS
 10
256.3549151059
 20
26.9782199537
 40
1.5520085228
100
AcDbArc
 50
62.8644931094
 51
99.2861954139
  0
ARC
  5
67D
100
AcDbEntity
  8
0
100
AcDbCircle
 62
7
  6
CONTINUOUS
 10
264.5103578623
 20
31.4664260317
 40
2.5146963924
100
AcDbArc
 50
294.3746582936
 51
354.3052007488
  0
ARC
  5
67E
100
AcDbEntity
  8
0
100
AcDbCircle
 62
7
  6
CONTINUOUS
 10
257.0628957067
 20
30.6107671113
 40
2.305532862
100
AcDbArc
 50
242.6096722366
 51
297.3903277634
  0
ARC
  5
67F
100
AcDbEntity
  8
0
100
AcDbCircle
 62
7
  6
CONTINUOUS
 10
264.7735419467
 20
32.0334349593
 40
2.183076584
100
AcDbArc
 50
290.7834207995
 51
69.2165792005
  0
ARC
  5
680
100
AcDbEntity
  8
0
100
AcDbCircle
 62
7
  6
CONTINUOUS
 10
107.1374872775
 20
119.3733998909
 40
2.1253817028
100
AcDbArc
 50
50.8597552374
 51
119.3545704572
  0
ARC
  5
681
100
AcDbEntity
  8
0
100
AcDbCircle
 62
7
  6
CONTINUOUS
 10
106.4500251343
 20
118.4159284757
 40
1.5520085252
100
AcDbArc
 50
80.7138039793
 51
117.1355068789
  0
ARC
  5
682
100
AcDbEntity
  8
0
100
AcDbCircle
 62
7
  6
CONTINUOUS
 10
257.8911653383
 20
29.1760065677
 40
0.6549229752
100
AcDbArc
 50
290.7834207995
 51
69.2165792005
  0
ENDSEC
  0
SECTION
  2
OBJECTS
  0
DICTIONARY
  5
C
100
AcDbDictionary
280
0
281
1
  3
ACAD_GROUP
350
D
  3
ACAD_MLINESTYLE
350
17
  3
ACAD_LAYOUT
350
1A
  3
ACAD_PLOTSETTINGS
350
19
  3
ACAD_PLOTSTYLENAME
350
E
  0
DICTIONARY
  5
D
102
{ACAD_REACTORS
330
C
102
}
100
AcDbDictionary
280
0
281
1
  0
ACDBDICTIONARYWDFLT
  5
E
102
{ACAD_REACTORS
330
C
102
}
100
AcDbDictionary
281
1
  3
Normal
350
F
100
AcDbDictionaryWithDefault
340
F
  0
DICTIONARY
  5
17
102
{ACAD_REACTORS
330
C
102
}
100
AcDbDictionary
280
0
281
1
  3
Standard
350
18
  0
DICTIONARY
  5
19
102
{ACAD_REACTORS
330
C
102
}
100
AcDbDictionary
281
1
  0
DICTIONARY
  5
1A
102
{ACAD_REACTORS
330
C
102
}
100
AcDbDictionary
281
1
  3
Model
350
683
  3
Layout1
350
684
  0
ACDBPLACEHOLDER
  5
F
102
{ACAD_REACTORS
330
E
102
}
  0
MLINESTYLE
  5
18
102
{ACAD_REACTORS
330
17
102
}
100
AcDbMlineStyle
  2
STANDARD
 70
0
  3

 62
256
 51
90.0
 52
90.0
 71
2
 49
0.5
 62
256
  6
BYLAYER
 49
-0.5
 62
256
  6
BYLAYER
  0
LAYOUT
  5
683
102
{ACAD_REACTORS
330
1A
102
}
100
AcDbPlotSettings
  1

  2
none_device
  4
ISO_A3_(420.00_x_297.00_MM)
  6

 40
0.0
 41
0.0
 42
0.0
 43
0.0
 44
420.0
 45
297.0
 46
0.0
 47
0.0
 48
0.0
 49
0.0
140
0.0
141
0.0
142
1.0
143
1.0
 70
1024
 72
1
 73
0
 74
0
  7

 75
0
147
1.0
148
0.0
149
0.0
100
AcDbLayout
  1
Model
 70
0
 71
0
 10
0.0
 20
0.0
 11
420.0
 21
297.0
 12
0.0
 22
0.0
 32
0.0
 14
0.0
 24
0.0
 34
0.0
 15
0.0
 25
0.0
 35
0.0
146
0.0
 13
0.0
 23
0.0
 33
0.0
 16
1.0
 26
0.0
 36
0.0
 17
0.0
 27
1.0
 37
0.0
 76
0
330
1FF
345
0
346
0
  0
LAYOUT
  5
684
102
{ACAD_REACTORS
330
1A
102
}
100
AcDbPlotSettings
  1

  2
none_device
  4
ISO_A3_(420.00_x_297.00_MM)
  6

 40
0.0
 41
0.0
 42
0.0
 43
0.0
 44
420.0
 45
297.0
 46
0.0
 47
0.0
 48
0.0
 49
0.0
140
0.0
141
0.0
142
1.0
143
1.0
 70
0
 72
1
 73
0
 74
0
  7

 75
0
147
1.0
148
0.0
149
0.0
100
AcDbLayout
  1
Layout1
 70
0
 71
1
 10
0.0
 20
0.0
 11
420.0
 21
297.0
 12
0.0
 22
0.0
 32
0.0
 14
0.0
 24
0.0
 34
0.0
 15
0.0
 25
0.0
 35
0.0
146
0.0
 13
0.0
 23
0.0
 33
0.0
 16
1.0
 26
0.0
 36
0.0
 17
0.0
 27
1.0
 37
0.0
 76
0
330
200
345
0
346
0
  0
ENDSEC
  0
EOF
