0
SECTION
2
HEADER
9
$ACADVER
1
AC1014
9
$HANDSEED
5
       2B4
9
$EXTMAX
10
297.0000000000
20
210.0000000000
9
$EXTMIN
10
0.0000000000
20
0.0000000000
9
$LIMMIN
10
0.0000000000
20
0.0000000000
9
$LIMMAX
10
297.0000000000
20
210.0000000000
9
$VIEWCTR
10
148.5000000000
20
105.0000000000
9
$VIEWSIZE
40
210.0000000000
9
$CLAYER
8
0
9
$LTSCALE
40
16.3350000000
9
$CELTYPE
6
BYLAYER
9
$DIMSCALE
40
1
9
$DIMASZ
40
3.0000000000
9
$DIMEXO
40
1.8562500000
9
$DIMDLI
40
11.2860000000
9
$DIMEXE
40
5.3460000000
9
$DIMCEN
40
2.6730000000
9
$DIMLFAC
40
1.0000000000
9
$DIMTXT
40
3.0000000000
9
$DIMTOL
70
1
9
$DIMLIM
70
0
9
$DIMTFAC
40
1.0000000000
9
$DIMTP
40
0.0100000000
9
$DIMTM
40
0.0100000000
9
$MEASUREMENT
70
1
0
ENDSEC
0
SECTION
2
CLASSES
0
ENDSEC
0
SECTION
2
TABLES
0
TABLE
2
VPORT
5
8
100
AcDbSymbolTable
70
2
0
VPORT
5
1F4
100
AcDbSymbolTableRecord
100
AcDbViewportTableRecord
2
*ACTIVE
70
0
10
0.0
20
0.0
11
1.0
21
1.0
12
148.5000000000
22
105.0000000000
13
0.0
23
0.0
14
1.0
24
1.0
15
0.0
25
0.0
16
0.0
26
0.0
36
1.0
17
0.0
27
0.0
37
0.0
40
210.0000000000
41
1.4142857143
42
50.0
43
0.0
44
0.0
50
0.0
51
0.0
71
0
72
100
73
1
74
1
75
0
76
0
77
0
78
0
0
ENDTAB
0
TABLE
2
LTYPE
5
5
100
AcDbSymbolTable
70
6
0
LTYPE
5
14
100
AcDbSymbolTableRecord
100
AcDbLinetypeTableRecord
2
BYBLOCK
70
0
3

72
65
73
0
40
0.0
0
LTYPE
5
15
100
AcDbSymbolTableRecord
100
AcDbLinetypeTableRecord
2
BYLAYER
70
0
3

72
65
73
0
40
0.0
0
LTYPE
5
16
100
AcDbSymbolTableRecord
100
AcDbLinetypeTableRecord
2
CONTINUOUS
70
64
3
Solid line
72
65
73
0
40
0
0
LTYPE
5
1F5
100
AcDbSymbolTableRecord
100
AcDbLinetypeTableRecord
2
CENTER
70
64
3
____ _ ____ _ ____ _ ____ _ ____ _ ____ _ ____
72
65
73
4
40
0.6
49
0.375
74
0
49
-0.075
74
0
49
0.075
74
0
49
-0.075
74
0
0
LTYPE
5
1F6
100
AcDbSymbolTableRecord
100
AcDbLinetypeTableRecord
2
HIDDEN
70
64
3
- - - - - - - - - - - - - - - - - - - -
72
65
73
2
40
0.2
49
0.1
74
0
49
-0.1
74
0
0
LTYPE
5
1F7
100
AcDbSymbolTableRecord
100
AcDbLinetypeTableRecord
2
PHANTOM
70
64
3
_____ _ _ _____ _ _ _____ _ _ _____
72
65
73
6
40
0.8
49
0.45
74
0
49
-0.05
74
0
49
0.1
74
0
49
-0.05
74
0
49
0.1
74
0
49
-0.05
74
0
0
LTYPE
5
1F8
100
AcDbSymbolTableRecord
100
AcDbLinetypeTableRecord
2
DOT
70
64
3
. . . . . . . . . . . . . . . . . . . .
72
65
73
2
40
0.2
49
0.1
74
0
49
-0.1
74
0
0
LTYPE
5
1F9
100
AcDbSymbolTableRecord
100
AcDbLinetypeTableRecord
2
DASHED
70
64
3
- - - - - - - - - - - - - - - - - - - -
72
65
73
2
40
0.2
49
0.1
74
0
49
-0.1
74
0
0
ENDTAB
0
TABLE
2
LAYER
5
2
100
AcDbSymbolTable
70
36
0
LAYER
5
10
100
AcDbSymbolTableRecord
100
AcDbLayerTableRecord
2
0
70
0
62
7
6
CONTINUOUS
0
LAYER
5
1FA
100
AcDbSymbolTableRecord
100
AcDbLayerTableRecord
2
DEFAULT_1
70
0
62
7
6
CENTER
0
LAYER
5
1FB
100
AcDbSymbolTableRecord
100
AcDbLayerTableRecord
2
DEFAULT_2
70
0
62
8
6
HIDDEN
0
LAYER
5
1FC
100
AcDbSymbolTableRecord
100
AcDbLayerTableRecord
2
DEFAULT_3
70
0
62
7
6
PHANTOM
0
LAYER
5
1FD
100
AcDbSymbolTableRecord
100
AcDbLayerTableRecord
2
ASSI
70
0
62
7
6
CONTINUOUS
0
LAYER
5
1FE
100
AcDbSymbolTableRecord
100
AcDbLayerTableRecord
2
COORDINATE
70
0
62
7
6
CONTINUOUS
0
LAYER
5
1FF
100
AcDbSymbolTableRecord
100
AcDbLayerTableRecord
2
COORD_ORIGINE
70
0
62
7
6
CONTINUOUS
0
LAYER
5
200
100
AcDbSymbolTableRecord
100
AcDbLayerTableRecord
2
PIANI
70
0
62
7
6
CONTINUOUS
0
LAYER
5
201
100
AcDbSymbolTableRecord
100
AcDbLayerTableRecord
2
PIANI_ORIGINE
70
0
62
7
6
CONTINUOUS
0
LAYER
5
202
100
AcDbSymbolTableRecord
100
AcDbLayerTableRecord
2
RACCORDO
70
0
62
7
6
CONTINUOUS
0
LAYER
5
203
100
AcDbSymbolTableRecord
100
AcDbLayerTableRecord
2
TRASH
70
0
62
7
6
CONTINUOUS
0
ENDTAB
0
TABLE
2
STYLE
5
3
100
AcDbSymbolTable
70
1
0
STYLE
5
11
100
AcDbSymbolTableRecord
100
AcDbTextStyleTableRecord
2
STANDARD
70
0
40
0.0
41
0.8000000000
50
0.0
71
0
42
0.2
3
txt
4

0
ENDTAB
0
TABLE
2
VIEW
5
6
100
AcDbSymbolTable
70
0
0
ENDTAB
0
TABLE
2
UCS
5
7
100
AcDbSymbolTable
70
0
0
ENDTAB
0
TABLE
2
APPID
5
9
100
AcDbSymbolTable
70
1
0
APPID
5
204
100
AcDbSymbolTableRecord
100
AcDbRegAppTableRecord
2
ACAD
70
0
0
ENDTAB
0
TABLE
2
DIMSTYLE
5
A
100
AcDbSymbolTable
70
1
0
DIMSTYLE
105
205
100
AcDbSymbolTableRecord
100
AcDbDimStyleTableRecord
2
STANDARD
70
0
3

4

5

6

7

40
1.0
41
3.0000000000
42
0.0625
43
0.38
44
0.18
45
0.0
46
0.0
47
0.0100000000
48
0.0100000000
140
3.0000000000
141
0.09
142
0.0
143
25.4
144
1.0000000000
145
0.0
146
1.0000000000
147
0.09
71
1
72
0
73
0
74
0
75
0
76
0
77
1
78
8
170
0
171
2
172
0
173
0
174
0
175
0
176
0
177
0
178
0
270
2
271
2
272
2
273
2
274
2
340
11
275
0
280
0
281
0
282
0
283
1
284
8
285
0
286
0
287
3
288
0
0
ENDTAB
0
TABLE
2
BLOCK_RECORD
5
1
100
AcDbSymbolTable
70
0
0
BLOCK_RECORD
5
1B
100
AcDbSymbolTableRecord
100
AcDbBlockTableRecord
2
*MODEL_SPACE
0
BLOCK_RECORD
5
1C
100
AcDbSymbolTableRecord
100
AcDbBlockTableRecord
2
*PAPER_SPACE
0
ENDTAB
0
ENDSEC
0
SECTION
2
BLOCKS
0
BLOCK
5
1E
100
AcDbEntity
8
0
100
AcDbBlockBegin
2
*MODEL_SPACE
70
0
10
0.0
20
0.0
30
0.0
3
*MODEL_SPACE
1

0
ENDBLK
5
1F
100
AcDbEntity
8
0
100
AcDbBlockEnd
0
BLOCK
5
20
100
AcDbEntity
8
0
100
AcDbBlockBegin
2
*PAPER_SPACE
70
0
10
0.0
20
0.0
30
0.0
3
*PAPER_SPACE
1

0
ENDBLK
5
21
100
AcDbEntity
8
0
100
AcDbBlockEnd
0
ENDSEC
0
SECTION
2
ENTITIES
0
LINE
5
206
100
AcDbEntity
8
0
100
AcDbLine
62
7
6
CONTINUOUS
10
-171.0779306002
20
-100.3023434731
11
-171.0779306002
21
-69.1254289368
0
LINE
5
207
100
AcDbEntity
8
0
100
AcDbLine
62
7
6
CONTINUOUS
10
-170.0172704284
20
-100.8326735590
11
-170.0172704284
21
-69.6557590227
0
LINE
5
208
100
AcDbEntity
8
0
100
AcDbLine
62
7
6
CONTINUOUS
10
-161.3500085388
20
-56.3537637096
11
-161.3500085388
21
-55.0547256039
0
LINE
5
209
100
AcDbEntity
8
0
100
AcDbLine
62
9
6
CONTINUOUS
10
-160.4713288824
20
-57.4144238814
11
-160.4713288824
21
-56.1153857757
0
LINE
5
20A
100
AcDbEntity
8
0
100
AcDbLine
62
7
6
CONTINUOUS
10
-168.9776976857
20
-102.9961687606
11
-170.0383578575
21
-102.4658386747
0
LINE
5
20B
100
AcDbEntity
8
0
100
AcDbLine
62
9
6
CONTINUOUS
10
-170.0172704284
20
-100.8326735590
11
-171.0779306002
21
-100.3023434731
0
LINE
5
20C
100
AcDbEntity
8
0
100
AcDbLine
62
9
6
CONTINUOUS
10
-166.3049598272
20
-99.1066430168
11
-165.2442996554
21
-99.6369731027
0
LINE
5
20D
100
AcDbEntity
8
0
100
AcDbLine
62
9
6
CONTINUOUS
10
-163.8300860930
20
-97.8692061497
11
-162.7694259213
21
-98.3995362356
0
LINE
5
20E
100
AcDbEntity
8
0
100
AcDbLine
62
7
6
CONTINUOUS
10
-156.5822415859
20
-97.5792607528
11
-156.5822415859
21
-96.2802226472
0
LINE
5
20F
100
AcDbEntity
8
0
100
AcDbLine
62
9
6
CONTINUOUS
10
-156.5822415859
20
-58.0599294239
11
-156.5822415859
21
-59.3589675296
0
LINE
5
210
100
AcDbEntity
8
0
100
AcDbLine
62
7
6
CONTINUOUS
10
-156.5822415859
20
-59.4741429863
11
-156.5822415859
21
-60.7731810920
0
LINE
5
211
100
AcDbEntity
8
0
100
AcDbLine
62
9
6
CONTINUOUS
10
-155.1966009398
20
-95.4722268674
11
-155.4762976853
21
-95.3323784947
0
LINE
5
212
100
AcDbEntity
8
0
100
AcDbLine
62
7
6
CONTINUOUS
10
-133.9548245879
20
-55.3051440686
11
-133.9548245879
21
-79.1208426726
0
LINE
5
213
100
AcDbEntity
8
0
100
AcDbLine
62
9
6
CONTINUOUS
10
-166.3049598272
20
-71.6103364466
11
-165.2442996554
21
-72.1406665325
0
LINE
5
214
100
AcDbEntity
8
0
100
AcDbLine
62
9
6
CONTINUOUS
10
-170.0172704284
20
-69.6557590227
11
-171.0779306002
21
-69.1254289368
0
LINE
5
215
100
AcDbEntity
8
0
100
AcDbLine
62
9
6
CONTINUOUS
10
-163.8300860930
20
-70.3728995795
11
-162.7694259213
21
-70.9032296654
0
LINE
5
216
100
AcDbEntity
8
0
100
AcDbLine
62
9
6
CONTINUOUS
10
-167.1888433037
20
-64.7774438452
11
-168.2495034755
21
-64.2471137593
0
LINE
5
217
100
AcDbEntity
8
0
100
AcDbLine
62
9
6
CONTINUOUS
10
-156.6140253104
20
-60.8367485410
11
-156.2286881953
21
-61.0294170986
0
LINE
5
218
100
AcDbEntity
8
0
100
AcDbLine
62
9
6
CONTINUOUS
10
-155.4508707360
20
-60.6405083689
11
-156.5115309078
21
-60.1101782831
0
LINE
5
219
100
AcDbEntity
8
0
100
AcDbLine
62
7
6
CONTINUOUS
10
-156.5822415859
20
-59.4741429863
11
-157.6429017577
21
-58.9438129004
0
LINE
5
21A
100
AcDbEntity
8
0
100
AcDbLine
62
9
6
CONTINUOUS
10
-155.1966009398
20
-60.1383903930
11
-156.3701095515
21
-59.5516360872
0
LINE
5
21B
100
AcDbEntity
8
0
100
AcDbLine
62
7
6
CONTINUOUS
10
-160.4713288824
20
-57.4144238814
11
-156.5822415859
21
-59.3589675296
0
LINE
5
21C
100
AcDbEntity
8
0
100
AcDbLine
62
7
6
CONTINUOUS
10
-160.4713288824
20
-56.1153857757
11
-156.5822415859
21
-58.0599294239
0
LINE
5
21D
100
AcDbEntity
8
0
100
AcDbLine
62
7
6
CONTINUOUS
10
146.4130141526
20
99.4481060854
11
-160.4713288824
21
-53.9940654321
0
LINE
5
21E
100
AcDbEntity
8
0
100
AcDbLine
62
9
6
CONTINUOUS
10
154.5447421362
20
97.5035624371
11
-156.5822415859
21
-58.0599294239
0
LINE
5
21F
100
AcDbEntity
8
0
100
AcDbLine
62
7
6
CONTINUOUS
10
166.9191108070
20
103.3371933819
11
156.3125090892
21
98.0338925230
0
LINE
5
220
100
AcDbEntity
8
0
100
AcDbLine
62
7
6
CONTINUOUS
10
-157.6429017577
20
-58.9438129004
11
-168.2495034755
21
-64.2471137593
0
LINE
5
221
100
AcDbEntity
8
0
100
AcDbLine
62
7
6
CONTINUOUS
10
167.9797709788
20
102.8068632960
11
157.3731692610
21
97.5035624371
0
LINE
5
222
100
AcDbEntity
8
0
100
AcDbLine
62
7
6
CONTINUOUS
10
-156.5822415859
20
-59.4741429863
11
-167.1888433037
21
-64.7774438452
0
LINE
5
223
100
AcDbEntity
8
0
100
AcDbLine
62
7
6
CONTINUOUS
10
155.9589556986
20
96.1250650201
11
155.7670428659
21
96.0291086038
0
LINE
5
224
100
AcDbEntity
8
0
100
AcDbLine
62
7
6
CONTINUOUS
10
157.0196158704
20
95.5947349342
11
156.2417940654
21
95.2058240317
0
LINE
5
225
100
AcDbEntity
8
0
100
AcDbLine
62
9
6
CONTINUOUS
10
156.2417940654
20
95.2058240317
11
-155.4508663903
21
-60.6405061961
0
LINE
5
226
100
AcDbEntity
8
0
100
AcDbLine
62
7
6
CONTINUOUS
10
-155.4508663903
20
-60.6405061961
11
-156.2286881953
21
-61.0294170986
0
LINE
5
227
100
AcDbEntity
8
0
100
AcDbLine
62
7
6
CONTINUOUS
10
166.0352273305
20
99.5612747869
11
163.5603535963
21
98.3238379198
0
LINE
5
228
100
AcDbEntity
8
0
100
AcDbLine
62
7
6
CONTINUOUS
10
-165.2442996554
20
-66.0784887060
11
-162.7694259213
21
-64.8410518389
0
LINE
5
229
100
AcDbEntity
8
0
100
AcDbLine
62
7
6
CONTINUOUS
10
134.7457522630
20
79.0451443569
11
-133.9548245879
21
-55.3051440686
0
LINE
5
22A
100
AcDbEntity
8
0
100
AcDbLine
62
7
6
CONTINUOUS
10
-163.8300860930
20
-70.3728995795
11
-166.3049598272
21
-71.6103364466
0
LINE
5
22B
100
AcDbEntity
8
0
100
AcDbLine
62
7
6
CONTINUOUS
10
162.4996934246
20
92.7919901792
11
164.9745671587
21
94.0294270463
0
LINE
5
22C
100
AcDbEntity
8
0
100
AcDbLine
62
7
6
CONTINUOUS
10
-162.7694259213
20
-70.9032296654
11
-165.2442996554
21
-72.1406665325
0
LINE
5
22D
100
AcDbEntity
8
0
100
AcDbLine
62
7
6
CONTINUOUS
10
163.5603535963
20
92.2616600934
11
166.0352273305
21
93.4990969604
0
LINE
5
22E
100
AcDbEntity
8
0
100
AcDbLine
62
7
6
CONTINUOUS
10
133.6850920912
20
56.2780653938
11
-133.9548245879
21
-77.5418929457
0
LINE
5
22F
100
AcDbEntity
8
0
100
AcDbLine
62
7
6
CONTINUOUS
10
166.0352273305
20
72.0649682168
11
163.5603535963
21
70.8275313497
0
LINE
5
230
100
AcDbEntity
8
0
100
AcDbLine
62
7
6
CONTINUOUS
10
-162.7694259213
20
-92.3373584091
11
-165.2442996554
21
-93.5747952762
0
LINE
5
231
100
AcDbEntity
8
0
100
AcDbLine
62
7
6
CONTINUOUS
10
-133.9548245879
20
-78.0601825009
11
133.6850920912
21
55.7597758387
0
LINE
5
232
100
AcDbEntity
8
0
100
AcDbLine
62
7
6
CONTINUOUS
10
-133.9548245879
20
-79.1208426726
11
134.7457522630
21
55.2294457528
0
LINE
5
233
100
AcDbEntity
8
0
100
AcDbLine
62
7
6
CONTINUOUS
10
-166.3049598272
20
-99.1066430168
11
-163.8300860930
21
-97.8692061497
0
LINE
5
234
100
AcDbEntity
8
0
100
AcDbLine
62
7
6
CONTINUOUS
10
162.4996934246
20
65.2956836091
11
164.9745671587
21
66.5331204762
0
LINE
5
235
100
AcDbEntity
8
0
100
AcDbLine
62
7
6
CONTINUOUS
10
-165.2442996554
20
-99.6369731027
11
-162.7694259213
21
-98.3995362356
0
LINE
5
236
100
AcDbEntity
8
0
100
AcDbLine
62
7
6
CONTINUOUS
10
163.5603535963
20
64.7653535232
11
166.0352273305
21
66.0027903903
0
LINE
5
237
100
AcDbEntity
8
0
100
AcDbLine
62
7
6
CONTINUOUS
10
-156.2286881953
20
-95.6704332500
11
-155.4508663903
21
-95.2815223475
0
LINE
5
238
100
AcDbEntity
8
0
100
AcDbLine
62
9
6
CONTINUOUS
10
156.2417940654
20
60.5648078803
11
-155.4508663903
21
-95.2815223475
0
LINE
5
239
100
AcDbEntity
8
0
100
AcDbLine
62
7
6
CONTINUOUS
10
156.2417940654
20
60.5648078803
11
157.0196158704
21
60.9537187828
0
LINE
5
23A
100
AcDbEntity
8
0
100
AcDbLine
62
7
6
CONTINUOUS
10
-155.6878143949
20
-96.2218507649
11
155.4391693272
21
59.3416410961
0
LINE
5
23B
100
AcDbEntity
8
0
100
AcDbLine
62
7
6
CONTINUOUS
10
167.9797709788
20
64.7017455295
11
157.3731692610
21
59.3984446706
0
LINE
5
23C
100
AcDbEntity
8
0
100
AcDbLine
62
7
6
CONTINUOUS
10
-156.5822415859
20
-97.5792607528
11
-167.1888433037
21
-102.8825616117
0
LINE
5
23D
100
AcDbEntity
8
0
100
AcDbLine
62
7
6
CONTINUOUS
10
133.6850920912
20
55.7597758387
11
134.7457522630
21
55.2294457528
0
LINE
5
23E
100
AcDbEntity
8
0
100
AcDbLine
62
7
6
CONTINUOUS
10
133.6850920912
20
55.7597758387
11
133.6850920912
21
78.5148142710
0
LINE
5
23F
100
AcDbEntity
8
0
100
AcDbLine
62
7
6
CONTINUOUS
10
134.7457522630
20
55.2294457528
11
134.7457522630
21
79.0451443569
0
LINE
5
240
100
AcDbEntity
8
0
100
AcDbLine
62
7
6
CONTINUOUS
10
157.3731692610
20
59.3984446706
11
156.3125090892
21
59.9287747565
0
LINE
5
241
100
AcDbEntity
8
0
100
AcDbLine
62
9
6
CONTINUOUS
10
156.9878321458
20
60.8901513338
11
157.3731692610
21
60.6974827763
0
LINE
5
242
100
AcDbEntity
8
0
100
AcDbLine
62
9
6
CONTINUOUS
10
162.4996934246
20
65.2956836091
11
163.5603535963
21
64.7653535232
0
LINE
5
243
100
AcDbEntity
8
0
100
AcDbLine
62
9
6
CONTINUOUS
10
164.9745671587
20
66.5331204762
11
166.0352273305
21
66.0027903903
0
LINE
5
244
100
AcDbEntity
8
0
100
AcDbLine
62
7
6
CONTINUOUS
10
156.3125090892
20
60.5648100381
11
156.3125090892
21
59.9287747565
0
LINE
5
245
100
AcDbEntity
8
0
100
AcDbLine
62
7
6
CONTINUOUS
10
156.3125090892
20
96.7348544173
11
156.3125090892
21
98.0338925230
0
LINE
5
246
100
AcDbEntity
8
0
100
AcDbLine
62
7
6
CONTINUOUS
10
157.3731692610
20
97.5035624371
11
157.3731692610
21
96.2045243314
0
LINE
5
247
100
AcDbEntity
8
0
100
AcDbLine
62
7
6
CONTINUOUS
10
157.3731692610
20
59.3984446706
11
157.3731692610
21
60.6974827763
0
LINE
5
248
100
AcDbEntity
8
0
100
AcDbLine
62
9
6
CONTINUOUS
10
156.2417984111
20
95.2058262046
11
155.9468860533
21
95.3532823835
0
LINE
5
249
100
AcDbEntity
8
0
100
AcDbLine
62
9
6
CONTINUOUS
10
162.4996934246
20
92.7919901792
11
163.5603535963
21
92.2616600934
0
LINE
5
24A
100
AcDbEntity
8
0
100
AcDbLine
62
9
6
CONTINUOUS
10
155.9589556986
20
96.1250650201
11
157.0196158704
21
95.5947349342
0
LINE
5
24B
100
AcDbEntity
8
0
100
AcDbLine
62
7
6
CONTINUOUS
10
150.6556548397
20
99.4481060854
11
154.5447421362
21
97.5035624371
0
LINE
5
24C
100
AcDbEntity
8
0
100
AcDbLine
62
9
6
CONTINUOUS
10
156.3125090892
20
96.7348544173
11
157.3731692610
21
96.2045243314
0
LINE
5
24D
100
AcDbEntity
8
0
100
AcDbLine
62
7
6
CONTINUOUS
10
157.3731692610
20
97.5035624371
11
156.3125090892
21
98.0338925230
0
LINE
5
24E
100
AcDbEntity
8
0
100
AcDbLine
62
9
6
CONTINUOUS
10
164.9745671587
20
94.0294270463
11
166.0352273305
21
93.4990969604
0
LINE
5
24F
100
AcDbEntity
8
0
100
AcDbLine
62
7
6
CONTINUOUS
10
170.8081981035
20
69.5800607070
11
170.8081981035
21
100.7569752432
0
LINE
5
250
100
AcDbEntity
8
0
100
AcDbLine
62
9
6
CONTINUOUS
10
167.9797709788
20
102.8068632960
11
166.9191108070
21
103.3371933819
0
LINE
5
251
100
AcDbEntity
8
0
100
AcDbLine
62
7
6
CONTINUOUS
10
169.7686253608
20
102.9204704449
11
168.7079651890
21
103.4508005307
0
SPLINE
5
252
100
AcDbEntity
8
0
100
AcDbSpline
62
7
6
CONTINUOUS
70
0
71
3
72
9
73
5
74
3
42
0.0000001000
43
0.0000001000
44
0.0000000001
12
-0.1392717874
22
-0.7659948305
32
0.0000000000
13
-0.6219204195
23
-0.4804327036
33
0.0000000000
40
0.0000000000
40
0.0000000000
40
0.0000000000
40
0.0000000000
40
0.6291773594
40
1.0000000000
40
1.0000000000
40
1.0000000000
40
1.0000000000
10
155.9303827823
20
60.0912649936
30
0.0000000000
10
155.9011738971
20
59.9306161253
30
0.0000000000
10
155.8167368181
20
59.6770795830
30
0.0000000000
10
155.6374941195
20
59.4776090139
30
0.0000000000
10
155.5606200621
20
59.4182239060
30
0.0000000000
11
155.9303827823
21
60.0912649936
31
0.0000000000
11
155.7573919543
21
59.6329800014
31
0.0000000000
11
155.5606200621
21
59.4182239060
31
0.0000000000
0
SPLINE
5
253
100
AcDbEntity
8
0
100
AcDbSpline
62
7
6
CONTINUOUS
70
0
71
3
72
8
73
4
74
2
42
0.0000001000
43
0.0000001000
44
0.0000000001
12
-0.1140649553
22
-0.0881150275
32
0.0000000000
13
-0.1283838161
23
-0.0641182480
33
0.0000000000
40
0.0000000000
40
0.0000000000
40
0.0000000000
40
0.0000000000
40
1.0000000000
40
1.0000000000
40
1.0000000000
40
1.0000000000
10
155.5606200621
20
59.4182239060
30
0.0000000000
10
155.5225984103
20
59.3888522302
30
0.0000000000
10
155.4820305909
20
59.3630487201
30
0.0000000000
10
155.4392359855
20
59.3416759708
30
0.0000000000
11
155.5606200621
21
59.4182239060
31
0.0000000000
11
155.4392359855
21
59.3416759708
31
0.0000000000
0
SPLINE
5
254
100
AcDbEntity
8
0
100
AcDbSpline
62
7
6
CONTINUOUS
70
0
71
3
72
12
73
8
74
6
42
0.0000001000
43
0.0000001000
44
0.0000000001
12
-3.9025236097
22
1.9512618049
32
0.0000000000
13
-3.9025236097
23
-1.9512618049
33
0.0000000000
40
0.0000000000
40
0.0000000000
40
0.0000000000
40
0.0000000000
40
0.1848957539
40
0.3925004363
40
0.6071460774
40
0.8152927980
40
1.0000000000
40
1.0000000000
40
1.0000000000
40
1.0000000000
10
150.6556548397
20
99.4481060854
30
0.0000000000
10
150.4151348247
20
99.5683660929
30
0.0000000000
10
149.8707826832
20
99.7567324149
30
0.0000000000
10
148.9950740186
20
99.8935732861
30
0.0000000000
10
148.0743546931
20
99.8936869105
30
0.0000000000
10
147.1980977879
20
99.7568419032
30
0.0000000000
10
146.6532888914
20
99.5682434548
30
0.0000000000
10
146.4130141526
20
99.4481060854
30
0.0000000000
11
150.6556548397
21
99.4481060854
31
0.0000000000
11
149.8974473885
21
99.7236647619
31
0.0000000000
11
149.0033714669
21
99.8689995171
31
0.0000000000
11
148.0668394791
21
99.8691213511
31
0.0000000000
11
147.1704205463
21
99.7234603912
31
0.0000000000
11
146.4130141526
21
99.4481060854
31
0.0000000000
0
SPLINE
5
255
100
AcDbEntity
8
0
100
AcDbSpline
62
7
6
CONTINUOUS
70
0
71
3
72
10
73
6
74
4
42
0.0000001000
43
0.0000001000
44
0.0000000001
12
-1.2849398602
22
-0.6424699301
32
0.0000000000
13
-0.0001972398
23
-1.4623268575
33
0.0000000000
40
0.0000000000
40
0.0000000000
40
0.0000000000
40
0.0000000000
40
0.4656230104
40
0.8367946922
40
1.0000000000
40
1.0000000000
40
1.0000000000
40
1.0000000000
10
-160.4713288824
20
-53.9940654321
30
0.0000000000
10
-160.6707614044
20
-54.0937816931
30
0.0000000000
10
-161.0126988517
20
-54.3116089306
30
0.0000000000
10
-161.3099826162
20
-54.7146257105
30
0.0000000000
10
-161.3471908968
20
-54.9751070130
30
0.0000000000
10
-161.3472016270
20
-55.0546601813
30
0.0000000000
11
-160.4713288824
21
-53.9940654321
31
0.0000000000
11
-161.0224462355
21
-54.3731691577
31
0.0000000000
11
-161.3131157458
21
-54.8202071185
31
0.0000000000
11
-161.3472016270
21
-55.0546601813
31
0.0000000000
0
SPLINE
5
256
100
AcDbEntity
8
0
100
AcDbSpline
62
7
6
CONTINUOUS
70
0
71
3
72
10
73
6
74
4
42
0.0000001000
43
0.0000001000
44
0.0000000001
12
1.6588992254
22
-0.8392463461
32
0.0000000000
13
1.6501313732
23
0.8250656866
33
0.0000000000
40
0.0000000000
40
0.0000000000
40
0.0000000000
40
0.0000000000
40
0.0737638340
40
0.5064488592
40
1.0000000000
40
1.0000000000
40
1.0000000000
40
1.0000000000
10
-168.9765625133
20
-102.9960862462
30
0.0000000000
10
-168.9357735910
20
-103.0167215889
30
0.0000000000
10
-168.6495431585
20
-103.1453530579
30
0.0000000000
10
-168.0121150787
20
-103.2071154592
30
0.0000000000
10
-167.4603180442
20
-103.0182989820
30
0.0000000000
10
-167.1888433037
20
-102.8825616117
30
0.0000000000
11
-168.9765625133
21
-102.9960862462
31
0.0000000000
11
-168.8516188668
21
-103.0521265187
31
0.0000000000
11
-168.0593388508
21
-103.1496683667
31
0.0000000000
11
-167.1888433037
21
-102.8825616117
31
0.0000000000
0
SPLINE
5
257
100
AcDbEntity
8
0
100
AcDbSpline
62
7
6
CONTINUOUS
70
0
71
3
72
9
73
5
74
3
42
0.0000001000
43
0.0000001000
44
0.0000000001
12
-0.2124581087
22
0.1120552736
32
0.0000000000
13
-0.0357337563
23
0.2372861410
33
0.0000000000
40
0.0000000000
40
0.0000000000
40
0.0000000000
40
0.0000000000
40
0.4748980336
40
1.0000000000
40
1.0000000000
40
1.0000000000
40
1.0000000000
10
-156.4511877193
20
-61.0426421299
30
0.0000000000
10
-156.4848196986
20
-61.0249038535
30
0.0000000000
10
-156.5466769558
20
-60.9671923676
30
0.0000000000
10
-156.5707678802
20
-60.8900702456
30
0.0000000000
10
-156.5770225021
20
-60.8485371059
30
0.0000000000
11
-156.4511877193
21
-61.0426421299
31
0.0000000000
11
-156.5350541073
21
-60.9657120665
31
0.0000000000
11
-156.5770225021
21
-60.8485371059
31
0.0000000000
0
SPLINE
5
258
100
AcDbEntity
8
0
100
AcDbSpline
62
7
6
CONTINUOUS
70
0
71
3
72
8
73
4
74
2
42
0.0000001000
43
0.0000001000
44
0.0000000001
12
-0.0113204683
22
0.0751723444
32
0.0000000000
13
0.0000000000
23
0.0745919090
33
0.0000000000
40
0.0000000000
40
0.0000000000
40
0.0000000000
40
0.0000000000
40
1.0000000000
40
1.0000000000
40
1.0000000000
40
1.0000000000
10
-156.5770225021
20
-60.8485371059
30
0.0000000000
10
-156.5807959915
20
-60.8234796577
30
0.0000000000
10
-156.5822415859
20
-60.7980450617
30
0.0000000000
10
-156.5822415859
20
-60.7731810920
30
0.0000000000
11
-156.5770225021
21
-60.8485371059
31
0.0000000000
11
-156.5822415859
21
-60.7731810920
31
0.0000000000
0
SPLINE
5
259
100
AcDbEntity
8
0
100
AcDbSpline
62
7
6
CONTINUOUS
70
0
71
3
72
11
73
7
74
5
42
0.0000001000
43
0.0000001000
44
0.0000000001
12
1.9161589267
22
-0.9580794634
32
0.0000000000
13
0.6455098022
23
-2.0493216946
33
0.0000000000
40
0.0000000000
40
0.0000000000
40
0.0000000000
40
0.0000000000
40
0.2744014707
40
0.5795221470
40
0.8975793104
40
1.0000000000
40
1.0000000000
40
1.0000000000
40
1.0000000000
10
154.5447421362
20
97.5035624371
30
0.0000000000
10
154.7200077454
20
97.4159296325
30
0.0000000000
10
155.0575646153
20
97.1647106043
30
0.0000000000
10
155.4671315685
20
96.6657418937
30
0.0000000000
10
155.7079729501
20
96.2030148192
30
0.0000000000
10
155.8088168113
20
95.9189252118
30
0.0000000000
10
155.8308546643
20
95.8489608981
30
0.0000000000
11
154.5447421362
21
97.5035624371
31
0.0000000000
11
155.0232780779
21
97.1621224973
31
0.0000000000
11
155.4426469781
21
96.6607110468
31
0.0000000000
11
155.7573919543
21
96.0563772882
31
0.0000000000
11
155.8308546643
21
95.8489608981
31
0.0000000000
0
SPLINE
5
25A
100
AcDbEntity
8
0
100
AcDbSpline
62
7
6
CONTINUOUS
70
0
71
3
72
8
73
4
74
2
42
0.0000001000
43
0.0000001000
44
0.0000000001
12
0.0656067731
22
-0.2082840306
32
0.0000000000
13
0.0500133971
23
-0.2122760918
33
0.0000000000
40
0.0000000000
40
0.0000000000
40
0.0000000000
40
0.0000000000
40
1.0000000000
40
1.0000000000
40
1.0000000000
40
1.0000000000
10
155.8308546643
20
95.8489608981
30
0.0000000000
10
155.8527235887
20
95.7795328879
30
0.0000000000
10
155.8721052269
20
95.7093512672
30
0.0000000000
10
155.8887763592
20
95.6385925699
30
0.0000000000
11
155.8308546643
21
95.8489608981
31
0.0000000000
11
155.8887763592
21
95.6385925699
31
0.0000000000
0
SPLINE
5
25B
100
AcDbEntity
8
0
100
AcDbSpline
62
7
6
CONTINUOUS
70
0
71
3
72
8
73
4
74
2
42
0.0000001000
43
0.0000001000
44
0.0000000001
12
0.0499344553
22
-0.2119410324
32
0.0000000000
13
0.0330562265
23
-0.2148654721
33
0.0000000000
40
0.0000000000
40
0.0000000000
40
0.0000000000
40
0.0000000000
40
1.0000000000
40
1.0000000000
40
1.0000000000
40
1.0000000000
10
155.8887763592
20
95.6385925699
30
0.0000000000
10
155.9054211777
20
95.5679455591
30
0.0000000000
10
155.9193640401
20
95.4967232921
30
0.0000000000
10
155.9303827823
20
95.4251014680
30
0.0000000000
11
155.8887763592
21
95.6385925699
31
0.0000000000
11
155.9303827823
21
95.4251014680
31
0.0000000000
0
SPLINE
5
25C
100
AcDbEntity
8
0
100
AcDbSpline
62
7
6
CONTINUOUS
70
0
71
3
72
9
73
5
74
3
42
0.0000001000
43
0.0000001000
44
0.0000000001
12
-0.7142348237
22
0.3557417039
32
0.0000000000
13
-0.4256070256
23
0.6803909048
33
0.0000000000
40
0.0000000000
40
0.0000000000
40
0.0000000000
40
0.0000000000
40
0.0353843315
40
1.0000000000
40
1.0000000000
40
1.0000000000
40
1.0000000000
10
161.9946584567
20
64.6662069985
30
0.0000000000
10
161.9862342161
20
64.6704028926
30
0.0000000000
10
161.7495449915
20
64.7917087867
30
0.0000000000
10
161.5538991399
20
64.9904743082
30
0.0000000000
10
161.4170500714
20
65.2092462174
30
0.0000000000
11
161.9946584567
21
64.6662069985
31
0.0000000000
11
161.9695354245
21
64.6790845319
31
0.0000000000
11
161.4170500714
21
65.2092462174
31
0.0000000000
0
SPLINE
5
25D
100
AcDbEntity
8
0
100
AcDbSpline
62
7
6
CONTINUOUS
70
0
71
3
72
8
73
4
74
2
42
0.0000001000
43
0.0000001000
44
0.0000000001
12
-0.3105125147
22
0.4963966244
32
0.0000000000
13
-0.1545474498
23
0.5625389216
33
0.0000000000
40
0.0000000000
40
0.0000000000
40
0.0000000000
40
0.0000000000
40
1.0000000000
40
1.0000000000
40
1.0000000000
40
1.0000000000
10
161.4170500714
20
65.2092462174
30
0.0000000000
10
161.3135458998
20
65.3747117588
30
0.0000000000
10
161.2397161068
20
65.5556452175
30
0.0000000000
10
161.1882002902
20
65.7431581914
30
0.0000000000
11
161.4170500714
21
65.2092462174
31
0.0000000000
11
161.1882002902
21
65.7431581914
31
0.0000000000
0
SPLINE
5
25E
100
AcDbEntity
8
0
100
AcDbSpline
62
7
6
CONTINUOUS
70
0
71
3
72
13
73
9
74
7
42
0.0000001000
43
0.0000001000
44
0.0000000001
12
-1.5911464194
22
5.7916309320
32
0.0000000000
13
5.3330235609
23
2.6665117805
33
0.0000000000
40
0.0000000000
40
0.0000000000
40
0.0000000000
40
0.0000000000
40
0.0524797685
40
0.2290308543
40
0.4258612175
40
0.6297133911
40
0.8254028400
40
1.0000000000
40
1.0000000000
40
1.0000000000
40
1.0000000000
10
161.1882002902
20
65.7431581914
30
0.0000000000
10
161.1603659583
20
65.8444726748
30
0.0000000000
10
161.0673209460
20
66.2950092896
30
0.0000000000
10
161.0838911903
20
67.1511116404
30
0.0000000000
10
161.3827715194
20
68.2686701225
30
0.0000000000
10
161.9254109047
20
69.3323654051
30
0.0000000000
10
162.6503933614
20
70.2242407245
30
0.0000000000
10
163.2499766737
20
70.6723428884
30
0.0000000000
10
163.5603535963
20
70.8275313497
30
0.0000000000
11
161.1882002902
21
65.7431581914
31
0.0000000000
11
161.1230787552
21
66.0514619498
31
0.0000000000
11
161.1230787552
21
67.1041480820
31
0.0000000000
11
161.4170500714
21
68.2403351306
31
0.0000000000
11
161.9695354245
21
69.3229821691
31
0.0000000000
11
162.7138969271
21
70.2215059865
31
0.0000000000
11
163.5603535963
21
70.8275313497
31
0.0000000000
0
SPLINE
5
25F
100
AcDbEntity
8
0
100
AcDbSpline
62
7
6
CONTINUOUS
70
0
71
3
72
9
73
5
74
3
42
0.0000001000
43
0.0000001000
44
0.0000000001
12
-0.7142348237
22
0.3557417039
32
0.0000000000
13
-0.4256070256
23
0.6803909048
33
0.0000000000
40
0.0000000000
40
0.0000000000
40
0.0000000000
40
0.0000000000
40
0.0353843315
40
1.0000000000
40
1.0000000000
40
1.0000000000
40
1.0000000000
10
161.9946584567
20
92.1625135686
30
0.0000000000
10
161.9862342161
20
92.1667094627
30
0.0000000000
10
161.7495449915
20
92.2880153568
30
0.0000000000
10
161.5538991399
20
92.4867808784
30
0.0000000000
10
161.4170500714
20
92.7055527875
30
0.0000000000
11
161.9946584567
21
92.1625135686
31
0.0000000000
11
161.9695354245
21
92.1753911021
31
0.0000000000
11
161.4170500714
21
92.7055527875
31
0.0000000000
0
SPLINE
5
260
100
AcDbEntity
8
0
100
AcDbSpline
62
7
6
CONTINUOUS
70
0
71
3
72
8
73
4
74
2
42
0.0000001000
43
0.0000001000
44
0.0000000001
12
-0.3105125147
22
0.4963966244
32
0.0000000000
13
-0.1545474498
23
0.5625389216
33
0.0000000000
40
0.0000000000
40
0.0000000000
40
0.0000000000
40
0.0000000000
40
1.0000000000
40
1.0000000000
40
1.0000000000
40
1.0000000000
10
161.4170500714
20
92.7055527875
30
0.0000000000
10
161.3135458998
20
92.8710183290
30
0.0000000000
10
161.2397161068
20
93.0519517877
30
0.0000000000
10
161.1882002902
20
93.2394647615
30
0.0000000000
11
161.4170500714
21
92.7055527875
31
0.0000000000
11
161.1882002902
21
93.2394647615
31
0.0000000000
0
SPLINE
5
261
100
AcDbEntity
8
0
100
AcDbSpline
62
7
6
CONTINUOUS
70
0
71
3
72
13
73
9
74
7
42
0.0000001000
43
0.0000001000
44
0.0000000001
12
-1.5911464194
22
5.7916309320
32
0.0000000000
13
5.3330235609
23
2.6665117805
33
0.0000000000
40
0.0000000000
40
0.0000000000
40
0.0000000000
40
0.0000000000
40
0.0524797685
40
0.2290308543
40
0.4258612175
40
0.6297133911
40
0.8254028400
40
1.0000000000
40
1.0000000000
40
1.0000000000
40
1.0000000000
10
161.1882002902
20
93.2394647615
30
0.0000000000
10
161.1603659583
20
93.3407792450
30
0.0000000000
10
161.0673209460
20
93.7913158598
30
0.0000000000
10
161.0838911903
20
94.6474182105
30
0.0000000000
10
161.3827715194
20
95.7649766927
30
0.0000000000
10
161.9254109047
20
96.8286719752
30
0.0000000000
10
162.6503933614
20
97.7205472947
30
0.0000000000
10
163.2499766737
20
98.1686494585
30
0.0000000000
10
163.5603535963
20
98.3238379198
30
0.0000000000
11
161.1882002902
21
93.2394647615
31
0.0000000000
11
161.1230787552
21
93.5477685199
31
0.0000000000
11
161.1230787552
21
94.6004546522
31
0.0000000000
11
161.4170500714
21
95.7366417008
31
0.0000000000
11
161.9695354245
21
96.8192887393
31
0.0000000000
11
162.7138969271
21
97.7178125567
31
0.0000000000
11
163.5603535963
21
98.3238379198
31
0.0000000000
0
SPLINE
5
262
100
AcDbEntity
8
0
100
AcDbSpline
62
7
6
CONTINUOUS
70
0
71
3
72
10
73
6
74
4
42
0.0000001000
43
0.0000001000
44
0.0000000001
12
0.0937382354
22
0.5155602947
32
0.0000000000
13
0.4279246847
23
0.3057407423
33
0.0000000000
40
0.0000000000
40
0.0000000000
40
0.0000000000
40
0.0000000000
40
0.3638253750
40
0.7572837254
40
1.0000000000
40
1.0000000000
40
1.0000000000
40
1.0000000000
10
155.9303827823
20
60.0912649936
30
0.0000000000
10
155.9417508985
20
60.1537896328
30
0.0000000000
10
155.9856192001
20
60.2803717337
30
0.0000000000
10
156.0765016976
20
60.4306199804
30
0.0000000000
10
156.1578223030
20
60.5101861759
30
0.0000000000
10
156.1924437315
20
60.5349222606
30
0.0000000000
11
155.9303827823
21
60.0912649936
31
0.0000000000
11
155.9896627806
21
60.2724636772
31
0.0000000000
11
156.0991918675
21
60.4471416669
31
0.0000000000
11
156.1924437315
21
60.5349222606
31
0.0000000000
0
SPLINE
5
263
100
AcDbEntity
8
0
100
AcDbSpline
62
7
6
CONTINUOUS
70
0
71
3
72
8
73
4
74
2
42
0.0000001000
43
0.0000001000
44
0.0000000001
12
0.0471184683
22
0.0336648854
32
0.0000000000
13
0.0516072364
23
0.0258036182
33
0.0000000000
40
0.0000000000
40
0.0000000000
40
0.0000000000
40
0.0000000000
40
1.0000000000
40
1.0000000000
40
1.0000000000
40
1.0000000000
10
156.1924437315
20
60.5349222606
30
0.0000000000
10
156.2081498876
20
60.5461438890
30
0.0000000000
10
156.2245960292
20
60.5562088320
30
0.0000000000
10
156.2417984413
20
60.5648100381
30
0.0000000000
11
156.1924437315
21
60.5349222606
31
0.0000000000
11
156.2417984413
21
60.5648100381
31
0.0000000000
0
SPLINE
5
264
100
AcDbEntity
8
0
100
AcDbSpline
62
7
6
CONTINUOUS
70
0
71
3
72
9
73
5
74
3
42
0.0000001000
43
0.0000001000
44
0.0000000001
12
0.1614854458
22
0.0807427229
32
0.0000000000
13
0.1644023928
23
-0.0874544459
33
0.0000000000
40
0.0000000000
40
0.0000000000
40
0.0000000000
40
0.0000000000
40
0.7958120027
40
1.0000000000
40
1.0000000000
40
1.0000000000
40
1.0000000000
10
-155.4508707057
20
-95.2815245355
30
0.0000000000
10
-155.4080333537
20
-95.2601058594
30
0.0000000000
10
-155.3433499072
20
-95.2422210989
30
0.0000000000
10
-155.2852948953
20
-95.2645513637
30
0.0000000000
10
-155.2741052302
20
-95.2705037464
30
0.0000000000
11
-155.4508707057
21
-95.2815245355
31
0.0000000000
11
-155.3092795261
21
-95.2571088942
31
0.0000000000
11
-155.2741052302
21
-95.2705037464
31
0.0000000000
0
SPLINE
5
265
100
AcDbEntity
8
0
100
AcDbSpline
62
7
6
CONTINUOUS
70
0
71
3
72
9
73
5
74
3
42
0.0000001000
43
0.0000001000
44
0.0000000001
12
-0.7142348237
22
0.3557417039
32
0.0000000000
13
-0.4256070256
23
0.6803909048
33
0.0000000000
40
0.0000000000
40
0.0000000000
40
0.0000000000
40
0.0000000000
40
0.0353843315
40
1.0000000000
40
1.0000000000
40
1.0000000000
40
1.0000000000
10
-166.8099947951
20
-99.7361196274
30
0.0000000000
10
-166.8184190357
20
-99.7319237333
30
0.0000000000
10
-167.0551082602
20
-99.6106178392
30
0.0000000000
10
-167.2507541118
20
-99.4118523177
30
0.0000000000
10
-167.3876031803
20
-99.1930804085
30
0.0000000000
11
-166.8099947951
21
-99.7361196274
31
0.0000000000
11
-166.8351178273
21
-99.7232420939
31
0.0000000000
11
-167.3876031803
21
-99.1930804085
31
0.0000000000
0
SPLINE
5
266
100
AcDbEntity
8
0
100
AcDbSpline
62
7
6
CONTINUOUS
70
0
71
3
72
8
73
4
74
2
42
0.0000001000
43
0.0000001000
44
0.0000000001
12
-0.3105125147
22
0.4963966244
32
0.0000000000
13
-0.1545474498
23
0.5625389216
33
0.0000000000
40
0.0000000000
40
0.0000000000
40
0.0000000000
40
0.0000000000
40
1.0000000000
40
1.0000000000
40
1.0000000000
40
1.0000000000
10
-167.3876031803
20
-99.1930804085
30
0.0000000000
10
-167.4911073519
20
-99.0276148671
30
0.0000000000
10
-167.5649371450
20
-98.8466814083
30
0.0000000000
10
-167.6164529616
20
-98.6591684345
30
0.0000000000
11
-167.3876031803
21
-99.1930804085
31
0.0000000000
11
-167.6164529616
21
-98.6591684345
31
0.0000000000
0
SPLINE
5
267
100
AcDbEntity
8
0
100
AcDbSpline
62
7
6
CONTINUOUS
70
0
71
3
72
13
73
9
74
7
42
0.0000001000
43
0.0000001000
44
0.0000000001
12
-1.5911464194
22
5.7916309320
32
0.0000000000
13
5.3330235609
23
2.6665117805
33
0.0000000000
40
0.0000000000
40
0.0000000000
40
0.0000000000
40
0.0000000000
40
0.0524797685
40
0.2290308543
40
0.4258612175
40
0.6297133911
40
0.8254028400
40
1.0000000000
40
1.0000000000
40
1.0000000000
40
1.0000000000
10
-167.6164529616
20
-98.6591684345
30
0.0000000000
10
-167.6442872935
20
-98.5578539510
30
0.0000000000
10
-167.7373323058
20
-98.1073173363
30
0.0000000000
10
-167.7207620615
20
-97.2512149855
30
0.0000000000
10
-167.4218817323
20
-96.1336565033
30
0.0000000000
10
-166.8792423471
20
-95.0699612208
30
0.0000000000
10
-166.1542598903
20
-94.1780859014
30
0.0000000000
10
-165.5546765781
20
-93.7299837375
30
0.0000000000
10
-165.2442996554
20
-93.5747952762
30
0.0000000000
11
-167.6164529616
21
-98.6591684345
31
0.0000000000
11
-167.6815744965
21
-98.3508646761
31
0.0000000000
11
-167.6815744965
21
-97.2981785439
31
0.0000000000
11
-167.3876031803
21
-96.1619914953
31
0.0000000000
11
-166.8351178273
21
-95.0793444568
31
0.0000000000
11
-166.0907563247
21
-94.1808206393
31
0.0000000000
11
-165.2442996554
21
-93.5747952762
31
0.0000000000
0
SPLINE
5
268
100
AcDbEntity
8
0
100
AcDbSpline
62
7
6
CONTINUOUS
70
0
71
3
72
9
73
5
74
3
42
0.0000001000
43
0.0000001000
44
0.0000000001
12
-1.1649256651
22
0.5802190361
32
0.0000000000
13
-1.2289497306
23
-0.4381489317
33
0.0000000000
40
0.0000000000
40
0.0000000000
40
0.0000000000
40
0.0000000000
40
0.5654386389
40
1.0000000000
40
1.0000000000
40
1.0000000000
40
1.0000000000
10
-161.2037307816
20
-64.7419053142
30
0.0000000000
10
-161.4232954424
20
-64.6325458935
30
0.0000000000
10
-161.8706522096
20
-64.5549925663
30
0.0000000000
10
-162.2985176192
20
-64.6518974708
30
0.0000000000
10
-162.4765356417
20
-64.7153650028
30
0.0000000000
11
-161.2037307816
21
-64.7419053142
31
0.0000000000
11
-161.9229692520
21
-64.6006205328
31
0.0000000000
11
-162.4765356417
21
-64.7153650028
31
0.0000000000
0
SPLINE
5
269
100
AcDbEntity
8
0
100
AcDbSpline
62
7
6
CONTINUOUS
70
0
71
3
72
8
73
4
74
2
42
0.0000001000
43
0.0000001000
44
0.0000000001
12
-0.3012038049
22
-0.1073861054
32
0.0000000000
13
-0.2838170012
23
-0.1419085006
33
0.0000000000
40
0.0000000000
40
0.0000000000
40
0.0000000000
40
0.0000000000
40
1.0000000000
40
1.0000000000
40
1.0000000000
40
1.0000000000
10
-162.4765356417
20
-64.7153650028
30
0.0000000000
10
-162.5769369100
20
-64.7511603713
30
0.0000000000
10
-162.6748202542
20
-64.7937490054
30
0.0000000000
10
-162.7694259213
20
-64.8410518389
30
0.0000000000
11
-162.4765356417
21
-64.7153650028
31
0.0000000000
11
-162.7694259213
21
-64.8410518389
31
0.0000000000
0
SPLINE
5
26A
100
AcDbEntity
8
0
100
AcDbSpline
62
7
6
CONTINUOUS
70
0
71
3
72
9
73
5
74
3
42
0.0000001000
43
0.0000001000
44
0.0000000001
12
-0.1849438881
22
0.0978507521
32
0.0000000000
13
-0.0538657152
23
0.2016215566
33
0.0000000000
40
0.0000000000
40
0.0000000000
40
0.0000000000
40
0.0000000000
40
0.4593330337
40
1.0000000000
40
1.0000000000
40
1.0000000000
40
1.0000000000
10
156.0616809476
20
95.1961198139
30
0.0000000000
10
156.0333640018
20
95.2111018415
30
0.0000000000
10
155.9792233163
20
95.2615809931
30
0.0000000000
10
155.9528056691
20
95.3264729059
30
0.0000000000
10
155.9430978648
20
95.3628096110
30
0.0000000000
11
156.0616809476
21
95.1961198139
31
0.0000000000
11
155.9894759873
21
95.2605162280
31
0.0000000000
11
155.9430978648
21
95.3628096110
31
0.0000000000
0
SPLINE
5
26B
100
AcDbEntity
8
0
100
AcDbSpline
62
7
6
CONTINUOUS
70
0
71
3
72
8
73
4
74
2
42
0.0000001000
43
0.0000001000
44
0.0000000001
12
-0.0164643420
22
0.0616266999
32
0.0000000000
13
-0.0096033785
23
0.0624219605
33
0.0000000000
40
0.0000000000
40
0.0000000000
40
0.0000000000
40
0.0000000000
40
1.0000000000
40
1.0000000000
40
1.0000000000
40
1.0000000000
10
155.9430978648
20
95.3628096110
30
0.0000000000
10
155.9376097508
20
95.3833518443
30
0.0000000000
10
155.9335839084
20
95.4042941479
30
0.0000000000
10
155.9303827823
20
95.4251014680
30
0.0000000000
11
155.9430978648
21
95.3628096110
31
0.0000000000
11
155.9303827823
21
95.4251014680
31
0.0000000000
0
SPLINE
5
26C
100
AcDbEntity
8
0
100
AcDbSpline
62
7
6
CONTINUOUS
70
0
71
3
72
9
73
5
74
3
42
0.0000001000
43
0.0000001000
44
0.0000000001
12
0.2036671096
22
0.1018335548
32
0.0000000000
13
0.2054675380
23
-0.1083682865
33
0.0000000000
40
0.0000000000
40
0.0000000000
40
0.0000000000
40
0.0000000000
40
0.7914831957
40
1.0000000000
40
1.0000000000
40
1.0000000000
40
1.0000000000
10
157.0196158704
20
60.9537187828
30
0.0000000000
10
157.0733489019
20
60.9805852986
30
0.0000000000
10
157.1556647053
20
61.0022378899
30
0.0000000000
10
157.2278342496
20
60.9744760171
30
0.0000000000
10
157.2421153944
20
60.9669438141
30
0.0000000000
11
157.0196158704
21
60.9537187828
31
0.0000000000
11
157.1972959723
21
60.9839051469
31
0.0000000000
11
157.2421153944
21
60.9669438141
31
0.0000000000
0
SPLINE
5
26D
100
AcDbEntity
8
0
100
AcDbSpline
62
7
6
CONTINUOUS
70
0
71
3
72
9
73
5
74
3
42
0.0000001000
43
0.0000001000
44
0.0000000001
12
-0.8283405557
22
-0.4136950184
32
0.0000000000
13
-0.8240417513
23
0.4120208756
33
0.0000000000
40
0.0000000000
40
0.0000000000
40
0.0000000000
40
0.0000000000
40
0.4596945060
40
1.0000000000
40
1.0000000000
40
1.0000000000
40
1.0000000000
10
-155.6877477366
20
-96.2218158903
30
0.0000000000
10
-155.8146756041
20
-96.2852069993
30
0.0000000000
10
-156.1331267313
20
-96.3388499144
30
0.0000000000
10
-156.4338301574
20
-96.2392529047
30
0.0000000000
10
-156.5822415859
20
-96.1650471905
30
0.0000000000
11
-155.6877477366
21
-96.2218158903
31
0.0000000000
11
-156.1037056442
21
-96.3021431924
31
0.0000000000
11
-156.5822415859
21
-96.1650471905
31
0.0000000000
0
SPLINE
5
26E
100
AcDbEntity
8
0
100
AcDbSpline
62
7
6
CONTINUOUS
70
0
71
3
72
10
73
6
74
4
42
0.0000001000
43
0.0000001000
44
0.0000000001
12
0.0000000000
22
0.7323445251
32
0.0000000000
13
0.6550288565
23
0.3275144282
33
0.0000000000
40
0.0000000000
40
0.0000000000
40
0.0000000000
40
0.0000000000
40
0.3362619791
40
0.6872392329
40
1.0000000000
40
1.0000000000
40
1.0000000000
40
1.0000000000
10
-156.5822415859
20
-96.2802226472
30
0.0000000000
10
-156.5822415859
20
-96.1981361074
30
0.0000000000
10
-156.5447734851
20
-96.0299984150
30
0.0000000000
10
-156.4220312823
20
-95.8161321431
30
0.0000000000
10
-156.2969773045
20
-95.7045778046
30
0.0000000000
10
-156.2286881953
20
-95.6704332500
30
0.0000000000
11
-156.5822415859
21
-96.2802226472
31
0.0000000000
11
-156.5343510510
21
-96.0386645862
31
0.0000000000
11
-156.4051532851
21
-95.8164584172
31
0.0000000000
11
-156.2286881953
21
-95.6704332500
31
0.0000000000
0
SPLINE
5
26F
100
AcDbEntity
8
0
100
AcDbSpline
62
7
6
CONTINUOUS
70
0
71
3
72
9
73
5
74
3
42
0.0000001000
43
0.0000001000
44
0.0000000001
12
1.2458637437
22
0.6229318719
32
0.0000000000
13
1.3471239385
23
-0.4053960296
33
0.0000000000
40
0.0000000000
40
0.0000000000
40
0.0000000000
40
0.0000000000
40
0.6317248829
40
1.0000000000
40
1.0000000000
40
1.0000000000
40
1.0000000000
10
166.0352273305
20
72.0649682168
30
0.0000000000
10
166.2975750397
20
72.1961420714
30
0.0000000000
10
166.7527616250
20
72.3464007872
30
0.0000000000
10
167.2305092465
20
72.2947259825
30
0.0000000000
10
167.3958799885
20
72.2449602257
30
0.0000000000
11
166.0352273305
21
72.0649682168
31
0.0000000000
11
166.8816839998
21
72.3053995229
31
0.0000000000
11
167.3958799885
21
72.2449602257
31
0.0000000000
0
SPLINE
5
270
100
AcDbEntity
8
0
100
AcDbSpline
62
7
6
CONTINUOUS
70
0
71
3
72
8
73
4
74
2
42
0.0000001000
43
0.0000001000
44
0.0000000001
12
0.2118898980
22
-0.0637649743
32
0.0000000000
13
0.1971330254
23
-0.0981868092
33
0.0000000000
40
0.0000000000
40
0.0000000000
40
0.0000000000
40
0.0000000000
40
1.0000000000
40
1.0000000000
40
1.0000000000
40
1.0000000000
10
167.3958799885
20
72.2449602257
30
0.0000000000
10
167.4665099545
20
72.2237052343
30
0.0000000000
10
167.5352114617
20
72.1968436779
30
0.0000000000
10
167.6009224702
20
72.1641147415
30
0.0000000000
11
167.3958799885
21
72.2449602257
31
0.0000000000
11
167.6009224702
21
72.1641147415
31
0.0000000000
0
SPLINE
5
271
100
AcDbEntity
8
0
100
AcDbSpline
62
7
6
CONTINUOUS
70
0
71
3
72
9
73
5
74
3
42
0.0000001000
43
0.0000001000
44
0.0000000001
12
1.2458637437
22
0.6229318719
32
0.0000000000
13
1.3471239385
23
-0.4053960296
33
0.0000000000
40
0.0000000000
40
0.0000000000
40
0.0000000000
40
0.0000000000
40
0.6317248829
40
1.0000000000
40
1.0000000000
40
1.0000000000
40
1.0000000000
10
166.0352273305
20
99.5612747869
30
0.0000000000
10
166.2975750397
20
99.6924486415
30
0.0000000000
10
166.7527616250
20
99.8427073573
30
0.0000000000
10
167.2305092465
20
99.7910325526
30
0.0000000000
10
167.3958799885
20
99.7412667959
30
0.0000000000
11
166.0352273305
21
99.5612747869
31
0.0000000000
11
166.8816839998
21
99.8017060930
31
0.0000000000
11
167.3958799885
21
99.7412667959
31
0.0000000000
0
SPLINE
5
272
100
AcDbEntity
8
0
100
AcDbSpline
62
7
6
CONTINUOUS
70
0
71
3
72
8
73
4
74
2
42
0.0000001000
43
0.0000001000
44
0.0000000001
12
0.2118898980
22
-0.0637649743
32
0.0000000000
13
0.1971330254
23
-0.0981868092
33
0.0000000000
40
0.0000000000
40
0.0000000000
40
0.0000000000
40
0.0000000000
40
1.0000000000
40
1.0000000000
40
1.0000000000
40
1.0000000000
10
167.3958799885
20
99.7412667959
30
0.0000000000
10
167.4665099545
20
99.7200118044
30
0.0000000000
10
167.5352114617
20
99.6931502481
30
0.0000000000
10
167.6009224702
20
99.6604213117
30
0.0000000000
11
167.3958799885
21
99.7412667959
31
0.0000000000
11
167.6009224702
21
99.6604213117
31
0.0000000000
0
SPLINE
5
273
100
AcDbEntity
8
0
100
AcDbSpline
62
7
6
CONTINUOUS
70
0
71
3
72
9
73
5
74
3
42
0.0000001000
43
0.0000001000
44
0.0000000001
12
1.2458637437
22
0.6229318719
32
0.0000000000
13
1.3471239385
23
-0.4053960296
33
0.0000000000
40
0.0000000000
40
0.0000000000
40
0.0000000000
40
0.0000000000
40
0.6317248829
40
1.0000000000
40
1.0000000000
40
1.0000000000
40
1.0000000000
10
-162.7694259213
20
-92.3373584091
30
0.0000000000
10
-162.5070782120
20
-92.2061845545
30
0.0000000000
10
-162.0518916267
20
-92.0559258387
30
0.0000000000
10
-161.5741440053
20
-92.1076006434
30
0.0000000000
10
-161.4087732632
20
-92.1573664001
30
0.0000000000
11
-162.7694259213
21
-92.3373584091
31
0.0000000000
11
-161.9229692520
21
-92.0969271030
31
0.0000000000
11
-161.4087732632
21
-92.1573664001
31
0.0000000000
0
SPLINE
5
274
100
AcDbEntity
8
0
100
AcDbSpline
62
7
6
CONTINUOUS
70
0
71
3
72
8
73
4
74
2
42
0.0000001000
43
0.0000001000
44
0.0000000001
12
0.2118898980
22
-0.0637649743
32
0.0000000000
13
0.1971330254
23
-0.0981868092
33
0.0000000000
40
0.0000000000
40
0.0000000000
40
0.0000000000
40
0.0000000000
40
1.0000000000
40
1.0000000000
40
1.0000000000
40
1.0000000000
10
-161.4087732632
20
-92.1573664001
30
0.0000000000
10
-161.3381432972
20
-92.1786213916
30
0.0000000000
10
-161.2694417901
20
-92.2054829480
30
0.0000000000
10
-161.2037307816
20
-92.2382118844
30
0.0000000000
11
-161.4087732632
21
-92.1573664001
31
0.0000000000
11
-161.2037307816
21
-92.2382118844
31
0.0000000000
0
SPLINE
5
275
100
AcDbEntity
8
0
100
AcDbSpline
62
7
6
CONTINUOUS
70
0
71
3
72
13
73
9
74
7
42
0.0000001000
43
0.0000001000
44
0.0000000001
12
-5.8510181220
22
-2.9255090610
32
0.0000000000
13
3.5074004381
23
-5.6070581875
33
0.0000000000
40
0.0000000000
40
0.0000000000
40
0.0000000000
40
0.0000000000
40
0.1591399562
40
0.3375048869
40
0.5233098907
40
0.7027147298
40
0.8636356295
40
1.0000000000
40
1.0000000000
40
1.0000000000
40
1.0000000000
10
-165.2442996554
20
-66.0784887060
30
0.0000000000
10
-165.5546765781
20
-66.2336771673
30
0.0000000000
10
-166.1542598903
20
-66.6817793312
30
0.0000000000
10
-166.8792423471
20
-67.5736546506
30
0.0000000000
10
-167.4218817323
20
-68.6373499332
30
0.0000000000
10
-167.7207620615
20
-69.7549084153
30
0.0000000000
10
-167.7411116158
20
-70.8062689725
30
0.0000000000
10
-167.5470313313
20
-71.4419061850
30
0.0000000000
10
-167.3876031803
20
-71.6967738384
30
0.0000000000
11
-165.2442996554
21
-66.0784887060
31
0.0000000000
11
-166.0907563247
21
-66.6845140692
31
0.0000000000
11
-166.8351178273
21
-67.5830378866
31
0.0000000000
11
-167.3876031803
21
-68.6656849251
31
0.0000000000
11
-167.6815744965
21
-69.8018719737
31
0.0000000000
11
-167.6815744965
21
-70.8545581060
31
0.0000000000
11
-167.3876031803
21
-71.6967738384
31
0.0000000000
0
SPLINE
5
276
100
AcDbEntity
8
0
100
AcDbSpline
62
7
6
CONTINUOUS
70
0
71
3
72
9
73
5
74
3
42
0.0000001000
43
0.0000001000
44
0.0000000001
12
0.4256070256
22
-0.6803909048
32
0.0000000000
13
0.7142348237
23
-0.3557417039
33
0.0000000000
40
0.0000000000
40
0.0000000000
40
0.0000000000
40
0.0000000000
40
0.9646156685
40
1.0000000000
40
1.0000000000
40
1.0000000000
40
1.0000000000
10
-167.3876031803
20
-71.6967738384
30
0.0000000000
10
-167.2507541118
20
-71.9155457475
30
0.0000000000
10
-167.0551082602
20
-72.1143112690
30
0.0000000000
10
-166.8184190357
20
-72.2356171631
30
0.0000000000
10
-166.8099947951
20
-72.2398130573
30
0.0000000000
11
-167.3876031803
21
-71.6967738384
31
0.0000000000
11
-166.8351178273
21
-72.2269355238
31
0.0000000000
11
-166.8099947951
21
-72.2398130573
31
0.0000000000
0
SPLINE
5
277
100
AcDbEntity
8
0
100
AcDbSpline
62
7
6
CONTINUOUS
70
0
71
3
72
10
73
6
74
4
42
0.0000001000
43
0.0000001000
44
0.0000000001
12
0.0000000000
22
2.5110935053
32
0.0000000000
13
-2.2579242152
23
1.1422964206
33
0.0000000000
40
0.0000000000
40
0.0000000000
40
0.0000000000
40
0.0000000000
40
0.4006689850
40
0.7471286810
40
1.0000000000
40
1.0000000000
40
1.0000000000
40
1.0000000000
10
170.8081981035
20
100.7569752432
30
0.0000000000
10
170.8081981035
20
101.0923476719
30
0.0000000000
10
170.7357945236
20
101.7227142918
30
0.0000000000
10
170.3624370838
20
102.4978422829
30
0.0000000000
10
169.9578116133
20
102.8241032629
30
0.0000000000
10
169.7674901884
20
102.9203879305
30
0.0000000000
11
170.8081981035
21
100.7569752432
31
0.0000000000
11
170.6711406625
21
101.7537135495
31
0.0000000000
11
170.2670562982
21
102.5241699800
31
0.0000000000
11
169.7674901884
21
102.9203879305
31
0.0000000000
0
SPLINE
5
278
100
AcDbEntity
8
0
100
AcDbSpline
62
7
6
CONTINUOUS
70
0
71
3
72
12
73
8
74
6
42
0.0000001000
43
0.0000001000
44
0.0000000001
12
5.2587989790
22
2.6293994895
32
0.0000000000
13
0.0000000000
23
5.8795159985
33
0.0000000000
40
0.0000000000
40
0.0000000000
40
0.0000000000
40
0.0000000000
40
0.1799851551
40
0.3830908498
40
0.5948092582
40
0.8055872959
40
1.0000000000
40
1.0000000000
40
1.0000000000
40
1.0000000000
10
167.9797709788
20
64.7017455295
30
0.0000000000
10
168.2952728953
20
64.8594964878
30
0.0000000000
10
168.9135535806
20
65.3038448017
30
0.0000000000
10
169.6858575911
20
66.1870068065
30
0.0000000000
10
170.3026503550
20
67.2555599663
30
0.0000000000
10
170.7029651980
20
68.4036414538
30
0.0000000000
10
170.8081981035
20
69.1990431722
30
0.0000000000
10
170.8081981035
20
69.5800607070
30
0.0000000000
11
167.9797709788
21
64.7017455295
31
0.0000000000
11
168.8495578639
21
65.3044993700
31
0.0000000000
11
169.6435996561
21
66.1964205189
31
0.0000000000
11
170.2678219892
21
67.2733968066
31
0.0000000000
11
170.6709115367
21
68.4452824667
31
0.0000000000
11
170.8081981035
21
69.5800607070
31
0.0000000000
0
SPLINE
5
279
100
AcDbEntity
8
0
100
AcDbSpline
62
7
6
CONTINUOUS
70
0
71
3
72
8
73
4
74
2
42
0.0000001000
43
0.0000001000
44
0.0000000001
12
0.3462535125
22
-0.1731267562
32
0.0000000000
13
0.3052730667
23
-0.2414110221
33
0.0000000000
40
0.0000000000
40
0.0000000000
40
0.0000000000
40
0.0000000000
40
1.0000000000
40
1.0000000000
40
1.0000000000
40
1.0000000000
10
-156.5822415859
20
-58.0599294239
30
0.0000000000
10
-156.4668237484
20
-58.1176383427
30
0.0000000000
10
-156.3580989590
20
-58.1889289053
30
0.0000000000
10
-156.2563412701
20
-58.2693992460
30
0.0000000000
11
-156.5822415859
21
-58.0599294239
31
0.0000000000
11
-156.2563412701
21
-58.2693992460
31
0.0000000000
0
SPLINE
5
27A
100
AcDbEntity
8
0
100
AcDbSpline
62
7
6
CONTINUOUS
70
0
71
3
72
11
73
7
74
5
42
0.0000001000
43
0.0000001000
44
0.0000000001
12
1.7272310893
22
-1.3659004614
32
0.0000000000
13
0.3330566391
23
-2.1648681543
33
0.0000000000
40
0.0000000000
40
0.0000000000
40
0.0000000000
40
0.0000000000
40
0.0916459116
40
0.3900790323
40
0.7011651016
40
1.0000000000
40
1.0000000000
40
1.0000000000
40
1.0000000000
10
-156.2563412701
20
-58.2693992460
30
0.0000000000
10
-156.2035767142
20
-58.3111256436
30
0.0000000000
10
-155.9869645361
20
-58.4992343097
30
0.0000000000
10
-155.6598521536
20
-58.8977499674
30
0.0000000000
10
-155.3515940450
20
-59.4900043874
30
0.0000000000
10
-155.2297772555
20
-59.9227443414
30
0.0000000000
10
-155.1966009398
20
-60.1383903930
30
0.0000000000
11
-156.2563412701
21
-58.2693992460
31
0.0000000000
11
-156.1037056442
21
-58.4013693637
31
0.0000000000
11
-155.6843367440
21
-58.9027808142
31
0.0000000000
11
-155.3695917678
21
-59.5071145729
31
0.0000000000
11
-155.1966009398
21
-60.1383903930
31
0.0000000000
0
SPLINE
5
27B
100
AcDbEntity
8
0
100
AcDbSpline
62
7
6
CONTINUOUS
70
0
71
3
72
8
73
4
74
2
42
0.0000001000
43
0.0000001000
44
0.0000000001
12
-0.0314645122
22
-0.1730548170
32
0.0000000000
13
-0.0518576458
23
-0.1693652948
33
0.0000000000
40
0.0000000000
40
0.0000000000
40
0.0000000000
40
0.0000000000
40
1.0000000000
40
1.0000000000
40
1.0000000000
40
1.0000000000
10
-155.1966009398
20
-95.4722268674
30
0.0000000000
10
-155.2070891105
20
-95.5299118064
30
0.0000000000
10
-155.2206610122
20
-95.5874511246
30
0.0000000000
10
-155.2379468942
20
-95.6439062229
30
0.0000000000
11
-155.1966009398
21
-95.4722268674
31
0.0000000000
11
-155.2379468942
21
-95.6439062229
31
0.0000000000
0
SPLINE
5
27C
100
AcDbEntity
8
0
100
AcDbSpline
62
7
6
CONTINUOUS
70
0
71
3
72
9
73
5
74
3
42
0.0000001000
43
0.0000001000
44
0.0000000001
12
-0.1776805392
22
-0.5802985546
32
0.0000000000
13
-0.4814151313
23
-0.3718925538
33
0.0000000000
40
0.0000000000
40
0.0000000000
40
0.0000000000
40
0.0000000000
40
0.5209494734
40
1.0000000000
40
1.0000000000
40
1.0000000000
40
1.0000000000
10
-155.2379468942
20
-95.6439062229
30
0.0000000000
10
-155.2688010886
20
-95.7446749650
30
0.0000000000
10
-155.3507417104
20
-95.9314769984
30
0.0000000000
10
-155.4894896026
20
-96.0858828471
30
0.0000000000
10
-155.5663636600
20
-96.1452679550
30
0.0000000000
11
-155.2379468942
21
-95.6439062229
31
0.0000000000
11
-155.3695917678
21
-95.9305118596
31
0.0000000000
11
-155.5663636600
21
-96.1452679550
31
0.0000000000
0
SPLINE
5
27D
100
AcDbEntity
8
0
100
AcDbSpline
62
7
6
CONTINUOUS
70
0
71
3
72
8
73
4
74
2
42
0.0000001000
43
0.0000001000
44
0.0000000001
12
-0.1140649553
22
-0.0881150275
32
0.0000000000
13
-0.1283838161
23
-0.0641182480
33
0.0000000000
40
0.0000000000
40
0.0000000000
40
0.0000000000
40
0.0000000000
40
1.0000000000
40
1.0000000000
40
1.0000000000
40
1.0000000000
10
-155.5663636600
20
-96.1452679550
30
0.0000000000
10
-155.6043853117
20
-96.1746396308
30
0.0000000000
10
-155.6449531312
20
-96.2004431410
30
0.0000000000
10
-155.6877477366
20
-96.2218158903
30
0.0000000000
11
-155.5663636600
21
-96.1452679550
31
0.0000000000
11
-155.6877477366
21
-96.2218158903
31
0.0000000000
0
SPLINE
5
27E
100
AcDbEntity
8
0
100
AcDbSpline
62
7
6
CONTINUOUS
70
0
71
3
72
10
73
6
74
4
42
0.0000001000
43
0.0000001000
44
0.0000000001
12
0.0000000000
22
-0.7323445251
32
0.0000000000
13
-0.6550288565
23
-0.3275144282
33
0.0000000000
40
0.0000000000
40
0.0000000000
40
0.0000000000
40
0.0000000000
40
0.3362619791
40
0.6872392329
40
1.0000000000
40
1.0000000000
40
1.0000000000
40
1.0000000000
10
157.3731692610
20
96.2045243314
30
0.0000000000
10
157.3731692610
20
96.1224377916
30
0.0000000000
10
157.3357011602
20
95.9543000993
30
0.0000000000
10
157.2129589573
20
95.7404338273
30
0.0000000000
10
157.0879049796
20
95.6288794888
30
0.0000000000
10
157.0196158704
20
95.5947349342
30
0.0000000000
11
157.3731692610
21
96.2045243314
31
0.0000000000
11
157.3252787261
21
95.9629662704
31
0.0000000000
11
157.1960809602
21
95.7407601015
31
0.0000000000
11
157.0196158704
21
95.5947349342
31
0.0000000000
0
SPLINE
5
27F
100
AcDbEntity
8
0
100
AcDbSpline
62
7
6
CONTINUOUS
70
0
71
3
72
9
73
5
74
3
42
0.0000001000
43
0.0000001000
44
0.0000000001
12
-0.2036671096
22
-0.1018335548
32
0.0000000000
13
-0.2054675380
23
0.1083682865
33
0.0000000000
40
0.0000000000
40
0.0000000000
40
0.0000000000
40
0.0000000000
40
0.7914831957
40
1.0000000000
40
1.0000000000
40
1.0000000000
40
1.0000000000
10
-156.2286881953
20
-61.0294170986
30
0.0000000000
10
-156.2824212269
20
-61.0562836144
30
0.0000000000
10
-156.3647370302
20
-61.0779362057
30
0.0000000000
10
-156.4369065745
20
-61.0501743328
30
0.0000000000
10
-156.4511877193
20
-61.0426421299
30
0.0000000000
11
-156.2286881953
21
-61.0294170986
31
0.0000000000
11
-156.4063682972
21
-61.0596034626
31
0.0000000000
11
-156.4511877193
21
-61.0426421299
31
0.0000000000
0
SPLINE
5
280
100
AcDbEntity
8
0
100
AcDbSpline
62
7
6
CONTINUOUS
70
0
71
3
72
15
73
11
74
9
42
0.0000001000
43
0.0000001000
44
0.0000000001
12
6.6001985956
22
-3.2873864677
32
0.0000000000
13
-6.5610124507
23
-3.2805062254
33
0.0000000000
40
0.0000000000
40
0.0000000000
40
0.0000000000
40
0.0000000000
40
0.0038290851
40
0.1082141413
40
0.2298219586
40
0.3733289413
40
0.5333196397
40
0.6990179146
40
0.8580812375
40
1.0000000000
40
1.0000000000
40
1.0000000000
40
1.0000000000
10
167.6009224702
20
72.1641147415
30
0.0000000000
10
167.6093467108
20
72.1599188474
30
0.0000000000
10
167.8460359353
20
72.0386129533
30
0.0000000000
10
168.2615427465
20
71.6164806803
30
0.0000000000
10
168.5320392909
20
70.7305706567
30
0.0000000000
10
168.5116897366
20
69.6792100996
30
0.0000000000
10
168.2128094074
20
68.5616516174
30
0.0000000000
10
167.6701700222
20
67.4979563349
30
0.0000000000
10
166.9451875654
20
66.6060810155
30
0.0000000000
10
166.3456042531
20
66.1579788516
30
0.0000000000
10
166.0352273305
20
66.0027903903
30
0.0000000000
11
167.6009224702
21
72.1641147415
31
0.0000000000
11
167.6260455023
21
72.1512372080
31
0.0000000000
11
168.1785308554
21
71.6210755226
31
0.0000000000
11
168.4725021716
21
70.7788597902
31
0.0000000000
11
168.4725021716
21
69.7261736580
31
0.0000000000
11
168.1785308554
21
68.5899866094
31
0.0000000000
11
167.6260455023
21
67.5073395709
31
0.0000000000
11
166.8816839998
21
66.6088157534
31
0.0000000000
11
166.0352273305
21
66.0027903903
31
0.0000000000
0
SPLINE
5
281
100
AcDbEntity
8
0
100
AcDbSpline
62
7
6
CONTINUOUS
70
0
71
3
72
9
73
5
74
3
42
0.0000001000
43
0.0000001000
44
0.0000000001
12
-0.1651523944
22
-0.0825761972
32
0.0000000000
13
-0.1652702599
23
0.0874417608
33
0.0000000000
40
0.0000000000
40
0.0000000000
40
0.0000000000
40
0.0000000000
40
0.7832088312
40
1.0000000000
40
1.0000000000
40
1.0000000000
40
1.0000000000
10
156.2417984413
20
95.2058261894
30
0.0000000000
10
156.1986821701
20
95.1842680538
30
0.0000000000
10
156.1315435532
20
95.1673859261
30
0.0000000000
10
156.0736239918
20
95.1898009467
30
0.0000000000
10
156.0616809476
20
95.1961198139
30
0.0000000000
11
156.2417984413
21
95.2058261894
31
0.0000000000
11
156.0991701716
21
95.1819290932
31
0.0000000000
11
156.0616809476
21
95.1961198139
31
0.0000000000
0
SPLINE
5
282
100
AcDbEntity
8
0
100
AcDbSpline
62
7
6
CONTINUOUS
70
0
71
3
72
9
73
5
74
3
42
0.0000001000
43
0.0000001000
44
0.0000000001
12
-1.4418263675
22
-0.7209131837
32
0.0000000000
13
-1.4504377849
23
0.7224251630
33
0.0000000000
40
0.0000000000
40
0.0000000000
40
0.0000000000
40
0.0000000000
40
0.5458654006
40
1.0000000000
40
1.0000000000
40
1.0000000000
40
1.0000000000
10
163.5603535963
20
64.7653535232
30
0.0000000000
10
163.2980058871
20
64.6341796686
30
0.0000000000
10
162.7712227424
20
64.4602866731
30
0.0000000000
10
162.2142231175
20
64.5568475778
30
0.0000000000
10
161.9946584567
20
64.6662069985
30
0.0000000000
11
163.5603535963
21
64.7653535232
31
0.0000000000
11
162.7138969271
21
64.5249222171
31
0.0000000000
11
161.9946584567
21
64.6662069985
31
0.0000000000
0
SPLINE
5
283
100
AcDbEntity
8
0
100
AcDbSpline
62
7
6
CONTINUOUS
70
0
71
3
72
9
73
5
74
3
42
0.0000001000
43
0.0000001000
44
0.0000000001
12
-1.4418263675
22
-0.7209131837
32
0.0000000000
13
-1.4504377849
23
0.7224251630
33
0.0000000000
40
0.0000000000
40
0.0000000000
40
0.0000000000
40
0.0000000000
40
0.5458654006
40
1.0000000000
40
1.0000000000
40
1.0000000000
40
1.0000000000
10
163.5603535963
20
92.2616600934
30
0.0000000000
10
163.2980058871
20
92.1304862388
30
0.0000000000
10
162.7712227424
20
91.9565932432
30
0.0000000000
10
162.2142231175
20
92.0531541479
30
0.0000000000
10
161.9946584567
20
92.1625135686
30
0.0000000000
11
163.5603535963
21
92.2616600934
31
0.0000000000
11
162.7138969271
21
92.0212287872
31
0.0000000000
11
161.9946584567
21
92.1625135686
31
0.0000000000
0
SPLINE
5
284
100
AcDbEntity
8
0
100
AcDbSpline
62
7
6
CONTINUOUS
70
0
71
3
72
10
73
6
74
4
42
0.0000001000
43
0.0000001000
44
0.0000000001
12
0.0901741673
22
-0.5861320876
32
0.0000000000
13
-0.5304203650
23
-0.2652101825
33
0.0000000000
40
0.0000000000
40
0.0000000000
40
0.0000000000
40
0.0000000000
40
0.3428606277
40
0.6890222995
40
1.0000000000
40
1.0000000000
40
1.0000000000
40
1.0000000000
10
-155.1966009398
20
-60.1383903930
30
0.0000000000
10
-155.1862952159
20
-60.2053775982
30
0.0000000000
10
-155.2002029354
20
-60.3464463991
30
0.0000000000
10
-155.2954452759
20
-60.5235658559
30
0.0000000000
10
-155.3958877372
20
-60.6130168998
30
0.0000000000
10
-155.4508707057
20
-60.6405083841
30
0.0000000000
11
-155.1966009398
21
-60.1383903930
31
0.0000000000
11
-155.2129418115
21
-60.3410586400
31
0.0000000000
11
-155.3093005498
21
-60.5223218040
31
0.0000000000
11
-155.4508707057
21
-60.6405083841
31
0.0000000000
0
SPLINE
5
285
100
AcDbEntity
8
0
100
AcDbSpline
62
7
6
CONTINUOUS
70
0
71
3
72
9
73
5
74
3
42
0.0000001000
43
0.0000001000
44
0.0000000001
12
-1.4418263675
22
-0.7209131837
32
0.0000000000
13
-1.4504377849
23
0.7224251630
33
0.0000000000
40
0.0000000000
40
0.0000000000
40
0.0000000000
40
0.0000000000
40
0.5458654006
40
1.0000000000
40
1.0000000000
40
1.0000000000
40
1.0000000000
10
-165.2442996554
20
-99.6369731027
30
0.0000000000
10
-165.5066473646
20
-99.7681469573
30
0.0000000000
10
-166.0334305093
20
-99.9420399528
30
0.0000000000
10
-166.5904301343
20
-99.8454790481
30
0.0000000000
10
-166.8099947951
20
-99.7361196274
30
0.0000000000
11
-165.2442996554
21
-99.6369731027
31
0.0000000000
11
-166.0907563247
21
-99.8774044088
31
0.0000000000
11
-166.8099947951
21
-99.7361196274
31
0.0000000000
0
SPLINE
5
286
100
AcDbEntity
8
0
100
AcDbSpline
62
7
6
CONTINUOUS
70
0
71
3
72
15
73
11
74
9
42
0.0000001000
43
0.0000001000
44
0.0000000001
12
6.5610124507
22
3.2805062254
32
0.0000000000
13
-6.6001985956
23
3.2873864677
33
0.0000000000
40
0.0000000000
40
0.0000000000
40
0.0000000000
40
0.0000000000
40
0.1419187625
40
0.3009820854
40
0.4666803603
40
0.6266710587
40
0.7701780414
40
0.8917858587
40
0.9961709149
40
1.0000000000
40
1.0000000000
40
1.0000000000
40
1.0000000000
10
-162.7694259213
20
-70.9032296654
30
0.0000000000
10
-162.4590489986
20
-70.7480412041
30
0.0000000000
10
-161.8594656863
20
-70.2999390402
30
0.0000000000
10
-161.1344832296
20
-69.4080637208
30
0.0000000000
10
-160.5918438443
20
-68.3443684383
30
0.0000000000
10
-160.2929635152
20
-67.2268099561
30
0.0000000000
10
-160.2726139609
20
-66.1754493990
30
0.0000000000
10
-160.5431105052
20
-65.2895393754
30
0.0000000000
10
-160.9586173164
20
-64.8674071024
30
0.0000000000
10
-161.1953065410
20
-64.7461012083
30
0.0000000000
10
-161.2037307816
20
-64.7419053142
30
0.0000000000
11
-162.7694259213
21
-70.9032296654
31
0.0000000000
11
-161.9229692520
21
-70.2972043023
31
0.0000000000
11
-161.1786077494
21
-69.3986804849
31
0.0000000000
11
-160.6261223963
21
-68.3160334463
31
0.0000000000
11
-160.3321510801
21
-67.1798463978
31
0.0000000000
11
-160.3321510801
21
-66.1271602655
31
0.0000000000
11
-160.6261223963
21
-65.2849445331
31
0.0000000000
11
-161.1786077494
21
-64.7547828477
31
0.0000000000
11
-161.2037307816
21
-64.7419053142
31
0.0000000000
0
SPLINE
5
287
100
AcDbEntity
8
0
100
AcDbSpline
62
7
6
CONTINUOUS
70
0
71
3
72
15
73
11
74
9
42
0.0000001000
43
0.0000001000
44
0.0000000001
12
6.6001985956
22
-3.2873864677
32
0.0000000000
13
-6.5610124507
23
-3.2805062254
33
0.0000000000
40
0.0000000000
40
0.0000000000
40
0.0000000000
40
0.0000000000
40
0.0038290851
40
0.1082141413
40
0.2298219586
40
0.3733289413
40
0.5333196397
40
0.6990179146
40
0.8580812375
40
1.0000000000
40
1.0000000000
40
1.0000000000
40
1.0000000000
10
167.6009224702
20
99.6604213117
30
0.0000000000
10
167.6093467108
20
99.6562254175
30
0.0000000000
10
167.8460359353
20
99.5349195235
30
0.0000000000
10
168.2615427465
20
99.1127872505
30
0.0000000000
10
168.5320392909
20
98.2268772269
30
0.0000000000
10
168.5116897366
20
97.1755166697
30
0.0000000000
10
168.2128094074
20
96.0579581876
30
0.0000000000
10
167.6701700222
20
94.9942629051
30
0.0000000000
10
166.9451875654
20
94.1023875856
30
0.0000000000
10
166.3456042531
20
93.6542854218
30
0.0000000000
10
166.0352273305
20
93.4990969604
30
0.0000000000
11
167.6009224702
21
99.6604213117
31
0.0000000000
11
167.6260455023
21
99.6475437782
31
0.0000000000
11
168.1785308554
21
99.1173820928
31
0.0000000000
11
168.4725021716
21
98.2751663604
31
0.0000000000
11
168.4725021716
21
97.2224802281
31
0.0000000000
11
168.1785308554
21
96.0862931795
31
0.0000000000
11
167.6260455023
21
95.0036461410
31
0.0000000000
11
166.8816839998
21
94.1051223236
31
0.0000000000
11
166.0352273305
21
93.4990969604
31
0.0000000000
0
SPLINE
5
288
100
AcDbEntity
8
0
100
AcDbSpline
62
7
6
CONTINUOUS
70
0
71
3
72
8
73
4
74
2
42
0.0000001000
43
0.0000001000
44
0.0000000001
12
0.0000000000
22
-0.6914920272
32
0.0000000000
13
0.1300832574
23
-0.6821224560
33
0.0000000000
40
0.0000000000
40
0.0000000000
40
0.0000000000
40
0.0000000000
40
1.0000000000
40
1.0000000000
40
1.0000000000
40
1.0000000000
10
-170.0172704284
20
-100.8326735590
30
0.0000000000
10
-170.0172704284
20
-101.0631709014
30
0.0000000000
10
-169.9989292392
20
-101.2949339834
30
0.0000000000
10
-169.9555681535
20
-101.5223081355
30
0.0000000000
11
-170.0172704284
21
-100.8326735590
31
0.0000000000
11
-169.9555681535
21
-101.5223081355
31
0.0000000000
0
SPLINE
5
289
100
AcDbEntity
8
0
100
AcDbSpline
62
7
6
CONTINUOUS
70
0
71
3
72
10
73
6
74
4
42
0.0000001000
43
0.0000001000
44
0.0000000001
12
0.3423028439
22
-1.7949462617
32
0.0000000000
13
1.6361486463
23
-0.8277367016
33
0.0000000000
40
0.0000000000
40
0.0000000000
40
0.0000000000
40
0.0000000000
40
0.1729088829
40
0.6510315393
40
1.0000000000
40
1.0000000000
40
1.0000000000
40
1.0000000000
10
-169.9555681535
20
-101.5223081355
30
0.0000000000
10
-169.9358390860
20
-101.6257621864
30
0.0000000000
10
-169.8420535951
20
-102.0118633711
30
0.0000000000
10
-169.5715094087
20
-102.5735405987
30
0.0000000000
10
-169.1668839382
20
-102.8998015787
30
0.0000000000
10
-168.9765625133
20
-102.9960862462
30
0.0000000000
11
-169.9555681535
21
-101.5223081355
31
0.0000000000
11
-169.8802129874
21
-101.8294118652
31
0.0000000000
11
-169.4761286231
21
-102.5998682958
31
0.0000000000
11
-168.9765625133
21
-102.9960862462
31
0.0000000000
0
SPLINE
5
28A
100
AcDbEntity
8
0
100
AcDbSpline
62
7
6
CONTINUOUS
70
0
71
3
72
12
73
8
74
6
42
0.0000001000
43
0.0000001000
44
0.0000000001
12
-5.2587989790
22
-2.6293994895
32
0.0000000000
13
0.0000000000
23
-5.8795159985
33
0.0000000000
40
0.0000000000
40
0.0000000000
40
0.0000000000
40
0.0000000000
40
0.1799851551
40
0.3830908498
40
0.5948092582
40
0.8055872959
40
1.0000000000
40
1.0000000000
40
1.0000000000
40
1.0000000000
10
-167.1888433037
20
-64.7774438452
30
0.0000000000
10
-167.5043452202
20
-64.9351948035
30
0.0000000000
10
-168.1226259055
20
-65.3795431175
30
0.0000000000
10
-168.8949299160
20
-66.2627051223
30
0.0000000000
10
-169.5117226799
20
-67.3312582820
30
0.0000000000
10
-169.9120375229
20
-68.4793397696
30
0.0000000000
10
-170.0172704284
20
-69.2747414880
30
0.0000000000
10
-170.0172704284
20
-69.6557590227
30
0.0000000000
11
-167.1888433037
21
-64.7774438452
31
0.0000000000
11
-168.0586301888
21
-65.3801976858
31
0.0000000000
11
-168.8526719810
21
-66.2721188347
31
0.0000000000
11
-169.4768943141
21
-67.3490951223
31
0.0000000000
11
-169.8799838616
21
-68.5209807824
31
0.0000000000
11
-170.0172704284
21
-69.6557590227
31
0.0000000000
0
SPLINE
5
28B
100
AcDbEntity
8
0
100
AcDbSpline
62
7
6
CONTINUOUS
70
0
71
3
72
15
73
11
74
9
42
0.0000001000
43
0.0000001000
44
0.0000000001
12
6.6001985956
22
-3.2873864677
32
0.0000000000
13
-6.5610124507
23
-3.2805062254
33
0.0000000000
40
0.0000000000
40
0.0000000000
40
0.0000000000
40
0.0000000000
40
0.0038290851
40
0.1082141413
40
0.2298219586
40
0.3733289413
40
0.5333196397
40
0.6990179146
40
0.8580812375
40
1.0000000000
40
1.0000000000
40
1.0000000000
40
1.0000000000
10
-161.2037307816
20
-92.2382118844
30
0.0000000000
10
-161.1953065410
20
-92.2424077785
30
0.0000000000
10
-160.9586173164
20
-92.3637136726
30
0.0000000000
10
-160.5431105052
20
-92.7858459455
30
0.0000000000
10
-160.2726139609
20
-93.6717559692
30
0.0000000000
10
-160.2929635152
20
-94.7231165263
30
0.0000000000
10
-160.5918438443
20
-95.8406750084
30
0.0000000000
10
-161.1344832296
20
-96.9043702910
30
0.0000000000
10
-161.8594656863
20
-97.7962456104
30
0.0000000000
10
-162.4590489986
20
-98.2443477743
30
0.0000000000
10
-162.7694259213
20
-98.3995362356
30
0.0000000000
11
-161.2037307816
21
-92.2382118844
31
0.0000000000
11
-161.1786077494
21
-92.2510894178
31
0.0000000000
11
-160.6261223963
21
-92.7812511033
31
0.0000000000
11
-160.3321510801
21
-93.6234668357
31
0.0000000000
11
-160.3321510801
21
-94.6761529679
31
0.0000000000
11
-160.6261223963
21
-95.8123400165
31
0.0000000000
11
-161.1786077494
21
-96.8949870550
31
0.0000000000
11
-161.9229692520
21
-97.7935108724
31
0.0000000000
11
-162.7694259213
21
-98.3995362356
31
0.0000000000
0
SPLINE
5
28C
100
AcDbEntity
8
0
100
AcDbSpline
62
7
6
CONTINUOUS
70
0
71
3
72
9
73
5
74
3
42
0.0000001000
43
0.0000001000
44
0.0000000001
12
1.4504377849
22
-0.7224251630
32
0.0000000000
13
1.4418263675
23
0.7209131837
33
0.0000000000
40
0.0000000000
40
0.0000000000
40
0.0000000000
40
0.0000000000
40
0.4541345994
40
1.0000000000
40
1.0000000000
40
1.0000000000
40
1.0000000000
10
-166.8099947951
20
-72.2398130573
30
0.0000000000
10
-166.5904301343
20
-72.3491724779
30
0.0000000000
10
-166.0334305093
20
-72.4457333826
30
0.0000000000
10
-165.5066473646
20
-72.2718403871
30
0.0000000000
10
-165.2442996554
20
-72.1406665325
30
0.0000000000
11
-166.8099947951
21
-72.2398130573
31
0.0000000000
11
-166.0907563247
21
-72.3810978386
31
0.0000000000
11
-165.2442996554
21
-72.1406665325
31
0.0000000000
0
SPLINE
5
28D
100
AcDbEntity
8
0
100
AcDbSpline
62
7
6
CONTINUOUS
70
0
71
3
72
9
73
5
74
3
42
0.0000001000
43
0.0000001000
44
0.0000000001
12
0.1593516513
22
-0.0847676858
32
0.0000000000
13
0.0001382222
23
-0.1806013017
33
0.0000000000
40
0.0000000000
40
0.0000000000
40
0.0000000000
40
0.0000000000
40
0.4771145928
40
1.0000000000
40
1.0000000000
40
1.0000000000
40
1.0000000000
10
-155.2741052302
20
-95.2705037464
30
0.0000000000
10
-155.2487622308
20
-95.2839850464
30
0.0000000000
10
-155.2027889160
20
-95.3272154039
30
0.0000000000
10
-155.1915965536
20
-95.3873439240
30
0.0000000000
10
-155.1915724622
20
-95.4188218524
30
0.0000000000
11
-155.2741052302
21
-95.2705037464
31
0.0000000000
11
-155.2128106301
21
-95.3290833848
31
0.0000000000
11
-155.1915724622
21
-95.4188218524
31
0.0000000000
0
SPLINE
5
28E
100
AcDbEntity
8
0
100
AcDbSpline
62
7
6
CONTINUOUS
70
0
71
3
72
8
73
4
74
2
42
0.0000001000
43
0.0000001000
44
0.0000000001
12
0.0000415092
22
-0.0542359305
32
0.0000000000
13
-0.0094010862
23
-0.0517059742
33
0.0000000000
40
0.0000000000
40
0.0000000000
40
0.0000000000
40
0.0000000000
40
1.0000000000
40
1.0000000000
40
1.0000000000
40
1.0000000000
10
-155.1915724622
20
-95.4188218524
30
0.0000000000
10
-155.1915586258
20
-95.4369004959
30
0.0000000000
10
-155.1934672444
20
-95.4549915427
30
0.0000000000
10
-155.1966009398
20
-95.4722268674
30
0.0000000000
11
-155.1915724622
21
-95.4188218524
31
0.0000000000
11
-155.1966009398
21
-95.4722268674
31
0.0000000000
0
SPLINE
5
28F
100
AcDbEntity
8
0
100
AcDbSpline
62
7
6
CONTINUOUS
70
0
71
3
72
10
73
6
74
4
42
0.0000001000
43
0.0000001000
44
0.0000000001
12
-0.0001638944
22
-1.2151058201
32
0.0000000000
13
1.0181199322
23
-0.6283466395
33
0.0000000000
40
0.0000000000
40
0.0000000000
40
0.0000000000
40
0.0000000000
40
0.1958596482
40
0.6436692566
40
1.0000000000
40
1.0000000000
40
1.0000000000
40
1.0000000000
10
-161.3472016270
20
-55.0546601813
30
0.0000000000
10
-161.3472123271
20
-55.1339902474
30
0.0000000000
10
-161.3101457473
20
-55.3946956460
30
0.0000000000
10
-161.0630339540
20
-55.7296685063
30
0.0000000000
10
-160.8050177780
20
-55.9228398798
30
0.0000000000
10
-160.6840886339
20
-55.9974729549
30
0.0000000000
11
-161.3472016270
21
-55.0546601813
31
0.0000000000
11
-161.3133594140
21
-55.2884731124
31
0.0000000000
11
-161.0220374941
21
-55.7366825788
31
0.0000000000
11
-160.6840886339
21
-55.9974729549
31
0.0000000000
0
SPLINE
5
290
100
AcDbEntity
8
0
100
AcDbSpline
62
7
6
CONTINUOUS
70
0
71
3
72
8
73
4
74
2
42
0.0000001000
43
0.0000001000
44
0.0000000001
12
0.2072423685
22
-0.1279024619
32
0.0000000000
13
0.2173361920
23
-0.1086680960
33
0.0000000000
40
0.0000000000
40
0.0000000000
40
0.0000000000
40
0.0000000000
40
1.0000000000
40
1.0000000000
40
1.0000000000
40
1.0000000000
10
-160.6840886339
20
-55.9974729549
30
0.0000000000
10
-160.6150078444
20
-56.0401071089
30
0.0000000000
10
-160.5437742797
20
-56.0791630770
30
0.0000000000
10
-160.4713288824
20
-56.1153857757
30
0.0000000000
11
-160.6840886339
21
-55.9974729549
31
0.0000000000
11
-160.4713288824
21
-56.1153857757
31
0.0000000000
0
SPLINE
5
291
100
AcDbEntity
8
0
100
AcDbSpline
62
7
6
CONTINUOUS
70
0
71
3
72
10
73
6
74
4
42
0.0000001000
43
0.0000001000
44
0.0000000001
12
-1.3668492592
22
0.6914966436
32
0.0000000000
13
-1.4328229106
23
-0.5321814608
33
0.0000000000
40
0.0000000000
40
0.0000000000
40
0.0000000000
40
0.0000000000
40
0.0895246980
40
0.6146600399
40
1.0000000000
40
1.0000000000
40
1.0000000000
40
1.0000000000
10
169.7674901884
20
102.9203879305
30
0.0000000000
10
169.7267012661
20
102.9410232732
30
0.0000000000
10
169.4404708335
20
103.0696547422
30
0.0000000000
10
168.9152622583
20
103.1205438445
30
0.0000000000
10
168.4624016648
20
103.0054896141
30
0.0000000000
10
168.2783603571
20
102.9371326865
30
0.0000000000
11
169.7674901884
21
102.9203879305
31
0.0000000000
11
169.6425465419
21
102.9764282030
31
0.0000000000
11
168.8502665259
21
103.0739700509
31
0.0000000000
11
168.2783603571
21
102.9371326865
31
0.0000000000
0
SPLINE
5
292
100
AcDbEntity
8
0
100
AcDbSpline
62
7
6
CONTINUOUS
70
0
71
3
72
8
73
4
74
2
42
0.0000001000
43
0.0000001000
44
0.0000000001
12
-0.3061463286
22
-0.1137093769
32
0.0000000000
13
-0.2905063818
23
-0.1452531909
33
0.0000000000
40
0.0000000000
40
0.0000000000
40
0.0000000000
40
0.0000000000
40
1.0000000000
40
1.0000000000
40
1.0000000000
40
1.0000000000
10
168.2783603571
20
102.9371326865
30
0.0000000000
10
168.1763115809
20
102.8992295609
30
0.0000000000
10
168.0766064393
20
102.8552810263
30
0.0000000000
10
167.9797709788
20
102.8068632960
30
0.0000000000
11
168.2783603571
21
102.9371326865
31
0.0000000000
11
167.9797709788
21
102.8068632960
31
0.0000000000
0
SPLINE
5
293
100
AcDbEntity
8
0
100
AcDbSpline
62
7
6
CONTINUOUS
70
0
71
3
72
9
73
5
74
3
42
0.0000001000
43
0.0000001000
44
0.0000000001
12
0.2797649225
22
-0.1475544292
32
0.0000000000
13
0.0000000000
23
-0.3100458697
33
0.0000000000
40
0.0000000000
40
0.0000000000
40
0.0000000000
40
0.0000000000
40
0.3606454202
40
1.0000000000
40
1.0000000000
40
1.0000000000
40
1.0000000000
10
157.2421153944
20
60.9669438141
30
0.0000000000
10
157.2757473737
20
60.9492055378
30
0.0000000000
10
157.3572010347
20
60.8732110301
30
0.0000000000
10
157.3731692610
20
60.7635591918
30
0.0000000000
10
157.3731692610
20
60.6974827763
30
0.0000000000
11
157.2421153944
21
60.9669438141
31
0.0000000000
11
157.3259817824
21
60.8900137507
31
0.0000000000
11
157.3731692610
21
60.6974827763
31
0.0000000000
0
SPLINE
5
294
100
AcDbEntity
8
0
100
AcDbSpline
62
7
6
CONTINUOUS
70
0
71
3
72
12
73
8
74
6
42
0.0000001000
43
0.0000001000
44
0.0000000001
12
5.0531477192
22
2.5265738596
32
0.0000000000
13
-0.8648515955
23
5.6198250299
33
0.0000000000
40
0.0000000000
40
0.0000000000
40
0.0000000000
40
0.0000000000
40
0.1842674744
40
0.3907954644
40
0.6059382833
40
0.8136703788
40
1.0000000000
40
1.0000000000
40
1.0000000000
40
1.0000000000
10
-163.8300860930
20
-70.3728995795
30
0.0000000000
10
-163.5197091704
20
-70.2177111182
30
0.0000000000
10
-162.9201258581
20
-69.7696089544
30
0.0000000000
10
-162.1951434014
20
-68.8777336349
30
0.0000000000
10
-161.6525040161
20
-67.8140383524
30
0.0000000000
10
-161.3536236870
20
-66.6964798702
30
0.0000000000
10
-161.3390954285
20
-65.9458768026
30
0.0000000000
10
-161.3928112519
20
-65.5968301796
30
0.0000000000
11
-163.8300860930
21
-70.3728995795
31
0.0000000000
11
-162.9836294238
21
-69.7668742164
31
0.0000000000
11
-162.2392679212
21
-68.8683503990
31
0.0000000000
11
-161.6867825681
21
-67.7857033605
31
0.0000000000
11
-161.3928112519
21
-66.6495163119
31
0.0000000000
11
-161.3928112519
21
-65.5968301796
31
0.0000000000
0
SPLINE
5
295
100
AcDbEntity
8
0
100
AcDbSpline
62
7
6
CONTINUOUS
70
0
71
3
72
8
73
4
74
2
42
0.0000001000
43
0.0000001000
44
0.0000000001
12
-0.1365563663
22
0.8873463254
32
0.0000000000
13
-0.4782844527
23
0.7646029599
33
0.0000000000
40
0.0000000000
40
0.0000000000
40
0.0000000000
40
0.0000000000
40
1.0000000000
40
1.0000000000
40
1.0000000000
40
1.0000000000
10
-161.3928112519
20
-65.5968301796
30
0.0000000000
10
-161.4383300407
20
-65.3010480711
30
0.0000000000
10
-161.5273544172
20
-65.0094821005
30
0.0000000000
10
-161.6867825681
20
-64.7546144472
30
0.0000000000
11
-161.3928112519
21
-65.5968301796
31
0.0000000000
11
-161.6867825681
21
-64.7546144472
31
0.0000000000
0
SPLINE
5
296
100
AcDbEntity
8
0
100
AcDbSpline
62
7
6
CONTINUOUS
70
0
71
3
72
8
73
4
74
2
42
0.0000001000
43
0.0000001000
44
0.0000000001
12
-0.0988044731
22
0.1579524321
32
0.0000000000
13
-0.1162594289
23
0.1466723924
33
0.0000000000
40
0.0000000000
40
0.0000000000
40
0.0000000000
40
0.0000000000
40
1.0000000000
40
1.0000000000
40
1.0000000000
40
1.0000000000
10
-161.6867825681
20
-64.7546144472
30
0.0000000000
10
-161.7197173925
20
-64.7019636365
30
0.0000000000
10
-161.7556567474
20
-64.6508789523
30
0.0000000000
10
-161.7944098904
20
-64.6019881548
30
0.0000000000
11
-161.6867825681
21
-64.7546144472
31
0.0000000000
11
-161.7944098904
21
-64.6019881548
31
0.0000000000
0
SPLINE
5
297
100
AcDbEntity
8
0
100
AcDbSpline
62
7
6
CONTINUOUS
70
0
71
3
72
8
73
4
74
2
42
0.0000001000
43
0.0000001000
44
0.0000000001
12
-0.7870431276
22
-0.3935215638
32
0.0000000000
13
-0.8896688033
23
-0.0430058456
33
0.0000000000
40
0.0000000000
40
0.0000000000
40
0.0000000000
40
0.0000000000
40
1.0000000000
40
1.0000000000
40
1.0000000000
40
1.0000000000
10
-166.3049598272
20
-99.1066430168
30
0.0000000000
10
-166.5673075364
20
-99.2378168714
30
0.0000000000
10
-166.8548602287
20
-99.3327390410
30
0.0000000000
10
-167.1514164965
20
-99.3470743229
30
0.0000000000
11
-166.3049598272
21
-99.1066430168
31
0.0000000000
11
-167.1514164965
21
-99.3470743229
31
0.0000000000
0
SPLINE
5
298
100
AcDbEntity
8
0
100
AcDbSpline
62
7
6
CONTINUOUS
70
0
71
3
72
8
73
4
74
2
42
0.0000001000
43
0.0000001000
44
0.0000000001
12
-0.7870431276
22
-0.3935215638
32
0.0000000000
13
-0.8896688033
23
-0.0430058456
33
0.0000000000
40
0.0000000000
40
0.0000000000
40
0.0000000000
40
0.0000000000
40
1.0000000000
40
1.0000000000
40
1.0000000000
40
1.0000000000
10
162.4996934246
20
92.7919901792
30
0.0000000000
10
162.2373457154
20
92.6608163246
30
0.0000000000
10
161.9497930230
20
92.5658941550
30
0.0000000000
10
161.6532367553
20
92.5515588731
30
0.0000000000
11
162.4996934246
21
92.7919901792
31
0.0000000000
11
161.6532367553
21
92.5515588731
31
0.0000000000
0
SPLINE
5
299
100
AcDbEntity
8
0
100
AcDbSpline
62
7
6
CONTINUOUS
70
0
71
3
72
8
73
4
74
2
42
0.0000001000
43
0.0000001000
44
0.0000000001
12
-0.7870431276
22
-0.3935215638
32
0.0000000000
13
-0.8896688033
23
-0.0430058456
33
0.0000000000
40
0.0000000000
40
0.0000000000
40
0.0000000000
40
0.0000000000
40
1.0000000000
40
1.0000000000
40
1.0000000000
40
1.0000000000
10
162.4996934246
20
65.2956836091
30
0.0000000000
10
162.2373457154
20
65.1645097545
30
0.0000000000
10
161.9497930230
20
65.0695875848
30
0.0000000000
10
161.6532367553
20
65.0552523030
30
0.0000000000
11
162.4996934246
21
65.2956836091
31
0.0000000000
11
161.6532367553
21
65.0552523030
31
0.0000000000
0
SPLINE
5
29A
100
AcDbEntity
8
0
100
AcDbSpline
62
7
6
CONTINUOUS
70
0
71
3
72
10
73
6
74
4
42
0.0000001000
43
0.0000001000
44
0.0000000001
12
1.6501313732
22
0.8250656866
32
0.0000000000
13
1.6588992254
23
-0.8392463461
33
0.0000000000
40
0.0000000000
40
0.0000000000
40
0.0000000000
40
0.0000000000
40
0.4935511408
40
0.9262361660
40
1.0000000000
40
1.0000000000
40
1.0000000000
40
1.0000000000
10
166.9191108070
20
103.3371933819
30
0.0000000000
10
167.1905855475
20
103.4729307522
30
0.0000000000
10
167.7423825820
20
103.6617472294
30
0.0000000000
10
168.3798106618
20
103.5999848280
30
0.0000000000
10
168.6660410943
20
103.4713533591
30
0.0000000000
10
168.7068300166
20
103.4507180164
30
0.0000000000
11
166.9191108070
21
103.3371933819
31
0.0000000000
11
167.7896063541
21
103.6043001368
31
0.0000000000
11
168.5818863701
21
103.5067582889
31
0.0000000000
11
168.7068300166
21
103.4507180164
31
0.0000000000
0
SPLINE
5
29B
100
AcDbEntity
8
0
100
AcDbSpline
62
7
6
CONTINUOUS
70
0
71
3
72
12
73
8
74
6
42
0.0000001000
43
0.0000001000
44
0.0000000001
12
0.0000000000
22
5.8795159985
32
0.0000000000
13
5.2587989790
23
2.6293994895
33
0.0000000000
40
0.0000000000
40
0.0000000000
40
0.0000000000
40
0.0000000000
40
0.1944127041
40
0.4051907418
40
0.6169091502
40
0.8200148449
40
1.0000000000
40
1.0000000000
40
1.0000000000
40
1.0000000000
10
-171.0779306002
20
-69.1254289368
30
0.0000000000
10
-171.0779306002
20
-68.7444114021
30
0.0000000000
10
-170.9726976947
20
-67.9490096837
30
0.0000000000
10
-170.5723828517
20
-66.8009281961
30
0.0000000000
10
-169.9555900878
20
-65.7323750364
30
0.0000000000
10
-169.1832860773
20
-64.8492130316
30
0.0000000000
10
-168.5650053920
20
-64.4048647176
30
0.0000000000
10
-168.2495034755
20
-64.2471137593
30
0.0000000000
11
-171.0779306002
21
-69.1254289368
31
0.0000000000
11
-170.9406440334
21
-67.9906506965
31
0.0000000000
11
-170.5375544859
21
-66.8187650364
31
0.0000000000
11
-169.9133321528
21
-65.7417887488
31
0.0000000000
11
-169.1192903606
21
-64.8498675999
31
0.0000000000
11
-168.2495034755
21
-64.2471137593
31
0.0000000000
0
SPLINE
5
29C
100
AcDbEntity
8
0
100
AcDbSpline
62
7
6
CONTINUOUS
70
0
71
3
72
10
73
6
74
4
42
0.0000001000
43
0.0000001000
44
0.0000000001
12
-2.2579242152
22
1.1422964206
32
0.0000000000
13
0.0000000000
23
2.5110935053
33
0.0000000000
40
0.0000000000
40
0.0000000000
40
0.0000000000
40
0.0000000000
40
0.2528713190
40
0.5993310150
40
1.0000000000
40
1.0000000000
40
1.0000000000
40
1.0000000000
10
-170.0372226851
20
-102.4657561603
30
0.0000000000
10
-170.2275441100
20
-102.3694714928
30
0.0000000000
10
-170.6321695805
20
-102.0432105128
30
0.0000000000
10
-171.0055270203
20
-101.2680825217
30
0.0000000000
10
-171.0779306002
20
-100.6377159018
30
0.0000000000
10
-171.0779306002
20
-100.3023434731
30
0.0000000000
11
-170.0372226851
21
-102.4657561603
31
0.0000000000
11
-170.5367887949
21
-102.0695382099
31
0.0000000000
11
-170.9408731592
21
-101.2990817793
31
0.0000000000
11
-171.0779306002
21
-100.3023434731
31
0.0000000000
0
SPLINE
5
29D
100
AcDbEntity
8
0
100
AcDbSpline
62
7
6
CONTINUOUS
70
0
71
3
72
9
73
5
74
3
42
0.0000001000
43
0.0000001000
44
0.0000000001
12
0.2581825949
22
-0.1290912974
32
0.0000000000
13
0.1663153114
23
-0.2359280242
33
0.0000000000
40
0.0000000000
40
0.0000000000
40
0.0000000000
40
0.0000000000
40
0.4862094622
40
1.0000000000
40
1.0000000000
40
1.0000000000
40
1.0000000000
10
-156.5822415859
20
-59.3589675296
30
0.0000000000
10
-156.5403979790
20
-59.3798893331
30
0.0000000000
10
-156.4615776208
20
-59.4376178912
30
0.0000000000
10
-156.3985932959
20
-59.5112302250
30
0.0000000000
10
-156.3701095515
20
-59.5516360872
30
0.0000000000
11
-156.5822415859
21
-59.3589675296
31
0.0000000000
11
-156.4674952037
21
-59.4397805943
31
0.0000000000
11
-156.3701095515
21
-59.5516360872
31
0.0000000000
0
SPLINE
5
29E
100
AcDbEntity
8
0
100
AcDbSpline
62
7
6
CONTINUOUS
70
0
71
3
72
8
73
4
74
2
42
0.0000001000
43
0.0000001000
44
0.0000000001
12
0.1162594289
22
-0.1466723924
32
0.0000000000
13
0.0988044731
23
-0.1579524321
33
0.0000000000
40
0.0000000000
40
0.0000000000
40
0.0000000000
40
0.0000000000
40
1.0000000000
40
1.0000000000
40
1.0000000000
40
1.0000000000
10
167.0102433614
20
72.3040319009
30
0.0000000000
10
167.0489965044
20
72.2551411034
30
0.0000000000
10
167.0849358593
20
72.2040564192
30
0.0000000000
10
167.1178706836
20
72.1514056085
30
0.0000000000
11
167.0102433614
21
72.3040319009
31
0.0000000000
11
167.1178706836
21
72.1514056085
31
0.0000000000
0
SPLINE
5
29F
100
AcDbEntity
8
0
100
AcDbSpline
62
7
6
CONTINUOUS
70
0
71
3
72
8
73
4
74
2
42
0.0000001000
43
0.0000001000
44
0.0000000001
12
0.3105125147
22
-0.4963966244
32
0.0000000000
13
0.1545474498
23
-0.5625389216
33
0.0000000000
40
0.0000000000
40
0.0000000000
40
0.0000000000
40
0.0000000000
40
1.0000000000
40
1.0000000000
40
1.0000000000
40
1.0000000000
10
167.1178706836
20
72.1514056085
30
0.0000000000
10
167.2213748552
20
71.9859400671
30
0.0000000000
10
167.2952046483
20
71.8050066083
30
0.0000000000
10
167.3467204649
20
71.6174936345
30
0.0000000000
11
167.1178706836
21
72.1514056085
31
0.0000000000
11
167.3467204649
21
71.6174936345
31
0.0000000000
0
SPLINE
5
2A0
100
AcDbEntity
8
0
100
AcDbSpline
62
7
6
CONTINUOUS
70
0
71
3
72
8
73
4
74
2
42
0.0000001000
43
0.0000001000
44
0.0000000001
12
0.0835029957
22
-0.3039434504
32
0.0000000000
13
0.0479010474
23
-0.3112620782
33
0.0000000000
40
0.0000000000
40
0.0000000000
40
0.0000000000
40
0.0000000000
40
1.0000000000
40
1.0000000000
40
1.0000000000
40
1.0000000000
10
167.3467204649
20
71.6174936345
30
0.0000000000
10
167.3745547968
20
71.5161791510
30
0.0000000000
10
167.3958749840
20
71.4129439022
30
0.0000000000
10
167.4118419998
20
71.3091898761
30
0.0000000000
11
167.3467204649
21
71.6174936345
31
0.0000000000
11
167.4118419998
21
71.3091898761
31
0.0000000000
0
SPLINE
5
2A1
100
AcDbEntity
8
0
100
AcDbSpline
62
7
6
CONTINUOUS
70
0
71
3
72
12
73
8
74
6
42
0.0000001000
43
0.0000001000
44
0.0000000001
12
0.8648515955
22
-5.6198250299
32
0.0000000000
13
-5.0531477192
23
-2.5265738596
33
0.0000000000
40
0.0000000000
40
0.0000000000
40
0.0000000000
40
0.0000000000
40
0.1863296212
40
0.3940617167
40
0.6092045356
40
0.8157325256
40
1.0000000000
40
1.0000000000
40
1.0000000000
40
1.0000000000
10
167.4118419998
20
71.3091898761
30
0.0000000000
10
167.4655578232
20
70.9601432531
30
0.0000000000
10
167.4510295648
20
70.2095401855
30
0.0000000000
10
167.1521492356
20
69.0919817033
30
0.0000000000
10
166.6095098504
20
68.0282864208
30
0.0000000000
10
165.8845273936
20
67.1364111014
30
0.0000000000
10
165.2849440814
20
66.6883089375
30
0.0000000000
10
164.9745671587
20
66.5331204762
30
0.0000000000
11
167.4118419998
21
71.3091898761
31
0.0000000000
11
167.4118419998
21
70.2565037438
31
0.0000000000
11
167.1178706836
21
69.1203166953
31
0.0000000000
11
166.5653853306
21
68.0376696567
31
0.0000000000
11
165.8210238280
21
67.1391458393
31
0.0000000000
11
164.9745671587
21
66.5331204762
31
0.0000000000
0
SPLINE
5
2A2
100
AcDbEntity
8
0
100
AcDbSpline
62
7
6
CONTINUOUS
70
0
71
3
72
8
73
4
74
2
42
0.0000001000
43
0.0000001000
44
0.0000000001
12
-0.4161215973
22
0.2080607986
32
0.0000000000
13
-0.3696541690
23
0.2860644091
33
0.0000000000
40
0.0000000000
40
0.0000000000
40
0.0000000000
40
0.0000000000
40
1.0000000000
40
1.0000000000
40
1.0000000000
40
1.0000000000
10
-160.4713288824
20
-57.4144238814
30
0.0000000000
10
-160.6100360815
20
-57.3450702818
30
0.0000000000
10
-160.7443008665
20
-57.2653303002
30
0.0000000000
10
-160.8675189228
20
-57.1699754971
30
0.0000000000
11
-160.4713288824
21
-57.4144238814
31
0.0000000000
11
-160.8675189228
21
-57.1699754971
31
0.0000000000
0
SPLINE
5
2A3
100
AcDbEntity
8
0
100
AcDbSpline
62
7
6
CONTINUOUS
70
0
71
3
72
10
73
6
74
4
42
0.0000001000
43
0.0000001000
44
0.0000000001
12
-0.7718917157
22
0.5973441290
32
0.0000000000
13
0.0001333806
23
0.9888779272
33
0.0000000000
40
0.0000000000
40
0.0000000000
40
0.0000000000
40
0.0000000000
40
0.2090770373
40
0.7593330867
40
1.0000000000
40
1.0000000000
40
1.0000000000
40
1.0000000000
10
-160.8675189228
20
-57.1699754971
30
0.0000000000
10
-160.9213138672
20
-57.1283451835
30
0.0000000000
10
-161.1090411242
20
-56.9663415051
30
0.0000000000
10
-161.3101457473
20
-56.6937337517
30
0.0000000000
10
-161.3472123271
20
-56.4330283531
30
0.0000000000
10
-161.3472016270
20
-56.3536982870
30
0.0000000000
11
-160.8675189228
21
-57.1699754971
31
0.0000000000
11
-161.0220374941
21
-57.0357206845
31
0.0000000000
11
-161.3133594140
21
-56.5875112181
31
0.0000000000
11
-161.3472016270
21
-56.3536982870
31
0.0000000000
0
SPLINE
5
2A4
100
AcDbEntity
8
0
100
AcDbSpline
62
7
6
CONTINUOUS
70
0
71
3
72
8
73
4
74
2
42
0.0000001000
43
0.0000001000
44
0.0000000001
12
0.1162594289
22
-0.1466723924
32
0.0000000000
13
0.0988044731
23
-0.1579524321
33
0.0000000000
40
0.0000000000
40
0.0000000000
40
0.0000000000
40
0.0000000000
40
1.0000000000
40
1.0000000000
40
1.0000000000
40
1.0000000000
10
167.0102433614
20
99.8003384711
30
0.0000000000
10
167.0489965044
20
99.7514476736
30
0.0000000000
10
167.0849358593
20
99.7003629894
30
0.0000000000
10
167.1178706836
20
99.6477121787
30
0.0000000000
11
167.0102433614
21
99.8003384711
31
0.0000000000
11
167.1178706836
21
99.6477121787
31
0.0000000000
0
SPLINE
5
2A5
100
AcDbEntity
8
0
100
AcDbSpline
62
7
6
CONTINUOUS
70
0
71
3
72
8
73
4
74
2
42
0.0000001000
43
0.0000001000
44
0.0000000001
12
0.3105125147
22
-0.4963966244
32
0.0000000000
13
0.1545474498
23
-0.5625389216
33
0.0000000000
40
0.0000000000
40
0.0000000000
40
0.0000000000
40
0.0000000000
40
1.0000000000
40
1.0000000000
40
1.0000000000
40
1.0000000000
10
167.1178706836
20
99.6477121787
30
0.0000000000
10
167.2213748552
20
99.4822466372
30
0.0000000000
10
167.2952046483
20
99.3013131785
30
0.0000000000
10
167.3467204649
20
99.1138002046
30
0.0000000000
11
167.1178706836
21
99.6477121787
31
0.0000000000
11
167.3467204649
21
99.1138002046
31
0.0000000000
0
SPLINE
5
2A6
100
AcDbEntity
8
0
100
AcDbSpline
62
7
6
CONTINUOUS
70
0
71
3
72
8
73
4
74
2
42
0.0000001000
43
0.0000001000
44
0.0000000001
12
0.0835029957
22
-0.3039434504
32
0.0000000000
13
0.0479010474
23
-0.3112620782
33
0.0000000000
40
0.0000000000
40
0.0000000000
40
0.0000000000
40
0.0000000000
40
1.0000000000
40
1.0000000000
40
1.0000000000
40
1.0000000000
10
167.3467204649
20
99.1138002046
30
0.0000000000
10
167.3745547968
20
99.0124857212
30
0.0000000000
10
167.3958749840
20
98.9092504723
30
0.0000000000
10
167.4118419998
20
98.8054964463
30
0.0000000000
11
167.3467204649
21
99.1138002046
31
0.0000000000
11
167.4118419998
21
98.8054964463
31
0.0000000000
0
SPLINE
5
2A7
100
AcDbEntity
8
0
100
AcDbSpline
62
7
6
CONTINUOUS
70
0
71
3
72
12
73
8
74
6
42
0.0000001000
43
0.0000001000
44
0.0000000001
12
0.8648515955
22
-5.6198250299
32
0.0000000000
13
-5.0531477192
23
-2.5265738596
33
0.0000000000
40
0.0000000000
40
0.0000000000
40
0.0000000000
40
0.0000000000
40
0.1863296212
40
0.3940617167
40
0.6092045356
40
0.8157325256
40
1.0000000000
40
1.0000000000
40
1.0000000000
40
1.0000000000
10
167.4118419998
20
98.8054964463
30
0.0000000000
10
167.4655578232
20
98.4564498233
30
0.0000000000
10
167.4510295648
20
97.7058467556
30
0.0000000000
10
167.1521492356
20
96.5882882735
30
0.0000000000
10
166.6095098504
20
95.5245929909
30
0.0000000000
10
165.8845273936
20
94.6327176715
30
0.0000000000
10
165.2849440814
20
94.1846155076
30
0.0000000000
10
164.9745671587
20
94.0294270463
30
0.0000000000
11
167.4118419998
21
98.8054964463
31
0.0000000000
11
167.4118419998
21
97.7528103140
31
0.0000000000
11
167.1178706836
21
96.6166232654
31
0.0000000000
11
166.5653853306
21
95.5339762269
31
0.0000000000
11
165.8210238280
21
94.6354524095
31
0.0000000000
11
164.9745671587
21
94.0294270463
31
0.0000000000
0
SPLINE
5
2A8
100
AcDbEntity
8
0
100
AcDbSpline
62
7
6
CONTINUOUS
70
0
71
3
72
10
73
6
74
4
42
0.0000001000
43
0.0000001000
44
0.0000000001
12
0.5805376197
22
0.2902688098
32
0.0000000000
13
-0.3739690316
23
0.5304970059
33
0.0000000000
40
0.0000000000
40
0.0000000000
40
0.0000000000
40
0.0000000000
40
0.3104869681
40
0.6446436554
40
1.0000000000
40
1.0000000000
40
1.0000000000
40
1.0000000000
10
-156.5115307514
20
-60.1101783612
30
0.0000000000
10
-156.4514476296
20
-60.0801368003
30
0.0000000000
10
-156.3429882876
20
-59.9826907325
30
0.0000000000
10
-156.2674808175
20
-59.7653431890
30
0.0000000000
10
-156.3258121288
20
-59.6144745795
30
0.0000000000
10
-156.3701095515
20
-59.5516360872
30
0.0000000000
11
-156.5115307514
21
-60.1101783612
31
0.0000000000
11
-156.3608392197
21
-59.9763712074
31
0.0000000000
11
-156.2950092244
21
-59.7697149279
31
0.0000000000
11
-156.3701095515
21
-59.5516360872
31
0.0000000000
0
SPLINE
5
2A9
100
AcDbEntity
8
0
100
AcDbSpline
62
7
6
CONTINUOUS
70
0
71
3
72
8
73
4
74
2
42
0.0000001000
43
0.0000001000
44
0.0000000001
12
0.1162594289
22
-0.1466723924
32
0.0000000000
13
0.0988044731
23
-0.1579524321
33
0.0000000000
40
0.0000000000
40
0.0000000000
40
0.0000000000
40
0.0000000000
40
1.0000000000
40
1.0000000000
40
1.0000000000
40
1.0000000000
10
-161.7944098904
20
-92.0982947250
30
0.0000000000
10
-161.7556567474
20
-92.1471855224
30
0.0000000000
10
-161.7197173925
20
-92.1982702067
30
0.0000000000
10
-161.6867825681
20
-92.2509210174
30
0.0000000000
11
-161.7944098904
21
-92.0982947250
31
0.0000000000
11
-161.6867825681
21
-92.2509210174
31
0.0000000000
0
SPLINE
5
2AA
100
AcDbEntity
8
0
100
AcDbSpline
62
7
6
CONTINUOUS
70
0
71
3
72
8
73
4
74
2
42
0.0000001000
43
0.0000001000
44
0.0000000001
12
0.3105125147
22
-0.4963966244
32
0.0000000000
13
0.1545474498
23
-0.5625389216
33
0.0000000000
40
0.0000000000
40
0.0000000000
40
0.0000000000
40
0.0000000000
40
1.0000000000
40
1.0000000000
40
1.0000000000
40
1.0000000000
10
-161.6867825681
20
-92.2509210174
30
0.0000000000
10
-161.5832783965
20
-92.4163865588
30
0.0000000000
10
-161.5094486035
20
-92.5973200175
30
0.0000000000
10
-161.4579327869
20
-92.7848329914
30
0.0000000000
11
-161.6867825681
21
-92.2509210174
31
0.0000000000
11
-161.4579327869
21
-92.7848329914
31
0.0000000000
0
SPLINE
5
2AB
100
AcDbEntity
8
0
100
AcDbSpline
62
7
6
CONTINUOUS
70
0
71
3
72
8
73
4
74
2
42
0.0000001000
43
0.0000001000
44
0.0000000001
12
0.0835029957
22
-0.3039434504
32
0.0000000000
13
0.0479010474
23
-0.3112620782
33
0.0000000000
40
0.0000000000
40
0.0000000000
40
0.0000000000
40
0.0000000000
40
1.0000000000
40
1.0000000000
40
1.0000000000
40
1.0000000000
10
-161.4579327869
20
-92.7848329914
30
0.0000000000
10
-161.4300984550
20
-92.8861474749
30
0.0000000000
10
-161.4087782677
20
-92.9893827237
30
0.0000000000
10
-161.3928112519
20
-93.0931367498
30
0.0000000000
11
-161.4579327869
21
-92.7848329914
31
0.0000000000
11
-161.3928112519
21
-93.0931367498
31
0.0000000000
0
SPLINE
5
2AC
100
AcDbEntity
8
0
100
AcDbSpline
62
7
6
CONTINUOUS
70
0
71
3
72
12
73
8
74
6
42
0.0000001000
43
0.0000001000
44
0.0000000001
12
0.8648515955
22
-5.6198250299
32
0.0000000000
13
-5.0531477192
23
-2.5265738596
33
0.0000000000
40
0.0000000000
40
0.0000000000
40
0.0000000000
40
0.0000000000
40
0.1863296212
40
0.3940617167
40
0.6092045356
40
0.8157325256
40
1.0000000000
40
1.0000000000
40
1.0000000000
40
1.0000000000
10
-161.3928112519
20
-93.0931367498
30
0.0000000000
10
-161.3390954285
20
-93.4421833727
30
0.0000000000
10
-161.3536236870
20
-94.1927864404
30
0.0000000000
10
-161.6525040161
20
-95.3103449225
30
0.0000000000
10
-162.1951434014
20
-96.3740402051
30
0.0000000000
10
-162.9201258581
20
-97.2659155245
30
0.0000000000
10
-163.5197091704
20
-97.7140176884
30
0.0000000000
10
-163.8300860930
20
-97.8692061497
30
0.0000000000
11
-161.3928112519
21
-93.0931367498
31
0.0000000000
11
-161.3928112519
21
-94.1458228820
31
0.0000000000
11
-161.6867825681
21
-95.2820099306
31
0.0000000000
11
-162.2392679212
21
-96.3646569691
31
0.0000000000
11
-162.9836294238
21
-97.2631807865
31
0.0000000000
11
-163.8300860930
21
-97.8692061497
31
0.0000000000
0
SPLINE
5
2AD
100
AcDbEntity
8
0
100
AcDbSpline
62
7
6
CONTINUOUS
70
0
71
3
72
9
73
5
74
3
42
0.0000001000
43
0.0000001000
44
0.0000000001
12
0.6967237417
22
-0.0202872633
32
0.0000000000
13
0.6515390937
23
0.2322887184
33
0.0000000000
40
0.0000000000
40
0.0000000000
40
0.0000000000
40
0.0000000000
40
0.1803192274
40
1.0000000000
40
1.0000000000
40
1.0000000000
40
1.0000000000
10
-167.2768977326
20
-71.8519867123
30
0.0000000000
10
-167.2350201703
20
-71.8532061068
30
0.0000000000
10
-167.0027049430
20
-71.8508658483
30
0.0000000000
10
-166.7758681293
20
-71.7994908148
30
0.0000000000
10
-166.5978501067
20
-71.7360232828
30
0.0000000000
11
-167.2768977326
21
-71.8519867123
31
0.0000000000
11
-167.1514164965
21
-71.8507677527
31
0.0000000000
11
-166.5978501067
21
-71.7360232828
31
0.0000000000
0
SPLINE
5
2AE
100
AcDbEntity
8
0
100
AcDbSpline
62
7
6
CONTINUOUS
70
0
71
3
72
8
73
4
74
2
42
0.0000001000
43
0.0000001000
44
0.0000000001
12
0.3012038049
22
0.1073861054
32
0.0000000000
13
0.2838170012
23
0.1419085006
33
0.0000000000
40
0.0000000000
40
0.0000000000
40
0.0000000000
40
0.0000000000
40
1.0000000000
40
1.0000000000
40
1.0000000000
40
1.0000000000
10
-166.5978501067
20
-71.7360232828
30
0.0000000000
10
-166.4974488384
20
-71.7002279143
30
0.0000000000
10
-166.3995654943
20
-71.6576392802
30
0.0000000000
10
-166.3049598272
20
-71.6103364466
30
0.0000000000
11
-166.5978501067
21
-71.7360232828
31
0.0000000000
11
-166.3049598272
21
-71.6103364466
31
0.0000000000
0
SPLINE
5
2AF
100
AcDbEntity
8
0
100
AcDbSpline
62
7
6
CONTINUOUS
70
0
71
3
72
10
73
6
74
4
42
0.0000001000
43
0.0000001000
44
0.0000000001
12
0.6550288565
22
0.3275144282
32
0.0000000000
13
-0.0000000000
23
0.7323445251
33
0.0000000000
40
0.0000000000
40
0.0000000000
40
0.0000000000
40
0.0000000000
40
0.3127607671
40
0.6637380209
40
1.0000000000
40
1.0000000000
40
1.0000000000
40
1.0000000000
10
155.9589556986
20
96.1250650201
30
0.0000000000
10
156.0272448078
20
96.1592095747
30
0.0000000000
10
156.1522987856
20
96.2707639132
30
0.0000000000
10
156.2750409884
20
96.4846301851
30
0.0000000000
10
156.3125090892
20
96.6527678775
30
0.0000000000
10
156.3125090892
20
96.7348544173
30
0.0000000000
11
155.9589556986
21
96.1250650201
31
0.0000000000
11
156.1354207884
21
96.2710901874
31
0.0000000000
11
156.2646185543
21
96.4932963563
31
0.0000000000
11
156.3125090892
21
96.7348544173
31
0.0000000000
0
ENDSEC
0
SECTION
2
OBJECTS
0
DICTIONARY
5
2B0
100
AcDbDictionary
3
ACAD_GROUP
350
2B1
3
ACAD_MLINESTYLE
350
2B2
0
DICTIONARY
5
2B1
102
{ACAD_REACTORS
330
2B0
102
}
100
AcDbDictionary
0
DICTIONARY
5
2B2
102
{ACAD_REACTORS
330
2B0
102
}
100
AcDbDictionary
3
STANDARD
350
2B3
0
MLINESTYLE
5
2B3
102
{ACAD_REACTORS
330
2B2
102
}
100
AcDbMlineStyle
2
STANDARD
70
0
3

62
256
51
90.0
52
90.0
71
2
49
0.5
62
256
6
BYLAYER
49
-0.5
62
256
6
BYLAYER
0
ENDSEC
0
EOF
