0
SECTION
2
HEADER
9
$ACADVER
1
AC1014
9
$HANDSEED
5
       420
9
$EXTMAX
10
297.0000000000
20
210.0000000000
9
$EXTMIN
10
0.0000000000
20
0.0000000000
9
$LIMMIN
10
0.0000000000
20
0.0000000000
9
$LIMMAX
10
297.0000000000
20
210.0000000000
9
$VIEWCTR
10
148.5000000000
20
105.0000000000
9
$VIEWSIZE
40
210.0000000000
9
$CLAYER
8
0
9
$LTSCALE
40
16.3350000000
9
$CELTYPE
6
BYLAYER
9
$DIMSCALE
40
1
9
$DIMASZ
40
3.0000000000
9
$DIMEXO
40
1.8562500000
9
$DIMDLI
40
11.2860000000
9
$DIMEXE
40
5.3460000000
9
$DIMCEN
40
2.6730000000
9
$DIMLFAC
40
1.0000000000
9
$DIMTXT
40
3.0000000000
9
$DIMTOL
70
1
9
$DIMLIM
70
0
9
$DIMTFAC
40
1.0000000000
9
$DIMTP
40
0.0100000000
9
$DIMTM
40
0.0100000000
9
$MEASUREMENT
70
1
0
ENDSEC
0
SECTION
2
CLASSES
0
ENDSEC
0
SECTION
2
TABLES
0
TABLE
2
VPORT
5
8
100
AcDbSymbolTable
70
2
0
VPORT
5
1F4
100
AcDbSymbolTableRecord
100
AcDbViewportTableRecord
2
*ACTIVE
70
0
10
0.0
20
0.0
11
1.0
21
1.0
12
148.5000000000
22
105.0000000000
13
0.0
23
0.0
14
1.0
24
1.0
15
0.0
25
0.0
16
0.0
26
0.0
36
1.0
17
0.0
27
0.0
37
0.0
40
210.0000000000
41
1.4142857143
42
50.0
43
0.0
44
0.0
50
0.0
51
0.0
71
0
72
100
73
1
74
1
75
0
76
0
77
0
78
0
0
ENDTAB
0
TABLE
2
LTYPE
5
5
100
AcDbSymbolTable
70
6
0
LTYPE
5
14
100
AcDbSymbolTableRecord
100
AcDbLinetypeTableRecord
2
BYBLOCK
70
0
3

72
65
73
0
40
0.0
0
LTYPE
5
15
100
AcDbSymbolTableRecord
100
AcDbLinetypeTableRecord
2
BYLAYER
70
0
3

72
65
73
0
40
0.0
0
LTYPE
5
16
100
AcDbSymbolTableRecord
100
AcDbLinetypeTableRecord
2
CONTINUOUS
70
64
3
Solid line
72
65
73
0
40
0
0
LTYPE
5
1F5
100
AcDbSymbolTableRecord
100
AcDbLinetypeTableRecord
2
CENTER
70
64
3
____ _ ____ _ ____ _ ____ _ ____ _ ____ _ ____
72
65
73
4
40
0.6
49
0.375
74
0
49
-0.075
74
0
49
0.075
74
0
49
-0.075
74
0
0
LTYPE
5
1F6
100
AcDbSymbolTableRecord
100
AcDbLinetypeTableRecord
2
HIDDEN
70
64
3
- - - - - - - - - - - - - - - - - - - -
72
65
73
2
40
0.2
49
0.1
74
0
49
-0.1
74
0
0
LTYPE
5
1F7
100
AcDbSymbolTableRecord
100
AcDbLinetypeTableRecord
2
PHANTOM
70
64
3
_____ _ _ _____ _ _ _____ _ _ _____
72
65
73
6
40
0.8
49
0.45
74
0
49
-0.05
74
0
49
0.1
74
0
49
-0.05
74
0
49
0.1
74
0
49
-0.05
74
0
0
LTYPE
5
1F8
100
AcDbSymbolTableRecord
100
AcDbLinetypeTableRecord
2
DOT
70
64
3
. . . . . . . . . . . . . . . . . . . .
72
65
73
2
40
0.2
49
0.1
74
0
49
-0.1
74
0
0
LTYPE
5
1F9
100
AcDbSymbolTableRecord
100
AcDbLinetypeTableRecord
2
DASHED
70
64
3
- - - - - - - - - - - - - - - - - - - -
72
65
73
2
40
0.2
49
0.1
74
0
49
-0.1
74
0
0
ENDTAB
0
TABLE
2
LAYER
5
2
100
AcDbSymbolTable
70
36
0
LAYER
5
10
100
AcDbSymbolTableRecord
100
AcDbLayerTableRecord
2
0
70
0
62
7
6
CONTINUOUS
0
LAYER
5
1FA
100
AcDbSymbolTableRecord
100
AcDbLayerTableRecord
2
DEFAULT_1
70
0
62
7
6
CENTER
0
LAYER
5
1FB
100
AcDbSymbolTableRecord
100
AcDbLayerTableRecord
2
DEFAULT_2
70
0
62
8
6
HIDDEN
0
LAYER
5
1FC
100
AcDbSymbolTableRecord
100
AcDbLayerTableRecord
2
DEFAULT_3
70
0
62
7
6
PHANTOM
0
LAYER
5
1FD
100
AcDbSymbolTableRecord
100
AcDbLayerTableRecord
2
ASSI
70
0
62
7
6
CONTINUOUS
0
LAYER
5
1FE
100
AcDbSymbolTableRecord
100
AcDbLayerTableRecord
2
COORDINATE
70
0
62
7
6
CONTINUOUS
0
LAYER
5
1FF
100
AcDbSymbolTableRecord
100
AcDbLayerTableRecord
2
COORD_ORIGINE
70
0
62
7
6
CONTINUOUS
0
LAYER
5
200
100
AcDbSymbolTableRecord
100
AcDbLayerTableRecord
2
PIANI
70
0
62
7
6
CONTINUOUS
0
LAYER
5
201
100
AcDbSymbolTableRecord
100
AcDbLayerTableRecord
2
PIANI_ORIGINE
70
0
62
7
6
CONTINUOUS
0
LAYER
5
202
100
AcDbSymbolTableRecord
100
AcDbLayerTableRecord
2
RACCORDO
70
0
62
7
6
CONTINUOUS
0
LAYER
5
203
100
AcDbSymbolTableRecord
100
AcDbLayerTableRecord
2
TRASH
70
0
62
7
6
CONTINUOUS
0
ENDTAB
0
TABLE
2
STYLE
5
3
100
AcDbSymbolTable
70
1
0
STYLE
5
11
100
AcDbSymbolTableRecord
100
AcDbTextStyleTableRecord
2
STANDARD
70
0
40
0.0
41
0.8000000000
50
0.0
71
0
42
0.2
3
txt
4

0
ENDTAB
0
TABLE
2
VIEW
5
6
100
AcDbSymbolTable
70
0
0
ENDTAB
0
TABLE
2
UCS
5
7
100
AcDbSymbolTable
70
0
0
ENDTAB
0
TABLE
2
APPID
5
9
100
AcDbSymbolTable
70
1
0
APPID
5
204
100
AcDbSymbolTableRecord
100
AcDbRegAppTableRecord
2
ACAD
70
0
0
ENDTAB
0
TABLE
2
DIMSTYLE
5
A
100
AcDbSymbolTable
70
1
0
DIMSTYLE
105
205
100
AcDbSymbolTableRecord
100
AcDbDimStyleTableRecord
2
STANDARD
70
0
3

4

5

6

7

40
1.0
41
3.0000000000
42
0.0625
43
0.38
44
0.18
45
0.0
46
0.0
47
0.0100000000
48
0.0100000000
140
3.0000000000
141
0.09
142
0.0
143
25.4
144
1.0000000000
145
0.0
146
1.0000000000
147
0.09
71
1
72
0
73
0
74
0
75
0
76
0
77
1
78
8
170
0
171
2
172
0
173
0
174
0
175
0
176
0
177
0
178
0
270
2
271
2
272
2
273
2
274
2
340
11
275
0
280
0
281
0
282
0
283
1
284
8
285
0
286
0
287
3
288
0
0
ENDTAB
0
TABLE
2
BLOCK_RECORD
5
1
100
AcDbSymbolTable
70
0
0
BLOCK_RECORD
5
1B
100
AcDbSymbolTableRecord
100
AcDbBlockTableRecord
2
*MODEL_SPACE
0
BLOCK_RECORD
5
1C
100
AcDbSymbolTableRecord
100
AcDbBlockTableRecord
2
*PAPER_SPACE
0
ENDTAB
0
ENDSEC
0
SECTION
2
BLOCKS
0
BLOCK
5
1E
100
AcDbEntity
8
0
100
AcDbBlockBegin
2
*MODEL_SPACE
70
0
10
0.0
20
0.0
30
0.0
3
*MODEL_SPACE
1

0
ENDBLK
5
1F
100
AcDbEntity
8
0
100
AcDbBlockEnd
0
BLOCK
5
20
100
AcDbEntity
8
0
100
AcDbBlockBegin
2
*PAPER_SPACE
70
0
10
0.0
20
0.0
30
0.0
3
*PAPER_SPACE
1

0
ENDBLK
5
21
100
AcDbEntity
8
0
100
AcDbBlockEnd
0
ENDSEC
0
SECTION
2
ENTITIES
0
LINE
5
206
100
AcDbEntity
8
0
100
AcDbLine
62
7
6
CONTINUOUS
10
-178.3058094583
20
-67.4301834036
11
-178.3058094583
21
-98.6070979399
0
LINE
5
207
100
AcDbEntity
8
0
100
AcDbLine
62
7
6
CONTINUOUS
10
-177.2451492865
20
-67.9605134895
11
-177.2451492865
21
-99.1374280258
0
LINE
5
208
100
AcDbEntity
8
0
100
AcDbLine
62
7
6
CONTINUOUS
10
-177.2662367155
20
-100.7705931415
11
-176.2055765438
21
-101.3009232274
0
LINE
5
209
100
AcDbEntity
8
0
100
AcDbLine
62
9
6
CONTINUOUS
10
-178.3058094583
20
-98.6070979399
11
-177.2451492865
21
-99.1374280258
0
LINE
5
20A
100
AcDbEntity
8
0
100
AcDbLine
62
7
6
CONTINUOUS
10
-163.8101204440
20
-95.8840152196
11
-163.8101204440
21
-94.5849771140
0
LINE
5
20B
100
AcDbEntity
8
0
100
AcDbLine
62
7
6
CONTINUOUS
10
-163.8101204440
20
-57.7788974531
11
-163.8101204440
21
-59.0779355588
0
LINE
5
20C
100
AcDbEntity
8
0
100
AcDbLine
62
9
6
CONTINUOUS
10
-162.3959068816
20
-95.5304618290
11
-162.3959068816
21
-94.2314237234
0
LINE
5
20D
100
AcDbEntity
8
0
100
AcDbLine
62
9
6
CONTINUOUS
10
-162.3959068816
20
-57.4253440625
11
-162.3959068816
21
-58.7243821682
0
LINE
5
20E
100
AcDbEntity
8
0
100
AcDbLine
62
9
6
CONTINUOUS
10
-159.5674797568
20
-96.9446753914
11
-159.5674797568
21
-95.6456372857
0
LINE
5
20F
100
AcDbEntity
8
0
100
AcDbLine
62
9
6
CONTINUOUS
10
-159.5674797568
20
-60.1385957306
11
-159.5674797568
21
-58.8395576249
0
LINE
5
210
100
AcDbEntity
8
0
100
AcDbLine
62
9
6
CONTINUOUS
10
-154.6177322885
20
-96.9446753914
11
-154.6177322885
21
-95.6456372857
0
LINE
5
211
100
AcDbEntity
8
0
100
AcDbLine
62
9
6
CONTINUOUS
10
-154.6177322885
20
-60.1385957306
11
-154.6177322885
21
-58.8395576249
0
LINE
5
212
100
AcDbEntity
8
0
100
AcDbLine
62
9
6
CONTINUOUS
10
-171.3408076636
20
-97.3760421445
11
-172.4014678354
21
-96.8457120586
0
LINE
5
213
100
AcDbEntity
8
0
100
AcDbLine
62
9
6
CONTINUOUS
10
-169.0073552857
20
-96.2093159556
11
-170.0680154575
21
-95.6789858697
0
LINE
5
214
100
AcDbEntity
8
0
100
AcDbLine
62
7
6
CONTINUOUS
10
-159.5674797568
20
-96.9446753914
11
-162.3959068816
21
-95.5304618290
0
LINE
5
215
100
AcDbEntity
8
0
100
AcDbLine
62
9
6
CONTINUOUS
10
-163.1347943021
20
-93.8619800131
11
-162.3959068816
21
-94.2314237234
0
LINE
5
216
100
AcDbEntity
8
0
100
AcDbLine
62
7
6
CONTINUOUS
10
-159.5674797568
20
-95.6456372857
11
-162.3959068816
21
-94.2314237234
0
LINE
5
217
100
AcDbEntity
8
0
100
AcDbLine
62
9
6
CONTINUOUS
10
-178.3058094583
20
-67.4301834036
11
-177.2451492865
21
-67.9605134895
0
LINE
5
218
100
AcDbEntity
8
0
100
AcDbLine
62
9
6
CONTINUOUS
10
-171.3408076636
20
-69.8797355744
11
-172.4014678354
21
-69.3494054885
0
LINE
5
219
100
AcDbEntity
8
0
100
AcDbLine
62
9
6
CONTINUOUS
10
-169.0073552857
20
-68.7130093854
11
-170.0680154575
21
-68.1826792995
0
LINE
5
21A
100
AcDbEntity
8
0
100
AcDbLine
62
9
6
CONTINUOUS
10
-125.1313795131
20
-82.2014990037
11
-125.1313795131
21
-80.9024608980
0
LINE
5
21B
100
AcDbEntity
8
0
100
AcDbLine
62
9
6
CONTINUOUS
10
-125.1313795131
20
-45.3954193428
11
-125.1313795131
21
-44.0963812372
0
LINE
5
21C
100
AcDbEntity
8
0
100
AcDbLine
62
9
6
CONTINUOUS
10
-175.4773823335
20
-62.5518682261
11
-174.4167221618
21
-63.0821983120
0
LINE
5
21D
100
AcDbEntity
8
0
100
AcDbLine
62
9
6
CONTINUOUS
10
-163.4565670534
20
-59.3341715654
11
-163.6292222851
21
-59.2478439495
0
LINE
5
21E
100
AcDbEntity
8
0
100
AcDbLine
62
9
6
CONTINUOUS
10
-163.8101204440
20
-58.8038414795
11
-163.1030136628
21
-59.1573948701
0
LINE
5
21F
100
AcDbEntity
8
0
100
AcDbLine
62
9
6
CONTINUOUS
10
-163.7652132754
20
-58.0397289713
11
-162.3959068816
21
-58.7243821682
0
LINE
5
220
100
AcDbEntity
8
0
100
AcDbLine
62
7
6
CONTINUOUS
10
-162.3959068816
20
-58.7243821682
11
-159.5674797568
21
-60.1385957306
0
LINE
5
221
100
AcDbEntity
8
0
100
AcDbLine
62
7
6
CONTINUOUS
10
-163.8101204440
20
-57.7788974531
11
-164.8707806157
21
-57.2485673672
0
LINE
5
222
100
AcDbEntity
8
0
100
AcDbLine
62
7
6
CONTINUOUS
10
-162.3959068816
20
-57.4253440625
11
-159.5674797568
21
-58.8395576249
0
LINE
5
223
100
AcDbEntity
8
0
100
AcDbLine
62
7
6
CONTINUOUS
10
-63.6130895498
20
-105.8895761734
11
-110.9892438893
21
-82.2014990037
0
LINE
5
224
100
AcDbEntity
8
0
100
AcDbLine
62
9
6
CONTINUOUS
10
-110.9892438893
20
-82.2014990037
11
-110.9892438893
21
-80.9024608980
0
LINE
5
225
100
AcDbEntity
8
0
100
AcDbLine
62
9
6
CONTINUOUS
10
-110.9892438893
20
-45.3954193428
11
-110.9892438893
21
-44.0963812372
0
LINE
5
226
100
AcDbEntity
8
0
100
AcDbLine
62
7
6
CONTINUOUS
10
-63.6130895498
20
-104.5905380678
11
-110.9892438893
21
-80.9024608980
0
LINE
5
227
100
AcDbEntity
8
0
100
AcDbLine
62
7
6
CONTINUOUS
10
-72.7347670271
20
-94.7971091483
11
-80.2300989077
21
-91.0494432080
0
LINE
5
228
100
AcDbEntity
8
0
100
AcDbLine
62
7
6
CONTINUOUS
10
-77.6845144954
20
-91.0756891076
11
-71.4882207205
21
-94.1738359950
0
LINE
5
229
100
AcDbEntity
8
0
100
AcDbLine
62
7
6
CONTINUOUS
10
-77.6845144954
20
-89.7766510019
11
-70.1891826149
21
-93.5243169422
0
LINE
5
22A
100
AcDbEntity
8
0
100
AcDbLine
62
7
6
CONTINUOUS
10
-62.5524293781
20
-91.3322859205
11
-97.2006616562
21
-74.0081697814
0
LINE
5
22B
100
AcDbEntity
8
0
100
AcDbLine
62
9
6
CONTINUOUS
10
-97.2006616562
20
-68.2361400752
11
-97.2006616562
21
-66.9371019696
0
LINE
5
22C
100
AcDbEntity
8
0
100
AcDbLine
62
9
6
CONTINUOUS
10
-97.2006616562
20
-31.4300604144
11
-97.2006616562
21
-30.1310223087
0
LINE
5
22D
100
AcDbEntity
8
0
100
AcDbLine
62
7
6
CONTINUOUS
10
-59.1576366664
20
-84.0850976602
11
-58.2390780128
21
-85.1938960398
0
LINE
5
22E
100
AcDbEntity
8
0
100
AcDbLine
62
7
6
CONTINUOUS
10
-67.5021768464
20
-67.1389528643
11
-110.9892438893
21
-45.3954193428
0
LINE
5
22F
100
AcDbEntity
8
0
100
AcDbLine
62
7
6
CONTINUOUS
10
-67.5021768464
20
-65.8399147587
11
-110.9892438893
21
-44.0963812372
0
LINE
5
230
100
AcDbEntity
8
0
100
AcDbLine
62
7
6
CONTINUOUS
10
-72.7347670271
20
-57.9910294875
11
-80.2300989077
21
-54.2433635472
0
LINE
5
231
100
AcDbEntity
8
0
100
AcDbLine
62
7
6
CONTINUOUS
10
-77.6845144954
20
-54.2696094467
11
-71.4882207205
21
-57.3677563342
0
LINE
5
232
100
AcDbEntity
8
0
100
AcDbLine
62
7
6
CONTINUOUS
10
-77.6845144954
20
-52.9705713411
11
-70.1891826149
21
-56.7182372813
0
LINE
5
233
100
AcDbEntity
8
0
100
AcDbLine
62
7
6
CONTINUOUS
10
-45.3690544332
20
-77.1908065436
11
-44.4504957797
21
-78.2996049232
0
LINE
5
234
100
AcDbEntity
8
0
100
AcDbLine
62
7
6
CONTINUOUS
10
-67.2021768464
20
-67.4411446452
11
-63.3024293781
21
-74.1672140909
0
LINE
5
235
100
AcDbEntity
8
0
100
AcDbLine
62
7
6
CONTINUOUS
10
-66.4521768464
20
-66.8975859916
11
-62.5524293781
21
-73.6236554373
0
LINE
5
236
100
AcDbEntity
8
0
100
AcDbLine
62
7
6
CONTINUOUS
10
-77.6845144954
20
-91.0756891076
11
-77.6845144954
21
-89.7766510019
0
LINE
5
237
100
AcDbEntity
8
0
100
AcDbLine
62
7
6
CONTINUOUS
10
-77.6845144954
20
-54.2696094467
11
-77.6845144954
21
-52.9705713411
0
LINE
5
238
100
AcDbEntity
8
0
100
AcDbLine
62
7
6
CONTINUOUS
10
-53.7135946132
20
-58.9456236421
11
-97.2006616562
21
-37.2020901206
0
LINE
5
239
100
AcDbEntity
8
0
100
AcDbLine
62
7
6
CONTINUOUS
10
-52.6635946132
20
-60.0032948751
11
-48.7638471449
21
-66.7293643208
0
LINE
5
23A
100
AcDbEntity
8
0
100
AcDbLine
62
7
6
CONTINUOUS
10
-62.5524293781
20
-90.2852965685
11
-62.5524293781
21
-103.8218300480
0
LINE
5
23B
100
AcDbEntity
8
0
100
AcDbLine
62
7
6
CONTINUOUS
10
-61.4917692063
20
-90.8156266544
11
-61.4917692063
21
-104.3521601339
0
LINE
5
23C
100
AcDbEntity
8
0
100
AcDbLine
62
7
6
CONTINUOUS
10
10.4209904404
20
-68.8725361783
11
-36.9551638991
21
-45.1844590086
0
LINE
5
23D
100
AcDbEntity
8
0
100
AcDbLine
62
7
6
CONTINUOUS
10
10.4209904404
20
-67.5734980726
11
-36.9551638991
21
-43.8854209029
0
LINE
5
23E
100
AcDbEntity
8
0
100
AcDbLine
62
9
6
CONTINUOUS
10
-51.0972995228
20
-45.1844590086
11
-51.0972995228
21
-43.8854209029
0
LINE
5
23F
100
AcDbEntity
8
0
100
AcDbLine
62
9
6
CONTINUOUS
10
-51.0972995228
20
-8.3783793477
11
-51.0972995228
21
-7.0793412421
0
LINE
5
240
100
AcDbEntity
8
0
100
AcDbLine
62
7
6
CONTINUOUS
10
-47.7031869731
20
-83.9213355378
11
-47.7031869731
21
-97.4578690173
0
LINE
5
241
100
AcDbEntity
8
0
100
AcDbLine
62
7
6
CONTINUOUS
10
11.4816506122
20
-54.3152459254
11
-23.1665816660
21
-36.9911297863
0
LINE
5
242
100
AcDbEntity
8
0
100
AcDbLine
62
9
6
CONTINUOUS
10
-36.9551638991
20
-45.1844590086
11
-36.9551638991
21
-43.8854209029
0
LINE
5
243
100
AcDbEntity
8
0
100
AcDbLine
62
9
6
CONTINUOUS
10
-36.9551638991
20
-8.3783793477
11
-36.9551638991
21
-7.0793412421
0
LINE
5
244
100
AcDbEntity
8
0
100
AcDbLine
62
9
6
CONTINUOUS
10
-23.1665816660
20
-31.2191000801
11
-23.1665816660
21
-29.9200619745
0
LINE
5
245
100
AcDbEntity
8
0
100
AcDbLine
62
9
6
CONTINUOUS
10
-23.1665816660
20
5.5869795807
11
-23.1665816660
21
6.8860176864
0
LINE
5
246
100
AcDbEntity
8
0
100
AcDbLine
62
7
6
CONTINUOUS
10
161.8125522924
20
106.0930990869
11
151.2059505746
21
100.7897982280
0
LINE
5
247
100
AcDbEntity
8
0
100
AcDbLine
62
7
6
CONTINUOUS
10
-164.8707806157
20
-57.2485673672
11
-175.4773823335
21
-62.5518682261
0
LINE
5
248
100
AcDbEntity
8
0
100
AcDbLine
62
7
6
CONTINUOUS
10
-163.2903340726
20
-57.3685404881
11
150.6650767742
21
99.6091649353
0
LINE
5
249
100
AcDbEntity
8
0
100
AcDbLine
62
7
6
CONTINUOUS
10
162.8732124642
20
105.5627690010
11
152.2666107464
21
100.2594681421
0
LINE
5
24A
100
AcDbEntity
8
0
100
AcDbLine
62
7
6
CONTINUOUS
10
-163.8101204440
20
-57.7788974531
11
-174.4167221618
21
-63.0821983120
0
LINE
5
24B
100
AcDbEntity
8
0
100
AcDbLine
62
9
6
CONTINUOUS
10
151.5595039652
20
99.5523613609
11
-162.3959068816
21
-57.4253440625
0
LINE
5
24C
100
AcDbEntity
8
0
100
AcDbLine
62
7
6
CONTINUOUS
10
-163.4565670534
20
-59.3341715654
11
-163.1030085207
21
-59.1573922991
0
LINE
5
24D
100
AcDbEntity
8
0
100
AcDbLine
62
9
6
CONTINUOUS
10
-162.3641233508
20
-58.7879497141
11
-163.1030085207
21
-59.1573922991
0
LINE
5
24E
100
AcDbEntity
8
0
100
AcDbLine
62
7
6
CONTINUOUS
10
-171.3408076636
20
-63.8175577479
11
-169.0073552857
21
-62.6508315589
0
LINE
5
24F
100
AcDbEntity
8
0
100
AcDbLine
62
7
6
CONTINUOUS
10
157.4638455881
20
100.5847688780
11
159.7972979661
21
101.7514950670
0
LINE
5
250
100
AcDbEntity
8
0
100
AcDbLine
62
7
6
CONTINUOUS
10
154.3879310900
20
95.6632740644
11
124.9015783145
21
80.9200976766
0
LINE
5
251
100
AcDbEntity
8
0
100
AcDbLine
62
7
6
CONTINUOUS
10
-154.6177322885
20
-58.8395576249
11
-125.1313795131
21
-44.0963812372
0
LINE
5
252
100
AcDbEntity
8
0
100
AcDbLine
62
7
6
CONTINUOUS
10
-97.2006616562
20
-30.1310223087
11
-51.0972995228
21
-7.0793412421
0
LINE
5
253
100
AcDbEntity
8
0
100
AcDbLine
62
7
6
CONTINUOUS
10
-23.1665816660
20
6.8860176864
11
22.9367804674
21
29.9376987531
0
LINE
5
254
100
AcDbEntity
8
0
100
AcDbLine
62
7
6
CONTINUOUS
10
50.8674983243
20
43.9030576815
11
96.9708604576
21
66.9547387482
0
LINE
5
255
100
AcDbEntity
8
0
100
AcDbLine
62
7
6
CONTINUOUS
10
154.3879310900
20
94.3642359587
11
124.9015783145
21
79.6210595709
0
LINE
5
256
100
AcDbEntity
8
0
100
AcDbLine
62
7
6
CONTINUOUS
10
-154.6177322885
20
-60.1385957306
11
-125.1313795131
21
-45.3954193428
0
LINE
5
257
100
AcDbEntity
8
0
100
AcDbLine
62
7
6
CONTINUOUS
10
-97.2006616562
20
-31.4300604144
11
-51.0972995228
21
-8.3783793477
0
LINE
5
258
100
AcDbEntity
8
0
100
AcDbLine
62
7
6
CONTINUOUS
10
-23.1665816660
20
5.5869795807
11
22.9367804674
21
28.6386606474
0
LINE
5
259
100
AcDbEntity
8
0
100
AcDbLine
62
7
6
CONTINUOUS
10
50.8674983243
20
42.6040195758
11
96.9708604576
21
65.6557006425
0
LINE
5
25A
100
AcDbEntity
8
0
100
AcDbLine
62
7
6
CONTINUOUS
10
158.7366377943
20
96.2196473263
11
156.4031854164
21
95.0529211374
0
LINE
5
25B
100
AcDbEntity
8
0
100
AcDbLine
62
7
6
CONTINUOUS
10
-170.0680154575
20
-68.1826792995
11
-172.4014678354
21
-69.3494054885
0
LINE
5
25C
100
AcDbEntity
8
0
100
AcDbLine
62
7
6
CONTINUOUS
10
159.7972979661
20
95.6893172405
11
157.4638455881
21
94.5225910515
0
LINE
5
25D
100
AcDbEntity
8
0
100
AcDbLine
62
7
6
CONTINUOUS
10
-169.0073552857
20
-68.7130093854
11
-171.3408076636
21
-69.8797355744
0
LINE
5
25E
100
AcDbEntity
8
0
100
AcDbLine
62
7
6
CONTINUOUS
10
6.5319031439
20
-30.1219128692
11
-36.9551638991
21
-8.3783793477
0
LINE
5
25F
100
AcDbEntity
8
0
100
AcDbLine
62
7
6
CONTINUOUS
10
6.5319031439
20
-28.8228747635
11
-36.9551638991
21
-7.0793412421
0
LINE
5
260
100
AcDbEntity
8
0
100
AcDbLine
62
7
6
CONTINUOUS
10
14.8764433239
20
-47.0680576650
11
15.7950019774
21
-48.1768560446
0
LINE
5
261
100
AcDbEntity
8
0
100
AcDbLine
62
7
6
CONTINUOUS
10
-59.1576366664
20
-84.0850976602
11
-62.2682263416
21
-89.1283599811
0
LINE
5
262
100
AcDbEntity
8
0
100
AcDbLine
62
7
6
CONTINUOUS
10
-58.2390780128
20
-85.1938960398
11
-61.3496676880
21
-90.2371583607
0
LINE
5
263
100
AcDbEntity
8
0
100
AcDbLine
62
7
6
CONTINUOUS
10
20.3204853770
20
-21.9285836470
11
-23.1665816660
21
-0.1850501255
0
LINE
5
264
100
AcDbEntity
8
0
100
AcDbLine
62
7
6
CONTINUOUS
10
28.6650255570
20
-40.1737665485
11
29.5835842106
21
-41.2825649281
0
LINE
5
265
100
AcDbEntity
8
0
100
AcDbLine
62
7
6
CONTINUOUS
10
6.8319031439
20
-30.4241046501
11
10.7316506122
21
-37.1501740958
0
LINE
5
266
100
AcDbEntity
8
0
100
AcDbLine
62
7
6
CONTINUOUS
10
7.5819031439
20
-29.8805459965
11
11.4816506122
21
-36.6066154422
0
LINE
5
267
100
AcDbEntity
8
0
100
AcDbLine
62
7
6
CONTINUOUS
10
11.4816506122
20
-53.2682565734
11
11.4816506122
21
-66.8047900529
0
LINE
5
268
100
AcDbEntity
8
0
100
AcDbLine
62
7
6
CONTINUOUS
10
12.5423107840
20
-53.7985866593
11
12.5423107840
21
-67.3351201387
0
LINE
5
269
100
AcDbEntity
8
0
100
AcDbLine
62
7
6
CONTINUOUS
10
-44.4504957797
20
-78.2996049232
11
-47.5610854549
21
-83.3428672441
0
LINE
5
26A
100
AcDbEntity
8
0
100
AcDbLine
62
7
6
CONTINUOUS
10
-171.3408076636
20
-91.3138643180
11
-169.0073552857
21
-90.1471381291
0
LINE
5
26B
100
AcDbEntity
8
0
100
AcDbLine
62
7
6
CONTINUOUS
10
157.4638455881
20
73.0884623078
11
159.7972979661
21
74.2551884968
0
LINE
5
26C
100
AcDbEntity
8
0
100
AcDbLine
62
7
6
CONTINUOUS
10
158.7366377943
20
68.7233407562
11
156.4031854164
21
67.5566145672
0
LINE
5
26D
100
AcDbEntity
8
0
100
AcDbLine
62
7
6
CONTINUOUS
10
-170.0680154575
20
-95.6789858697
11
-172.4014678354
21
-96.8457120586
0
LINE
5
26E
100
AcDbEntity
8
0
100
AcDbLine
62
7
6
CONTINUOUS
10
159.7972979661
20
68.1930106703
11
157.4638455881
21
67.0262844813
0
LINE
5
26F
100
AcDbEntity
8
0
100
AcDbLine
62
7
6
CONTINUOUS
10
-169.0073552857
20
-96.2093159556
11
-171.3408076636
21
-97.3760421445
0
LINE
5
270
100
AcDbEntity
8
0
100
AcDbLine
62
7
6
CONTINUOUS
10
151.9130573558
20
63.7096244878
11
151.5594988232
21
63.5328452215
0
LINE
5
271
100
AcDbEntity
8
0
100
AcDbLine
62
9
6
CONTINUOUS
10
151.5594988232
20
63.5328452215
11
148.5467232121
21
62.0264574160
0
LINE
5
272
100
AcDbEntity
8
0
100
AcDbLine
62
9
6
CONTINUOUS
10
133.4591028733
20
54.4826472465
11
74.5126432219
21
25.0094174208
0
LINE
5
273
100
AcDbEntity
8
0
100
AcDbLine
62
9
6
CONTINUOUS
10
59.4250228830
20
17.4656072514
11
0.4785632316
21
-12.0076225743
0
LINE
5
274
100
AcDbEntity
8
0
100
AcDbLine
62
9
6
CONTINUOUS
10
-14.6090571072
20
-19.5514327437
11
-73.5555167586
21
-49.0246625694
0
LINE
5
275
100
AcDbEntity
8
0
100
AcDbLine
62
9
6
CONTINUOUS
10
-88.6431370974
20
-56.5684727388
11
-163.1030085207
21
-93.7984084505
0
LINE
5
276
100
AcDbEntity
8
0
100
AcDbLine
62
7
6
CONTINUOUS
10
-163.1030085207
20
-93.7984084505
11
-163.4565670534
21
-93.9751877168
0
LINE
5
277
100
AcDbEntity
8
0
100
AcDbLine
62
9
6
CONTINUOUS
10
151.5595039652
20
62.7462817000
11
149.3332893046
21
61.6331743697
0
LINE
5
278
100
AcDbEntity
8
0
100
AcDbLine
62
9
6
CONTINUOUS
10
134.2456689658
20
54.0893642003
11
75.2992093143
21
24.6161343746
0
LINE
5
279
100
AcDbEntity
8
0
100
AcDbLine
62
9
6
CONTINUOUS
10
60.2115889755
20
17.0723242052
11
1.2651293241
21
-12.4009056205
0
LINE
5
27A
100
AcDbEntity
8
0
100
AcDbLine
62
9
6
CONTINUOUS
10
-13.8224910147
20
-19.9447157899
11
-72.7689506661
21
-49.4179456156
0
LINE
5
27B
100
AcDbEntity
8
0
100
AcDbLine
62
9
6
CONTINUOUS
10
-87.8565710049
20
-56.9617557850
11
-162.3959068816
21
-94.2314237234
0
LINE
5
27C
100
AcDbEntity
8
0
100
AcDbLine
62
7
6
CONTINUOUS
10
-174.4167221618
20
-101.1873160785
11
-163.8101204440
21
-95.8840152196
0
LINE
5
27D
100
AcDbEntity
8
0
100
AcDbLine
62
7
6
CONTINUOUS
10
152.5049886803
20
62.2735393425
11
162.8732124642
21
67.4576512345
0
LINE
5
27E
100
AcDbEntity
8
0
100
AcDbLine
62
7
6
CONTINUOUS
10
-80.2300989077
20
-54.2433635472
11
-77.6845144954
21
-52.9705713411
0
LINE
5
27F
100
AcDbEntity
8
0
100
AcDbLine
62
7
6
CONTINUOUS
10
142.6499585223
20
57.1966651678
11
145.1955429346
21
58.4694573739
0
LINE
5
280
100
AcDbEntity
8
0
100
AcDbLine
62
7
6
CONTINUOUS
10
-78.9310608020
20
-54.8928826000
11
-77.6845144954
21
-54.2696094467
0
LINE
5
281
100
AcDbEntity
8
0
100
AcDbLine
62
7
6
CONTINUOUS
10
143.9489966280
20
56.5471461150
11
145.1955429346
21
57.1704192683
0
LINE
5
282
100
AcDbEntity
8
0
100
AcDbLine
62
7
6
CONTINUOUS
10
84.4550704306
20
-31.8554961832
11
37.0789160911
21
-8.1674190135
0
LINE
5
283
100
AcDbEntity
8
0
100
AcDbLine
62
7
6
CONTINUOUS
10
84.4550704306
20
-30.5564580775
11
37.0789160911
21
-6.8683809078
0
LINE
5
284
100
AcDbEntity
8
0
100
AcDbLine
62
7
6
CONTINUOUS
10
21.3704853770
20
-22.9862548800
11
25.2702328453
21
-29.7123243256
0
LINE
5
285
100
AcDbEntity
8
0
100
AcDbLine
62
9
6
CONTINUOUS
10
22.9367804674
20
-8.1674190135
11
22.9367804674
21
-6.8683809078
0
LINE
5
286
100
AcDbEntity
8
0
100
AcDbLine
62
9
6
CONTINUOUS
10
22.9367804674
20
28.6386606474
11
22.9367804674
21
29.9376987531
0
LINE
5
287
100
AcDbEntity
8
0
100
AcDbLine
62
7
6
CONTINUOUS
10
26.3308930171
20
-46.9042955427
11
26.3308930171
21
-60.4408290222
0
LINE
5
288
100
AcDbEntity
8
0
100
AcDbLine
62
7
6
CONTINUOUS
10
-63.3024293781
20
-74.1672140909
11
-62.5524293781
21
-73.6236554373
0
LINE
5
289
100
AcDbEntity
8
0
100
AcDbLine
62
7
6
CONTINUOUS
10
-49.5138471449
20
-67.2729229743
11
-48.7638471449
21
-66.7293643208
0
LINE
5
28A
100
AcDbEntity
8
0
100
AcDbLine
62
7
6
CONTINUOUS
10
148.1049618770
20
55.7157097970
11
146.8584155704
21
55.0924366437
0
LINE
5
28B
100
AcDbEntity
8
0
100
AcDbLine
62
7
6
CONTINUOUS
10
139.5489698247
20
51.4377137709
11
124.9015783145
21
44.1140180158
0
LINE
5
28C
100
AcDbEntity
8
0
100
AcDbLine
62
7
6
CONTINUOUS
10
-154.6177322885
20
-95.6456372857
11
-125.1313795131
21
-80.9024608980
0
LINE
5
28D
100
AcDbEntity
8
0
100
AcDbLine
62
7
6
CONTINUOUS
10
-97.2006616562
20
-66.9371019696
11
-82.5532701460
21
-59.6134062145
0
LINE
5
28E
100
AcDbEntity
8
0
100
AcDbLine
62
7
6
CONTINUOUS
10
-76.0216418596
20
-56.3475920713
11
-74.7750955530
21
-55.7243189180
0
LINE
5
28F
100
AcDbEntity
8
0
100
AcDbLine
62
7
6
CONTINUOUS
10
-67.4656498072
20
-52.0695960451
11
-51.0972995228
21
-43.8854209029
0
LINE
5
290
100
AcDbEntity
8
0
100
AcDbLine
62
7
6
CONTINUOUS
10
-23.1665816660
20
-29.9200619745
11
-8.5191901558
21
-22.5963662194
0
LINE
5
291
100
AcDbEntity
8
0
100
AcDbLine
62
7
6
CONTINUOUS
10
6.5684301830
20
-15.0525560500
11
22.9367804674
21
-6.8683809078
0
LINE
5
292
100
AcDbEntity
8
0
100
AcDbLine
62
7
6
CONTINUOUS
10
50.8674983243
20
7.0969780207
11
65.5148898344
21
14.4206737757
0
LINE
5
293
100
AcDbEntity
8
0
100
AcDbLine
62
7
6
CONTINUOUS
10
80.6025101732
20
21.9644839451
11
96.9708604576
21
30.1486590873
0
LINE
5
294
100
AcDbEntity
8
0
100
AcDbLine
62
7
6
CONTINUOUS
10
149.4039999827
20
55.0661907442
11
148.1574536761
21
54.4429175909
0
LINE
5
295
100
AcDbEntity
8
0
100
AcDbLine
62
7
6
CONTINUOUS
10
140.8480079303
20
50.7881947180
11
124.9015783145
21
42.8149799101
0
LINE
5
296
100
AcDbEntity
8
0
100
AcDbLine
62
7
6
CONTINUOUS
10
-154.6177322885
20
-96.9446753914
11
-125.1313795131
21
-82.2014990037
0
LINE
5
297
100
AcDbEntity
8
0
100
AcDbLine
62
7
6
CONTINUOUS
10
-97.2006616562
20
-68.2361400752
11
-81.2542320404
21
-60.2629252673
0
LINE
5
298
100
AcDbEntity
8
0
100
AcDbLine
62
7
6
CONTINUOUS
10
-74.7226037539
20
-56.9971111241
11
-73.4760574473
21
-56.3738379708
0
LINE
5
299
100
AcDbEntity
8
0
100
AcDbLine
62
7
6
CONTINUOUS
10
-66.1666117015
20
-52.7191150979
11
-51.0972995228
21
-45.1844590086
0
LINE
5
29A
100
AcDbEntity
8
0
100
AcDbLine
62
7
6
CONTINUOUS
10
-23.1665816660
20
-31.2191000801
11
-7.2201520501
21
-23.2458852722
0
LINE
5
29B
100
AcDbEntity
8
0
100
AcDbLine
62
7
6
CONTINUOUS
10
7.8674682887
20
-15.7020751028
11
22.9367804674
21
-8.1674190135
0
LINE
5
29C
100
AcDbEntity
8
0
100
AcDbLine
62
7
6
CONTINUOUS
10
50.8674983243
20
5.7979399150
11
66.8139279401
21
13.7711547229
0
LINE
5
29D
100
AcDbEntity
8
0
100
AcDbLine
62
7
6
CONTINUOUS
10
81.9015482789
20
21.3149648923
11
96.9708604576
21
28.8496209817
0
LINE
5
29E
100
AcDbEntity
8
0
100
AcDbLine
62
7
6
CONTINUOUS
10
152.6908748151
20
54.7217914337
11
150.1452904029
21
53.4489992275
0
LINE
5
29F
100
AcDbEntity
8
0
100
AcDbLine
62
7
6
CONTINUOUS
10
-70.1891826149
20
-56.7182372813
11
-72.7347670271
21
-57.9910294875
0
LINE
5
2A0
100
AcDbEntity
8
0
100
AcDbLine
62
9
6
CONTINUOUS
10
168.3886453575
20
52.1054963433
11
154.6000631243
21
45.2112052267
0
LINE
5
2A1
100
AcDbEntity
8
0
100
AcDbLine
62
9
6
CONTINUOUS
10
94.3545653672
20
15.0884563481
11
80.5659831341
21
8.1941652316
0
LINE
5
2A2
100
AcDbEntity
8
0
100
AcDbLine
62
9
6
CONTINUOUS
10
20.3204853770
20
-21.9285836470
11
6.5319031439
21
-28.8228747635
0
LINE
5
2A3
100
AcDbEntity
8
0
100
AcDbLine
62
9
6
CONTINUOUS
10
-53.7135946132
20
-58.9456236421
11
-67.5021768464
21
-65.8399147587
0
LINE
5
2A4
100
AcDbEntity
8
0
100
AcDbLine
62
7
6
CONTINUOUS
10
85.5157306024
20
-17.2982059303
11
50.8674983243
21
0.0259102088
0
LINE
5
2A5
100
AcDbEntity
8
0
100
AcDbLine
62
9
6
CONTINUOUS
10
37.0789160911
20
-8.1674190135
11
37.0789160911
21
-6.8683809078
0
LINE
5
2A6
100
AcDbEntity
8
0
100
AcDbLine
62
9
6
CONTINUOUS
10
37.0789160911
20
28.6386606474
11
37.0789160911
21
29.9376987531
0
LINE
5
2A7
100
AcDbEntity
8
0
100
AcDbLine
62
7
6
CONTINUOUS
10
14.8764433239
20
-47.0680576650
11
11.7658536487
21
-52.1113199859
0
LINE
5
2A8
100
AcDbEntity
8
0
100
AcDbLine
62
7
6
CONTINUOUS
10
15.7950019774
20
-48.1768560446
11
12.6844123022
21
-53.2201183655
0
LINE
5
2A9
100
AcDbEntity
8
0
100
AcDbLine
62
7
6
CONTINUOUS
10
10.7316506122
20
-37.1501740958
11
11.4816506122
21
-36.6066154422
0
LINE
5
2AA
100
AcDbEntity
8
0
100
AcDbLine
62
7
6
CONTINUOUS
10
24.5202328453
20
-30.2558829792
11
25.2702328453
21
-29.7123243256
0
LINE
5
2AB
100
AcDbEntity
8
0
100
AcDbLine
62
9
6
CONTINUOUS
10
169.4386453575
20
51.0478251103
11
155.6500631243
21
44.1535339937
0
LINE
5
2AC
100
AcDbEntity
8
0
100
AcDbLine
62
9
6
CONTINUOUS
10
95.4045653672
20
14.0307851152
11
81.6159831341
21
7.1364939986
0
LINE
5
2AD
100
AcDbEntity
8
0
100
AcDbLine
62
9
6
CONTINUOUS
10
21.3704853770
20
-22.9862548800
11
7.5819031439
21
-29.8805459965
0
LINE
5
2AE
100
AcDbEntity
8
0
100
AcDbLine
62
9
6
CONTINUOUS
10
-52.6635946132
20
-60.0032948751
11
-66.4521768464
21
-66.8975859916
0
LINE
5
2AF
100
AcDbEntity
8
0
100
AcDbLine
62
7
6
CONTINUOUS
10
173.3383928258
20
44.3217556646
11
159.5498105926
21
37.4274645480
0
LINE
5
2B0
100
AcDbEntity
8
0
100
AcDbLine
62
7
6
CONTINUOUS
10
99.3043128355
20
7.3047156695
11
85.5157306024
21
0.4104245529
0
LINE
5
2B1
100
AcDbEntity
8
0
100
AcDbLine
62
7
6
CONTINUOUS
10
25.2702328453
20
-29.7123243256
11
11.4816506122
21
-36.6066154422
0
LINE
5
2B2
100
AcDbEntity
8
0
100
AcDbLine
62
7
6
CONTINUOUS
10
-48.7638471449
20
-66.7293643208
11
-62.5524293781
21
-73.6236554373
0
LINE
5
2B3
100
AcDbEntity
8
0
100
AcDbLine
62
7
6
CONTINUOUS
10
172.5883928258
20
43.7781970111
11
158.7998105926
21
36.8839058945
0
LINE
5
2B4
100
AcDbEntity
8
0
100
AcDbLine
62
7
6
CONTINUOUS
10
98.5543128355
20
6.7611570159
11
84.7657306024
21
-0.1331341006
0
LINE
5
2B5
100
AcDbEntity
8
0
100
AcDbLine
62
7
6
CONTINUOUS
10
24.5202328453
20
-30.2558829792
11
10.7316506122
21
-37.1501740958
0
LINE
5
2B6
100
AcDbEntity
8
0
100
AcDbLine
62
7
6
CONTINUOUS
10
-49.5138471449
20
-67.2729229743
11
-63.3024293781
21
-74.1672140909
0
LINE
5
2B7
100
AcDbEntity
8
0
100
AcDbLine
62
7
6
CONTINUOUS
10
80.5659831341
20
6.8951271259
11
37.0789160911
21
28.6386606474
0
LINE
5
2B8
100
AcDbEntity
8
0
100
AcDbLine
62
9
6
CONTINUOUS
10
50.8674983243
20
5.7979399150
11
50.8674983243
21
7.0969780207
0
LINE
5
2B9
100
AcDbEntity
8
0
100
AcDbLine
62
9
6
CONTINUOUS
10
50.8674983243
20
42.6040195758
11
50.8674983243
21
43.9030576815
0
LINE
5
2BA
100
AcDbEntity
8
0
100
AcDbLine
62
7
6
CONTINUOUS
10
29.5835842106
20
-41.2825649281
11
26.4729945353
21
-46.3258272490
0
LINE
5
2BB
100
AcDbEntity
8
0
100
AcDbLine
62
7
6
CONTINUOUS
10
84.7657306024
20
-0.1331341006
11
85.5157306024
21
0.4104245529
0
LINE
5
2BC
100
AcDbEntity
8
0
100
AcDbLine
62
7
6
CONTINUOUS
10
98.5543128355
20
6.7611570159
11
99.3043128355
21
7.3047156695
0
LINE
5
2BD
100
AcDbEntity
8
0
100
AcDbLine
62
7
6
CONTINUOUS
10
-80.2300989077
20
-91.0494432080
11
-77.6845144954
21
-89.7766510019
0
LINE
5
2BE
100
AcDbEntity
8
0
100
AcDbLine
62
7
6
CONTINUOUS
10
142.6499585223
20
20.3905855070
11
145.1955429346
21
21.6633777131
0
LINE
5
2BF
100
AcDbEntity
8
0
100
AcDbLine
62
7
6
CONTINUOUS
10
-78.9310608020
20
-91.6989622609
11
-77.6845144954
21
-91.0756891076
0
LINE
5
2C0
100
AcDbEntity
8
0
100
AcDbLine
62
7
6
CONTINUOUS
10
143.9489966280
20
19.7410664541
11
145.1955429346
21
20.3643396074
0
LINE
5
2C1
100
AcDbEntity
8
0
100
AcDbLine
62
7
6
CONTINUOUS
10
176.7331855375
20
33.8603134418
11
162.9446033043
21
26.9660223252
0
LINE
5
2C2
100
AcDbEntity
8
0
100
AcDbLine
62
7
6
CONTINUOUS
10
102.6991055472
20
-3.1567265534
11
88.9105233141
21
-10.0510176699
0
LINE
5
2C3
100
AcDbEntity
8
0
100
AcDbLine
62
7
6
CONTINUOUS
10
28.6650255570
20
-40.1737665485
11
14.8764433239
21
-47.0680576650
0
LINE
5
2C4
100
AcDbEntity
8
0
100
AcDbLine
62
7
6
CONTINUOUS
10
-45.3690544332
20
-77.1908065436
11
-59.1576366664
21
-84.0850976602
0
LINE
5
2C5
100
AcDbEntity
8
0
100
AcDbLine
62
7
6
CONTINUOUS
10
177.6517441910
20
32.7515150622
11
163.8631619579
21
25.8572239456
0
LINE
5
2C6
100
AcDbEntity
8
0
100
AcDbLine
62
7
6
CONTINUOUS
10
103.6176642008
20
-4.2655249330
11
89.8290819676
21
-11.1598160495
0
LINE
5
2C7
100
AcDbEntity
8
0
100
AcDbLine
62
7
6
CONTINUOUS
10
29.5835842106
20
-41.2825649281
11
15.7950019774
21
-48.1768560446
0
LINE
5
2C8
100
AcDbEntity
8
0
100
AcDbLine
62
7
6
CONTINUOUS
10
-44.4504957797
20
-78.2996049232
11
-58.2390780128
21
-85.1938960398
0
LINE
5
2C9
100
AcDbEntity
8
0
100
AcDbLine
62
7
6
CONTINUOUS
10
152.6908748151
20
17.9157117728
11
150.1452904029
21
16.6429195667
0
LINE
5
2CA
100
AcDbEntity
8
0
100
AcDbLine
62
7
6
CONTINUOUS
10
-70.1891826149
20
-93.5243169422
11
-72.7347670271
21
-94.7971091483
0
LINE
5
2CB
100
AcDbEntity
8
0
100
AcDbLine
62
9
6
CONTINUOUS
10
174.5411545158
20
27.7082527413
11
160.7525722827
21
20.8139616247
0
LINE
5
2CC
100
AcDbEntity
8
0
100
AcDbLine
62
9
6
CONTINUOUS
10
100.5070745256
20
-9.3087872539
11
86.7184922924
21
-16.2030783704
0
LINE
5
2CD
100
AcDbEntity
8
0
100
AcDbLine
62
9
6
CONTINUOUS
10
26.4729945353
20
-46.3258272490
11
12.6844123022
21
-53.2201183655
0
LINE
5
2CE
100
AcDbEntity
8
0
100
AcDbLine
62
9
6
CONTINUOUS
10
-47.5610854549
20
-83.3428672441
11
-61.3496676880
21
-90.2371583607
0
LINE
5
2CF
100
AcDbEntity
8
0
100
AcDbLine
62
9
6
CONTINUOUS
10
174.3990529976
20
27.1297844475
11
160.6104707644
21
20.2354933310
0
LINE
5
2D0
100
AcDbEntity
8
0
100
AcDbLine
62
9
6
CONTINUOUS
10
100.3649730073
20
-9.8872555476
11
86.5763907742
21
-16.7815466642
0
LINE
5
2D1
100
AcDbEntity
8
0
100
AcDbLine
62
9
6
CONTINUOUS
10
26.3308930171
20
-46.9042955427
11
12.5423107840
21
-53.7985866593
0
LINE
5
2D2
100
AcDbEntity
8
0
100
AcDbLine
62
9
6
CONTINUOUS
10
-47.7031869731
20
-83.9213355378
11
-61.4917692063
21
-90.8156266544
0
LINE
5
2D3
100
AcDbEntity
8
0
100
AcDbLine
62
7
6
CONTINUOUS
10
80.5659831341
20
8.1941652316
11
37.0789160911
21
29.9376987531
0
LINE
5
2D4
100
AcDbEntity
8
0
100
AcDbLine
62
7
6
CONTINUOUS
10
94.3545653672
20
15.0884563481
11
50.8674983243
21
36.8319898696
0
LINE
5
2D5
100
AcDbEntity
8
0
100
AcDbLine
62
7
6
CONTINUOUS
10
158.7998105926
20
36.8839058945
11
159.5498105926
21
37.4274645480
0
LINE
5
2D6
100
AcDbEntity
8
0
100
AcDbLine
62
7
6
CONTINUOUS
10
172.5883928258
20
43.7781970111
11
173.3383928258
21
44.3217556646
0
LINE
5
2D7
100
AcDbEntity
8
0
100
AcDbLine
62
9
6
CONTINUOUS
10
159.5250090457
20
6.9785112300
11
158.4891504209
21
6.4605819176
0
LINE
5
2D8
100
AcDbEntity
8
0
100
AcDbLine
62
9
6
CONTINUOUS
10
85.4909290555
20
-30.0385287651
11
84.4550704306
21
-30.5564580775
0
LINE
5
2D9
100
AcDbEntity
8
0
100
AcDbLine
62
9
6
CONTINUOUS
10
11.4568490653
20
-67.0555687602
11
10.4209904404
21
-67.5734980726
0
LINE
5
2DA
100
AcDbEntity
8
0
100
AcDbLine
62
9
6
CONTINUOUS
10
-62.5772309250
20
-104.0726087553
11
-63.6130895498
21
-104.5905380678
0
LINE
5
2DB
100
AcDbEntity
8
0
100
AcDbLine
62
9
6
CONTINUOUS
10
174.3990529976
20
13.5932509681
11
160.6104707644
21
6.6989598515
0
LINE
5
2DC
100
AcDbEntity
8
0
100
AcDbLine
62
9
6
CONTINUOUS
10
100.3649730073
20
-23.4237890271
11
86.5763907742
21
-30.3180801436
0
LINE
5
2DD
100
AcDbEntity
8
0
100
AcDbLine
62
9
6
CONTINUOUS
10
26.3308930171
20
-60.4408290222
11
12.5423107840
21
-67.3351201387
0
LINE
5
2DE
100
AcDbEntity
8
0
100
AcDbLine
62
9
6
CONTINUOUS
10
-47.7031869731
20
-97.4578690173
11
-61.4917692063
21
-104.3521601339
0
LINE
5
2DF
100
AcDbEntity
8
0
100
AcDbLine
62
7
6
CONTINUOUS
10
173.6193734405
20
11.9706295668
11
159.8307912074
21
5.0763384503
0
LINE
5
2E0
100
AcDbEntity
8
0
100
AcDbLine
62
7
6
CONTINUOUS
10
99.5852934503
20
-25.0464104283
11
85.7967112171
21
-31.9407015448
0
LINE
5
2E1
100
AcDbEntity
8
0
100
AcDbLine
62
7
6
CONTINUOUS
10
25.5512134600
20
-62.0634504234
11
11.7626312269
21
-68.9577415400
0
LINE
5
2E2
100
AcDbEntity
8
0
100
AcDbLine
62
7
6
CONTINUOUS
10
-48.4828665302
20
-99.0804904185
11
-62.2714487633
21
-105.9747815351
0
LINE
5
2E3
100
AcDbEntity
8
0
100
AcDbLine
62
7
6
CONTINUOUS
10
88.9105233141
20
-10.0510176699
11
89.8290819676
21
-11.1598160495
0
LINE
5
2E4
100
AcDbEntity
8
0
100
AcDbLine
62
7
6
CONTINUOUS
10
88.9105233141
20
-10.0510176699
11
85.7999336389
21
-15.0942799908
0
LINE
5
2E5
100
AcDbEntity
8
0
100
AcDbLine
62
7
6
CONTINUOUS
10
89.8290819676
20
-11.1598160495
11
86.7184922924
21
-16.2030783704
0
LINE
5
2E6
100
AcDbEntity
8
0
100
AcDbLine
62
7
6
CONTINUOUS
10
158.4891504209
20
5.1615438119
11
111.1129960814
21
28.8496209817
0
LINE
5
2E7
100
AcDbEntity
8
0
100
AcDbLine
62
7
6
CONTINUOUS
10
158.4891504209
20
6.4605819176
11
111.1129960814
21
30.1486590873
0
LINE
5
2E8
100
AcDbEntity
8
0
100
AcDbLine
62
7
6
CONTINUOUS
10
150.1452904029
20
16.6429195667
11
142.6499585223
21
20.3905855070
0
LINE
5
2E9
100
AcDbEntity
8
0
100
AcDbLine
62
7
6
CONTINUOUS
10
145.1955429346
20
20.3643396074
11
151.3918367095
21
17.2661927200
0
LINE
5
2EA
100
AcDbEntity
8
0
100
AcDbLine
62
7
6
CONTINUOUS
10
145.1955429346
20
21.6633777131
11
152.6908748151
21
17.9157117728
0
LINE
5
2EB
100
AcDbEntity
8
0
100
AcDbLine
62
7
6
CONTINUOUS
10
102.6991055472
20
-3.1567265534
11
103.6176642008
21
-4.2655249330
0
LINE
5
2EC
100
AcDbEntity
8
0
100
AcDbLine
62
7
6
CONTINUOUS
10
80.8659831341
20
6.5929353450
11
84.7657306024
21
-0.1331341006
0
LINE
5
2ED
100
AcDbEntity
8
0
100
AcDbLine
62
7
6
CONTINUOUS
10
81.6159831341
20
7.1364939986
11
85.5157306024
21
0.4104245529
0
LINE
5
2EE
100
AcDbEntity
8
0
100
AcDbLine
62
7
6
CONTINUOUS
10
85.5157306024
20
-16.2512165783
11
85.5157306024
21
-29.7877500577
0
LINE
5
2EF
100
AcDbEntity
8
0
100
AcDbLine
62
7
6
CONTINUOUS
10
86.5763907742
20
-16.7815466642
11
86.5763907742
21
-30.3180801436
0
LINE
5
2F0
100
AcDbEntity
8
0
100
AcDbLine
62
9
6
CONTINUOUS
10
96.9708604576
20
28.8496209817
11
96.9708604576
21
30.1486590873
0
LINE
5
2F1
100
AcDbEntity
8
0
100
AcDbLine
62
9
6
CONTINUOUS
10
96.9708604576
20
65.6557006425
11
96.9708604576
21
66.9547387482
0
LINE
5
2F2
100
AcDbEntity
8
0
100
AcDbLine
62
7
6
CONTINUOUS
10
103.6176642008
20
-4.2655249330
11
100.5070745256
21
-9.3087872539
0
LINE
5
2F3
100
AcDbEntity
8
0
100
AcDbLine
62
7
6
CONTINUOUS
10
159.5498105926
20
19.7188340648
11
124.9015783145
21
37.0429502039
0
LINE
5
2F4
100
AcDbEntity
8
0
100
AcDbLine
62
7
6
CONTINUOUS
10
95.4045653672
20
14.0307851152
11
99.3043128355
21
7.3047156695
0
LINE
5
2F5
100
AcDbEntity
8
0
100
AcDbLine
62
7
6
CONTINUOUS
10
100.3649730073
20
-9.8872555476
11
100.3649730073
21
-23.4237890271
0
LINE
5
2F6
100
AcDbEntity
8
0
100
AcDbLine
62
9
6
CONTINUOUS
10
111.1129960814
20
28.8496209817
11
111.1129960814
21
30.1486590873
0
LINE
5
2F7
100
AcDbEntity
8
0
100
AcDbLine
62
9
6
CONTINUOUS
10
111.1129960814
20
65.6557006425
11
111.1129960814
21
66.9547387482
0
LINE
5
2F8
100
AcDbEntity
8
0
100
AcDbLine
62
7
6
CONTINUOUS
10
154.6000631243
20
43.9121671210
11
111.1129960814
21
65.6557006425
0
LINE
5
2F9
100
AcDbEntity
8
0
100
AcDbLine
62
7
6
CONTINUOUS
10
154.6000631243
20
45.2112052267
11
111.1129960814
21
66.9547387482
0
LINE
5
2FA
100
AcDbEntity
8
0
100
AcDbLine
62
9
6
CONTINUOUS
10
124.9015783145
20
42.8149799101
11
124.9015783145
21
44.1140180158
0
LINE
5
2FB
100
AcDbEntity
8
0
100
AcDbLine
62
9
6
CONTINUOUS
10
124.9015783145
20
79.6210595709
11
124.9015783145
21
80.9200976766
0
LINE
5
2FC
100
AcDbEntity
8
0
100
AcDbLine
62
7
6
CONTINUOUS
10
162.9446033043
20
26.9660223252
11
159.8340136291
21
21.9227600043
0
LINE
5
2FD
100
AcDbEntity
8
0
100
AcDbLine
62
7
6
CONTINUOUS
10
150.1452904029
20
53.4489992275
11
142.6499585223
21
57.1966651678
0
LINE
5
2FE
100
AcDbEntity
8
0
100
AcDbLine
62
7
6
CONTINUOUS
10
145.1955429346
20
57.1704192683
11
151.3918367095
21
54.0722723808
0
LINE
5
2FF
100
AcDbEntity
8
0
100
AcDbLine
62
7
6
CONTINUOUS
10
145.1955429346
20
58.4694573739
11
152.6908748151
21
54.7217914337
0
LINE
5
300
100
AcDbEntity
8
0
100
AcDbLine
62
7
6
CONTINUOUS
10
168.3886453575
20
52.1054963433
11
124.9015783145
21
73.8490298647
0
LINE
5
301
100
AcDbEntity
8
0
100
AcDbLine
62
7
6
CONTINUOUS
10
154.3879310900
20
61.3320681377
11
151.5595039652
21
62.7462817000
0
LINE
5
302
100
AcDbEntity
8
0
100
AcDbLine
62
9
6
CONTINUOUS
10
152.2666107464
20
63.4533884812
11
151.8812736313
21
63.6460570388
0
LINE
5
303
100
AcDbEntity
8
0
100
AcDbLine
62
7
6
CONTINUOUS
10
163.8631619579
20
25.8572239456
11
160.7525722827
21
20.8139616247
0
LINE
5
304
100
AcDbEntity
8
0
100
AcDbLine
62
7
6
CONTINUOUS
10
177.6517441910
20
32.7515150622
11
174.5411545158
21
27.7082527413
0
LINE
5
305
100
AcDbEntity
8
0
100
AcDbLine
62
9
6
CONTINUOUS
10
157.4638455881
20
67.0262844813
11
156.4031854164
21
67.5566145672
0
LINE
5
306
100
AcDbEntity
8
0
100
AcDbLine
62
9
6
CONTINUOUS
10
159.7972979661
20
68.1930106703
11
158.7366377943
21
68.7233407562
0
LINE
5
307
100
AcDbEntity
8
0
100
AcDbLine
62
7
6
CONTINUOUS
10
145.1955429346
20
20.3643396074
11
145.1955429346
21
21.6633777131
0
LINE
5
308
100
AcDbEntity
8
0
100
AcDbLine
62
7
6
CONTINUOUS
10
145.1955429346
20
57.1704192683
11
145.1955429346
21
58.4694573739
0
LINE
5
309
100
AcDbEntity
8
0
100
AcDbLine
62
7
6
CONTINUOUS
10
151.2059505746
20
100.7897982280
11
151.2059505746
21
99.6679731491
0
LINE
5
30A
100
AcDbEntity
8
0
100
AcDbLine
62
7
6
CONTINUOUS
10
152.2666107464
20
100.2594681421
11
152.2666107464
21
99.1988079703
0
LINE
5
30B
100
AcDbEntity
8
0
100
AcDbLine
62
7
6
CONTINUOUS
10
152.2666107464
20
62.3927283094
11
152.2666107464
21
63.4533884812
0
LINE
5
30C
100
AcDbEntity
8
0
100
AcDbLine
62
7
6
CONTINUOUS
10
162.9446033043
20
26.9660223252
11
163.8631619579
21
25.8572239456
0
LINE
5
30D
100
AcDbEntity
8
0
100
AcDbLine
62
9
6
CONTINUOUS
10
154.3879310900
20
95.6632740644
11
154.3879310900
21
94.3642359587
0
LINE
5
30E
100
AcDbEntity
8
0
100
AcDbLine
62
7
6
CONTINUOUS
10
155.4130573558
20
96.9007109314
11
155.4130573558
21
95.6016728258
0
LINE
5
30F
100
AcDbEntity
8
0
100
AcDbLine
62
7
6
CONTINUOUS
10
155.4130573558
20
60.0946312706
11
155.4130573558
21
58.7955931649
0
LINE
5
310
100
AcDbEntity
8
0
100
AcDbLine
62
7
6
CONTINUOUS
10
159.5498105926
20
20.7658234169
11
159.5498105926
21
7.2292899374
0
LINE
5
311
100
AcDbEntity
8
0
100
AcDbLine
62
7
6
CONTINUOUS
10
160.6104707644
20
20.2354933310
11
160.6104707644
21
6.6989598515
0
LINE
5
312
100
AcDbEntity
8
0
100
AcDbLine
62
7
6
CONTINUOUS
10
165.7016395890
20
72.3359664120
11
165.7016395890
21
103.5128809482
0
LINE
5
313
100
AcDbEntity
8
0
100
AcDbLine
62
9
6
CONTINUOUS
10
157.4638455881
20
94.5225910515
11
156.4031854164
21
95.0529211374
0
LINE
5
314
100
AcDbEntity
8
0
100
AcDbLine
62
7
6
CONTINUOUS
10
151.5595039652
20
99.5523613609
11
154.3879310900
21
98.1381477985
0
LINE
5
315
100
AcDbEntity
8
0
100
AcDbLine
62
9
6
CONTINUOUS
10
159.7972979661
20
95.6893172405
11
158.7366377943
21
96.2196473263
0
LINE
5
316
100
AcDbEntity
8
0
100
AcDbLine
62
7
6
CONTINUOUS
10
152.2666107464
20
100.2594681421
11
151.2059505746
21
100.7897982280
0
LINE
5
317
100
AcDbEntity
8
0
100
AcDbLine
62
9
6
CONTINUOUS
10
161.8125522924
20
106.0930990869
11
162.8732124642
21
105.5627690010
0
LINE
5
318
100
AcDbEntity
8
0
100
AcDbLine
62
7
6
CONTINUOUS
10
176.7331855375
20
33.8603134418
11
177.6517441910
21
32.7515150622
0
LINE
5
319
100
AcDbEntity
8
0
100
AcDbLine
62
7
6
CONTINUOUS
10
154.9000631243
20
43.6099753402
11
158.7998105926
21
36.8839058945
0
LINE
5
31A
100
AcDbEntity
8
0
100
AcDbLine
62
7
6
CONTINUOUS
10
155.6500631243
20
44.1535339937
11
159.5498105926
21
37.4274645480
0
LINE
5
31B
100
AcDbEntity
8
0
100
AcDbLine
62
7
6
CONTINUOUS
10
174.3990529976
20
27.1297844475
11
174.3990529976
21
13.5932509681
0
LINE
5
31C
100
AcDbEntity
8
0
100
AcDbLine
62
7
6
CONTINUOUS
10
163.6014066744
20
106.2067062357
11
164.6620668462
21
105.6763761498
0
LINE
5
31D
100
AcDbEntity
8
0
100
AcDbLine
62
7
6
CONTINUOUS
10
169.4386453575
20
51.0478251103
11
173.3383928258
21
44.3217556646
0
SPLINE
5
31E
100
AcDbEntity
8
0
100
AcDbSpline
62
7
6
CONTINUOUS
70
0
71
3
72
8
73
4
74
2
42
0.0000001000
43
0.0000001000
44
0.0000000001
12
0.0000254135
22
-0.1919245429
32
0.0000000000
13
-0.0377390619
23
-0.1870962179
33
0.0000000000
40
0.0000000000
40
0.0000000000
40
0.0000000000
40
0.0000000000
40
1.0000000000
40
1.0000000000
40
1.0000000000
40
1.0000000000
10
155.4097812613
20
58.7956689138
30
0.0000000000
10
155.4097897325
20
58.7316940662
30
0.0000000000
10
155.4035051781
20
58.6677197539
30
0.0000000000
10
155.3909254908
20
58.6053543479
30
0.0000000000
11
155.4097812613
21
58.7956689138
31
0.0000000000
11
155.3909254908
21
58.6053543479
31
0.0000000000
0
SPLINE
5
31F
100
AcDbEntity
8
0
100
AcDbSpline
62
7
6
CONTINUOUS
70
0
71
3
72
10
73
6
74
4
42
0.0000001000
43
0.0000001000
44
0.0000000001
12
-0.0002259045
22
1.7060462911
32
0.0000000000
13
-1.4990936710
23
0.7495468355
33
0.0000000000
40
0.0000000000
40
0.0000000000
40
0.0000000000
40
0.0000000000
40
0.1632027510
40
0.5346064519
40
1.0000000000
40
1.0000000000
40
1.0000000000
40
1.0000000000
10
155.4097812613
20
96.9007866803
30
0.0000000000
10
155.4097689719
20
96.9935971630
30
0.0000000000
10
155.3663434998
20
97.2976219721
30
0.0000000000
10
155.0194074867
20
97.7677672168
30
0.0000000000
10
154.6204872641
20
98.0218697114
30
0.0000000000
10
154.3879310900
20
98.1381477985
30
0.0000000000
11
155.4097812613
21
96.9007866803
31
0.0000000000
11
155.3700173759
21
97.1743107394
31
0.0000000000
11
155.0306214431
21
97.6961344289
31
0.0000000000
11
154.3879310900
21
98.1381477985
31
0.0000000000
0
SPLINE
5
320
100
AcDbEntity
8
0
100
AcDbSpline
62
7
6
CONTINUOUS
70
0
71
3
72
9
73
5
74
3
42
0.0000001000
43
0.0000001000
44
0.0000000001
12
-0.8187227456
22
0.4142408188
32
0.0000000000
13
-0.4807102879
23
0.7789477619
33
0.0000000000
40
0.0000000000
40
0.0000000000
40
0.0000000000
40
0.0000000000
40
0.6985832984
40
1.0000000000
40
1.0000000000
40
1.0000000000
40
1.0000000000
10
-177.2651880112
20
-100.7704766444
30
0.0000000000
10
-177.4558366899
20
-100.6740160719
30
0.0000000000
10
-177.7005683991
20
-100.4764798402
30
0.0000000000
10
-177.8790889759
20
-100.2284015684
30
0.0000000000
10
-177.9273870123
20
-100.1501389467
30
0.0000000000
11
-177.2651880112
21
-100.7704766444
31
0.0000000000
11
-177.7654553933
21
-100.3733595904
31
0.0000000000
11
-177.9273870123
21
-100.1501389467
31
0.0000000000
0
SPLINE
5
321
100
AcDbEntity
8
0
100
AcDbSpline
62
7
6
CONTINUOUS
70
0
71
3
72
9
73
5
74
3
42
0.0000001000
43
0.0000001000
44
0.0000000001
12
-0.8449289083
22
1.3691312598
32
0.0000000000
13
-0.0000000000
23
1.6004671019
33
0.0000000000
40
0.0000000000
40
0.0000000000
40
0.0000000000
40
0.0000000000
40
0.3703438611
40
1.0000000000
40
1.0000000000
40
1.0000000000
40
1.0000000000
10
-177.9273870123
20
-100.1501389467
30
0.0000000000
10
-178.0316917571
20
-99.9811224943
30
0.0000000000
10
-178.2439317428
20
-99.4808234625
30
0.0000000000
10
-178.3058094583
20
-98.9430125851
30
0.0000000000
10
-178.3058094583
20
-98.6070979399
30
0.0000000000
11
-177.9273870123
21
-100.1501389467
31
0.0000000000
11
-178.1682724353
21
-99.6054122228
31
0.0000000000
11
-178.3058094583
21
-98.6070979399
31
0.0000000000
0
SPLINE
5
322
100
AcDbEntity
8
0
100
AcDbSpline
62
7
6
CONTINUOUS
70
0
71
3
72
9
73
5
74
3
42
0.0000001000
43
0.0000001000
44
0.0000000001
12
0.6967237417
22
-0.0202872633
32
0.0000000000
13
0.6515390937
23
0.2322887184
33
0.0000000000
40
0.0000000000
40
0.0000000000
40
0.0000000000
40
0.0000000000
40
0.1803192274
40
1.0000000000
40
1.0000000000
40
1.0000000000
40
1.0000000000
10
-173.3734057408
20
-97.0873623243
30
0.0000000000
10
-173.3315281785
20
-97.0885817188
30
0.0000000000
10
-173.0992129512
20
-97.0862414604
30
0.0000000000
10
-172.8723761375
20
-97.0348664268
30
0.0000000000
10
-172.6943581149
20
-96.9713988948
30
0.0000000000
11
-173.3734057408
21
-97.0873623243
31
0.0000000000
11
-173.2479245046
21
-97.0861433647
31
0.0000000000
11
-172.6943581149
21
-96.9713988948
31
0.0000000000
0
SPLINE
5
323
100
AcDbEntity
8
0
100
AcDbSpline
62
7
6
CONTINUOUS
70
0
71
3
72
8
73
4
74
2
42
0.0000001000
43
0.0000001000
44
0.0000000001
12
0.3012038049
22
0.1073861054
32
0.0000000000
13
0.2838170012
23
0.1419085006
33
0.0000000000
40
0.0000000000
40
0.0000000000
40
0.0000000000
40
0.0000000000
40
1.0000000000
40
1.0000000000
40
1.0000000000
40
1.0000000000
10
-172.6943581149
20
-96.9713988948
30
0.0000000000
10
-172.5939568466
20
-96.9356035263
30
0.0000000000
10
-172.4960735025
20
-96.8930148922
30
0.0000000000
10
-172.4014678354
20
-96.8457120586
30
0.0000000000
11
-172.6943581149
21
-96.9713988948
31
0.0000000000
11
-172.4014678354
21
-96.8457120586
31
0.0000000000
0
SPLINE
5
324
100
AcDbEntity
8
0
100
AcDbSpline
62
7
6
CONTINUOUS
70
0
71
3
72
9
73
5
74
3
42
0.0000001000
43
0.0000001000
44
0.0000000001
12
0.6967237417
22
-0.0202872633
32
0.0000000000
13
0.6515390937
23
0.2322887184
33
0.0000000000
40
0.0000000000
40
0.0000000000
40
0.0000000000
40
0.0000000000
40
0.1803192274
40
1.0000000000
40
1.0000000000
40
1.0000000000
40
1.0000000000
10
-173.3734057408
20
-69.5910557541
30
0.0000000000
10
-173.3315281785
20
-69.5922751487
30
0.0000000000
10
-173.0992129512
20
-69.5899348902
30
0.0000000000
10
-172.8723761375
20
-69.5385598567
30
0.0000000000
10
-172.6943581149
20
-69.4750923246
30
0.0000000000
11
-173.3734057408
21
-69.5910557541
31
0.0000000000
11
-173.2479245046
21
-69.5898367946
31
0.0000000000
11
-172.6943581149
21
-69.4750923246
31
0.0000000000
0
SPLINE
5
325
100
AcDbEntity
8
0
100
AcDbSpline
62
7
6
CONTINUOUS
70
0
71
3
72
8
73
4
74
2
42
0.0000001000
43
0.0000001000
44
0.0000000001
12
0.3012038049
22
0.1073861054
32
0.0000000000
13
0.2838170012
23
0.1419085006
33
0.0000000000
40
0.0000000000
40
0.0000000000
40
0.0000000000
40
0.0000000000
40
1.0000000000
40
1.0000000000
40
1.0000000000
40
1.0000000000
10
-172.6943581149
20
-69.4750923246
30
0.0000000000
10
-172.5939568466
20
-69.4392969561
30
0.0000000000
10
-172.4960735025
20
-69.3967083220
30
0.0000000000
10
-172.4014678354
20
-69.3494054885
30
0.0000000000
11
-172.6943581149
21
-69.4750923246
31
0.0000000000
11
-172.4014678354
21
-69.3494054885
31
0.0000000000
0
SPLINE
5
326
100
AcDbEntity
8
0
100
AcDbSpline
62
7
6
CONTINUOUS
70
0
71
3
72
9
73
5
74
3
42
0.0000001000
43
0.0000001000
44
0.0000000001
12
0.6967237417
22
-0.0202872633
32
0.0000000000
13
0.6515390937
23
0.2322887184
33
0.0000000000
40
0.0000000000
40
0.0000000000
40
0.0000000000
40
0.0000000000
40
0.1803192274
40
1.0000000000
40
1.0000000000
40
1.0000000000
40
1.0000000000
10
155.4312475110
20
67.3149643016
30
0.0000000000
10
155.4731250732
20
67.3137449071
30
0.0000000000
10
155.7054403005
20
67.3160851655
30
0.0000000000
10
155.9322771143
20
67.3674601990
30
0.0000000000
10
156.1102951368
20
67.4309277311
30
0.0000000000
11
155.4312475110
21
67.3149643016
31
0.0000000000
11
155.5567287471
21
67.3161832611
31
0.0000000000
11
156.1102951368
21
67.4309277311
31
0.0000000000
0
SPLINE
5
327
100
AcDbEntity
8
0
100
AcDbSpline
62
7
6
CONTINUOUS
70
0
71
3
72
8
73
4
74
2
42
0.0000001000
43
0.0000001000
44
0.0000000001
12
0.3012038049
22
0.1073861054
32
0.0000000000
13
0.2838170012
23
0.1419085006
33
0.0000000000
40
0.0000000000
40
0.0000000000
40
0.0000000000
40
0.0000000000
40
1.0000000000
40
1.0000000000
40
1.0000000000
40
1.0000000000
10
156.1102951368
20
67.4309277311
30
0.0000000000
10
156.2106964051
20
67.4667230996
30
0.0000000000
10
156.3085797493
20
67.5093117337
30
0.0000000000
10
156.4031854164
20
67.5566145672
30
0.0000000000
11
156.1102951368
21
67.4309277311
31
0.0000000000
11
156.4031854164
21
67.5566145672
31
0.0000000000
0
SPLINE
5
328
100
AcDbEntity
8
0
100
AcDbSpline
62
7
6
CONTINUOUS
70
0
71
3
72
8
73
4
74
2
42
0.0000001000
43
0.0000001000
44
0.0000000001
12
0.1256326868
22
-0.0036581836
32
0.0000000000
13
0.1251383147
23
0.0060490814
33
0.0000000000
40
0.0000000000
40
0.0000000000
40
0.0000000000
40
0.0000000000
40
1.0000000000
40
1.0000000000
40
1.0000000000
40
1.0000000000
10
155.4312475110
20
94.8112708718
30
0.0000000000
10
155.4731250732
20
94.8100514772
30
0.0000000000
10
155.5150159755
20
94.8104734708
30
0.0000000000
10
155.5567287471
20
94.8124898313
30
0.0000000000
11
155.4312475110
21
94.8112708718
31
0.0000000000
11
155.5567287471
21
94.8124898313
31
0.0000000000
0
SPLINE
5
329
100
AcDbEntity
8
0
100
AcDbSpline
62
7
6
CONTINUOUS
70
0
71
3
72
8
73
4
74
2
42
0.0000001000
43
0.0000001000
44
0.0000000001
12
0.5688437773
22
0.0274974322
32
0.0000000000
13
0.5340540677
23
0.1904025961
33
0.0000000000
40
0.0000000000
40
0.0000000000
40
0.0000000000
40
0.0000000000
40
1.0000000000
40
1.0000000000
40
1.0000000000
40
1.0000000000
10
155.5567287471
20
94.8124898313
30
0.0000000000
10
155.7463433395
20
94.8216556420
30
0.0000000000
10
155.9322771143
20
94.8637667692
30
0.0000000000
10
156.1102951368
20
94.9272343012
30
0.0000000000
11
155.5567287471
21
94.8124898313
31
0.0000000000
11
156.1102951368
21
94.9272343012
31
0.0000000000
0
SPLINE
5
32A
100
AcDbEntity
8
0
100
AcDbSpline
62
7
6
CONTINUOUS
70
0
71
3
72
8
73
4
74
2
42
0.0000001000
43
0.0000001000
44
0.0000000001
12
0.3012038049
22
0.1073861054
32
0.0000000000
13
0.2838170012
23
0.1419085006
33
0.0000000000
40
0.0000000000
40
0.0000000000
40
0.0000000000
40
0.0000000000
40
1.0000000000
40
1.0000000000
40
1.0000000000
40
1.0000000000
10
156.1102951368
20
94.9272343012
30
0.0000000000
10
156.2106964051
20
94.9630296697
30
0.0000000000
10
156.3085797493
20
95.0056183039
30
0.0000000000
10
156.4031854164
20
95.0529211374
30
0.0000000000
11
156.1102951368
21
94.9272343012
31
0.0000000000
11
156.4031854164
21
95.0529211374
31
0.0000000000
0
SPLINE
5
32B
100
AcDbEntity
8
0
100
AcDbSpline
62
7
6
CONTINUOUS
70
0
71
3
72
9
73
5
74
3
42
0.0000001000
43
0.0000001000
44
0.0000000001
12
0.6275524518
22
0.3120056069
32
0.0000000000
13
0.6662067960
23
-0.2102753669
33
0.0000000000
40
0.0000000000
40
0.0000000000
40
0.0000000000
40
0.0000000000
40
0.4254114253
40
1.0000000000
40
1.0000000000
40
1.0000000000
40
1.0000000000
10
150.6656350996
20
99.6052266552
30
0.0000000000
10
150.7546244273
20
99.6494702385
30
0.0000000000
10
150.9827730783
20
99.7165316365
30
0.0000000000
10
151.2158366961
20
99.6810127216
30
0.0000000000
10
151.3434349672
20
99.6407387805
30
0.0000000000
11
150.6656350996
21
99.6052266552
31
0.0000000000
11
150.9496279984
21
99.6879631484
31
0.0000000000
11
151.3434349672
21
99.6407387805
31
0.0000000000
0
SPLINE
5
32C
100
AcDbEntity
8
0
100
AcDbSpline
62
7
6
CONTINUOUS
70
0
71
3
72
8
73
4
74
2
42
0.0000001000
43
0.0000001000
44
0.0000000001
12
0.2241626042
22
-0.0707526163
32
0.0000000000
13
0.2063809169
23
-0.1031904584
33
0.0000000000
40
0.0000000000
40
0.0000000000
40
0.0000000000
40
0.0000000000
40
1.0000000000
40
1.0000000000
40
1.0000000000
40
1.0000000000
10
151.3434349672
20
99.6407387805
30
0.0000000000
10
151.4181558353
20
99.6171545751
30
0.0000000000
10
151.4907103263
20
99.5867581804
30
0.0000000000
10
151.5595039652
20
99.5523613609
30
0.0000000000
11
151.3434349672
21
99.6407387805
31
0.0000000000
11
151.5595039652
21
99.5523613609
31
0.0000000000
0
SPLINE
5
32D
100
AcDbEntity
8
0
100
AcDbSpline
62
7
6
CONTINUOUS
70
0
71
3
72
10
73
6
74
4
42
0.0000001000
43
0.0000001000
44
0.0000000001
12
1.6937111564
22
0.8566613148
32
0.0000000000
13
-0.0000000000
23
1.8834926316
33
0.0000000000
40
0.0000000000
40
0.0000000000
40
0.0000000000
40
0.0000000000
40
0.2535093694
40
0.5975132939
40
1.0000000000
40
1.0000000000
40
1.0000000000
40
1.0000000000
10
-48.4838699581
20
-99.0804973168
30
0.0000000000
10
-48.3407460757
20
-99.0081067603
30
0.0000000000
10
-48.0382147951
20
-98.7639638648
30
0.0000000000
10
-47.7577244261
20
-98.1831046021
30
0.0000000000
10
-47.7031869731
20
-97.7105625991
30
0.0000000000
10
-47.7031869731
20
-97.4578690173
30
0.0000000000
11
-48.4838699581
21
-99.0804973168
31
0.0000000000
11
-48.1083231082
21
-98.7824118311
31
0.0000000000
11
-47.8070117808
21
-98.2088063154
31
0.0000000000
11
-47.7031869731
21
-97.4578690173
31
0.0000000000
0
SPLINE
5
32E
100
AcDbEntity
8
0
100
AcDbSpline
62
7
6
CONTINUOUS
70
0
71
3
72
10
73
6
74
4
42
0.0000001000
43
0.0000001000
44
0.0000000001
12
1.6937111564
22
0.8566613148
32
0.0000000000
13
-0.0000000000
23
1.8834926316
33
0.0000000000
40
0.0000000000
40
0.0000000000
40
0.0000000000
40
0.0000000000
40
0.2535093694
40
0.5975132939
40
1.0000000000
40
1.0000000000
40
1.0000000000
40
1.0000000000
10
25.5502100321
20
-62.0634573217
30
0.0000000000
10
25.6933339145
20
-61.9910667651
30
0.0000000000
10
25.9958651951
20
-61.7469238697
30
0.0000000000
10
26.2763555641
20
-61.1660646070
30
0.0000000000
10
26.3308930171
20
-60.6935226040
30
0.0000000000
10
26.3308930171
20
-60.4408290222
30
0.0000000000
11
25.5502100321
21
-62.0634573217
31
0.0000000000
11
25.9257568820
21
-61.7653718360
31
0.0000000000
11
26.2270682094
21
-61.1917663203
31
0.0000000000
11
26.3308930171
21
-60.4408290222
31
0.0000000000
0
SPLINE
5
32F
100
AcDbEntity
8
0
100
AcDbSpline
62
7
6
CONTINUOUS
70
0
71
3
72
10
73
6
74
4
42
0.0000001000
43
0.0000001000
44
0.0000000001
12
1.6937111564
22
0.8566613148
32
0.0000000000
13
-0.0000000000
23
1.8834926316
33
0.0000000000
40
0.0000000000
40
0.0000000000
40
0.0000000000
40
0.0000000000
40
0.2535093694
40
0.5975132939
40
1.0000000000
40
1.0000000000
40
1.0000000000
40
1.0000000000
10
99.5842900223
20
-25.0464173266
30
0.0000000000
10
99.7274139047
20
-24.9740267700
30
0.0000000000
10
100.0299451853
20
-24.7298838745
30
0.0000000000
10
100.3104355544
20
-24.1490246119
30
0.0000000000
10
100.3649730073
20
-23.6764826088
30
0.0000000000
10
100.3649730073
20
-23.4237890271
30
0.0000000000
11
99.5842900223
21
-25.0464173266
31
0.0000000000
11
99.9598368722
21
-24.7483318409
31
0.0000000000
11
100.2611481997
21
-24.1747263252
31
0.0000000000
11
100.3649730073
21
-23.4237890271
31
0.0000000000
0
SPLINE
5
330
100
AcDbEntity
8
0
100
AcDbSpline
62
7
6
CONTINUOUS
70
0
71
3
72
10
73
6
74
4
42
0.0000001000
43
0.0000001000
44
0.0000000001
12
1.6937111564
22
0.8566613148
32
0.0000000000
13
-0.0000000000
23
1.8834926316
33
0.0000000000
40
0.0000000000
40
0.0000000000
40
0.0000000000
40
0.0000000000
40
0.2535093694
40
0.5975132939
40
1.0000000000
40
1.0000000000
40
1.0000000000
40
1.0000000000
10
173.6183700126
20
11.9706226685
30
0.0000000000
10
173.7614938950
20
12.0430132251
30
0.0000000000
10
174.0640251756
20
12.2871561206
30
0.0000000000
10
174.3445155446
20
12.8680153832
30
0.0000000000
10
174.3990529976
20
13.3405573863
30
0.0000000000
10
174.3990529976
20
13.5932509681
30
0.0000000000
11
173.6183700126
21
11.9706226685
31
0.0000000000
11
173.9939168625
21
12.2687081542
31
0.0000000000
11
174.2952281899
21
12.8423136699
31
0.0000000000
11
174.3990529976
21
13.5932509681
31
0.0000000000
0
SPLINE
5
331
100
AcDbEntity
8
0
100
AcDbSpline
62
7
6
CONTINUOUS
70
0
71
3
72
8
73
4
74
2
42
0.0000001000
43
0.0000001000
44
0.0000000001
12
0.0226023905
22
0.0707475448
32
0.0000000000
13
0.0170125771
23
0.0721914501
33
0.0000000000
40
0.0000000000
40
0.0000000000
40
0.0000000000
40
0.0000000000
40
1.0000000000
40
1.0000000000
40
1.0000000000
40
1.0000000000
10
-163.7850777233
20
-58.1112143242
30
0.0000000000
10
-163.7775435931
20
-58.0876318092
30
0.0000000000
10
-163.7708841344
20
-58.0637927880
30
0.0000000000
10
-163.7652132754
20
-58.0397289713
30
0.0000000000
11
-163.7850777233
21
-58.1112143242
31
0.0000000000
11
-163.7652132754
21
-58.0397289713
31
0.0000000000
0
SPLINE
5
332
100
AcDbEntity
8
0
100
AcDbSpline
62
7
6
CONTINUOUS
70
0
71
3
72
8
73
4
74
2
42
0.0000001000
43
0.0000001000
44
0.0000000001
12
-0.4908428039
22
0.2454214020
32
0.0000000000
13
-0.5032902495
23
0.2196828877
33
0.0000000000
40
0.0000000000
40
0.0000000000
40
0.0000000000
40
0.0000000000
40
1.0000000000
40
1.0000000000
40
1.0000000000
40
1.0000000000
10
-110.9892438893
20
-82.2014990037
30
0.0000000000
10
-111.1528581573
20
-82.1196918697
30
0.0000000000
10
-111.3187334890
20
-82.0423273285
30
0.0000000000
10
-111.4864969055
20
-81.9690996993
30
0.0000000000
11
-110.9892438893
21
-82.2014990037
31
0.0000000000
11
-111.4864969055
21
-81.9690996993
31
0.0000000000
0
SPLINE
5
333
100
AcDbEntity
8
0
100
AcDbSpline
62
7
6
CONTINUOUS
70
0
71
3
72
14
73
10
74
8
42
0.0000001000
43
0.0000001000
44
0.0000000001
12
-12.3408407751
22
5.3866959298
32
0.0000000000
13
-12.3408969036
23
-5.3865665193
33
0.0000000000
40
0.0000000000
40
0.0000000000
40
0.0000000000
40
0.0000000000
40
0.0974318991
40
0.2533799363
40
0.4177936547
40
0.5818819683
40
0.7464777289
40
0.9025765450
40
1.0000000000
40
1.0000000000
40
1.0000000000
40
1.0000000000
10
-111.4864969055
20
-81.9690996993
30
0.0000000000
10
-111.8872940898
20
-81.7941543612
30
0.0000000000
10
-112.9576263512
20
-81.4005989107
30
0.0000000000
10
-114.7859363802
20
-80.9684978815
30
0.0000000000
10
-116.9504684064
20
-80.7268844956
30
0.0000000000
10
-119.1664829150
20
-80.7266396176
30
0.0000000000
10
-121.3325528252
20
-80.9680454434
30
0.0000000000
10
-123.1623226668
20
-81.4003561590
30
0.0000000000
10
-124.2332573020
20
-81.7941279712
30
0.0000000000
10
-124.6340215732
20
-81.9690539448
30
0.0000000000
11
-111.4864969055
21
-81.9690996993
31
0.0000000000
11
-112.7161319663
21
-81.5109311905
31
0.0000000000
11
-114.7558669451
21
-81.0179057431
31
0.0000000000
11
-116.9540657794
21
-80.7677215901
31
0.0000000000
11
-119.1620772040
21
-80.7674727486
31
0.0000000000
11
-121.3627530049
21
-81.0175551462
31
0.0000000000
11
-123.4044906411
21
-81.5109309392
31
0.0000000000
11
-124.6340215732
21
-81.9690539448
31
0.0000000000
0
SPLINE
5
334
100
AcDbEntity
8
0
100
AcDbSpline
62
7
6
CONTINUOUS
70
0
71
3
72
8
73
4
74
2
42
0.0000001000
43
0.0000001000
44
0.0000000001
12
-0.5033975090
22
-0.2197234277
32
0.0000000000
13
-0.4909451778
23
-0.2454725889
33
0.0000000000
40
0.0000000000
40
0.0000000000
40
0.0000000000
40
0.0000000000
40
1.0000000000
40
1.0000000000
40
1.0000000000
40
1.0000000000
10
-124.6340215732
20
-81.9690539448
30
0.0000000000
10
-124.8018207429
20
-82.0422950874
30
0.0000000000
10
-124.9677311205
20
-82.1196748074
30
0.0000000000
10
-125.1313795131
20
-82.2014990037
30
0.0000000000
11
-124.6340215732
21
-81.9690539448
31
0.0000000000
11
-125.1313795131
21
-82.2014990037
31
0.0000000000
0
SPLINE
5
335
100
AcDbEntity
8
0
100
AcDbSpline
62
7
6
CONTINUOUS
70
0
71
3
72
11
73
7
74
5
42
0.0000001000
43
0.0000001000
44
0.0000000001
12
-4.1383732058
22
2.0691866029
32
0.0000000000
13
-0.3273111177
23
4.6547814582
33
0.0000000000
40
0.0000000000
40
0.0000000000
40
0.0000000000
40
0.0000000000
40
0.3520383401
40
0.6589014232
40
0.9201336911
40
1.0000000000
40
1.0000000000
40
1.0000000000
40
1.0000000000
10
-97.2006616562
20
-37.2020901206
30
0.0000000000
10
-97.6862836675
20
-36.9592791149
30
0.0000000000
10
-98.5623436280
20
-36.4296869541
30
0.0000000000
10
-99.5870664372
20
-35.4223790011
30
0.0000000000
10
-100.0376414237
20
-34.4994013484
30
0.0000000000
10
-100.1127885129
20
-33.9732610571
30
0.0000000000
10
-100.1215022231
20
-33.8493409859
30
0.0000000000
11
-97.2006616562
21
-37.2020901206
31
0.0000000000
11
-98.5817977852
21
-36.3386456846
31
0.0000000000
11
-99.5685493711
21
-35.3177768665
31
0.0000000000
11
-100.0687141664
21
-34.2174389661
31
0.0000000000
11
-100.1215022231
21
-33.8493409859
31
0.0000000000
0
SPLINE
5
336
100
AcDbEntity
8
0
100
AcDbSpline
62
7
6
CONTINUOUS
70
0
71
3
72
8
73
4
74
2
42
0.0000001000
43
0.0000001000
44
0.0000000001
12
-0.0128332832
22
0.1825056508
32
0.0000000000
13
0.0000089369
23
0.1830318828
33
0.0000000000
40
0.0000000000
40
0.0000000000
40
0.0000000000
40
0.0000000000
40
1.0000000000
40
1.0000000000
40
1.0000000000
40
1.0000000000
10
-100.1215022231
20
-33.8493409859
30
0.0000000000
10
-100.1257799842
20
-33.7885057689
30
0.0000000000
10
-100.1279172419
20
-33.7274952716
30
0.0000000000
10
-100.1279142629
20
-33.6664846440
30
0.0000000000
11
-100.1215022231
21
-33.8493409859
31
0.0000000000
11
-100.1279142629
21
-33.6664846440
31
0.0000000000
0
SPLINE
5
337
100
AcDbEntity
8
0
100
AcDbSpline
62
7
6
CONTINUOUS
70
0
71
3
72
8
73
4
74
2
42
0.0000001000
43
0.0000001000
44
0.0000000001
12
-0.2271566377
22
0.1135783189
32
0.0000000000
13
-0.2097547090
23
0.1447799920
33
0.0000000000
40
0.0000000000
40
0.0000000000
40
0.0000000000
40
0.0000000000
40
1.0000000000
40
1.0000000000
40
1.0000000000
40
1.0000000000
10
-162.3959068816
20
-95.5304618290
30
0.0000000000
10
-162.4716257608
20
-95.4926023894
30
0.0000000000
10
-162.5444662056
20
-95.4489958724
30
0.0000000000
10
-162.6143844419
20
-95.4007358751
30
0.0000000000
11
-162.3959068816
21
-95.5304618290
31
0.0000000000
11
-162.6143844419
21
-95.4007358751
31
0.0000000000
0
SPLINE
5
338
100
AcDbEntity
8
0
100
AcDbSpline
62
7
6
CONTINUOUS
70
0
71
3
72
8
73
4
74
2
42
0.0000001000
43
0.0000001000
44
0.0000000001
12
-0.4283273030
22
0.2956463947
32
0.0000000000
13
-0.3540967690
23
0.3841379170
33
0.0000000000
40
0.0000000000
40
0.0000000000
40
0.0000000000
40
0.0000000000
40
1.0000000000
40
1.0000000000
40
1.0000000000
40
1.0000000000
10
-162.6143844419
20
-95.4007358751
30
0.0000000000
10
-162.7571602096
20
-95.3021870769
30
0.0000000000
10
-162.8877505921
20
-95.1842336221
30
0.0000000000
10
-163.0057828484
20
-95.0561876498
30
0.0000000000
11
-162.6143844419
21
-95.4007358751
31
0.0000000000
11
-163.0057828484
21
-95.0561876498
31
0.0000000000
0
SPLINE
5
339
100
AcDbEntity
8
0
100
AcDbSpline
62
7
6
CONTINUOUS
70
0
71
3
72
8
73
4
74
2
42
0.0000001000
43
0.0000001000
44
0.0000000001
12
-0.1908776520
22
0.2070714846
32
0.0000000000
13
-0.1691777799
23
0.2235971915
33
0.0000000000
40
0.0000000000
40
0.0000000000
40
0.0000000000
40
0.0000000000
40
1.0000000000
40
1.0000000000
40
1.0000000000
40
1.0000000000
10
-163.0057828484
20
-95.0561876498
30
0.0000000000
10
-163.0694087324
20
-94.9871638216
30
0.0000000000
10
-163.1293854718
20
-94.9152073061
30
0.0000000000
10
-163.1857780651
20
-94.8406749089
30
0.0000000000
11
-163.0057828484
21
-95.0561876498
31
0.0000000000
11
-163.1857780651
21
-94.8406749089
31
0.0000000000
0
SPLINE
5
33A
100
AcDbEntity
8
0
100
AcDbSpline
62
7
6
CONTINUOUS
70
0
71
3
72
8
73
4
74
2
42
0.0000001000
43
0.0000001000
44
0.0000000001
12
-0.1773416139
22
0.2343870857
32
0.0000000000
13
-0.1539357936
23
0.2501370081
33
0.0000000000
40
0.0000000000
40
0.0000000000
40
0.0000000000
40
0.0000000000
40
1.0000000000
40
1.0000000000
40
1.0000000000
40
1.0000000000
10
-163.1857780651
20
-94.8406749089
30
0.0000000000
10
-163.2448919364
20
-94.7625458803
30
0.0000000000
10
-163.3000674027
20
-94.6815863686
30
0.0000000000
10
-163.3513793339
20
-94.5982073659
30
0.0000000000
11
-163.1857780651
21
-94.8406749089
31
0.0000000000
11
-163.3513793339
21
-94.5982073659
31
0.0000000000
0
SPLINE
5
33B
100
AcDbEntity
8
0
100
AcDbSpline
62
7
6
CONTINUOUS
70
0
71
3
72
8
73
4
74
2
42
0.0000001000
43
0.0000001000
44
0.0000000001
12
-0.1516067018
22
0.2463523650
32
0.0000000000
13
-0.1293362280
23
0.2592554894
33
0.0000000000
40
0.0000000000
40
0.0000000000
40
0.0000000000
40
0.0000000000
40
1.0000000000
40
1.0000000000
40
1.0000000000
40
1.0000000000
10
-163.3513793339
20
-94.5982073659
30
0.0000000000
10
-163.4019149012
20
-94.5160899109
30
0.0000000000
10
-163.4487029616
20
-94.4316256262
30
0.0000000000
10
-163.4918150376
20
-94.3452071298
30
0.0000000000
11
-163.3513793339
21
-94.5982073659
31
0.0000000000
11
-163.4918150376
21
-94.3452071298
31
0.0000000000
0
SPLINE
5
33C
100
AcDbEntity
8
0
100
AcDbSpline
62
7
6
CONTINUOUS
70
0
71
3
72
8
73
4
74
2
42
0.0000001000
43
0.0000001000
44
0.0000000001
12
-0.1253797376
22
0.2513246732
32
0.0000000000
13
-0.1035047577
23
0.2612745695
33
0.0000000000
40
0.0000000000
40
0.0000000000
40
0.0000000000
40
0.0000000000
40
1.0000000000
40
1.0000000000
40
1.0000000000
40
1.0000000000
10
-163.4918150376
20
-94.3452071298
30
0.0000000000
10
-163.5336082835
20
-94.2614322387
30
0.0000000000
10
-163.5719470071
20
-94.1758208686
30
0.0000000000
10
-163.6064485930
20
-94.0887293455
30
0.0000000000
11
-163.4918150376
21
-94.3452071298
31
0.0000000000
11
-163.6064485930
21
-94.0887293455
31
0.0000000000
0
SPLINE
5
33D
100
AcDbEntity
8
0
100
AcDbSpline
62
7
6
CONTINUOUS
70
0
71
3
72
9
73
5
74
3
42
0.0000001000
43
0.0000001000
44
0.0000000001
12
0.1764119646
22
0.7485894396
32
0.0000000000
13
0.6716736002
23
0.4055754688
33
0.0000000000
40
0.0000000000
40
0.0000000000
40
0.0000000000
40
0.0000000000
40
0.7696784842
40
1.0000000000
40
1.0000000000
40
1.0000000000
40
1.0000000000
10
-163.7652132754
20
-58.0397289713
30
0.0000000000
10
-163.7199531109
20
-57.8476712429
30
0.0000000000
10
-163.6093763633
20
-57.5956971089
30
0.0000000000
10
-163.4010269950
20
-57.4363918497
30
0.0000000000
10
-163.3494600344
20
-57.4052542642
30
0.0000000000
11
-163.7652132754
21
-58.0397289713
31
0.0000000000
11
-163.4918150376
21
-57.5146906058
31
0.0000000000
11
-163.3494600344
21
-57.4052542642
31
0.0000000000
0
SPLINE
5
33E
100
AcDbEntity
8
0
100
AcDbSpline
62
7
6
CONTINUOUS
70
0
71
3
72
8
73
4
74
2
42
0.0000001000
43
0.0000001000
44
0.0000000001
12
0.0582476637
22
0.0351715826
32
0.0000000000
13
0.0610351321
23
0.0303453574
33
0.0000000000
40
0.0000000000
40
0.0000000000
40
0.0000000000
40
0.0000000000
40
1.0000000000
40
1.0000000000
40
1.0000000000
40
1.0000000000
10
-163.3494600344
20
-57.4052542642
30
0.0000000000
10
-163.3300441465
20
-57.3935304033
30
0.0000000000
10
-163.3101207912
20
-57.3825938874
30
0.0000000000
10
-163.2897757472
20
-57.3724787683
30
0.0000000000
11
-163.3494600344
21
-57.4052542642
31
0.0000000000
11
-163.2897757472
21
-57.3724787683
31
0.0000000000
0
SPLINE
5
33F
100
AcDbEntity
8
0
100
AcDbSpline
62
7
6
CONTINUOUS
70
0
71
3
72
9
73
5
74
3
42
0.0000001000
43
0.0000001000
44
0.0000000001
12
-1.9001618714
22
-0.9500809357
32
0.0000000000
13
-1.5547815560
23
-1.4587688229
33
0.0000000000
40
0.0000000000
40
0.0000000000
40
0.0000000000
40
0.0000000000
40
0.7667059771
40
1.0000000000
40
1.0000000000
40
1.0000000000
40
1.0000000000
10
-97.2006616562
20
-68.2361400752
30
0.0000000000
10
-97.6862834776
20
-68.4789509859
30
0.0000000000
10
-98.2967730985
20
-68.8479978434
30
0.0000000000
10
-98.8381649853
20
-69.3101524274
30
0.0000000000
10
-98.9590720667
20
-69.4235931098
30
0.0000000000
11
-97.2006616562
21
-68.2361400752
31
0.0000000000
11
-98.5817972825
21
-69.0995841137
31
0.0000000000
11
-98.9590720667
21
-69.4235931098
31
0.0000000000
0
SPLINE
5
340
100
AcDbEntity
8
0
100
AcDbSpline
62
7
6
CONTINUOUS
70
0
71
3
72
9
73
5
74
3
42
0.0000001000
43
0.0000001000
44
0.0000000001
12
-1.4858584031
22
-1.3941018951
32
0.0000000000
13
-0.5160755326
23
-1.9734052387
33
0.0000000000
40
0.0000000000
40
0.0000000000
40
0.0000000000
40
0.0000000000
40
0.4546094353
40
1.0000000000
40
1.0000000000
40
1.0000000000
40
1.0000000000
10
-98.9590720667
20
-69.4235931098
30
0.0000000000
10
-99.1842338165
20
-69.6348504016
30
0.0000000000
10
-99.6383526642
20
-70.1424452187
30
0.0000000000
10
-99.9508007225
20
-70.7617468362
30
0.0000000000
10
-100.0446216312
20
-71.1205057020
30
0.0000000000
11
-98.9590720667
21
-69.4235931098
31
0.0000000000
11
-99.5678481773
21
-70.1194516031
31
0.0000000000
11
-100.0446216312
21
-71.1205057020
31
0.0000000000
0
SPLINE
5
341
100
AcDbEntity
8
0
100
AcDbSpline
62
7
6
CONTINUOUS
70
0
71
3
72
9
73
5
74
3
42
0.0000001000
43
0.0000001000
44
0.0000000001
12
-1.9001618714
22
-0.9500809357
32
0.0000000000
13
-1.5547815560
23
-1.4587688229
33
0.0000000000
40
0.0000000000
40
0.0000000000
40
0.0000000000
40
0.0000000000
40
0.7667059771
40
1.0000000000
40
1.0000000000
40
1.0000000000
40
1.0000000000
10
-23.1665816660
20
-31.2191000801
30
0.0000000000
10
-23.6522034874
20
-31.4619109908
30
0.0000000000
10
-24.2626931083
20
-31.8309578483
30
0.0000000000
10
-24.8040849951
20
-32.2931124323
30
0.0000000000
10
-24.9249920764
20
-32.4065531147
30
0.0000000000
11
-23.1665816660
21
-31.2191000801
31
0.0000000000
11
-24.5477172923
21
-32.0825441186
31
0.0000000000
11
-24.9249920764
21
-32.4065531147
31
0.0000000000
0
SPLINE
5
342
100
AcDbEntity
8
0
100
AcDbSpline
62
7
6
CONTINUOUS
70
0
71
3
72
9
73
5
74
3
42
0.0000001000
43
0.0000001000
44
0.0000000001
12
-1.4858584031
22
-1.3941018951
32
0.0000000000
13
-0.5160755326
23
-1.9734052387
33
0.0000000000
40
0.0000000000
40
0.0000000000
40
0.0000000000
40
0.0000000000
40
0.4546094353
40
1.0000000000
40
1.0000000000
40
1.0000000000
40
1.0000000000
10
-24.9249920764
20
-32.4065531147
30
0.0000000000
10
-25.1501538263
20
-32.6178104065
30
0.0000000000
10
-25.6042726740
20
-33.1254052235
30
0.0000000000
10
-25.9167207323
20
-33.7447068411
30
0.0000000000
10
-26.0105416410
20
-34.1034657069
30
0.0000000000
11
-24.9249920764
21
-32.4065531147
31
0.0000000000
11
-25.5337681871
21
-33.1024116080
31
0.0000000000
11
-26.0105416410
21
-34.1034657069
31
0.0000000000
0
SPLINE
5
343
100
AcDbEntity
8
0
100
AcDbSpline
62
7
6
CONTINUOUS
70
0
71
3
72
11
73
7
74
5
42
0.0000001000
43
0.0000001000
44
0.0000000001
12
-4.1383732058
22
2.0691866029
32
0.0000000000
13
-0.3273111177
23
4.6547814582
33
0.0000000000
40
0.0000000000
40
0.0000000000
40
0.0000000000
40
0.0000000000
40
0.3520383401
40
0.6589014232
40
0.9201336911
40
1.0000000000
40
1.0000000000
40
1.0000000000
40
1.0000000000
10
-23.1665816660
20
-0.1850501255
30
0.0000000000
10
-23.6522036773
20
0.0577608802
30
0.0000000000
10
-24.5282636377
20
0.5873530410
30
0.0000000000
10
-25.5529864470
20
1.5946609940
30
0.0000000000
10
-26.0035614335
20
2.5176386467
30
0.0000000000
10
-26.0787085226
20
3.0437789380
30
0.0000000000
10
-26.0874222329
20
3.1676990092
30
0.0000000000
11
-23.1665816660
21
-0.1850501255
31
0.0000000000
11
-24.5477177950
21
0.6783943105
31
0.0000000000
11
-25.5344693808
21
1.6992631286
31
0.0000000000
11
-26.0346341762
21
2.7996010291
31
0.0000000000
11
-26.0874222329
21
3.1676990092
31
0.0000000000
0
SPLINE
5
344
100
AcDbEntity
8
0
100
AcDbSpline
62
7
6
CONTINUOUS
70
0
71
3
72
8
73
4
74
2
42
0.0000001000
43
0.0000001000
44
0.0000000001
12
-0.0128332832
22
0.1825056508
32
0.0000000000
13
0.0000089369
23
0.1830318828
33
0.0000000000
40
0.0000000000
40
0.0000000000
40
0.0000000000
40
0.0000000000
40
1.0000000000
40
1.0000000000
40
1.0000000000
40
1.0000000000
10
-26.0874222329
20
3.1676990092
30
0.0000000000
10
-26.0916999940
20
3.2285342262
30
0.0000000000
10
-26.0938372516
20
3.2895447235
30
0.0000000000
10
-26.0938342727
20
3.3505553511
30
0.0000000000
11
-26.0874222329
21
3.1676990092
31
0.0000000000
11
-26.0938342727
21
3.3505553511
31
0.0000000000
0
SPLINE
5
345
100
AcDbEntity
8
0
100
AcDbSpline
62
7
6
CONTINUOUS
70
0
71
3
72
8
73
4
74
2
42
0.0000001000
43
0.0000001000
44
0.0000000001
12
0.3030617254
22
0.1515308627
32
0.0000000000
13
0.2853048064
23
0.1843090312
33
0.0000000000
40
0.0000000000
40
0.0000000000
40
0.0000000000
40
0.0000000000
40
1.0000000000
40
1.0000000000
40
1.0000000000
40
1.0000000000
10
-170.0680154575
20
-95.6789858697
30
0.0000000000
10
-169.9669948823
20
-95.6284755821
30
0.0000000000
10
-169.8689046922
20
-95.5720223004
30
0.0000000000
10
-169.7738030901
20
-95.5105859566
30
0.0000000000
11
-170.0680154575
21
-95.6789858697
31
0.0000000000
11
-169.7738030901
21
-95.5105859566
31
0.0000000000
0
SPLINE
5
346
100
AcDbEntity
8
0
100
AcDbSpline
62
7
6
CONTINUOUS
70
0
71
3
72
8
73
4
74
2
42
0.0000001000
43
0.0000001000
44
0.0000000001
12
0.5912693738
22
0.3819644219
32
0.0000000000
13
0.5127011766
23
0.4847423165
33
0.0000000000
40
0.0000000000
40
0.0000000000
40
0.0000000000
40
0.0000000000
40
1.0000000000
40
1.0000000000
40
1.0000000000
40
1.0000000000
10
-169.7738030901
20
-95.5105859566
30
0.0000000000
10
-169.5767132988
20
-95.3832644826
30
0.0000000000
10
-169.3924591804
20
-95.2345412787
30
0.0000000000
10
-169.2215587882
20
-95.0729605065
30
0.0000000000
11
-169.7738030901
21
-95.5105859566
31
0.0000000000
11
-169.2215587882
21
-95.0729605065
31
0.0000000000
0
SPLINE
5
347
100
AcDbEntity
8
0
100
AcDbSpline
62
7
6
CONTINUOUS
70
0
71
3
72
11
73
7
74
5
42
0.0000001000
43
0.0000001000
44
0.0000000001
12
3.1220523406
22
2.9517991239
32
0.0000000000
13
-0.2131810222
23
4.2840057535
33
0.0000000000
40
0.0000000000
40
0.0000000000
40
0.0000000000
40
0.0000000000
40
0.2728711741
40
0.5571245266
40
0.8315866021
40
1.0000000000
40
1.0000000000
40
1.0000000000
40
1.0000000000
10
-169.2215587882
20
-95.0729605065
30
0.0000000000
10
-168.9375860923
20
-94.8044735424
30
0.0000000000
10
-168.4330727658
20
-94.1838199251
30
0.0000000000
10
-167.8904333805
20
-93.1201246425
30
0.0000000000
10
-167.6204314772
20
-92.1105469358
30
0.0000000000
10
-167.5853546050
20
-91.4755859045
30
0.0000000000
10
-167.5973221184
20
-91.2350912494
30
0.0000000000
11
-169.2215587882
21
-95.0729605065
31
0.0000000000
11
-168.4771972856
21
-94.1744366891
31
0.0000000000
11
-167.9247119325
21
-93.0917896506
31
0.0000000000
11
-167.6307406163
21
-91.9556026020
31
0.0000000000
11
-167.5973221184
21
-91.2350912494
31
0.0000000000
0
SPLINE
5
348
100
AcDbEntity
8
0
100
AcDbSpline
62
7
6
CONTINUOUS
70
0
71
3
72
9
73
5
74
3
42
0.0000001000
43
0.0000001000
44
0.0000000001
12
-0.0610524398
22
1.2268869004
32
0.0000000000
13
-0.6565860417
23
1.0496423793
33
0.0000000000
40
0.0000000000
40
0.0000000000
40
0.0000000000
40
0.0000000000
40
0.2715586041
40
1.0000000000
40
1.0000000000
40
1.0000000000
40
1.0000000000
10
-167.5973221184
20
-91.2350912494
30
0.0000000000
10
-167.6028485569
20
-91.1240340180
30
0.0000000000
10
-167.6430716490
20
-90.7158284147
30
0.0000000000
10
-167.7652837816
20
-90.3155683907
30
0.0000000000
10
-167.9247119325
20
-90.0607007373
30
0.0000000000
11
-167.5973221184
21
-91.2350912494
31
0.0000000000
11
-167.6307406163
21
-90.9029164697
31
0.0000000000
11
-167.9247119325
21
-90.0607007373
31
0.0000000000
0
SPLINE
5
349
100
AcDbEntity
8
0
100
AcDbSpline
62
7
6
CONTINUOUS
70
0
71
3
72
8
73
4
74
2
42
0.0000001000
43
0.0000001000
44
0.0000000001
12
-0.0988044731
22
0.1579524321
32
0.0000000000
13
-0.1162594289
23
0.1466723924
33
0.0000000000
40
0.0000000000
40
0.0000000000
40
0.0000000000
40
0.0000000000
40
1.0000000000
40
1.0000000000
40
1.0000000000
40
1.0000000000
10
-167.9247119325
20
-90.0607007373
30
0.0000000000
10
-167.9576467569
20
-90.0080499266
30
0.0000000000
10
-167.9935861118
20
-89.9569652424
30
0.0000000000
10
-168.0323392548
20
-89.9080744449
30
0.0000000000
11
-167.9247119325
21
-90.0607007373
31
0.0000000000
11
-168.0323392548
21
-89.9080744449
31
0.0000000000
0
SPLINE
5
34A
100
AcDbEntity
8
0
100
AcDbSpline
62
7
6
CONTINUOUS
70
0
71
3
72
8
73
4
74
2
42
0.0000001000
43
0.0000001000
44
0.0000000001
12
0.3030617254
22
0.1515308627
32
0.0000000000
13
0.2853048064
23
0.1843090312
33
0.0000000000
40
0.0000000000
40
0.0000000000
40
0.0000000000
40
0.0000000000
40
1.0000000000
40
1.0000000000
40
1.0000000000
40
1.0000000000
10
-170.0680154575
20
-68.1826792995
30
0.0000000000
10
-169.9669948823
20
-68.1321690120
30
0.0000000000
10
-169.8689046922
20
-68.0757157302
30
0.0000000000
10
-169.7738030901
20
-68.0142793865
30
0.0000000000
11
-170.0680154575
21
-68.1826792995
31
0.0000000000
11
-169.7738030901
21
-68.0142793865
31
0.0000000000
0
SPLINE
5
34B
100
AcDbEntity
8
0
100
AcDbSpline
62
7
6
CONTINUOUS
70
0
71
3
72
8
73
4
74
2
42
0.0000001000
43
0.0000001000
44
0.0000000001
12
0.5912693738
22
0.3819644219
32
0.0000000000
13
0.5127011766
23
0.4847423165
33
0.0000000000
40
0.0000000000
40
0.0000000000
40
0.0000000000
40
0.0000000000
40
1.0000000000
40
1.0000000000
40
1.0000000000
40
1.0000000000
10
-169.7738030901
20
-68.0142793865
30
0.0000000000
10
-169.5767132988
20
-67.8869579125
30
0.0000000000
10
-169.3924591804
20
-67.7382347085
30
0.0000000000
10
-169.2215587882
20
-67.5766539364
30
0.0000000000
11
-169.7738030901
21
-68.0142793865
31
0.0000000000
11
-169.2215587882
21
-67.5766539364
31
0.0000000000
0
SPLINE
5
34C
100
AcDbEntity
8
0
100
AcDbSpline
62
7
6
CONTINUOUS
70
0
71
3
72
11
73
7
74
5
42
0.0000001000
43
0.0000001000
44
0.0000000001
12
3.1220523406
22
2.9517991239
32
0.0000000000
13
-0.2131810222
23
4.2840057535
33
0.0000000000
40
0.0000000000
40
0.0000000000
40
0.0000000000
40
0.0000000000
40
0.2728711741
40
0.5571245266
40
0.8315866021
40
1.0000000000
40
1.0000000000
40
1.0000000000
40
1.0000000000
10
-169.2215587882
20
-67.5766539364
30
0.0000000000
10
-168.9375860923
20
-67.3081669722
30
0.0000000000
10
-168.4330727658
20
-66.6875133549
30
0.0000000000
10
-167.8904333805
20
-65.6238180724
30
0.0000000000
10
-167.6204314772
20
-64.6142403656
30
0.0000000000
10
-167.5853546050
20
-63.9792793343
30
0.0000000000
10
-167.5973221184
20
-63.7387846792
30
0.0000000000
11
-169.2215587882
21
-67.5766539364
31
0.0000000000
11
-168.4771972856
21
-66.6781301189
31
0.0000000000
11
-167.9247119325
21
-65.5954830804
31
0.0000000000
11
-167.6307406163
21
-64.4592960318
31
0.0000000000
11
-167.5973221184
21
-63.7387846792
31
0.0000000000
0
SPLINE
5
34D
100
AcDbEntity
8
0
100
AcDbSpline
62
7
6
CONTINUOUS
70
0
71
3
72
9
73
5
74
3
42
0.0000001000
43
0.0000001000
44
0.0000000001
12
-0.0610524398
22
1.2268869004
32
0.0000000000
13
-0.6565860417
23
1.0496423793
33
0.0000000000
40
0.0000000000
40
0.0000000000
40
0.0000000000
40
0.0000000000
40
0.2715586041
40
1.0000000000
40
1.0000000000
40
1.0000000000
40
1.0000000000
10
-167.5973221184
20
-63.7387846792
30
0.0000000000
10
-167.6028485569
20
-63.6277274478
30
0.0000000000
10
-167.6430716490
20
-63.2195218445
30
0.0000000000
10
-167.7652837816
20
-62.8192618205
30
0.0000000000
10
-167.9247119325
20
-62.5643941672
30
0.0000000000
11
-167.5973221184
21
-63.7387846792
31
0.0000000000
11
-167.6307406163
21
-63.4066098996
31
0.0000000000
11
-167.9247119325
21
-62.5643941672
31
0.0000000000
0
SPLINE
5
34E
100
AcDbEntity
8
0
100
AcDbSpline
62
7
6
CONTINUOUS
70
0
71
3
72
8
73
4
74
2
42
0.0000001000
43
0.0000001000
44
0.0000000001
12
-0.0988044731
22
0.1579524321
32
0.0000000000
13
-0.1162594289
23
0.1466723924
33
0.0000000000
40
0.0000000000
40
0.0000000000
40
0.0000000000
40
0.0000000000
40
1.0000000000
40
1.0000000000
40
1.0000000000
40
1.0000000000
10
-167.9247119325
20
-62.5643941672
30
0.0000000000
10
-167.9576467569
20
-62.5117433565
30
0.0000000000
10
-167.9935861118
20
-62.4606586723
30
0.0000000000
10
-168.0323392548
20
-62.4117678748
30
0.0000000000
11
-167.9247119325
21
-62.5643941672
31
0.0000000000
11
-168.0323392548
21
-62.4117678748
31
0.0000000000
0
SPLINE
5
34F
100
AcDbEntity
8
0
100
AcDbSpline
62
7
6
CONTINUOUS
70
0
71
3
72
8
73
4
74
2
42
0.0000001000
43
0.0000001000
44
0.0000000001
12
0.3030617254
22
0.1515308627
32
0.0000000000
13
0.2853048064
23
0.1843090312
33
0.0000000000
40
0.0000000000
40
0.0000000000
40
0.0000000000
40
0.0000000000
40
1.0000000000
40
1.0000000000
40
1.0000000000
40
1.0000000000
10
158.7366377943
20
68.7233407562
30
0.0000000000
10
158.8376583694
20
68.7738510438
30
0.0000000000
10
158.9357485596
20
68.8303043255
30
0.0000000000
10
159.0308501617
20
68.8917406692
30
0.0000000000
11
158.7366377943
21
68.7233407562
31
0.0000000000
11
159.0308501617
21
68.8917406692
31
0.0000000000
0
SPLINE
5
350
100
AcDbEntity
8
0
100
AcDbSpline
62
7
6
CONTINUOUS
70
0
71
3
72
8
73
4
74
2
42
0.0000001000
43
0.0000001000
44
0.0000000001
12
0.5912693738
22
0.3819644219
32
0.0000000000
13
0.5127011766
23
0.4847423165
33
0.0000000000
40
0.0000000000
40
0.0000000000
40
0.0000000000
40
0.0000000000
40
1.0000000000
40
1.0000000000
40
1.0000000000
40
1.0000000000
10
159.0308501617
20
68.8917406692
30
0.0000000000
10
159.2279399530
20
69.0190621432
30
0.0000000000
10
159.4121940713
20
69.1677853472
30
0.0000000000
10
159.5830944635
20
69.3293661194
30
0.0000000000
11
159.0308501617
21
68.8917406692
31
0.0000000000
11
159.5830944635
21
69.3293661194
31
0.0000000000
0
SPLINE
5
351
100
AcDbEntity
8
0
100
AcDbSpline
62
7
6
CONTINUOUS
70
0
71
3
72
11
73
7
74
5
42
0.0000001000
43
0.0000001000
44
0.0000000001
12
3.1220523406
22
2.9517991239
32
0.0000000000
13
-0.2131810222
23
4.2840057535
33
0.0000000000
40
0.0000000000
40
0.0000000000
40
0.0000000000
40
0.0000000000
40
0.2728711741
40
0.5571245266
40
0.8315866021
40
1.0000000000
40
1.0000000000
40
1.0000000000
40
1.0000000000
10
159.5830944635
20
69.3293661194
30
0.0000000000
10
159.8670671594
20
69.5978530835
30
0.0000000000
10
160.3715804859
20
70.2185067008
30
0.0000000000
10
160.9142198712
20
71.2822019834
30
0.0000000000
10
161.1842217746
20
72.2917796901
30
0.0000000000
10
161.2192986468
20
72.9267407214
30
0.0000000000
10
161.2073311333
20
73.1672353765
30
0.0000000000
11
159.5830944635
21
69.3293661194
31
0.0000000000
11
160.3274559661
21
70.2278899368
31
0.0000000000
11
160.8799413192
21
71.3105369753
31
0.0000000000
11
161.1739126354
21
72.4467240239
31
0.0000000000
11
161.2073311333
21
73.1672353765
31
0.0000000000
0
SPLINE
5
352
100
AcDbEntity
8
0
100
AcDbSpline
62
7
6
CONTINUOUS
70
0
71
3
72
9
73
5
74
3
42
0.0000001000
43
0.0000001000
44
0.0000000001
12
-0.0610524398
22
1.2268869004
32
0.0000000000
13
-0.6565860417
23
1.0496423793
33
0.0000000000
40
0.0000000000
40
0.0000000000
40
0.0000000000
40
0.0000000000
40
0.2715586041
40
1.0000000000
40
1.0000000000
40
1.0000000000
40
1.0000000000
10
161.2073311333
20
73.1672353765
30
0.0000000000
10
161.2018046949
20
73.2782926079
30
0.0000000000
10
161.1615816028
20
73.6864982112
30
0.0000000000
10
161.0393694701
20
74.0867582352
30
0.0000000000
10
160.8799413192
20
74.3416258885
30
0.0000000000
11
161.2073311333
21
73.1672353765
31
0.0000000000
11
161.1739126354
21
73.4994101561
31
0.0000000000
11
160.8799413192
21
74.3416258885
31
0.0000000000
0
SPLINE
5
353
100
AcDbEntity
8
0
100
AcDbSpline
62
7
6
CONTINUOUS
70
0
71
3
72
8
73
4
74
2
42
0.0000001000
43
0.0000001000
44
0.0000000001
12
-0.0988044731
22
0.1579524321
32
0.0000000000
13
-0.1162594289
23
0.1466723924
33
0.0000000000
40
0.0000000000
40
0.0000000000
40
0.0000000000
40
0.0000000000
40
1.0000000000
40
1.0000000000
40
1.0000000000
40
1.0000000000
10
160.8799413192
20
74.3416258885
30
0.0000000000
10
160.8470064949
20
74.3942766992
30
0.0000000000
10
160.8110671399
20
74.4453613835
30
0.0000000000
10
160.7723139969
20
74.4942521809
30
0.0000000000
11
160.8799413192
21
74.3416258885
31
0.0000000000
11
160.7723139969
21
74.4942521809
31
0.0000000000
0
SPLINE
5
354
100
AcDbEntity
8
0
100
AcDbSpline
62
7
6
CONTINUOUS
70
0
71
3
72
8
73
4
74
2
42
0.0000001000
43
0.0000001000
44
0.0000000001
12
-0.4908428039
22
0.2454214020
32
0.0000000000
13
-0.5032902495
23
0.2196828877
33
0.0000000000
40
0.0000000000
40
0.0000000000
40
0.0000000000
40
0.0000000000
40
1.0000000000
40
1.0000000000
40
1.0000000000
40
1.0000000000
10
-36.9551638991
20
-45.1844590086
30
0.0000000000
10
-37.1187781671
20
-45.1026518746
30
0.0000000000
10
-37.2846534988
20
-45.0252873334
30
0.0000000000
10
-37.4524169153
20
-44.9520597041
30
0.0000000000
11
-36.9551638991
21
-45.1844590086
31
0.0000000000
11
-37.4524169153
21
-44.9520597041
31
0.0000000000
0
SPLINE
5
355
100
AcDbEntity
8
0
100
AcDbSpline
62
7
6
CONTINUOUS
70
0
71
3
72
14
73
10
74
8
42
0.0000001000
43
0.0000001000
44
0.0000000001
12
-12.3408407751
22
5.3866959298
32
0.0000000000
13
-12.3408969036
23
-5.3865665193
33
0.0000000000
40
0.0000000000
40
0.0000000000
40
0.0000000000
40
0.0000000000
40
0.0974318991
40
0.2533799363
40
0.4177936547
40
0.5818819683
40
0.7464777289
40
0.9025765450
40
1.0000000000
40
1.0000000000
40
1.0000000000
40
1.0000000000
10
-37.4524169153
20
-44.9520597041
30
0.0000000000
10
-37.8532140996
20
-44.7771143661
30
0.0000000000
10
-38.9235463609
20
-44.3835589156
30
0.0000000000
10
-40.7518563900
20
-43.9514578864
30
0.0000000000
10
-42.9163884162
20
-43.7098445005
30
0.0000000000
10
-45.1324029248
20
-43.7095996225
30
0.0000000000
10
-47.2984728350
20
-43.9510054483
30
0.0000000000
10
-49.1282426765
20
-44.3833161638
30
0.0000000000
10
-50.1991773117
20
-44.7770879761
30
0.0000000000
10
-50.5999415830
20
-44.9520139497
30
0.0000000000
11
-37.4524169153
21
-44.9520597041
31
0.0000000000
11
-38.6820519760
21
-44.4938911954
31
0.0000000000
11
-40.7217869549
21
-44.0008657480
31
0.0000000000
11
-42.9199857892
21
-43.7506815950
31
0.0000000000
11
-45.1279972137
21
-43.7504327535
31
0.0000000000
11
-47.3286730147
21
-44.0005151511
31
0.0000000000
11
-49.3704106508
21
-44.4938909440
31
0.0000000000
11
-50.5999415830
21
-44.9520139497
31
0.0000000000
0
SPLINE
5
356
100
AcDbEntity
8
0
100
AcDbSpline
62
7
6
CONTINUOUS
70
0
71
3
72
8
73
4
74
2
42
0.0000001000
43
0.0000001000
44
0.0000000001
12
-0.5033975090
22
-0.2197234277
32
0.0000000000
13
-0.4909451778
23
-0.2454725889
33
0.0000000000
40
0.0000000000
40
0.0000000000
40
0.0000000000
40
0.0000000000
40
1.0000000000
40
1.0000000000
40
1.0000000000
40
1.0000000000
10
-50.5999415830
20
-44.9520139497
30
0.0000000000
10
-50.7677407527
20
-45.0252550923
30
0.0000000000
10
-50.9336511302
20
-45.1026348123
30
0.0000000000
10
-51.0972995228
20
-45.1844590086
30
0.0000000000
11
-50.5999415830
21
-44.9520139497
31
0.0000000000
11
-51.0972995228
21
-45.1844590086
31
0.0000000000
0
SPLINE
5
357
100
AcDbEntity
8
0
100
AcDbSpline
62
7
6
CONTINUOUS
70
0
71
3
72
8
73
4
74
2
42
0.0000001000
43
0.0000001000
44
0.0000000001
12
0.3030617254
22
0.1515308627
32
0.0000000000
13
0.2853048064
23
0.1843090312
33
0.0000000000
40
0.0000000000
40
0.0000000000
40
0.0000000000
40
0.0000000000
40
1.0000000000
40
1.0000000000
40
1.0000000000
40
1.0000000000
10
158.7366377943
20
96.2196473263
30
0.0000000000
10
158.8376583694
20
96.2701576139
30
0.0000000000
10
158.9357485596
20
96.3266108957
30
0.0000000000
10
159.0308501617
20
96.3880472394
30
0.0000000000
11
158.7366377943
21
96.2196473263
31
0.0000000000
11
159.0308501617
21
96.3880472394
31
0.0000000000
0
SPLINE
5
358
100
AcDbEntity
8
0
100
AcDbSpline
62
7
6
CONTINUOUS
70
0
71
3
72
8
73
4
74
2
42
0.0000001000
43
0.0000001000
44
0.0000000001
12
0.5912693738
22
0.3819644219
32
0.0000000000
13
0.5127011766
23
0.4847423165
33
0.0000000000
40
0.0000000000
40
0.0000000000
40
0.0000000000
40
0.0000000000
40
1.0000000000
40
1.0000000000
40
1.0000000000
40
1.0000000000
10
159.0308501617
20
96.3880472394
30
0.0000000000
10
159.2279399530
20
96.5153687134
30
0.0000000000
10
159.4121940713
20
96.6640919173
30
0.0000000000
10
159.5830944635
20
96.8256726895
30
0.0000000000
11
159.0308501617
21
96.3880472394
31
0.0000000000
11
159.5830944635
21
96.8256726895
31
0.0000000000
0
SPLINE
5
359
100
AcDbEntity
8
0
100
AcDbSpline
62
7
6
CONTINUOUS
70
0
71
3
72
11
73
7
74
5
42
0.0000001000
43
0.0000001000
44
0.0000000001
12
3.1220523406
22
2.9517991239
32
0.0000000000
13
-0.2131810222
23
4.2840057535
33
0.0000000000
40
0.0000000000
40
0.0000000000
40
0.0000000000
40
0.0000000000
40
0.2728711741
40
0.5571245266
40
0.8315866021
40
1.0000000000
40
1.0000000000
40
1.0000000000
40
1.0000000000
10
159.5830944635
20
96.8256726895
30
0.0000000000
10
159.8670671594
20
97.0941596537
30
0.0000000000
10
160.3715804859
20
97.7148132710
30
0.0000000000
10
160.9142198712
20
98.7785085535
30
0.0000000000
10
161.1842217746
20
99.7880862603
30
0.0000000000
10
161.2192986468
20
100.4230472915
30
0.0000000000
10
161.2073311333
20
100.6635419467
30
0.0000000000
11
159.5830944635
21
96.8256726895
31
0.0000000000
11
160.3274559661
21
97.7241965069
31
0.0000000000
11
160.8799413192
21
98.8068435454
31
0.0000000000
11
161.1739126354
21
99.9430305940
31
0.0000000000
11
161.2073311333
21
100.6635419467
31
0.0000000000
0
SPLINE
5
35A
100
AcDbEntity
8
0
100
AcDbSpline
62
7
6
CONTINUOUS
70
0
71
3
72
9
73
5
74
3
42
0.0000001000
43
0.0000001000
44
0.0000000001
12
-0.0610524398
22
1.2268869004
32
0.0000000000
13
-0.6565860417
23
1.0496423793
33
0.0000000000
40
0.0000000000
40
0.0000000000
40
0.0000000000
40
0.0000000000
40
0.2715586041
40
1.0000000000
40
1.0000000000
40
1.0000000000
40
1.0000000000
10
161.2073311333
20
100.6635419467
30
0.0000000000
10
161.2018046949
20
100.7745991780
30
0.0000000000
10
161.1615816028
20
101.1828047814
30
0.0000000000
10
161.0393694701
20
101.5830648054
30
0.0000000000
10
160.8799413192
20
101.8379324587
30
0.0000000000
11
161.2073311333
21
100.6635419467
31
0.0000000000
11
161.1739126354
21
100.9957167263
31
0.0000000000
11
160.8799413192
21
101.8379324587
31
0.0000000000
0
SPLINE
5
35B
100
AcDbEntity
8
0
100
AcDbSpline
62
7
6
CONTINUOUS
70
0
71
3
72
8
73
4
74
2
42
0.0000001000
43
0.0000001000
44
0.0000000001
12
-0.0988044731
22
0.1579524321
32
0.0000000000
13
-0.1162594289
23
0.1466723924
33
0.0000000000
40
0.0000000000
40
0.0000000000
40
0.0000000000
40
0.0000000000
40
1.0000000000
40
1.0000000000
40
1.0000000000
40
1.0000000000
10
160.8799413192
20
101.8379324587
30
0.0000000000
10
160.8470064949
20
101.8905832694
30
0.0000000000
10
160.8110671399
20
101.9416679536
30
0.0000000000
10
160.7723139969
20
101.9905587511
30
0.0000000000
11
160.8799413192
21
101.8379324587
31
0.0000000000
11
160.7723139969
21
101.9905587511
31
0.0000000000
0
SPLINE
5
35C
100
AcDbEntity
8
0
100
AcDbSpline
62
7
6
CONTINUOUS
70
0
71
3
72
8
73
4
74
2
42
0.0000001000
43
0.0000001000
44
0.0000000001
12
-0.4908428039
22
0.2454214020
32
0.0000000000
13
-0.5032902495
23
0.2196828877
33
0.0000000000
40
0.0000000000
40
0.0000000000
40
0.0000000000
40
0.0000000000
40
1.0000000000
40
1.0000000000
40
1.0000000000
40
1.0000000000
10
37.0789160911
20
-8.1674190135
30
0.0000000000
10
36.9153018232
20
-8.0856118795
30
0.0000000000
10
36.7494264914
20
-8.0082473383
30
0.0000000000
10
36.5816630749
20
-7.9350197090
30
0.0000000000
11
37.0789160911
21
-8.1674190135
31
0.0000000000
11
36.5816630749
21
-7.9350197090
31
0.0000000000
0
SPLINE
5
35D
100
AcDbEntity
8
0
100
AcDbSpline
62
7
6
CONTINUOUS
70
0
71
3
72
14
73
10
74
8
42
0.0000001000
43
0.0000001000
44
0.0000000001
12
-12.3408407751
22
5.3866959298
32
0.0000000000
13
-12.3408969036
23
-5.3865665193
33
0.0000000000
40
0.0000000000
40
0.0000000000
40
0.0000000000
40
0.0000000000
40
0.0974318991
40
0.2533799363
40
0.4177936547
40
0.5818819683
40
0.7464777289
40
0.9025765450
40
1.0000000000
40
1.0000000000
40
1.0000000000
40
1.0000000000
10
36.5816630749
20
-7.9350197090
30
0.0000000000
10
36.1808658906
20
-7.7600743710
30
0.0000000000
10
35.1105336293
20
-7.3665189204
30
0.0000000000
10
33.2822236002
20
-6.9344178913
30
0.0000000000
10
31.1176915740
20
-6.6928045054
30
0.0000000000
10
28.9016770655
20
-6.6925596274
30
0.0000000000
10
26.7356071553
20
-6.9339654532
30
0.0000000000
10
24.9058373137
20
-7.3662761687
30
0.0000000000
10
23.8349026785
20
-7.7600479810
30
0.0000000000
10
23.4341384072
20
-7.9349739546
30
0.0000000000
11
36.5816630749
21
-7.9350197090
31
0.0000000000
11
35.3520280142
21
-7.4768512003
31
0.0000000000
11
33.3122930354
21
-6.9838257529
31
0.0000000000
11
31.1140942011
21
-6.7336415999
31
0.0000000000
11
28.9060827765
21
-6.7333927583
31
0.0000000000
11
26.7054069756
21
-6.9834751560
31
0.0000000000
11
24.6636693394
21
-7.4768509489
31
0.0000000000
11
23.4341384072
21
-7.9349739546
31
0.0000000000
0
SPLINE
5
35E
100
AcDbEntity
8
0
100
AcDbSpline
62
7
6
CONTINUOUS
70
0
71
3
72
8
73
4
74
2
42
0.0000001000
43
0.0000001000
44
0.0000000001
12
-0.5033975090
22
-0.2197234277
32
0.0000000000
13
-0.4909451778
23
-0.2454725889
33
0.0000000000
40
0.0000000000
40
0.0000000000
40
0.0000000000
40
0.0000000000
40
1.0000000000
40
1.0000000000
40
1.0000000000
40
1.0000000000
10
23.4341384072
20
-7.9349739546
30
0.0000000000
10
23.2663392375
20
-8.0082150972
30
0.0000000000
10
23.1004288600
20
-8.0855948172
30
0.0000000000
10
22.9367804674
20
-8.1674190135
30
0.0000000000
11
23.4341384072
21
-7.9349739546
31
0.0000000000
11
22.9367804674
21
-8.1674190135
31
0.0000000000
0
SPLINE
5
35F
100
AcDbEntity
8
0
100
AcDbSpline
62
7
6
CONTINUOUS
70
0
71
3
72
8
73
4
74
2
42
0.0000001000
43
0.0000001000
44
0.0000000001
12
0.2904137430
22
0.1452068715
32
0.0000000000
13
0.3060413206
23
0.1136871392
33
0.0000000000
40
0.0000000000
40
0.0000000000
40
0.0000000000
40
0.0000000000
40
1.0000000000
40
1.0000000000
40
1.0000000000
40
1.0000000000
10
161.8125522924
20
106.0930990869
30
0.0000000000
10
161.9093568735
20
106.1415013774
30
0.0000000000
10
162.0090282756
20
106.1854382075
30
0.0000000000
10
162.1110420492
20
106.2233339206
30
0.0000000000
11
161.8125522924
21
106.0930990869
31
0.0000000000
11
162.1110420492
21
106.2233339206
31
0.0000000000
0
SPLINE
5
360
100
AcDbEntity
8
0
100
AcDbSpline
62
7
6
CONTINUOUS
70
0
71
3
72
9
73
5
74
3
42
0.0000001000
43
0.0000001000
44
0.0000000001
12
1.3056513188
22
0.4850186991
32
0.0000000000
13
1.2963912671
23
-0.5099858137
33
0.0000000000
40
0.0000000000
40
0.0000000000
40
0.0000000000
40
0.0000000000
40
0.4229220419
40
1.0000000000
40
1.0000000000
40
1.0000000000
40
1.0000000000
10
162.1110420492
20
106.2233339206
30
0.0000000000
10
162.2951049564
20
106.2917089535
30
0.0000000000
10
162.7483526702
20
106.4068798282
30
0.0000000000
10
163.2270109155
20
106.3603521700
30
0.0000000000
10
163.4763838573
20
106.2622516460
30
0.0000000000
11
162.1110420492
21
106.2233339206
31
0.0000000000
11
162.6830268588
21
106.3602036631
31
0.0000000000
11
163.4763838573
21
106.2622516460
31
0.0000000000
0
SPLINE
5
361
100
AcDbEntity
8
0
100
AcDbSpline
62
7
6
CONTINUOUS
70
0
71
3
72
8
73
4
74
2
42
0.0000001000
43
0.0000001000
44
0.0000000001
12
0.1263942086
22
-0.0497220669
32
0.0000000000
13
0.1214331471
23
-0.0614402941
33
0.0000000000
40
0.0000000000
40
0.0000000000
40
0.0000000000
40
0.0000000000
40
1.0000000000
40
1.0000000000
40
1.0000000000
40
1.0000000000
10
163.4763838573
20
106.2622516460
30
0.0000000000
10
163.5185152602
20
106.2456776237
30
0.0000000000
10
163.5598802544
20
106.2270698366
30
0.0000000000
10
163.6003579701
20
106.2065897386
30
0.0000000000
11
163.4763838573
21
106.2622516460
31
0.0000000000
11
163.6003579701
21
106.2065897386
31
0.0000000000
0
SPLINE
5
362
100
AcDbEntity
8
0
100
AcDbSpline
62
7
6
CONTINUOUS
70
0
71
3
72
11
73
7
74
5
42
0.0000001000
43
0.0000001000
44
0.0000000001
12
-4.1383732058
22
2.0691866029
32
0.0000000000
13
-0.3273111177
23
4.6547814582
33
0.0000000000
40
0.0000000000
40
0.0000000000
40
0.0000000000
40
0.0000000000
40
0.3520383401
40
0.6589014232
40
0.9201336911
40
1.0000000000
40
1.0000000000
40
1.0000000000
40
1.0000000000
10
50.8674983243
20
36.8319898696
30
0.0000000000
10
50.3818763130
20
37.0748008753
30
0.0000000000
10
49.5058163525
20
37.6043930361
30
0.0000000000
10
48.4810935432
20
38.6117009891
30
0.0000000000
10
48.0305185567
20
39.5346786418
30
0.0000000000
10
47.9553714676
20
40.0608189331
30
0.0000000000
10
47.9466577573
20
40.1847390043
30
0.0000000000
11
50.8674983243
21
36.8319898696
31
0.0000000000
11
49.4863621952
21
37.6954343056
31
0.0000000000
11
48.4996106094
21
38.7163031237
31
0.0000000000
11
47.9994458141
21
39.8166410242
31
0.0000000000
11
47.9466577573
21
40.1847390043
31
0.0000000000
0
SPLINE
5
363
100
AcDbEntity
8
0
100
AcDbSpline
62
7
6
CONTINUOUS
70
0
71
3
72
8
73
4
74
2
42
0.0000001000
43
0.0000001000
44
0.0000000001
12
-0.0128332832
22
0.1825056508
32
0.0000000000
13
0.0000089369
23
0.1830318828
33
0.0000000000
40
0.0000000000
40
0.0000000000
40
0.0000000000
40
0.0000000000
40
1.0000000000
40
1.0000000000
40
1.0000000000
40
1.0000000000
10
47.9466577573
20
40.1847390043
30
0.0000000000
10
47.9423799963
20
40.2455742213
30
0.0000000000
10
47.9402427386
20
40.3065847186
30
0.0000000000
10
47.9402457176
20
40.3675953462
30
0.0000000000
11
47.9466577573
21
40.1847390043
31
0.0000000000
11
47.9402457176
21
40.3675953462
31
0.0000000000
0
SPLINE
5
364
100
AcDbEntity
8
0
100
AcDbSpline
62
7
6
CONTINUOUS
70
0
71
3
72
12
73
8
74
6
42
0.0000001000
43
0.0000001000
44
0.0000000001
12
0.0000000000
22
5.8795139939
32
0.0000000000
13
5.2587971860
23
2.6293985930
33
0.0000000000
40
0.0000000000
40
0.0000000000
40
0.0000000000
40
0.0000000000
40
0.1944077200
40
0.4055031158
40
0.6172234065
40
0.8196788069
40
1.0000000000
40
1.0000000000
40
1.0000000000
40
1.0000000000
10
-178.3058094583
20
-67.4301834036
30
0.0000000000
10
-178.3058094583
20
-67.0491757668
30
0.0000000000
10
-178.2004975961
20
-66.2531629353
30
0.0000000000
10
-177.7997986316
20
-65.1045358145
30
0.0000000000
10
-177.1830297272
20
-64.0367092754
30
0.0000000000
10
-176.4111551338
20
-63.1540933244
30
0.0000000000
10
-175.7934731946
20
-62.7099136566
30
0.0000000000
10
-175.4773823335
20
-62.5518682261
30
0.0000000000
11
-178.3058094583
21
-67.4301834036
31
0.0000000000
11
-178.1685296779
21
-66.2954342526
31
0.0000000000
11
-177.7646655525
21
-65.1218422749
31
0.0000000000
11
-177.1401275555
21
-64.0450367069
31
0.0000000000
11
-176.3486517867
21
-63.1559507162
31
0.0000000000
11
-175.4773823335
21
-62.5518682261
31
0.0000000000
0
SPLINE
5
365
100
AcDbEntity
8
0
100
AcDbSpline
62
7
6
CONTINUOUS
70
0
71
3
72
9
73
5
74
3
42
0.0000001000
43
0.0000001000
44
0.0000000001
12
-1.9001618714
22
-0.9500809357
32
0.0000000000
13
-1.5547815560
23
-1.4587688229
33
0.0000000000
40
0.0000000000
40
0.0000000000
40
0.0000000000
40
0.0000000000
40
0.7667059771
40
1.0000000000
40
1.0000000000
40
1.0000000000
40
1.0000000000
10
50.8674983243
20
5.7979399150
30
0.0000000000
10
50.3818765029
20
5.5551290043
30
0.0000000000
10
49.7713868820
20
5.1860821468
30
0.0000000000
10
49.2299949951
20
4.7239275628
30
0.0000000000
10
49.1090879138
20
4.6104868804
30
0.0000000000
11
50.8674983243
21
5.7979399150
31
0.0000000000
11
49.4863626979
21
4.9344958765
31
0.0000000000
11
49.1090879138
21
4.6104868804
31
0.0000000000
0
SPLINE
5
366
100
AcDbEntity
8
0
100
AcDbSpline
62
7
6
CONTINUOUS
70
0
71
3
72
9
73
5
74
3
42
0.0000001000
43
0.0000001000
44
0.0000000001
12
-1.4858584031
22
-1.3941018951
32
0.0000000000
13
-0.5160755326
23
-1.9734052387
33
0.0000000000
40
0.0000000000
40
0.0000000000
40
0.0000000000
40
0.0000000000
40
0.4546094353
40
1.0000000000
40
1.0000000000
40
1.0000000000
40
1.0000000000
10
49.1090879138
20
4.6104868804
30
0.0000000000
10
48.8839261639
20
4.3992295887
30
0.0000000000
10
48.4298073163
20
3.8916347716
30
0.0000000000
10
48.1173592580
20
3.2723331540
30
0.0000000000
10
48.0235383492
20
2.9135742882
30
0.0000000000
11
49.1090879138
21
4.6104868804
31
0.0000000000
11
48.5003118032
21
3.9146283871
31
0.0000000000
11
48.0235383492
21
2.9135742882
31
0.0000000000
0
SPLINE
5
367
100
AcDbEntity
8
0
100
AcDbSpline
62
7
6
CONTINUOUS
70
0
71
3
72
8
73
4
74
2
42
0.0000001000
43
0.0000001000
44
0.0000000001
12
-0.4908428039
22
0.2454214020
32
0.0000000000
13
-0.5032902495
23
0.2196828877
33
0.0000000000
40
0.0000000000
40
0.0000000000
40
0.0000000000
40
0.0000000000
40
1.0000000000
40
1.0000000000
40
1.0000000000
40
1.0000000000
10
111.1129960814
20
28.8496209817
30
0.0000000000
10
110.9493818134
20
28.9314281156
30
0.0000000000
10
110.7835064817
20
29.0087926568
30
0.0000000000
10
110.6157430652
20
29.0820202861
30
0.0000000000
11
111.1129960814
21
28.8496209817
31
0.0000000000
11
110.6157430652
21
29.0820202861
31
0.0000000000
0
SPLINE
5
368
100
AcDbEntity
8
0
100
AcDbSpline
62
7
6
CONTINUOUS
70
0
71
3
72
14
73
10
74
8
42
0.0000001000
43
0.0000001000
44
0.0000000001
12
-12.3408407751
22
5.3866959298
32
0.0000000000
13
-12.3408969036
23
-5.3865665193
33
0.0000000000
40
0.0000000000
40
0.0000000000
40
0.0000000000
40
0.0000000000
40
0.0974318991
40
0.2533799363
40
0.4177936547
40
0.5818819683
40
0.7464777289
40
0.9025765450
40
1.0000000000
40
1.0000000000
40
1.0000000000
40
1.0000000000
10
110.6157430652
20
29.0820202861
30
0.0000000000
10
110.2149458809
20
29.2569656242
30
0.0000000000
10
109.1446136195
20
29.6505210747
30
0.0000000000
10
107.3163035905
20
30.0826221039
30
0.0000000000
10
105.1517715642
20
30.3242354897
30
0.0000000000
10
102.9357570557
20
30.3244803677
30
0.0000000000
10
100.7696871455
20
30.0830745419
30
0.0000000000
10
98.9399173039
20
29.6507638264
30
0.0000000000
10
97.8689826687
20
29.2569920141
30
0.0000000000
10
97.4682183975
20
29.0820660405
30
0.0000000000
11
110.6157430652
21
29.0820202861
31
0.0000000000
11
109.3861080044
21
29.5401887948
31
0.0000000000
11
107.3463730256
21
30.0332142422
31
0.0000000000
11
105.1481741913
21
30.2833983952
31
0.0000000000
11
102.9401627667
21
30.2836472368
31
0.0000000000
11
100.7394869658
21
30.0335648391
31
0.0000000000
11
98.6977493296
21
29.5401890462
31
0.0000000000
11
97.4682183975
21
29.0820660405
31
0.0000000000
0
SPLINE
5
369
100
AcDbEntity
8
0
100
AcDbSpline
62
7
6
CONTINUOUS
70
0
71
3
72
8
73
4
74
2
42
0.0000001000
43
0.0000001000
44
0.0000000001
12
-0.5033975090
22
-0.2197234277
32
0.0000000000
13
-0.4909451778
23
-0.2454725889
33
0.0000000000
40
0.0000000000
40
0.0000000000
40
0.0000000000
40
0.0000000000
40
1.0000000000
40
1.0000000000
40
1.0000000000
40
1.0000000000
10
97.4682183975
20
29.0820660405
30
0.0000000000
10
97.3004192278
20
29.0088248980
30
0.0000000000
10
97.1345088502
20
28.9314451780
30
0.0000000000
10
96.9708604576
20
28.8496209817
30
0.0000000000
11
97.4682183975
21
29.0820660405
31
0.0000000000
11
96.9708604576
21
28.8496209817
31
0.0000000000
0
SPLINE
5
36A
100
AcDbEntity
8
0
100
AcDbSpline
62
7
6
CONTINUOUS
70
0
71
3
72
11
73
7
74
5
42
0.0000001000
43
0.0000001000
44
0.0000000001
12
-4.1383732058
22
2.0691866029
32
0.0000000000
13
-0.3273111177
23
4.6547814582
33
0.0000000000
40
0.0000000000
40
0.0000000000
40
0.0000000000
40
0.0000000000
40
0.3520383401
40
0.6589014232
40
0.9201336911
40
1.0000000000
40
1.0000000000
40
1.0000000000
40
1.0000000000
10
124.9015783145
20
73.8490298647
30
0.0000000000
10
124.4159563032
20
74.0918408704
30
0.0000000000
10
123.5398963427
20
74.6214330312
30
0.0000000000
10
122.5151735334
20
75.6287409843
30
0.0000000000
10
122.0645985470
20
76.5517186369
30
0.0000000000
10
121.9894514578
20
77.0778589282
30
0.0000000000
10
121.9807377476
20
77.2017789995
30
0.0000000000
11
124.9015783145
21
73.8490298647
31
0.0000000000
11
123.5204421855
21
74.7124743007
31
0.0000000000
11
122.5336905996
21
75.7333431188
31
0.0000000000
11
122.0335258043
21
76.8336810193
31
0.0000000000
11
121.9807377476
21
77.2017789995
31
0.0000000000
0
SPLINE
5
36B
100
AcDbEntity
8
0
100
AcDbSpline
62
7
6
CONTINUOUS
70
0
71
3
72
8
73
4
74
2
42
0.0000001000
43
0.0000001000
44
0.0000000001
12
-0.0128332832
22
0.1825056508
32
0.0000000000
13
0.0000089369
23
0.1830318828
33
0.0000000000
40
0.0000000000
40
0.0000000000
40
0.0000000000
40
0.0000000000
40
1.0000000000
40
1.0000000000
40
1.0000000000
40
1.0000000000
10
121.9807377476
20
77.2017789995
30
0.0000000000
10
121.9764599865
20
77.2626142164
30
0.0000000000
10
121.9743227288
20
77.3236247137
30
0.0000000000
10
121.9743257078
20
77.3846353413
30
0.0000000000
11
121.9807377476
21
77.2017789995
31
0.0000000000
11
121.9743257078
21
77.3846353413
31
0.0000000000
0
SPLINE
5
36C
100
AcDbEntity
8
0
100
AcDbSpline
62
7
6
CONTINUOUS
70
0
71
3
72
9
73
5
74
3
42
0.0000001000
43
0.0000001000
44
0.0000000001
12
-1.9001618714
22
-0.9500809357
32
0.0000000000
13
-1.5547815560
23
-1.4587688229
33
0.0000000000
40
0.0000000000
40
0.0000000000
40
0.0000000000
40
0.0000000000
40
0.7667059771
40
1.0000000000
40
1.0000000000
40
1.0000000000
40
1.0000000000
10
124.9015783145
20
42.8149799101
30
0.0000000000
10
124.4159564931
20
42.5721689994
30
0.0000000000
10
123.8054668722
20
42.2031221419
30
0.0000000000
10
123.2640749854
20
41.7409675579
30
0.0000000000
10
123.1431679040
20
41.6275268755
30
0.0000000000
11
124.9015783145
21
42.8149799101
31
0.0000000000
11
123.5204426882
21
41.9515358716
31
0.0000000000
11
123.1431679040
21
41.6275268755
31
0.0000000000
0
SPLINE
5
36D
100
AcDbEntity
8
0
100
AcDbSpline
62
7
6
CONTINUOUS
70
0
71
3
72
9
73
5
74
3
42
0.0000001000
43
0.0000001000
44
0.0000000001
12
-1.4858584031
22
-1.3941018951
32
0.0000000000
13
-0.5160755326
23
-1.9734052387
33
0.0000000000
40
0.0000000000
40
0.0000000000
40
0.0000000000
40
0.0000000000
40
0.4546094353
40
1.0000000000
40
1.0000000000
40
1.0000000000
40
1.0000000000
10
123.1431679040
20
41.6275268755
30
0.0000000000
10
122.9180061542
20
41.4162695838
30
0.0000000000
10
122.4638873065
20
40.9086747667
30
0.0000000000
10
122.1514392482
20
40.2893731491
30
0.0000000000
10
122.0576183395
20
39.9306142833
30
0.0000000000
11
123.1431679040
21
41.6275268755
31
0.0000000000
11
122.5343917934
21
40.9316683822
31
0.0000000000
11
122.0576183395
21
39.9306142833
31
0.0000000000
0
SPLINE
5
36E
100
AcDbEntity
8
0
100
AcDbSpline
62
7
6
CONTINUOUS
70
0
71
3
72
12
73
8
74
6
42
0.0000001000
43
0.0000001000
44
0.0000000001
12
-4.5529452036
22
-2.2764726018
32
0.0000000000
13
-4.5529452036
23
2.2764726018
33
0.0000000000
40
0.0000000000
40
0.0000000000
40
0.0000000000
40
0.0000000000
40
0.1845908600
40
0.3928447897
40
0.6074975424
40
0.8152149711
40
1.0000000000
40
1.0000000000
40
1.0000000000
40
1.0000000000
10
-154.6177322885
20
-96.9446753914
30
0.0000000000
10
-154.8978763121
20
-97.0847474032
30
0.0000000000
10
-155.5334485358
20
-97.3048195896
30
0.0000000000
10
-156.5557470531
20
-97.4645177792
30
0.0000000000
10
-157.6303037208
20
-97.4643894148
30
0.0000000000
10
-158.6519825528
20
-97.3047000705
30
0.0000000000
10
-159.2870410532
20
-97.0848947432
30
0.0000000000
10
-159.5674797568
20
-96.9446753914
30
0.0000000000
11
-154.6177322885
21
-96.9446753914
31
0.0000000000
11
-155.5007966506
21
-97.2657749310
31
0.0000000000
11
-156.5471485473
21
-97.4358561905
31
0.0000000000
11
-157.6398056387
21
-97.4357185344
31
0.0000000000
11
-158.6834530177
21
-97.2660205680
31
0.0000000000
11
-159.5674797568
21
-96.9446753914
31
0.0000000000
0
SPLINE
5
36F
100
AcDbEntity
8
0
100
AcDbSpline
62
7
6
CONTINUOUS
70
0
71
3
72
10
73
6
74
4
42
0.0000001000
43
0.0000001000
44
0.0000000001
12
0.0000000000
22
0.6023109659
32
0.0000000000
13
0.3161887802
23
0.5126433018
33
0.0000000000
40
0.0000000000
40
0.0000000000
40
0.0000000000
40
0.0000000000
40
0.3621297741
40
0.6951587940
40
1.0000000000
40
1.0000000000
40
1.0000000000
40
1.0000000000
10
26.3308930171
20
-46.9042955427
30
0.0000000000
10
26.3308930171
20
-46.8315906314
30
0.0000000000
10
26.3404174667
20
-46.6916995434
30
0.0000000000
10
26.3869350405
20
-46.4954114641
30
0.0000000000
10
26.4408654123
20
-46.3779188498
30
0.0000000000
10
26.4729945353
20
-46.3258272490
30
0.0000000000
11
26.3308930171
21
-46.9042955427
31
0.0000000000
11
26.3470068284
21
-46.6867768486
31
0.0000000000
11
26.3948586523
21
-46.4919811612
31
0.0000000000
11
26.4729945353
21
-46.3258272490
31
0.0000000000
0
SPLINE
5
370
100
AcDbEntity
8
0
100
AcDbSpline
62
7
6
CONTINUOUS
70
0
71
3
72
10
73
6
74
4
42
0.0000001000
43
0.0000001000
44
0.0000000001
12
0.0000000000
22
0.6023109659
32
0.0000000000
13
0.3161887802
23
0.5126433018
33
0.0000000000
40
0.0000000000
40
0.0000000000
40
0.0000000000
40
0.0000000000
40
0.3621297741
40
0.6951587940
40
1.0000000000
40
1.0000000000
40
1.0000000000
40
1.0000000000
10
100.3649730073
20
-9.8872555476
30
0.0000000000
10
100.3649730073
20
-9.8145506362
30
0.0000000000
10
100.3744974569
20
-9.6746595482
30
0.0000000000
10
100.4210150307
20
-9.4783714690
30
0.0000000000
10
100.4749454025
20
-9.3608788546
30
0.0000000000
10
100.5070745256
20
-9.3087872539
30
0.0000000000
11
100.3649730073
21
-9.8872555476
31
0.0000000000
11
100.3810868186
21
-9.6697368535
31
0.0000000000
11
100.4289386425
21
-9.4749411661
31
0.0000000000
11
100.5070745256
21
-9.3087872539
31
0.0000000000
0
SPLINE
5
371
100
AcDbEntity
8
0
100
AcDbSpline
62
7
6
CONTINUOUS
70
0
71
3
72
10
73
6
74
4
42
0.0000001000
43
0.0000001000
44
0.0000000001
12
0.0000000000
22
0.6023109659
32
0.0000000000
13
0.3161887802
23
0.5126433018
33
0.0000000000
40
0.0000000000
40
0.0000000000
40
0.0000000000
40
0.0000000000
40
0.3621297741
40
0.6951587940
40
1.0000000000
40
1.0000000000
40
1.0000000000
40
1.0000000000
10
174.3990529976
20
27.1297844475
30
0.0000000000
10
174.3990529976
20
27.2024893589
30
0.0000000000
10
174.4085774471
20
27.3423804469
30
0.0000000000
10
174.4550950210
20
27.5386685261
30
0.0000000000
10
174.5090253928
20
27.6561611405
30
0.0000000000
10
174.5411545158
20
27.7082527413
30
0.0000000000
11
174.3990529976
21
27.1297844475
31
0.0000000000
11
174.4151668089
21
27.3473031417
31
0.0000000000
11
174.4630186328
21
27.5420988290
31
0.0000000000
11
174.5411545158
21
27.7082527413
31
0.0000000000
0
SPLINE
5
372
100
AcDbEntity
8
0
100
AcDbSpline
62
7
6
CONTINUOUS
70
0
71
3
72
10
73
6
74
4
42
0.0000001000
43
0.0000001000
44
0.0000000001
12
0.0000000000
22
0.6023109659
32
0.0000000000
13
0.3161887802
23
0.5126433018
33
0.0000000000
40
0.0000000000
40
0.0000000000
40
0.0000000000
40
0.0000000000
40
0.3621297741
40
0.6951587940
40
1.0000000000
40
1.0000000000
40
1.0000000000
40
1.0000000000
10
-47.7031869731
20
-83.9213355378
30
0.0000000000
10
-47.7031869731
20
-83.8486306265
30
0.0000000000
10
-47.6936625236
20
-83.7087395385
30
0.0000000000
10
-47.6471449497
20
-83.5124514592
30
0.0000000000
10
-47.5932145779
20
-83.3949588449
30
0.0000000000
10
-47.5610854549
20
-83.3428672441
30
0.0000000000
11
-47.7031869731
21
-83.9213355378
31
0.0000000000
11
-47.6870731618
21
-83.7038168437
31
0.0000000000
11
-47.6392213379
21
-83.5090211563
31
0.0000000000
11
-47.5610854549
21
-83.3428672441
31
0.0000000000
0
SPLINE
5
373
100
AcDbEntity
8
0
100
AcDbSpline
62
7
6
CONTINUOUS
70
0
71
3
72
10
73
6
74
4
42
0.0000001000
43
0.0000001000
44
0.0000000001
12
1.2374690350
22
-0.6187345175
32
0.0000000000
13
1.2441271559
23
0.6292664491
33
0.0000000000
40
0.0000000000
40
0.0000000000
40
0.0000000000
40
0.0000000000
40
0.4954935879
40
0.9261944389
40
1.0000000000
40
1.0000000000
40
1.0000000000
40
1.0000000000
10
10.4209904404
20
-68.8725361783
30
0.0000000000
10
10.6253764311
20
-68.9747291737
30
0.0000000000
10
11.0393927085
20
-69.1161298907
30
0.0000000000
10
11.5171798852
20
-69.0693009700
30
0.0000000000
10
11.7310199647
20
-68.9732295594
30
0.0000000000
10
11.7616277990
20
-68.9577484383
30
0.0000000000
11
10.4209904404
21
-68.8725361783
31
0.0000000000
11
11.0765144771
21
-69.0731392959
31
0.0000000000
11
11.6678712537
21
-68.9997881813
31
0.0000000000
11
11.7616277990
21
-68.9577484383
31
0.0000000000
0
SPLINE
5
374
100
AcDbEntity
8
0
100
AcDbSpline
62
7
6
CONTINUOUS
70
0
71
3
72
10
73
6
74
4
42
0.0000001000
43
0.0000001000
44
0.0000000001
12
1.2374690350
22
-0.6187345175
32
0.0000000000
13
1.2441271559
23
0.6292664491
33
0.0000000000
40
0.0000000000
40
0.0000000000
40
0.0000000000
40
0.0000000000
40
0.4954935879
40
0.9261944389
40
1.0000000000
40
1.0000000000
40
1.0000000000
40
1.0000000000
10
84.4550704306
20
-31.8554961832
30
0.0000000000
10
84.6594564213
20
-31.9576891786
30
0.0000000000
10
85.0734726987
20
-32.0990898956
30
0.0000000000
10
85.5512598754
20
-32.0522609749
30
0.0000000000
10
85.7650999549
20
-31.9561895643
30
0.0000000000
10
85.7957077892
20
-31.9407084432
30
0.0000000000
11
84.4550704306
21
-31.8554961832
31
0.0000000000
11
85.1105944673
21
-32.0560993008
31
0.0000000000
11
85.7019512440
21
-31.9827481862
31
0.0000000000
11
85.7957077892
21
-31.9407084432
31
0.0000000000
0
SPLINE
5
375
100
AcDbEntity
8
0
100
AcDbSpline
62
7
6
CONTINUOUS
70
0
71
3
72
10
73
6
74
4
42
0.0000001000
43
0.0000001000
44
0.0000000001
12
1.3489691447
22
-0.6744845723
32
0.0000000000
13
0.7564886104
23
-1.3047498511
33
0.0000000000
40
0.0000000000
40
0.0000000000
40
0.0000000000
40
0.0000000000
40
0.3054977709
40
0.6425457537
40
1.0000000000
40
1.0000000000
40
1.0000000000
40
1.0000000000
10
-53.7135946132
20
-58.9456236421
30
0.0000000000
10
-53.5762255910
20
-59.0143081532
30
0.0000000000
10
-53.3062941133
20
-59.1977948303
30
0.0000000000
10
-52.9531147488
20
-59.5588880632
30
0.0000000000
10
-52.7537313019
20
-59.8478320835
30
0.0000000000
10
-52.6635946132
20
-60.0032948751
30
0.0000000000
11
-53.7135946132
21
-58.9456236421
31
0.0000000000
11
-53.3292679392
21
-59.1997560892
31
0.0000000000
11
-52.9711324930
21
-59.5605080502
31
0.0000000000
11
-52.6635946132
21
-60.0032948751
31
0.0000000000
0
SPLINE
5
376
100
AcDbEntity
8
0
100
AcDbSpline
62
7
6
CONTINUOUS
70
0
71
3
72
10
73
6
74
4
42
0.0000001000
43
0.0000001000
44
0.0000000001
12
1.2374690350
22
-0.6187345175
32
0.0000000000
13
1.2441271559
23
0.6292664491
33
0.0000000000
40
0.0000000000
40
0.0000000000
40
0.0000000000
40
0.0000000000
40
0.4954935879
40
0.9261944389
40
1.0000000000
40
1.0000000000
40
1.0000000000
40
1.0000000000
10
158.4891504209
20
5.1615438119
30
0.0000000000
10
158.6935364116
20
5.0593508166
30
0.0000000000
10
159.1075526890
20
4.9179500995
30
0.0000000000
10
159.5853398656
20
4.9647790202
30
0.0000000000
10
159.7991799452
20
5.0608504308
30
0.0000000000
10
159.8297877794
20
5.0763315519
30
0.0000000000
11
158.4891504209
21
5.1615438119
31
0.0000000000
11
159.1446744575
21
4.9609406943
31
0.0000000000
11
159.7360312342
21
5.0342918089
31
0.0000000000
11
159.8297877794
21
5.0763315519
31
0.0000000000
0
SPLINE
5
377
100
AcDbEntity
8
0
100
AcDbSpline
62
7
6
CONTINUOUS
70
0
71
3
72
10
73
6
74
4
42
0.0000001000
43
0.0000001000
44
0.0000000001
12
1.2374690350
22
-0.6187345175
32
0.0000000000
13
1.2441271559
23
0.6292664491
33
0.0000000000
40
0.0000000000
40
0.0000000000
40
0.0000000000
40
0.0000000000
40
0.4954935879
40
0.9261944389
40
1.0000000000
40
1.0000000000
40
1.0000000000
40
1.0000000000
10
-63.6130895498
20
-105.8895761734
30
0.0000000000
10
-63.4087035591
20
-105.9917691688
30
0.0000000000
10
-62.9946872817
20
-106.1331698859
30
0.0000000000
10
-62.5169001051
20
-106.0863409651
30
0.0000000000
10
-62.3030600255
20
-105.9902695545
30
0.0000000000
10
-62.2724521913
20
-105.9747884334
30
0.0000000000
11
-63.6130895498
21
-105.8895761734
31
0.0000000000
11
-62.9575655132
21
-106.0901792911
31
0.0000000000
11
-62.3662087365
21
-106.0168281764
31
0.0000000000
11
-62.2724521913
21
-105.9747884334
31
0.0000000000
0
SPLINE
5
378
100
AcDbEntity
8
0
100
AcDbSpline
62
7
6
CONTINUOUS
70
0
71
3
72
10
73
6
74
4
42
0.0000001000
43
0.0000001000
44
0.0000000001
12
1.3489691447
22
-0.6744845723
32
0.0000000000
13
0.7564886104
23
-1.3047498511
33
0.0000000000
40
0.0000000000
40
0.0000000000
40
0.0000000000
40
0.0000000000
40
0.3054977709
40
0.6425457537
40
1.0000000000
40
1.0000000000
40
1.0000000000
40
1.0000000000
10
168.3886453575
20
52.1054963433
30
0.0000000000
10
168.5260143797
20
52.0368118322
30
0.0000000000
10
168.7959458574
20
51.8533251550
30
0.0000000000
10
169.1491252219
20
51.4922319222
30
0.0000000000
10
169.3485086688
20
51.2032879018
30
0.0000000000
10
169.4386453575
20
51.0478251103
30
0.0000000000
11
168.3886453575
21
52.1054963433
31
0.0000000000
11
168.7729720314
21
51.8513638962
31
0.0000000000
11
169.1311074777
21
51.4906119352
31
0.0000000000
11
169.4386453575
21
51.0478251103
31
0.0000000000
0
SPLINE
5
379
100
AcDbEntity
8
0
100
AcDbSpline
62
7
6
CONTINUOUS
70
0
71
3
72
10
73
6
74
4
42
0.0000001000
43
0.0000001000
44
0.0000000001
12
1.3489691447
22
-0.6744845723
32
0.0000000000
13
0.7564886104
23
-1.3047498511
33
0.0000000000
40
0.0000000000
40
0.0000000000
40
0.0000000000
40
0.0000000000
40
0.3054977709
40
0.6425457537
40
1.0000000000
40
1.0000000000
40
1.0000000000
40
1.0000000000
10
94.3545653672
20
15.0884563481
30
0.0000000000
10
94.4919343895
20
15.0197718370
30
0.0000000000
10
94.7618658671
20
14.8362851599
30
0.0000000000
10
95.1150452317
20
14.4751919270
30
0.0000000000
10
95.3144286786
20
14.1862479067
30
0.0000000000
10
95.4045653672
20
14.0307851152
30
0.0000000000
11
94.3545653672
21
15.0884563481
31
0.0000000000
11
94.7388920412
21
14.8343239011
31
0.0000000000
11
95.0970274875
21
14.4735719401
31
0.0000000000
11
95.4045653672
21
14.0307851152
31
0.0000000000
0
SPLINE
5
37A
100
AcDbEntity
8
0
100
AcDbSpline
62
7
6
CONTINUOUS
70
0
71
3
72
10
73
6
74
4
42
0.0000001000
43
0.0000001000
44
0.0000000001
12
1.3489691447
22
-0.6744845723
32
0.0000000000
13
0.7564886104
23
-1.3047498511
33
0.0000000000
40
0.0000000000
40
0.0000000000
40
0.0000000000
40
0.0000000000
40
0.3054977709
40
0.6425457537
40
1.0000000000
40
1.0000000000
40
1.0000000000
40
1.0000000000
10
20.3204853770
20
-21.9285836470
30
0.0000000000
10
20.4578543992
20
-21.9972681581
30
0.0000000000
10
20.7277858769
20
-22.1807548352
30
0.0000000000
10
21.0809652415
20
-22.5418480681
30
0.0000000000
10
21.2803486883
20
-22.8307920884
30
0.0000000000
10
21.3704853770
20
-22.9862548800
30
0.0000000000
11
20.3204853770
21
-21.9285836470
31
0.0000000000
11
20.7048120510
21
-22.1827160941
31
0.0000000000
11
21.0629474973
21
-22.5434680550
31
0.0000000000
11
21.3704853770
21
-22.9862548800
31
0.0000000000
0
SPLINE
5
37B
100
AcDbEntity
8
0
100
AcDbSpline
62
7
6
CONTINUOUS
70
0
71
3
72
14
73
10
74
8
42
0.0000001000
43
0.0000001000
44
0.0000000001
12
13.0174133381
22
6.5087066690
32
0.0000000000
13
13.0174133381
23
-6.5087066690
33
0.0000000000
40
0.0000000000
40
0.0000000000
40
0.0000000000
40
0.0000000000
40
0.1277901638
40
0.2721158313
40
0.4242975942
40
0.5760101823
40
0.7280236328
40
0.8722098933
40
1.0000000000
40
1.0000000000
40
1.0000000000
40
1.0000000000
10
-125.1313795131
20
-44.0963812372
30
0.0000000000
10
-124.5768803855
20
-43.8191316734
30
0.0000000000
10
-123.3408324021
20
-43.3374140091
30
0.0000000000
10
-121.3325528252
20
-42.8629276769
30
0.0000000000
10
-119.1664829150
20
-42.6215218511
30
0.0000000000
10
-116.9504684064
20
-42.6217667291
30
0.0000000000
10
-114.7859363802
20
-42.8633801150
30
0.0000000000
10
-112.7791577706
20
-43.3376602364
30
0.0000000000
10
-111.5437427690
20
-43.8191317973
30
0.0000000000
10
-110.9892438893
20
-44.0963812372
30
0.0000000000
11
-125.1313795131
21
-44.0963812372
31
0.0000000000
11
-123.4044906411
21
-43.4058131727
31
0.0000000000
11
-121.3627530049
21
-42.9124373797
31
0.0000000000
11
-119.1620772040
21
-42.6623549821
31
0.0000000000
11
-116.9540657794
21
-42.6626038236
31
0.0000000000
11
-114.7558669451
21
-42.9127879766
31
0.0000000000
11
-112.7161319663
21
-43.4058134240
31
0.0000000000
11
-110.9892438893
21
-44.0963812372
31
0.0000000000
0
SPLINE
5
37C
100
AcDbEntity
8
0
100
AcDbSpline
62
7
6
CONTINUOUS
70
0
71
3
72
14
73
10
74
8
42
0.0000001000
43
0.0000001000
44
0.0000000001
12
13.0174133381
22
6.5087066690
32
0.0000000000
13
13.0174133381
23
-6.5087066690
33
0.0000000000
40
0.0000000000
40
0.0000000000
40
0.0000000000
40
0.0000000000
40
0.1277901638
40
0.2721158313
40
0.4242975942
40
0.5760101823
40
0.7280236328
40
0.8722098933
40
1.0000000000
40
1.0000000000
40
1.0000000000
40
1.0000000000
10
-51.0972995228
20
-7.0793412421
30
0.0000000000
10
-50.5428003953
20
-6.8020916783
30
0.0000000000
10
-49.3067524118
20
-6.3203740140
30
0.0000000000
10
-47.2984728350
20
-5.8458876818
30
0.0000000000
10
-45.1324029248
20
-5.6044818560
30
0.0000000000
10
-42.9163884162
20
-5.6047267340
30
0.0000000000
10
-40.7518563900
20
-5.8463401199
30
0.0000000000
10
-38.7450777804
20
-6.3206202413
30
0.0000000000
10
-37.5096627788
20
-6.8020918022
30
0.0000000000
10
-36.9551638991
20
-7.0793412421
30
0.0000000000
11
-51.0972995228
21
-7.0793412421
31
0.0000000000
11
-49.3704106508
21
-6.3887731775
31
0.0000000000
11
-47.3286730147
21
-5.8953973846
31
0.0000000000
11
-45.1279972137
21
-5.6453149869
31
0.0000000000
11
-42.9199857892
21
-5.6455638285
31
0.0000000000
11
-40.7217869549
21
-5.8957479815
31
0.0000000000
11
-38.6820519760
21
-6.3887734289
31
0.0000000000
11
-36.9551638991
21
-7.0793412421
31
0.0000000000
0
SPLINE
5
37D
100
AcDbEntity
8
0
100
AcDbSpline
62
7
6
CONTINUOUS
70
0
71
3
72
9
73
5
74
3
42
0.0000001000
43
0.0000001000
44
0.0000000001
12
0.8387087965
22
0.4169880084
32
0.0000000000
13
0.8197408922
23
-0.4098704461
33
0.0000000000
40
0.0000000000
40
0.0000000000
40
0.0000000000
40
0.0000000000
40
0.3183083140
40
1.0000000000
40
1.0000000000
40
1.0000000000
40
1.0000000000
10
-163.2897757472
20
-57.3724787683
30
0.0000000000
10
-163.2007864196
20
-57.3282351850
30
0.0000000000
10
-162.8958712209
20
-57.2386092353
30
0.0000000000
10
-162.5821770652
20
-57.3322089707
30
0.0000000000
10
-162.3959068816
20
-57.4253440625
30
0.0000000000
11
-163.2897757472
21
-57.3724787683
31
0.0000000000
11
-163.0057828484
21
-57.2897422750
31
0.0000000000
11
-162.3959068816
21
-57.4253440625
31
0.0000000000
0
SPLINE
5
37E
100
AcDbEntity
8
0
100
AcDbSpline
62
7
6
CONTINUOUS
70
0
71
3
72
14
73
10
74
8
42
0.0000001000
43
0.0000001000
44
0.0000000001
12
13.0174133381
22
6.5087066690
32
0.0000000000
13
13.0174133381
23
-6.5087066690
33
0.0000000000
40
0.0000000000
40
0.0000000000
40
0.0000000000
40
0.0000000000
40
0.1277901638
40
0.2721158313
40
0.4242975942
40
0.5760101823
40
0.7280236328
40
0.8722098933
40
1.0000000000
40
1.0000000000
40
1.0000000000
40
1.0000000000
10
22.9367804674
20
29.9376987531
30
0.0000000000
10
23.4912795950
20
30.2149483169
30
0.0000000000
10
24.7273275784
20
30.6966659811
30
0.0000000000
10
26.7356071553
20
31.1711523133
30
0.0000000000
10
28.9016770655
20
31.4125581391
30
0.0000000000
10
31.1176915740
20
31.4123132611
30
0.0000000000
10
33.2822236002
20
31.1706998753
30
0.0000000000
10
35.2890022099
20
30.6964197538
30
0.0000000000
10
36.5244172115
20
30.2149481929
30
0.0000000000
10
37.0789160911
20
29.9376987531
30
0.0000000000
11
22.9367804674
21
29.9376987531
31
0.0000000000
11
24.6636693394
21
30.6282668176
31
0.0000000000
11
26.7054069756
21
31.1216426105
31
0.0000000000
11
28.9060827765
21
31.3717250082
31
0.0000000000
11
31.1140942011
21
31.3714761666
31
0.0000000000
11
33.3122930354
21
31.1212920136
31
0.0000000000
11
35.3520280142
21
30.6282665662
31
0.0000000000
11
37.0789160911
21
29.9376987531
31
0.0000000000
0
SPLINE
5
37F
100
AcDbEntity
8
0
100
AcDbSpline
62
7
6
CONTINUOUS
70
0
71
3
72
10
73
6
74
4
42
0.0000001000
43
0.0000001000
44
0.0000000001
12
1.6937111564
22
0.8566613148
32
0.0000000000
13
-0.0000000000
23
1.8834926316
33
0.0000000000
40
0.0000000000
40
0.0000000000
40
0.0000000000
40
0.0000000000
40
0.2535093694
40
0.5975132939
40
1.0000000000
40
1.0000000000
40
1.0000000000
40
1.0000000000
10
-62.2724521913
20
-105.9747884334
30
0.0000000000
10
-62.1293283089
20
-105.9023978768
30
0.0000000000
10
-61.8267970283
20
-105.6582549813
30
0.0000000000
10
-61.5463066592
20
-105.0773957187
30
0.0000000000
10
-61.4917692063
20
-104.6048537156
30
0.0000000000
10
-61.4917692063
20
-104.3521601339
30
0.0000000000
11
-62.2724521913
21
-105.9747884334
31
0.0000000000
11
-61.8969053414
21
-105.6767029477
31
0.0000000000
11
-61.5955940139
21
-105.1030974320
31
0.0000000000
11
-61.4917692063
21
-104.3521601339
31
0.0000000000
0
SPLINE
5
380
100
AcDbEntity
8
0
100
AcDbSpline
62
7
6
CONTINUOUS
70
0
71
3
72
10
73
6
74
4
42
0.0000001000
43
0.0000001000
44
0.0000000001
12
1.6937111564
22
0.8566613148
32
0.0000000000
13
-0.0000000000
23
1.8834926316
33
0.0000000000
40
0.0000000000
40
0.0000000000
40
0.0000000000
40
0.0000000000
40
0.2535093694
40
0.5975132939
40
1.0000000000
40
1.0000000000
40
1.0000000000
40
1.0000000000
10
11.7616277990
20
-68.9577484383
30
0.0000000000
10
11.9047516814
20
-68.8853578817
30
0.0000000000
10
12.2072829620
20
-68.6412149862
30
0.0000000000
10
12.4877733310
20
-68.0603557236
30
0.0000000000
10
12.5423107840
20
-67.5878137205
30
0.0000000000
10
12.5423107840
20
-67.3351201387
30
0.0000000000
11
11.7616277990
21
-68.9577484383
31
0.0000000000
11
12.1371746489
21
-68.6596629526
31
0.0000000000
11
12.4384859763
21
-68.0860574369
31
0.0000000000
11
12.5423107840
21
-67.3351201387
31
0.0000000000
0
SPLINE
5
381
100
AcDbEntity
8
0
100
AcDbSpline
62
7
6
CONTINUOUS
70
0
71
3
72
10
73
6
74
4
42
0.0000001000
43
0.0000001000
44
0.0000000001
12
1.6937111564
22
0.8566613148
32
0.0000000000
13
-0.0000000000
23
1.8834926316
33
0.0000000000
40
0.0000000000
40
0.0000000000
40
0.0000000000
40
0.0000000000
40
0.2535093694
40
0.5975132939
40
1.0000000000
40
1.0000000000
40
1.0000000000
40
1.0000000000
10
85.7957077892
20
-31.9407084432
30
0.0000000000
10
85.9388316716
20
-31.8683178866
30
0.0000000000
10
86.2413629522
20
-31.6241749911
30
0.0000000000
10
86.5218533212
20
-31.0433157285
30
0.0000000000
10
86.5763907742
20
-30.5707737254
30
0.0000000000
10
86.5763907742
20
-30.3180801436
30
0.0000000000
11
85.7957077892
21
-31.9407084432
31
0.0000000000
11
86.1712546391
21
-31.6426229574
31
0.0000000000
11
86.4725659665
21
-31.0690174418
31
0.0000000000
11
86.5763907742
21
-30.3180801436
31
0.0000000000
0
SPLINE
5
382
100
AcDbEntity
8
0
100
AcDbSpline
62
7
6
CONTINUOUS
70
0
71
3
72
11
73
7
74
5
42
0.0000001000
43
0.0000001000
44
0.0000000001
12
0.0001819998
22
3.7274523242
32
0.0000000000
13
3.0676729379
23
2.0721196425
33
0.0000000000
40
0.0000000000
40
0.0000000000
40
0.0000000000
40
0.0000000000
40
0.1497030323
40
0.4765839032
40
0.8605677333
40
1.0000000000
40
1.0000000000
40
1.0000000000
40
1.0000000000
10
-100.1279142629
20
-33.6664846440
30
0.0000000000
10
-100.1279051809
20
-33.4804810055
30
0.0000000000
10
-100.0645472934
20
-32.8883292242
30
0.0000000000
10
-99.5862337300
20
-31.9098867090
30
0.0000000000
10
-98.8300820411
20
-31.1666971468
30
0.0000000000
10
-98.3073707560
20
-30.7863535515
30
0.0000000000
10
-98.1647932256
20
-30.6900467720
30
0.0000000000
11
-100.1279142629
21
-33.6664846440
31
0.0000000000
11
-100.0682164833
21
-33.1134332538
31
0.0000000000
11
-99.5678481773
21
-32.0143338366
31
0.0000000000
11
-98.5817972825
21
-30.9944663472
31
0.0000000000
11
-98.1647932256
21
-30.6900467720
31
0.0000000000
0
SPLINE
5
383
100
AcDbEntity
8
0
100
AcDbSpline
62
7
6
CONTINUOUS
70
0
71
3
72
8
73
4
74
2
42
0.0000001000
43
0.0000001000
44
0.0000000001
12
0.4500454659
22
0.3039920059
32
0.0000000000
13
0.4696353109
23
0.2723099978
33
0.0000000000
40
0.0000000000
40
0.0000000000
40
0.0000000000
40
0.0000000000
40
1.0000000000
40
1.0000000000
40
1.0000000000
40
1.0000000000
10
-98.1647932256
20
-30.6900467720
30
0.0000000000
10
-98.0147780703
20
-30.5887161034
30
0.0000000000
10
-97.8610730904
20
-30.4929345926
30
0.0000000000
10
-97.7045279868
20
-30.4021645933
30
0.0000000000
11
-98.1647932256
21
-30.6900467720
31
0.0000000000
11
-97.7045279868
21
-30.4021645933
31
0.0000000000
0
SPLINE
5
384
100
AcDbEntity
8
0
100
AcDbSpline
62
7
6
CONTINUOUS
70
0
71
3
72
8
73
4
74
2
42
0.0000001000
43
0.0000001000
44
0.0000000001
12
0.4953833391
22
0.2872395513
32
0.0000000000
13
0.5113520629
23
0.2556760315
33
0.0000000000
40
0.0000000000
40
0.0000000000
40
0.0000000000
40
0.0000000000
40
1.0000000000
40
1.0000000000
40
1.0000000000
40
1.0000000000
10
-97.7045279868
20
-30.4021645933
30
0.0000000000
10
-97.5394002071
20
-30.3064180763
30
0.0000000000
10
-97.3711123438
20
-30.2162476526
30
0.0000000000
10
-97.2006616562
20
-30.1310223087
30
0.0000000000
11
-97.7045279868
21
-30.4021645933
31
0.0000000000
11
-97.2006616562
21
-30.1310223087
31
0.0000000000
0
SPLINE
5
385
100
AcDbEntity
8
0
100
AcDbSpline
62
7
6
CONTINUOUS
70
0
71
3
72
10
73
6
74
4
42
0.0000001000
43
0.0000001000
44
0.0000000001
12
1.6937111564
22
0.8566613148
32
0.0000000000
13
-0.0000000000
23
1.8834926316
33
0.0000000000
40
0.0000000000
40
0.0000000000
40
0.0000000000
40
0.0000000000
40
0.2535093694
40
0.5975132939
40
1.0000000000
40
1.0000000000
40
1.0000000000
40
1.0000000000
10
159.8297877794
20
5.0763315519
30
0.0000000000
10
159.9729116618
20
5.1487221085
30
0.0000000000
10
160.2754429424
20
5.3928650040
30
0.0000000000
10
160.5559333115
20
5.9737242666
30
0.0000000000
10
160.6104707644
20
6.4462662697
30
0.0000000000
10
160.6104707644
20
6.6989598515
30
0.0000000000
11
159.8297877794
21
5.0763315519
31
0.0000000000
11
160.2053346293
21
5.3744170377
31
0.0000000000
11
160.5066459568
21
5.9480225533
31
0.0000000000
11
160.6104707644
21
6.6989598515
31
0.0000000000
0
SPLINE
5
386
100
AcDbEntity
8
0
100
AcDbSpline
62
7
6
CONTINUOUS
70
0
71
3
72
14
73
10
74
8
42
0.0000001000
43
0.0000001000
44
0.0000000001
12
13.0174133381
22
6.5087066690
32
0.0000000000
13
13.0174133381
23
-6.5087066690
33
0.0000000000
40
0.0000000000
40
0.0000000000
40
0.0000000000
40
0.0000000000
40
0.1277901638
40
0.2721158313
40
0.4242975942
40
0.5760101823
40
0.7280236328
40
0.8722098933
40
1.0000000000
40
1.0000000000
40
1.0000000000
40
1.0000000000
10
96.9708604576
20
66.9547387482
30
0.0000000000
10
97.5253595852
20
67.2319883120
30
0.0000000000
10
98.7614075686
20
67.7137059763
30
0.0000000000
10
100.7696871455
20
68.1881923084
30
0.0000000000
10
102.9357570557
20
68.4295981343
30
0.0000000000
10
105.1517715642
20
68.4293532563
30
0.0000000000
10
107.3163035905
20
68.1877398704
30
0.0000000000
10
109.3230822001
20
67.7134597490
30
0.0000000000
10
110.5584972017
20
67.2319881880
30
0.0000000000
10
111.1129960814
20
66.9547387482
30
0.0000000000
11
96.9708604576
21
66.9547387482
31
0.0000000000
11
98.6977493296
21
67.6453068127
31
0.0000000000
11
100.7394869658
21
68.1386826056
31
0.0000000000
11
102.9401627667
21
68.3887650033
31
0.0000000000
11
105.1481741913
21
68.3885161617
31
0.0000000000
11
107.3463730256
21
68.1383320087
31
0.0000000000
11
109.3861080044
21
67.6453065614
31
0.0000000000
11
111.1129960814
21
66.9547387482
31
0.0000000000
0
SPLINE
5
387
100
AcDbEntity
8
0
100
AcDbSpline
62
7
6
CONTINUOUS
70
0
71
3
72
11
73
7
74
5
42
0.0000001000
43
0.0000001000
44
0.0000000001
12
0.0001819998
22
3.7274523242
32
0.0000000000
13
3.0676729379
23
2.0721196425
33
0.0000000000
40
0.0000000000
40
0.0000000000
40
0.0000000000
40
0.0000000000
40
0.1497030323
40
0.4765839032
40
0.8605677333
40
1.0000000000
40
1.0000000000
40
1.0000000000
40
1.0000000000
10
-26.0938342727
20
3.3505553511
30
0.0000000000
10
-26.0938251907
20
3.5365589897
30
0.0000000000
10
-26.0304673032
20
4.1287107709
30
0.0000000000
10
-25.5521537397
20
5.1071532861
30
0.0000000000
10
-24.7960020509
20
5.8503428483
30
0.0000000000
10
-24.2732907657
20
6.2306864436
30
0.0000000000
10
-24.1307132354
20
6.3269932231
30
0.0000000000
11
-26.0938342727
21
3.3505553511
31
0.0000000000
11
-26.0341364931
21
3.9036067413
31
0.0000000000
11
-25.5337681871
21
5.0027061585
31
0.0000000000
11
-24.5477172923
21
6.0225736479
31
0.0000000000
11
-24.1307132354
21
6.3269932231
31
0.0000000000
0
SPLINE
5
388
100
AcDbEntity
8
0
100
AcDbSpline
62
7
6
CONTINUOUS
70
0
71
3
72
8
73
4
74
2
42
0.0000001000
43
0.0000001000
44
0.0000000001
12
0.4500454659
22
0.3039920059
32
0.0000000000
13
0.4696353109
23
0.2723099978
33
0.0000000000
40
0.0000000000
40
0.0000000000
40
0.0000000000
40
0.0000000000
40
1.0000000000
40
1.0000000000
40
1.0000000000
40
1.0000000000
10
-24.1307132354
20
6.3269932231
30
0.0000000000
10
-23.9806980801
20
6.4283238917
30
0.0000000000
10
-23.8269931002
20
6.5241054025
30
0.0000000000
10
-23.6704479965
20
6.6148754018
30
0.0000000000
11
-24.1307132354
21
6.3269932231
31
0.0000000000
11
-23.6704479965
21
6.6148754018
31
0.0000000000
0
SPLINE
5
389
100
AcDbEntity
8
0
100
AcDbSpline
62
7
6
CONTINUOUS
70
0
71
3
72
8
73
4
74
2
42
0.0000001000
43
0.0000001000
44
0.0000000001
12
0.4953833391
22
0.2872395513
32
0.0000000000
13
0.5113520629
23
0.2556760315
33
0.0000000000
40
0.0000000000
40
0.0000000000
40
0.0000000000
40
0.0000000000
40
1.0000000000
40
1.0000000000
40
1.0000000000
40
1.0000000000
10
-23.6704479965
20
6.6148754018
30
0.0000000000
10
-23.5053202168
20
6.7106219189
30
0.0000000000
10
-23.3370323536
20
6.8007923426
30
0.0000000000
10
-23.1665816660
20
6.8860176864
30
0.0000000000
11
-23.6704479965
21
6.6148754018
31
0.0000000000
11
-23.1665816660
21
6.8860176864
31
0.0000000000
0
SPLINE
5
38A
100
AcDbEntity
8
0
100
AcDbSpline
62
7
6
CONTINUOUS
70
0
71
3
72
11
73
7
74
5
42
0.0000001000
43
0.0000001000
44
0.0000000001
12
0.0001819998
22
3.7274523242
32
0.0000000000
13
3.0676729379
23
2.0721196425
33
0.0000000000
40
0.0000000000
40
0.0000000000
40
0.0000000000
40
0.0000000000
40
0.1497030323
40
0.4765839032
40
0.8605677333
40
1.0000000000
40
1.0000000000
40
1.0000000000
40
1.0000000000
10
47.9402457176
20
40.3675953462
30
0.0000000000
10
47.9402547995
20
40.5535989848
30
0.0000000000
10
48.0036126870
20
41.1457507660
30
0.0000000000
10
48.4819262505
20
42.1241932812
30
0.0000000000
10
49.2380779394
20
42.8673828434
30
0.0000000000
10
49.7607892245
20
43.2477264387
30
0.0000000000
10
49.9033667549
20
43.3440332182
30
0.0000000000
11
47.9402457176
21
40.3675953462
31
0.0000000000
11
47.9999434971
21
40.9206467365
31
0.0000000000
11
48.5003118032
21
42.0197461536
31
0.0000000000
11
49.4863626979
21
43.0396136430
31
0.0000000000
11
49.9033667549
21
43.3440332182
31
0.0000000000
0
SPLINE
5
38B
100
AcDbEntity
8
0
100
AcDbSpline
62
7
6
CONTINUOUS
70
0
71
3
72
8
73
4
74
2
42
0.0000001000
43
0.0000001000
44
0.0000000001
12
0.4500454659
22
0.3039920059
32
0.0000000000
13
0.4696353109
23
0.2723099978
33
0.0000000000
40
0.0000000000
40
0.0000000000
40
0.0000000000
40
0.0000000000
40
1.0000000000
40
1.0000000000
40
1.0000000000
40
1.0000000000
10
49.9033667549
20
43.3440332182
30
0.0000000000
10
50.0533819102
20
43.4453638869
30
0.0000000000
10
50.2070868901
20
43.5411453976
30
0.0000000000
10
50.3636319937
20
43.6319153969
30
0.0000000000
11
49.9033667549
21
43.3440332182
31
0.0000000000
11
50.3636319937
21
43.6319153969
31
0.0000000000
0
SPLINE
5
38C
100
AcDbEntity
8
0
100
AcDbSpline
62
7
6
CONTINUOUS
70
0
71
3
72
8
73
4
74
2
42
0.0000001000
43
0.0000001000
44
0.0000000001
12
0.4953833391
22
0.2872395513
32
0.0000000000
13
0.5113520629
23
0.2556760315
33
0.0000000000
40
0.0000000000
40
0.0000000000
40
0.0000000000
40
0.0000000000
40
1.0000000000
40
1.0000000000
40
1.0000000000
40
1.0000000000
10
50.3636319937
20
43.6319153969
30
0.0000000000
10
50.5287597734
20
43.7276619140
30
0.0000000000
10
50.6970476366
20
43.8178323377
30
0.0000000000
10
50.8674983243
20
43.9030576815
30
0.0000000000
11
50.3636319937
21
43.6319153969
31
0.0000000000
11
50.8674983243
21
43.9030576815
31
0.0000000000
0
SPLINE
5
38D
100
AcDbEntity
8
0
100
AcDbSpline
62
7
6
CONTINUOUS
70
0
71
3
72
10
73
6
74
4
42
0.0000001000
43
0.0000001000
44
0.0000000001
12
0.0000000000
22
0.6023109659
32
0.0000000000
13
0.3161887802
23
0.5126433018
33
0.0000000000
40
0.0000000000
40
0.0000000000
40
0.0000000000
40
0.0000000000
40
0.3621297741
40
0.6951587940
40
1.0000000000
40
1.0000000000
40
1.0000000000
40
1.0000000000
10
12.5423107840
20
-53.7985866593
30
0.0000000000
10
12.5423107840
20
-53.7258817479
30
0.0000000000
10
12.5518352335
20
-53.5859906599
30
0.0000000000
10
12.5983528074
20
-53.3897025807
30
0.0000000000
10
12.6522831792
20
-53.2722099663
30
0.0000000000
10
12.6844123022
20
-53.2201183655
30
0.0000000000
11
12.5423107840
21
-53.7985866593
31
0.0000000000
11
12.5584245953
21
-53.5810679651
31
0.0000000000
11
12.6062764192
21
-53.3862722778
31
0.0000000000
11
12.6844123022
21
-53.2201183655
31
0.0000000000
0
SPLINE
5
38E
100
AcDbEntity
8
0
100
AcDbSpline
62
7
6
CONTINUOUS
70
0
71
3
72
10
73
6
74
4
42
0.0000001000
43
0.0000001000
44
0.0000000001
12
0.0000000000
22
0.6023109659
32
0.0000000000
13
0.3161887802
23
0.5126433018
33
0.0000000000
40
0.0000000000
40
0.0000000000
40
0.0000000000
40
0.0000000000
40
0.3621297741
40
0.6951587940
40
1.0000000000
40
1.0000000000
40
1.0000000000
40
1.0000000000
10
86.5763907742
20
-16.7815466642
30
0.0000000000
10
86.5763907742
20
-16.7088417528
30
0.0000000000
10
86.5859152237
20
-16.5689506648
30
0.0000000000
10
86.6324327976
20
-16.3726625856
30
0.0000000000
10
86.6863631694
20
-16.2551699712
30
0.0000000000
10
86.7184922924
20
-16.2030783704
30
0.0000000000
11
86.5763907742
21
-16.7815466642
31
0.0000000000
11
86.5925045855
21
-16.5640279700
31
0.0000000000
11
86.6403564094
21
-16.3692322827
31
0.0000000000
11
86.7184922924
21
-16.2030783704
31
0.0000000000
0
SPLINE
5
38F
100
AcDbEntity
8
0
100
AcDbSpline
62
7
6
CONTINUOUS
70
0
71
3
72
10
73
6
74
4
42
0.0000001000
43
0.0000001000
44
0.0000000001
12
0.0000000000
22
0.6023109659
32
0.0000000000
13
0.3161887802
23
0.5126433018
33
0.0000000000
40
0.0000000000
40
0.0000000000
40
0.0000000000
40
0.0000000000
40
0.3621297741
40
0.6951587940
40
1.0000000000
40
1.0000000000
40
1.0000000000
40
1.0000000000
10
160.6104707644
20
20.2354933310
30
0.0000000000
10
160.6104707644
20
20.3081982423
30
0.0000000000
10
160.6199952140
20
20.4480893303
30
0.0000000000
10
160.6665127878
20
20.6443774095
30
0.0000000000
10
160.7204431596
20
20.7618700239
30
0.0000000000
10
160.7525722827
20
20.8139616247
30
0.0000000000
11
160.6104707644
21
20.2354933310
31
0.0000000000
11
160.6265845757
21
20.4530120251
31
0.0000000000
11
160.6744363996
21
20.6478077125
31
0.0000000000
11
160.7525722827
21
20.8139616247
31
0.0000000000
0
SPLINE
5
390
100
AcDbEntity
8
0
100
AcDbSpline
62
7
6
CONTINUOUS
70
0
71
3
72
10
73
6
74
4
42
0.0000001000
43
0.0000001000
44
0.0000000001
12
0.0000000000
22
0.6023109659
32
0.0000000000
13
0.3161887802
23
0.5126433018
33
0.0000000000
40
0.0000000000
40
0.0000000000
40
0.0000000000
40
0.0000000000
40
0.3621297741
40
0.6951587940
40
1.0000000000
40
1.0000000000
40
1.0000000000
40
1.0000000000
10
-61.4917692063
20
-90.8156266544
30
0.0000000000
10
-61.4917692063
20
-90.7429217430
30
0.0000000000
10
-61.4822447567
20
-90.6030306550
30
0.0000000000
10
-61.4357271829
20
-90.4067425758
30
0.0000000000
10
-61.3817968111
20
-90.2892499614
30
0.0000000000
10
-61.3496676880
20
-90.2371583607
30
0.0000000000
11
-61.4917692063
21
-90.8156266544
31
0.0000000000
11
-61.4756553950
21
-90.5981079603
31
0.0000000000
11
-61.4278035711
21
-90.4033122729
31
0.0000000000
11
-61.3496676880
21
-90.2371583607
31
0.0000000000
0
SPLINE
5
391
100
AcDbEntity
8
0
100
AcDbSpline
62
7
6
CONTINUOUS
70
0
71
3
72
10
73
6
74
4
42
0.0000001000
43
0.0000001000
44
0.0000000001
12
1.3489691447
22
-0.6744845723
32
0.0000000000
13
0.7564886104
23
-1.3047498511
33
0.0000000000
40
0.0000000000
40
0.0000000000
40
0.0000000000
40
0.0000000000
40
0.3054977709
40
0.6425457537
40
1.0000000000
40
1.0000000000
40
1.0000000000
40
1.0000000000
10
-67.5021768464
20
-65.8399147587
30
0.0000000000
10
-67.3648078241
20
-65.9085992698
30
0.0000000000
10
-67.0948763465
20
-66.0920859469
30
0.0000000000
10
-66.7416969819
20
-66.4531791798
30
0.0000000000
10
-66.5423135350
20
-66.7421232001
30
0.0000000000
10
-66.4521768464
20
-66.8975859916
30
0.0000000000
11
-67.5021768464
21
-65.8399147587
31
0.0000000000
11
-67.1178501724
21
-66.0940472057
31
0.0000000000
11
-66.7597147261
21
-66.4547991667
31
0.0000000000
11
-66.4521768464
21
-66.8975859916
31
0.0000000000
0
SPLINE
5
392
100
AcDbEntity
8
0
100
AcDbSpline
62
7
6
CONTINUOUS
70
0
71
3
72
11
73
7
74
5
42
0.0000001000
43
0.0000001000
44
0.0000000001
12
0.0001819998
22
3.7274523242
32
0.0000000000
13
3.0676729379
23
2.0721196425
33
0.0000000000
40
0.0000000000
40
0.0000000000
40
0.0000000000
40
0.0000000000
40
0.1497030323
40
0.4765839032
40
0.8605677333
40
1.0000000000
40
1.0000000000
40
1.0000000000
40
1.0000000000
10
121.9743257078
20
77.3846353413
30
0.0000000000
10
121.9743347898
20
77.5706389799
30
0.0000000000
10
122.0376926773
20
78.1627907611
30
0.0000000000
10
122.5160062407
20
79.1412332763
30
0.0000000000
10
123.2721579296
20
79.8844228386
30
0.0000000000
10
123.7948692147
20
80.2647664338
30
0.0000000000
10
123.9374467451
20
80.3610732133
30
0.0000000000
11
121.9743257078
21
77.3846353413
31
0.0000000000
11
122.0340234874
21
77.9376867316
31
0.0000000000
11
122.5343917934
21
79.0367861487
31
0.0000000000
11
123.5204426882
21
80.0566536381
31
0.0000000000
11
123.9374467451
21
80.3610732133
31
0.0000000000
0
SPLINE
5
393
100
AcDbEntity
8
0
100
AcDbSpline
62
7
6
CONTINUOUS
70
0
71
3
72
8
73
4
74
2
42
0.0000001000
43
0.0000001000
44
0.0000000001
12
0.4500454659
22
0.3039920059
32
0.0000000000
13
0.4696353109
23
0.2723099978
33
0.0000000000
40
0.0000000000
40
0.0000000000
40
0.0000000000
40
0.0000000000
40
1.0000000000
40
1.0000000000
40
1.0000000000
40
1.0000000000
10
123.9374467451
20
80.3610732133
30
0.0000000000
10
124.0874619004
20
80.4624038820
30
0.0000000000
10
124.2411668803
20
80.5581853927
30
0.0000000000
10
124.3977119839
20
80.6489553920
30
0.0000000000
11
123.9374467451
21
80.3610732133
31
0.0000000000
11
124.3977119839
21
80.6489553920
31
0.0000000000
0
SPLINE
5
394
100
AcDbEntity
8
0
100
AcDbSpline
62
7
6
CONTINUOUS
70
0
71
3
72
8
73
4
74
2
42
0.0000001000
43
0.0000001000
44
0.0000000001
12
0.4953833391
22
0.2872395513
32
0.0000000000
13
0.5113520629
23
0.2556760315
33
0.0000000000
40
0.0000000000
40
0.0000000000
40
0.0000000000
40
0.0000000000
40
1.0000000000
40
1.0000000000
40
1.0000000000
40
1.0000000000
10
124.3977119839
20
80.6489553920
30
0.0000000000
10
124.5628397636
20
80.7447019091
30
0.0000000000
10
124.7311276269
20
80.8348723328
30
0.0000000000
10
124.9015783145
20
80.9200976766
30
0.0000000000
11
124.3977119839
21
80.6489553920
31
0.0000000000
11
124.9015783145
21
80.9200976766
31
0.0000000000
0
SPLINE
5
395
100
AcDbEntity
8
0
100
AcDbSpline
62
7
6
CONTINUOUS
70
0
71
3
72
10
73
6
74
4
42
0.0000001000
43
0.0000001000
44
0.0000000001
12
1.3489691447
22
-0.6744845723
32
0.0000000000
13
0.7564886104
23
-1.3047498511
33
0.0000000000
40
0.0000000000
40
0.0000000000
40
0.0000000000
40
0.0000000000
40
0.3054977709
40
0.6425457537
40
1.0000000000
40
1.0000000000
40
1.0000000000
40
1.0000000000
10
154.6000631243
20
45.2112052267
30
0.0000000000
10
154.7374321466
20
45.1425207156
30
0.0000000000
10
155.0073636242
20
44.9590340385
30
0.0000000000
10
155.3605429888
20
44.5979408056
30
0.0000000000
10
155.5599264356
20
44.3089967852
30
0.0000000000
10
155.6500631243
20
44.1535339937
30
0.0000000000
11
154.6000631243
21
45.2112052267
31
0.0000000000
11
154.9843897983
21
44.9570727796
31
0.0000000000
11
155.3425252446
21
44.5963208186
31
0.0000000000
11
155.6500631243
21
44.1535339937
31
0.0000000000
0
SPLINE
5
396
100
AcDbEntity
8
0
100
AcDbSpline
62
7
6
CONTINUOUS
70
0
71
3
72
12
73
8
74
6
42
0.0000001000
43
0.0000001000
44
0.0000000001
12
4.5529452036
22
-2.2764726018
32
0.0000000000
13
4.5529452036
23
2.2764726018
33
0.0000000000
40
0.0000000000
40
0.0000000000
40
0.0000000000
40
0.0000000000
40
0.1847850289
40
0.3925024576
40
0.6071552103
40
0.8154091400
40
1.0000000000
40
1.0000000000
40
1.0000000000
40
1.0000000000
10
-159.5674797568
20
-58.8395576249
30
0.0000000000
10
-159.2870410532
20
-58.9797769767
30
0.0000000000
10
-158.6519825528
20
-59.1995823040
30
0.0000000000
10
-157.6303037208
20
-59.3592716482
30
0.0000000000
10
-156.5557470531
20
-59.3594000127
30
0.0000000000
10
-155.5334485358
20
-59.1997018231
30
0.0000000000
10
-154.8978763121
20
-58.9796296367
30
0.0000000000
10
-154.6177322885
20
-58.8395576249
30
0.0000000000
11
-159.5674797568
21
-58.8395576249
31
0.0000000000
11
-158.6834530177
21
-59.1609028015
31
0.0000000000
11
-157.6398056387
21
-59.3306007679
31
0.0000000000
11
-156.5471485473
21
-59.3307384240
31
0.0000000000
11
-155.5007966506
21
-59.1606571644
31
0.0000000000
11
-154.6177322885
21
-58.8395576249
31
0.0000000000
0
SPLINE
5
397
100
AcDbEntity
8
0
100
AcDbSpline
62
7
6
CONTINUOUS
70
0
71
3
72
8
73
4
74
2
42
0.0000001000
43
0.0000001000
44
0.0000000001
12
0.6970625935
22
0.3485312967
32
0.0000000000
13
0.5645559394
23
0.5526003462
33
0.0000000000
40
0.0000000000
40
0.0000000000
40
0.0000000000
40
0.0000000000
40
1.0000000000
40
1.0000000000
40
1.0000000000
40
1.0000000000
10
154.3879310900
20
95.6632740644
30
0.0000000000
10
154.6202852878
20
95.7794511633
30
0.0000000000
10
154.8419448559
20
95.9206061300
30
0.0000000000
10
155.0301301690
20
96.1048062454
30
0.0000000000
11
154.3879310900
21
95.6632740644
31
0.0000000000
11
155.0301301690
21
96.1048062454
31
0.0000000000
0
SPLINE
5
398
100
AcDbEntity
8
0
100
AcDbSpline
62
7
6
CONTINUOUS
70
0
71
3
72
9
73
5
74
3
42
0.0000001000
43
0.0000001000
44
0.0000000001
12
0.6496683091
22
0.6359102925
32
0.0000000000
13
-0.0001208795
23
0.9128901471
33
0.0000000000
40
0.0000000000
40
0.0000000000
40
0.0000000000
40
0.0000000000
40
0.6958244013
40
1.0000000000
40
1.0000000000
40
1.0000000000
40
1.0000000000
10
155.0301301690
20
96.1048062454
30
0.0000000000
10
155.1808151898
20
96.2523002116
30
0.0000000000
10
155.3665266336
20
96.5039340132
30
0.0000000000
10
155.4097935175
20
96.8082270446
30
0.0000000000
10
155.4097812613
20
96.9007866803
30
0.0000000000
11
155.0301301690
21
96.1048062454
31
0.0000000000
11
155.3702926881
21
96.6279821937
31
0.0000000000
11
155.4097812613
21
96.9007866803
31
0.0000000000
0
SPLINE
5
399
100
AcDbEntity
8
0
100
AcDbSpline
62
7
6
CONTINUOUS
70
0
71
3
72
10
73
6
74
4
42
0.0000001000
43
0.0000001000
44
0.0000000001
12
1.3489691447
22
-0.6744845723
32
0.0000000000
13
0.7564886104
23
-1.3047498511
33
0.0000000000
40
0.0000000000
40
0.0000000000
40
0.0000000000
40
0.0000000000
40
0.3054977709
40
0.6425457537
40
1.0000000000
40
1.0000000000
40
1.0000000000
40
1.0000000000
10
6.5319031439
20
-28.8228747635
30
0.0000000000
10
6.6692721661
20
-28.8915592746
30
0.0000000000
10
6.9392036438
20
-29.0750459518
30
0.0000000000
10
7.2923830083
20
-29.4361391846
30
0.0000000000
10
7.4917664552
20
-29.7250832050
30
0.0000000000
10
7.5819031439
20
-29.8805459965
30
0.0000000000
11
6.5319031439
21
-28.8228747635
31
0.0000000000
11
6.9162298178
21
-29.0770072106
31
0.0000000000
11
7.2743652641
21
-29.4377591716
31
0.0000000000
11
7.5819031439
21
-29.8805459965
31
0.0000000000
0
SPLINE
5
39A
100
AcDbEntity
8
0
100
AcDbSpline
62
7
6
CONTINUOUS
70
0
71
3
72
10
73
6
74
4
42
0.0000001000
43
0.0000001000
44
0.0000000001
12
1.3489691447
22
-0.6744845723
32
0.0000000000
13
0.7564886104
23
-1.3047498511
33
0.0000000000
40
0.0000000000
40
0.0000000000
40
0.0000000000
40
0.0000000000
40
0.3054977709
40
0.6425457537
40
1.0000000000
40
1.0000000000
40
1.0000000000
40
1.0000000000
10
80.5659831341
20
8.1941652316
30
0.0000000000
10
80.7033521563
20
8.1254807205
30
0.0000000000
10
80.9732836340
20
7.9419940434
30
0.0000000000
10
81.3264629986
20
7.5809008105
30
0.0000000000
10
81.5258464454
20
7.2919567901
30
0.0000000000
10
81.6159831341
20
7.1364939986
30
0.0000000000
11
80.5659831341
21
8.1941652316
31
0.0000000000
11
80.9503098081
21
7.9400327845
31
0.0000000000
11
81.3084452544
21
7.5792808235
31
0.0000000000
11
81.6159831341
21
7.1364939986
31
0.0000000000
0
SPLINE
5
39B
100
AcDbEntity
8
0
100
AcDbSpline
62
7
6
CONTINUOUS
70
0
71
3
72
10
73
6
74
4
42
0.0000001000
43
0.0000001000
44
0.0000000001
12
-3.0618956542
22
-1.5309478271
32
0.0000000000
13
-1.2236128667
23
-3.2057107079
33
0.0000000000
40
0.0000000000
40
0.0000000000
40
0.0000000000
40
0.0000000000
40
0.3041027106
40
0.6449426867
40
1.0000000000
40
1.0000000000
40
1.0000000000
40
1.0000000000
10
157.4638455881
20
100.5847688780
30
0.0000000000
10
157.1534686655
20
100.4295804167
30
0.0000000000
10
156.5538853532
20
99.9814782528
30
0.0000000000
10
155.8289028965
20
99.0896029334
30
0.0000000000
10
155.4653596288
20
98.3769763359
30
0.0000000000
10
155.3205420632
20
97.9975726589
30
0.0000000000
11
157.4638455881
21
100.5847688780
31
0.0000000000
11
156.6173889189
21
99.9787435148
31
0.0000000000
11
155.8730274163
21
99.0802196974
31
0.0000000000
11
155.3205420632
21
97.9975726589
31
0.0000000000
0
SPLINE
5
39C
100
AcDbEntity
8
0
100
AcDbSpline
62
7
6
CONTINUOUS
70
0
71
3
72
8
73
4
74
2
42
0.0000001000
43
0.0000001000
44
0.0000000001
12
-0.1725872212
22
-0.4521566569
32
0.0000000000
13
-0.1316210316
23
-0.4656566588
33
0.0000000000
40
0.0000000000
40
0.0000000000
40
0.0000000000
40
0.0000000000
40
1.0000000000
40
1.0000000000
40
1.0000000000
40
1.0000000000
10
155.3205420632
20
97.9975726589
30
0.0000000000
10
155.2630129895
20
97.8468537733
30
0.0000000000
10
155.2119016528
20
97.6936397953
30
0.0000000000
10
155.1680279756
20
97.5384209091
30
0.0000000000
11
155.3205420632
21
97.9975726589
31
0.0000000000
11
155.1680279756
21
97.5384209091
31
0.0000000000
0
SPLINE
5
39D
100
AcDbEntity
8
0
100
AcDbSpline
62
7
6
CONTINUOUS
70
0
71
3
72
8
73
4
74
2
42
0.0000001000
43
0.0000001000
44
0.0000000001
12
0.0651617660
22
-0.1254955357
32
0.0000000000
13
0.0753235565
23
-0.1204149829
33
0.0000000000
40
0.0000000000
40
0.0000000000
40
0.0000000000
40
0.0000000000
40
1.0000000000
40
1.0000000000
40
1.0000000000
40
1.0000000000
10
155.2503519343
20
95.0895024429
30
0.0000000000
10
155.2720725230
20
95.0476705977
30
0.0000000000
10
155.2954342111
20
95.0066220733
30
0.0000000000
10
155.3205420632
20
94.9664837457
30
0.0000000000
11
155.2503519343
21
95.0895024429
31
0.0000000000
11
155.3205420632
21
94.9664837457
31
0.0000000000
0
SPLINE
5
39E
100
AcDbEntity
8
0
100
AcDbSpline
62
7
6
CONTINUOUS
70
0
71
3
72
9
73
5
74
3
42
0.0000001000
43
0.0000001000
44
0.0000000001
12
0.4256070256
22
-0.6803909048
32
0.0000000000
13
0.7142348237
23
-0.3557417039
33
0.0000000000
40
0.0000000000
40
0.0000000000
40
0.0000000000
40
0.0000000000
40
0.9646156685
40
1.0000000000
40
1.0000000000
40
1.0000000000
40
1.0000000000
10
155.3205420632
20
94.9664837457
30
0.0000000000
10
155.4573911317
20
94.7477118365
30
0.0000000000
10
155.6530369833
20
94.5489463150
30
0.0000000000
10
155.8897262079
20
94.4276404209
30
0.0000000000
10
155.8981504485
20
94.4234445268
30
0.0000000000
11
155.3205420632
21
94.9664837457
31
0.0000000000
11
155.8730274163
21
94.4363220602
31
0.0000000000
11
155.8981504485
21
94.4234445268
31
0.0000000000
0
SPLINE
5
39F
100
AcDbEntity
8
0
100
AcDbSpline
62
7
6
CONTINUOUS
70
0
71
3
72
13
73
9
74
7
42
0.0000001000
43
0.0000001000
44
0.0000000001
12
-5.8510181220
22
-2.9255090610
32
0.0000000000
13
3.5074004381
23
-5.6070581875
33
0.0000000000
40
0.0000000000
40
0.0000000000
40
0.0000000000
40
0.0000000000
40
0.1591399562
40
0.3375048869
40
0.5233098907
40
0.7027147298
40
0.8636356295
40
1.0000000000
40
1.0000000000
40
1.0000000000
40
1.0000000000
10
157.4638455881
20
73.0884623078
30
0.0000000000
10
157.1534686655
20
72.9332738465
30
0.0000000000
10
156.5538853532
20
72.4851716826
30
0.0000000000
10
155.8289028965
20
71.5932963632
30
0.0000000000
10
155.2862635112
20
70.5296010807
30
0.0000000000
10
154.9873831821
20
69.4120425985
30
0.0000000000
10
154.9670336278
20
68.3606820414
30
0.0000000000
10
155.1611139123
20
67.7250448288
30
0.0000000000
10
155.3205420632
20
67.4701771755
30
0.0000000000
11
157.4638455881
21
73.0884623078
31
0.0000000000
11
156.6173889189
21
72.4824369447
31
0.0000000000
11
155.8730274163
21
71.5839131273
31
0.0000000000
11
155.3205420632
21
70.5012660887
31
0.0000000000
11
155.0265707470
21
69.3650790402
31
0.0000000000
11
155.0265707470
21
68.3123929079
31
0.0000000000
11
155.3205420632
21
67.4701771755
31
0.0000000000
0
SPLINE
5
3A0
100
AcDbEntity
8
0
100
AcDbSpline
62
7
6
CONTINUOUS
70
0
71
3
72
9
73
5
74
3
42
0.0000001000
43
0.0000001000
44
0.0000000001
12
0.4256070256
22
-0.6803909048
32
0.0000000000
13
0.7142348237
23
-0.3557417039
33
0.0000000000
40
0.0000000000
40
0.0000000000
40
0.0000000000
40
0.0000000000
40
0.9646156685
40
1.0000000000
40
1.0000000000
40
1.0000000000
40
1.0000000000
10
155.3205420632
20
67.4701771755
30
0.0000000000
10
155.4573911317
20
67.2514052664
30
0.0000000000
10
155.6530369833
20
67.0526397448
30
0.0000000000
10
155.8897262079
20
66.9313338507
30
0.0000000000
10
155.8981504485
20
66.9271379566
30
0.0000000000
11
155.3205420632
21
67.4701771755
31
0.0000000000
11
155.8730274163
21
66.9400154901
31
0.0000000000
11
155.8981504485
21
66.9271379566
31
0.0000000000
0
SPLINE
5
3A1
100
AcDbEntity
8
0
100
AcDbSpline
62
7
6
CONTINUOUS
70
0
71
3
72
13
73
9
74
7
42
0.0000001000
43
0.0000001000
44
0.0000000001
12
-5.8510181220
22
-2.9255090610
32
0.0000000000
13
3.5074004381
23
-5.6070581875
33
0.0000000000
40
0.0000000000
40
0.0000000000
40
0.0000000000
40
0.0000000000
40
0.1591399562
40
0.3375048869
40
0.5233098907
40
0.7027147298
40
0.8636356295
40
1.0000000000
40
1.0000000000
40
1.0000000000
40
1.0000000000
10
-171.3408076636
20
-63.8175577479
30
0.0000000000
10
-171.6511845862
20
-63.9727462092
30
0.0000000000
10
-172.2507678985
20
-64.4208483731
30
0.0000000000
10
-172.9757503553
20
-65.3127236925
30
0.0000000000
10
-173.5183897405
20
-66.3764189750
30
0.0000000000
10
-173.8172700697
20
-67.4939774572
30
0.0000000000
10
-173.8376196240
20
-68.5453380143
30
0.0000000000
10
-173.6435393394
20
-69.1809752269
30
0.0000000000
10
-173.4841111885
20
-69.4358428802
30
0.0000000000
11
-171.3408076636
21
-63.8175577479
31
0.0000000000
11
-172.1872643329
21
-64.4235831110
31
0.0000000000
11
-172.9316258355
21
-65.3221069285
31
0.0000000000
11
-173.4841111885
21
-66.4047539670
31
0.0000000000
11
-173.7780825047
21
-67.5409410156
31
0.0000000000
11
-173.7780825047
21
-68.5936271478
31
0.0000000000
11
-173.4841111885
21
-69.4358428802
31
0.0000000000
0
SPLINE
5
3A2
100
AcDbEntity
8
0
100
AcDbSpline
62
7
6
CONTINUOUS
70
0
71
3
72
9
73
5
74
3
42
0.0000001000
43
0.0000001000
44
0.0000000001
12
0.4256070256
22
-0.6803909048
32
0.0000000000
13
0.7142348237
23
-0.3557417039
33
0.0000000000
40
0.0000000000
40
0.0000000000
40
0.0000000000
40
0.0000000000
40
0.9646156685
40
1.0000000000
40
1.0000000000
40
1.0000000000
40
1.0000000000
10
-173.4841111885
20
-69.4358428802
30
0.0000000000
10
-173.3472621200
20
-69.6546147894
30
0.0000000000
10
-173.1516162684
20
-69.8533803109
30
0.0000000000
10
-172.9149270439
20
-69.9746862050
30
0.0000000000
10
-172.9065028033
20
-69.9788820991
30
0.0000000000
11
-173.4841111885
21
-69.4358428802
31
0.0000000000
11
-172.9316258355
21
-69.9660045656
31
0.0000000000
11
-172.9065028033
21
-69.9788820991
31
0.0000000000
0
SPLINE
5
3A3
100
AcDbEntity
8
0
100
AcDbSpline
62
7
6
CONTINUOUS
70
0
71
3
72
13
73
9
74
7
42
0.0000001000
43
0.0000001000
44
0.0000000001
12
-5.8510181220
22
-2.9255090610
32
0.0000000000
13
3.5074004381
23
-5.6070581875
33
0.0000000000
40
0.0000000000
40
0.0000000000
40
0.0000000000
40
0.0000000000
40
0.1591399562
40
0.3375048869
40
0.5233098907
40
0.7027147298
40
0.8636356295
40
1.0000000000
40
1.0000000000
40
1.0000000000
40
1.0000000000
10
-171.3408076636
20
-91.3138643180
30
0.0000000000
10
-171.6511845862
20
-91.4690527794
30
0.0000000000
10
-172.2507678985
20
-91.9171549432
30
0.0000000000
10
-172.9757503553
20
-92.8090302627
30
0.0000000000
10
-173.5183897405
20
-93.8727255452
30
0.0000000000
10
-173.8172700697
20
-94.9902840273
30
0.0000000000
10
-173.8376196240
20
-96.0416445845
30
0.0000000000
10
-173.6435393394
20
-96.6772817971
30
0.0000000000
10
-173.4841111885
20
-96.9321494504
30
0.0000000000
11
-171.3408076636
21
-91.3138643180
31
0.0000000000
11
-172.1872643329
21
-91.9198896812
31
0.0000000000
11
-172.9316258355
21
-92.8184134986
31
0.0000000000
11
-173.4841111885
21
-93.9010605371
31
0.0000000000
11
-173.7780825047
21
-95.0372475857
31
0.0000000000
11
-173.7780825047
21
-96.0899337180
31
0.0000000000
11
-173.4841111885
21
-96.9321494504
31
0.0000000000
0
SPLINE
5
3A4
100
AcDbEntity
8
0
100
AcDbSpline
62
7
6
CONTINUOUS
70
0
71
3
72
9
73
5
74
3
42
0.0000001000
43
0.0000001000
44
0.0000000001
12
0.4256070256
22
-0.6803909048
32
0.0000000000
13
0.7142348237
23
-0.3557417039
33
0.0000000000
40
0.0000000000
40
0.0000000000
40
0.0000000000
40
0.0000000000
40
0.9646156685
40
1.0000000000
40
1.0000000000
40
1.0000000000
40
1.0000000000
10
-173.4841111885
20
-96.9321494504
30
0.0000000000
10
-173.3472621200
20
-97.1509213595
30
0.0000000000
10
-173.1516162684
20
-97.3496868811
30
0.0000000000
10
-172.9149270439
20
-97.4709927751
30
0.0000000000
10
-172.9065028033
20
-97.4751886693
30
0.0000000000
11
-173.4841111885
21
-96.9321494504
31
0.0000000000
11
-172.9316258355
21
-97.4623111358
31
0.0000000000
11
-172.9065028033
21
-97.4751886693
31
0.0000000000
0
SPLINE
5
3A5
100
AcDbEntity
8
0
100
AcDbSpline
62
7
6
CONTINUOUS
70
0
71
3
72
12
73
8
74
6
42
0.0000001000
43
0.0000001000
44
0.0000000001
12
5.2587971860
22
2.6293985930
32
0.0000000000
13
0.0000000000
23
5.8795139939
33
0.0000000000
40
0.0000000000
40
0.0000000000
40
0.0000000000
40
0.0000000000
40
0.1803211931
40
0.3827765935
40
0.5944968842
40
0.8055922800
40
1.0000000000
40
1.0000000000
40
1.0000000000
40
1.0000000000
10
162.8732124642
20
67.4576512345
30
0.0000000000
10
163.1893033252
20
67.6156966650
30
0.0000000000
10
163.8069852645
20
68.0598763327
30
0.0000000000
10
164.5788598578
20
68.9424922838
30
0.0000000000
10
165.1956287623
20
70.0103188228
30
0.0000000000
10
165.5963277267
20
71.1589459436
30
0.0000000000
10
165.7016395890
20
71.9549587751
30
0.0000000000
10
165.7016395890
20
72.3359664120
30
0.0000000000
11
162.8732124642
21
67.4576512345
31
0.0000000000
11
163.7444819174
21
68.0617337245
31
0.0000000000
11
164.5359576861
21
68.9508197152
31
0.0000000000
11
165.1604956832
21
70.0276252832
31
0.0000000000
11
165.5643598086
21
71.2012172609
31
0.0000000000
11
165.7016395890
21
72.3359664120
31
0.0000000000
0
SPLINE
5
3A6
100
AcDbEntity
8
0
100
AcDbSpline
62
7
6
CONTINUOUS
70
0
71
3
72
10
73
6
74
4
42
0.0000001000
43
0.0000001000
44
0.0000000001
12
0.0000000000
22
2.5110301016
32
0.0000000000
13
-2.2577652063
23
1.1423384935
33
0.0000000000
40
0.0000000000
40
0.0000000000
40
0.0000000000
40
0.0000000000
40
0.4013269037
40
0.7466760341
40
1.0000000000
40
1.0000000000
40
1.0000000000
40
1.0000000000
10
165.7016395890
20
103.5128809482
30
0.0000000000
10
165.7016395890
20
103.8487955935
30
0.0000000000
10
165.6291506654
20
104.4788339084
30
0.0000000000
10
165.2557045344
20
105.2536783347
30
0.0000000000
10
164.8516668205
20
105.5797990802
30
0.0000000000
10
164.6610181419
20
105.6762596527
30
0.0000000000
11
165.7016395890
21
103.5128809482
31
0.0000000000
11
165.5641025660
21
104.5111952311
31
0.0000000000
11
165.1612855240
21
105.2791425987
31
0.0000000000
11
164.6610181419
21
105.6762596527
31
0.0000000000
0
SPLINE
5
3A7
100
AcDbEntity
8
0
100
AcDbSpline
62
7
6
CONTINUOUS
70
0
71
3
72
10
73
6
74
4
42
0.0000001000
43
0.0000001000
44
0.0000000001
12
-0.0002259045
22
1.7060462911
32
0.0000000000
13
-1.4990936710
23
0.7495468355
33
0.0000000000
40
0.0000000000
40
0.0000000000
40
0.0000000000
40
0.0000000000
40
0.1632027510
40
0.5346064519
40
1.0000000000
40
1.0000000000
40
1.0000000000
40
1.0000000000
10
155.4097812613
20
60.0947070195
30
0.0000000000
10
155.4097689719
20
60.1875175022
30
0.0000000000
10
155.3663434998
20
60.4915423113
30
0.0000000000
10
155.0194074867
20
60.9616875560
30
0.0000000000
10
154.6204872641
20
61.2157900506
30
0.0000000000
10
154.3879310900
20
61.3320681377
30
0.0000000000
11
155.4097812613
21
60.0947070195
31
0.0000000000
11
155.3700173759
21
60.3682310786
31
0.0000000000
11
155.0306214431
21
60.8900547681
31
0.0000000000
11
154.3879310900
21
61.3320681377
31
0.0000000000
0
SPLINE
5
3A8
100
AcDbEntity
8
0
100
AcDbSpline
62
7
6
CONTINUOUS
70
0
71
3
72
9
73
5
74
3
42
0.0000001000
43
0.0000001000
44
0.0000000001
12
0.0000714622
22
-0.5396873320
32
0.0000000000
13
-0.2779971129
23
-0.4567506327
33
0.0000000000
40
0.0000000000
40
0.0000000000
40
0.0000000000
40
0.0000000000
40
0.5145181118
40
1.0000000000
40
1.0000000000
40
1.0000000000
40
1.0000000000
10
155.4097812613
20
95.6017485746
30
0.0000000000
10
155.4097935175
20
95.5091889390
30
0.0000000000
10
155.3842147672
20
95.3292953397
30
0.0000000000
10
155.3088516170
20
95.1678061509
30
0.0000000000
10
155.2638640959
20
95.0938914311
30
0.0000000000
11
155.4097812613
21
95.6017485746
31
0.0000000000
11
155.3702926881
21
95.3289440881
31
0.0000000000
11
155.2638640959
21
95.0938914311
31
0.0000000000
0
SPLINE
5
3A9
100
AcDbEntity
8
0
100
AcDbSpline
62
7
6
CONTINUOUS
70
0
71
3
72
9
73
5
74
3
42
0.0000001000
43
0.0000001000
44
0.0000000001
12
-0.4523444635
22
-0.7432041927
32
0.0000000000
13
-0.7358175997
23
-0.4540417666
33
0.0000000000
40
0.0000000000
40
0.0000000000
40
0.0000000000
40
0.0000000000
40
0.4249850897
40
1.0000000000
40
1.0000000000
40
1.0000000000
40
1.0000000000
10
155.2638640959
20
95.0938914311
30
0.0000000000
10
155.1997842117
20
94.9886078642
30
0.0000000000
10
155.0089004625
20
94.7622863827
30
0.0000000000
10
154.7769976519
20
94.5887120526
30
0.0000000000
10
154.6359622882
20
94.5016851241
30
0.0000000000
11
155.2638640959
21
95.0938914311
31
0.0000000000
11
155.0301301690
21
94.8057681397
31
0.0000000000
11
154.6359622882
21
94.5016851241
31
0.0000000000
0
SPLINE
5
3AA
100
AcDbEntity
8
0
100
AcDbSpline
62
7
6
CONTINUOUS
70
0
71
3
72
8
73
4
74
2
42
0.0000001000
43
0.0000001000
44
0.0000000001
12
-0.2416047653
22
-0.1490840318
32
0.0000000000
13
-0.2533637636
23
-0.1266818818
33
0.0000000000
40
0.0000000000
40
0.0000000000
40
0.0000000000
40
0.0000000000
40
1.0000000000
40
1.0000000000
40
1.0000000000
40
1.0000000000
10
154.6359622882
20
94.5016851241
30
0.0000000000
10
154.5554273665
20
94.4519904468
30
0.0000000000
10
154.4723856779
20
94.4064632526
30
0.0000000000
10
154.3879310900
20
94.3642359587
30
0.0000000000
11
154.6359622882
21
94.5016851241
31
0.0000000000
11
154.3879310900
21
94.3642359587
31
0.0000000000
0
SPLINE
5
3AB
100
AcDbEntity
8
0
100
AcDbSpline
62
7
6
CONTINUOUS
70
0
71
3
72
10
73
6
74
4
42
0.0000001000
43
0.0000001000
44
0.0000000001
12
1.6588837921
22
-0.8393285566
32
0.0000000000
13
1.6501905677
23
0.8250952838
33
0.0000000000
40
0.0000000000
40
0.0000000000
40
0.0000000000
40
0.0000000000
40
0.0732017201
40
0.5064777815
40
1.0000000000
40
1.0000000000
40
1.0000000000
40
1.0000000000
10
-176.2045278394
20
-101.3008067303
30
0.0000000000
10
-176.1640501237
20
-101.3212868283
30
0.0000000000
10
-175.8778485090
20
-101.4500328565
30
0.0000000000
10
-175.2403262744
20
-101.5120027836
30
0.0000000000
10
-174.6881907317
20
-101.3230503635
30
0.0000000000
10
-174.4167221618
20
-101.1873160785
30
0.0000000000
11
-176.2045278394
21
-101.3008067303
31
0.0000000000
11
-176.0805537266
21
-101.3564686377
31
0.0000000000
11
-175.2871967282
21
-101.4544206548
31
0.0000000000
11
-174.4167221618
21
-101.1873160785
31
0.0000000000
0
SPLINE
5
3AC
100
AcDbEntity
8
0
100
AcDbSpline
62
7
6
CONTINUOUS
70
0
71
3
72
10
73
6
74
4
42
0.0000001000
43
0.0000001000
44
0.0000000001
12
0.0000000000
22
1.2046219318
32
0.0000000000
13
0.6323775605
23
1.0252866036
33
0.0000000000
40
0.0000000000
40
0.0000000000
40
0.0000000000
40
0.0000000000
40
0.3621297741
40
0.6951587940
40
1.0000000000
40
1.0000000000
40
1.0000000000
40
1.0000000000
10
11.4816506122
20
-53.2682565734
30
0.0000000000
10
11.4816506122
20
-53.1228467507
30
0.0000000000
10
11.5006995113
20
-52.8430645747
30
0.0000000000
10
11.5937346590
20
-52.4504884162
30
0.0000000000
10
11.7015954026
20
-52.2155031875
30
0.0000000000
10
11.7658536487
20
-52.1113199859
30
0.0000000000
11
11.4816506122
21
-53.2682565734
31
0.0000000000
11
11.5138782348
21
-52.8332191851
31
0.0000000000
11
11.6095818826
21
-52.4436278104
31
0.0000000000
11
11.7658536487
21
-52.1113199859
31
0.0000000000
0
SPLINE
5
3AD
100
AcDbEntity
8
0
100
AcDbSpline
62
7
6
CONTINUOUS
70
0
71
3
72
10
73
6
74
4
42
0.0000001000
43
0.0000001000
44
0.0000000001
12
0.0000000000
22
1.2046219318
32
0.0000000000
13
0.6323775605
23
1.0252866036
33
0.0000000000
40
0.0000000000
40
0.0000000000
40
0.0000000000
40
0.0000000000
40
0.3621297741
40
0.6951587940
40
1.0000000000
40
1.0000000000
40
1.0000000000
40
1.0000000000
10
85.5157306024
20
-16.2512165783
30
0.0000000000
10
85.5157306024
20
-16.1058067556
30
0.0000000000
10
85.5347795015
20
-15.8260245796
30
0.0000000000
10
85.6278146492
20
-15.4334484211
30
0.0000000000
10
85.7356753928
20
-15.1984631924
30
0.0000000000
10
85.7999336389
20
-15.0942799908
30
0.0000000000
11
85.5157306024
21
-16.2512165783
31
0.0000000000
11
85.5479582250
21
-15.8161791900
31
0.0000000000
11
85.6436618728
21
-15.4265878153
31
0.0000000000
11
85.7999336389
21
-15.0942799908
31
0.0000000000
0
SPLINE
5
3AE
100
AcDbEntity
8
0
100
AcDbSpline
62
7
6
CONTINUOUS
70
0
71
3
72
9
73
5
74
3
42
0.0000001000
43
0.0000001000
44
0.0000000001
12
-0.2121941054
22
0.1116857155
32
0.0000000000
13
-0.0360260216
23
0.2368256159
33
0.0000000000
40
0.0000000000
40
0.0000000000
40
0.0000000000
40
0.0000000000
40
0.4708068918
40
1.0000000000
40
1.0000000000
40
1.0000000000
40
1.0000000000
10
-163.6789768166
20
-59.3473937297
30
0.0000000000
10
-163.7122776324
20
-59.3298662615
30
0.0000000000
10
-163.7741916194
20
-59.2726245966
30
0.0000000000
10
-163.7984496487
20
-59.1956966868
30
0.0000000000
10
-163.8048045561
20
-59.1539211922
30
0.0000000000
11
-163.6789768166
21
-59.3473937297
31
0.0000000000
11
-163.7622299091
21
-59.2716030849
31
0.0000000000
11
-163.8048045561
21
-59.1539211922
31
0.0000000000
0
SPLINE
5
3AF
100
AcDbEntity
8
0
100
AcDbSpline
62
7
6
CONTINUOUS
70
0
71
3
72
8
73
4
74
2
42
0.0000001000
43
0.0000001000
44
0.0000000001
12
-0.0115307272
22
0.0757999757
32
0.0000000000
13
0.0000000000
23
0.0751873440
33
0.0000000000
40
0.0000000000
40
0.0000000000
40
0.0000000000
40
0.0000000000
40
1.0000000000
40
1.0000000000
40
1.0000000000
40
1.0000000000
10
-163.8048045561
20
-59.1539211922
30
0.0000000000
10
-163.8086481319
20
-59.1286545337
30
0.0000000000
10
-163.8101204440
20
-59.1029980068
30
0.0000000000
10
-163.8101204440
20
-59.0779355588
30
0.0000000000
11
-163.8048045561
21
-59.1539211922
31
0.0000000000
11
-163.8101204440
21
-59.0779355588
31
0.0000000000
0
SPLINE
5
3B0
100
AcDbEntity
8
0
100
AcDbSpline
62
7
6
CONTINUOUS
70
0
71
3
72
10
73
6
74
4
42
0.0000001000
43
0.0000001000
44
0.0000000001
12
0.0000000000
22
1.2046219318
32
0.0000000000
13
0.6323775605
23
1.0252866036
33
0.0000000000
40
0.0000000000
40
0.0000000000
40
0.0000000000
40
0.0000000000
40
0.3621297741
40
0.6951587940
40
1.0000000000
40
1.0000000000
40
1.0000000000
40
1.0000000000
10
159.5498105926
20
20.7658234169
30
0.0000000000
10
159.5498105926
20
20.9112332395
30
0.0000000000
10
159.5688594918
20
21.1910154155
30
0.0000000000
10
159.6618946394
20
21.5835915740
30
0.0000000000
10
159.7697553831
20
21.8185768027
30
0.0000000000
10
159.8340136291
20
21.9227600043
30
0.0000000000
11
159.5498105926
21
20.7658234169
31
0.0000000000
11
159.5820382152
21
21.2008608051
31
0.0000000000
11
159.6777418630
21
21.5904521798
31
0.0000000000
11
159.8340136291
21
21.9227600043
31
0.0000000000
0
SPLINE
5
3B1
100
AcDbEntity
8
0
100
AcDbSpline
62
7
6
CONTINUOUS
70
0
71
3
72
10
73
6
74
4
42
0.0000001000
43
0.0000001000
44
0.0000000001
12
0.0000000000
22
1.2046219318
32
0.0000000000
13
0.6323775605
23
1.0252866036
33
0.0000000000
40
0.0000000000
40
0.0000000000
40
0.0000000000
40
0.0000000000
40
0.3621297741
40
0.6951587940
40
1.0000000000
40
1.0000000000
40
1.0000000000
40
1.0000000000
10
-62.5524293781
20
-90.2852965685
30
0.0000000000
10
-62.5524293781
20
-90.1398867458
30
0.0000000000
10
-62.5333804789
20
-89.8601045698
30
0.0000000000
10
-62.4403453313
20
-89.4675284113
30
0.0000000000
10
-62.3324845876
20
-89.2325431826
30
0.0000000000
10
-62.2682263416
20
-89.1283599811
30
0.0000000000
11
-62.5524293781
21
-90.2852965685
31
0.0000000000
11
-62.5202017555
21
-89.8502591803
31
0.0000000000
11
-62.4244981077
21
-89.4606678055
31
0.0000000000
11
-62.2682263416
21
-89.1283599811
31
0.0000000000
0
SPLINE
5
3B2
100
AcDbEntity
8
0
100
AcDbSpline
62
7
6
CONTINUOUS
70
0
71
3
72
9
73
5
74
3
42
0.0000001000
43
0.0000001000
44
0.0000000001
12
-1.1649256651
22
0.5802190361
32
0.0000000000
13
-1.2289497306
23
-0.4381489317
33
0.0000000000
40
0.0000000000
40
0.0000000000
40
0.0000000000
40
0.0000000000
40
0.5654386389
40
1.0000000000
40
1.0000000000
40
1.0000000000
40
1.0000000000
10
-167.4416601460
20
-90.0479916043
30
0.0000000000
10
-167.6612248068
20
-89.9386321837
30
0.0000000000
10
-168.1085815741
20
-89.8610788564
30
0.0000000000
10
-168.5364469836
20
-89.9579837609
30
0.0000000000
10
-168.7144650062
20
-90.0214512929
30
0.0000000000
11
-167.4416601460
21
-90.0479916043
31
0.0000000000
11
-168.1608986164
21
-89.9067068230
31
0.0000000000
11
-168.7144650062
21
-90.0214512929
31
0.0000000000
0
SPLINE
5
3B3
100
AcDbEntity
8
0
100
AcDbSpline
62
7
6
CONTINUOUS
70
0
71
3
72
8
73
4
74
2
42
0.0000001000
43
0.0000001000
44
0.0000000001
12
-0.3012038049
22
-0.1073861054
32
0.0000000000
13
-0.2838170012
23
-0.1419085006
33
0.0000000000
40
0.0000000000
40
0.0000000000
40
0.0000000000
40
0.0000000000
40
1.0000000000
40
1.0000000000
40
1.0000000000
40
1.0000000000
10
-168.7144650062
20
-90.0214512929
30
0.0000000000
10
-168.8148662745
20
-90.0572466614
30
0.0000000000
10
-168.9127496186
20
-90.0998352955
30
0.0000000000
10
-169.0073552857
20
-90.1471381291
30
0.0000000000
11
-168.7144650062
21
-90.0214512929
31
0.0000000000
11
-169.0073552857
21
-90.1471381291
31
0.0000000000
0
SPLINE
5
3B4
100
AcDbEntity
8
0
100
AcDbSpline
62
7
6
CONTINUOUS
70
0
71
3
72
12
73
8
74
6
42
0.0000001000
43
0.0000001000
44
0.0000000001
12
-4.5529452036
22
-2.2764726018
32
0.0000000000
13
-4.5529452036
23
2.2764726018
33
0.0000000000
40
0.0000000000
40
0.0000000000
40
0.0000000000
40
0.0000000000
40
0.1845908600
40
0.3928447897
40
0.6074975424
40
0.8152149711
40
1.0000000000
40
1.0000000000
40
1.0000000000
40
1.0000000000
10
-154.6177322885
20
-60.1385957306
30
0.0000000000
10
-154.8978763121
20
-60.2786677424
30
0.0000000000
10
-155.5334485358
20
-60.4987399287
30
0.0000000000
10
-156.5557470531
20
-60.6584381184
30
0.0000000000
10
-157.6303037208
20
-60.6583097539
30
0.0000000000
10
-158.6519825528
20
-60.4986204096
30
0.0000000000
10
-159.2870410532
20
-60.2788150824
30
0.0000000000
10
-159.5674797568
20
-60.1385957306
30
0.0000000000
11
-154.6177322885
21
-60.1385957306
31
0.0000000000
11
-155.5007966506
21
-60.4596952701
31
0.0000000000
11
-156.5471485473
21
-60.6297765296
31
0.0000000000
11
-157.6398056387
21
-60.6296388735
31
0.0000000000
11
-158.6834530177
21
-60.4599409072
31
0.0000000000
11
-159.5674797568
21
-60.1385957306
31
0.0000000000
0
SPLINE
5
3B5
100
AcDbEntity
8
0
100
AcDbSpline
62
7
6
CONTINUOUS
70
0
71
3
72
9
73
5
74
3
42
0.0000001000
43
0.0000001000
44
0.0000000001
12
-1.1649256651
22
0.5802190361
32
0.0000000000
13
-1.2289497306
23
-0.4381489317
33
0.0000000000
40
0.0000000000
40
0.0000000000
40
0.0000000000
40
0.0000000000
40
0.5654386389
40
1.0000000000
40
1.0000000000
40
1.0000000000
40
1.0000000000
10
-167.4416601460
20
-62.5516850342
30
0.0000000000
10
-167.6612248068
20
-62.4423256135
30
0.0000000000
10
-168.1085815741
20
-62.3647722863
30
0.0000000000
10
-168.5364469836
20
-62.4616771907
30
0.0000000000
10
-168.7144650062
20
-62.5251447228
30
0.0000000000
11
-167.4416601460
21
-62.5516850342
31
0.0000000000
11
-168.1608986164
21
-62.4104002528
31
0.0000000000
11
-168.7144650062
21
-62.5251447228
31
0.0000000000
0
SPLINE
5
3B6
100
AcDbEntity
8
0
100
AcDbSpline
62
7
6
CONTINUOUS
70
0
71
3
72
8
73
4
74
2
42
0.0000001000
43
0.0000001000
44
0.0000000001
12
-0.3012038049
22
-0.1073861054
32
0.0000000000
13
-0.2838170012
23
-0.1419085006
33
0.0000000000
40
0.0000000000
40
0.0000000000
40
0.0000000000
40
0.0000000000
40
1.0000000000
40
1.0000000000
40
1.0000000000
40
1.0000000000
10
-168.7144650062
20
-62.5251447228
30
0.0000000000
10
-168.8148662745
20
-62.5609400913
30
0.0000000000
10
-168.9127496186
20
-62.6035287254
30
0.0000000000
10
-169.0073552857
20
-62.6508315589
30
0.0000000000
11
-168.7144650062
21
-62.5251447228
31
0.0000000000
11
-169.0073552857
21
-62.6508315589
31
0.0000000000
0
SPLINE
5
3B7
100
AcDbEntity
8
0
100
AcDbSpline
62
7
6
CONTINUOUS
70
0
71
3
72
9
73
5
74
3
42
0.0000001000
43
0.0000001000
44
0.0000000001
12
-1.1649256651
22
0.5802190361
32
0.0000000000
13
-1.2289497306
23
-0.4381489317
33
0.0000000000
40
0.0000000000
40
0.0000000000
40
0.0000000000
40
0.0000000000
40
0.5654386389
40
1.0000000000
40
1.0000000000
40
1.0000000000
40
1.0000000000
10
161.3629931057
20
74.3543350215
30
0.0000000000
10
161.1434284449
20
74.4636944422
30
0.0000000000
10
160.6960716777
20
74.5412477694
30
0.0000000000
10
160.2682062681
20
74.4443428650
30
0.0000000000
10
160.0901882456
20
74.3808753329
30
0.0000000000
11
161.3629931057
21
74.3543350215
31
0.0000000000
11
160.6437546353
21
74.4956198029
31
0.0000000000
11
160.0901882456
21
74.3808753329
31
0.0000000000
0
SPLINE
5
3B8
100
AcDbEntity
8
0
100
AcDbSpline
62
7
6
CONTINUOUS
70
0
71
3
72
8
73
4
74
2
42
0.0000001000
43
0.0000001000
44
0.0000000001
12
-0.3012038049
22
-0.1073861054
32
0.0000000000
13
-0.2838170012
23
-0.1419085006
33
0.0000000000
40
0.0000000000
40
0.0000000000
40
0.0000000000
40
0.0000000000
40
1.0000000000
40
1.0000000000
40
1.0000000000
40
1.0000000000
10
160.0901882456
20
74.3808753329
30
0.0000000000
10
159.9897869773
20
74.3450799645
30
0.0000000000
10
159.8919036331
20
74.3024913303
30
0.0000000000
10
159.7972979661
20
74.2551884968
30
0.0000000000
11
160.0901882456
21
74.3808753329
31
0.0000000000
11
159.7972979661
21
74.2551884968
31
0.0000000000
0
SPLINE
5
3B9
100
AcDbEntity
8
0
100
AcDbSpline
62
7
6
CONTINUOUS
70
0
71
3
72
9
73
5
74
3
42
0.0000001000
43
0.0000001000
44
0.0000000001
12
-1.1649256651
22
0.5802190361
32
0.0000000000
13
-1.2289497306
23
-0.4381489317
33
0.0000000000
40
0.0000000000
40
0.0000000000
40
0.0000000000
40
0.0000000000
40
0.5654386389
40
1.0000000000
40
1.0000000000
40
1.0000000000
40
1.0000000000
10
161.3629931057
20
101.8506415917
30
0.0000000000
10
161.1434284449
20
101.9600010124
30
0.0000000000
10
160.6960716777
20
102.0375543396
30
0.0000000000
10
160.2682062681
20
101.9406494351
30
0.0000000000
10
160.0901882456
20
101.8771819031
30
0.0000000000
11
161.3629931057
21
101.8506415917
31
0.0000000000
11
160.6437546353
21
101.9919263731
31
0.0000000000
11
160.0901882456
21
101.8771819031
31
0.0000000000
0
SPLINE
5
3BA
100
AcDbEntity
8
0
100
AcDbSpline
62
7
6
CONTINUOUS
70
0
71
3
72
8
73
4
74
2
42
0.0000001000
43
0.0000001000
44
0.0000000001
12
-0.3012038049
22
-0.1073861054
32
0.0000000000
13
-0.2838170012
23
-0.1419085006
33
0.0000000000
40
0.0000000000
40
0.0000000000
40
0.0000000000
40
0.0000000000
40
1.0000000000
40
1.0000000000
40
1.0000000000
40
1.0000000000
10
160.0901882456
20
101.8771819031
30
0.0000000000
10
159.9897869773
20
101.8413865346
30
0.0000000000
10
159.8919036331
20
101.7987979005
30
0.0000000000
10
159.7972979661
20
101.7514950670
30
0.0000000000
11
160.0901882456
21
101.8771819031
31
0.0000000000
11
159.7972979661
21
101.7514950670
31
0.0000000000
0
SPLINE
5
3BB
100
AcDbEntity
8
0
100
AcDbSpline
62
7
6
CONTINUOUS
70
0
71
3
72
10
73
6
74
4
42
0.0000001000
43
0.0000001000
44
0.0000000001
12
0.3854197556
22
-0.1927098778
32
0.0000000000
13
0.2161396030
23
-0.3727856717
33
0.0000000000
40
0.0000000000
40
0.0000000000
40
0.0000000000
40
0.0000000000
40
0.3054977709
40
0.6425457537
40
1.0000000000
40
1.0000000000
40
1.0000000000
40
1.0000000000
10
6.5319031439
20
-30.1219128692
30
0.0000000000
10
6.5711514359
20
-30.1415370152
30
0.0000000000
10
6.6482747153
20
-30.1939617801
30
0.0000000000
10
6.7491831051
20
-30.2971312752
30
0.0000000000
10
6.8061498042
20
-30.3796867096
30
0.0000000000
10
6.8319031439
20
-30.4241046501
30
0.0000000000
11
6.5319031439
21
-30.1219128692
31
0.0000000000
11
6.6417107650
21
-30.1945221398
31
0.0000000000
11
6.7440351782
21
-30.2975941287
31
0.0000000000
11
6.8319031439
21
-30.4241046501
31
0.0000000000
0
SPLINE
5
3BC
100
AcDbEntity
8
0
100
AcDbSpline
62
7
6
CONTINUOUS
70
0
71
3
72
10
73
6
74
4
42
0.0000001000
43
0.0000001000
44
0.0000000001
12
0.3854197556
22
-0.1927098778
32
0.0000000000
13
0.2161396030
23
-0.3727856717
33
0.0000000000
40
0.0000000000
40
0.0000000000
40
0.0000000000
40
0.0000000000
40
0.3054977709
40
0.6425457537
40
1.0000000000
40
1.0000000000
40
1.0000000000
40
1.0000000000
10
80.5659831341
20
6.8951271259
30
0.0000000000
10
80.6052314262
20
6.8755029799
30
0.0000000000
10
80.6823547055
20
6.8230782150
30
0.0000000000
10
80.7832630954
20
6.7199087199
30
0.0000000000
10
80.8402297945
20
6.6373532855
30
0.0000000000
10
80.8659831341
20
6.5929353450
30
0.0000000000
11
80.5659831341
21
6.8951271259
31
0.0000000000
11
80.6757907552
21
6.8225178553
31
0.0000000000
11
80.7781151685
21
6.7194458665
31
0.0000000000
11
80.8659831341
21
6.5929353450
31
0.0000000000
0
SPLINE
5
3BD
100
AcDbEntity
8
0
100
AcDbSpline
62
7
6
CONTINUOUS
70
0
71
3
72
10
73
6
74
4
42
0.0000001000
43
0.0000001000
44
0.0000000001
12
0.3854197556
22
-0.1927098778
32
0.0000000000
13
0.2161396030
23
-0.3727856717
33
0.0000000000
40
0.0000000000
40
0.0000000000
40
0.0000000000
40
0.0000000000
40
0.3054977709
40
0.6425457537
40
1.0000000000
40
1.0000000000
40
1.0000000000
40
1.0000000000
10
154.6000631243
20
43.9121671210
30
0.0000000000
10
154.6393114164
20
43.8925429750
30
0.0000000000
10
154.7164346957
20
43.8401182101
30
0.0000000000
10
154.8173430856
20
43.7369487150
30
0.0000000000
10
154.8743097847
20
43.6543932806
30
0.0000000000
10
154.9000631243
20
43.6099753402
30
0.0000000000
11
154.6000631243
21
43.9121671210
31
0.0000000000
11
154.7098707455
21
43.8395578504
31
0.0000000000
11
154.8121951587
21
43.7364858616
31
0.0000000000
11
154.9000631243
21
43.6099753402
31
0.0000000000
0
SPLINE
5
3BE
100
AcDbEntity
8
0
100
AcDbSpline
62
7
6
CONTINUOUS
70
0
71
3
72
10
73
6
74
4
42
0.0000001000
43
0.0000001000
44
0.0000000001
12
0.3854197556
22
-0.1927098778
32
0.0000000000
13
0.2161396030
23
-0.3727856717
33
0.0000000000
40
0.0000000000
40
0.0000000000
40
0.0000000000
40
0.0000000000
40
0.3054977709
40
0.6425457537
40
1.0000000000
40
1.0000000000
40
1.0000000000
40
1.0000000000
10
-67.5021768464
20
-67.1389528643
30
0.0000000000
10
-67.4629285543
20
-67.1585770104
30
0.0000000000
10
-67.3858052750
20
-67.2110017753
30
0.0000000000
10
-67.2848968851
20
-67.3141712704
30
0.0000000000
10
-67.2279301860
20
-67.3967267047
30
0.0000000000
10
-67.2021768464
20
-67.4411446452
30
0.0000000000
11
-67.5021768464
21
-67.1389528643
31
0.0000000000
11
-67.3923692252
21
-67.2115621349
31
0.0000000000
11
-67.2900448120
21
-67.3146341238
31
0.0000000000
11
-67.2021768464
21
-67.4411446452
31
0.0000000000
0
SPLINE
5
3BF
100
AcDbEntity
8
0
100
AcDbSpline
62
7
6
CONTINUOUS
70
0
71
3
72
10
73
6
74
4
42
0.0000001000
43
0.0000001000
44
0.0000000001
12
0.8528669109
22
0.4161707872
32
0.0000000000
13
0.0000000000
23
0.9380317758
33
0.0000000000
40
0.0000000000
40
0.0000000000
40
0.0000000000
40
0.0000000000
40
0.0970802368
40
0.5055259762
40
1.0000000000
40
1.0000000000
40
1.0000000000
40
1.0000000000
10
-62.9419359426
20
-104.6318514224
30
0.0000000000
10
-62.9143371021
20
-104.6183841029
30
0.0000000000
10
-62.7767306488
20
-104.5371199966
30
0.0000000000
10
-62.5905528778
20
-104.2629816027
30
0.0000000000
10
-62.5524293781
20
-103.9764408302
30
0.0000000000
10
-62.5524293781
20
-103.8218300480
30
0.0000000000
11
-62.9419359426
21
-104.6318514224
31
0.0000000000
11
-62.8630895498
21
-104.5850586156
31
0.0000000000
11
-62.6331673262
21
-104.2785814350
31
0.0000000000
11
-62.5524293781
21
-103.8218300480
31
0.0000000000
0
SPLINE
5
3C0
100
AcDbEntity
8
0
100
AcDbSpline
62
7
6
CONTINUOUS
70
0
71
3
72
10
73
6
74
4
42
0.0000001000
43
0.0000001000
44
0.0000000001
12
0.8528669109
22
0.4161707872
32
0.0000000000
13
-0.0000000000
23
0.9380317758
33
0.0000000000
40
0.0000000000
40
0.0000000000
40
0.0000000000
40
0.0000000000
40
0.0970802368
40
0.5055259762
40
1.0000000000
40
1.0000000000
40
1.0000000000
40
1.0000000000
10
11.0921440476
20
-67.6148114273
30
0.0000000000
10
11.1197428882
20
-67.6013441077
30
0.0000000000
10
11.2573493414
20
-67.5200800015
30
0.0000000000
10
11.4435271124
20
-67.2459416075
30
0.0000000000
10
11.4816506122
20
-66.9594008351
30
0.0000000000
10
11.4816506122
20
-66.8047900529
30
0.0000000000
11
11.0921440476
21
-67.6148114273
31
0.0000000000
11
11.1709904404
21
-67.5680186205
31
0.0000000000
11
11.4009126641
21
-67.2615414398
31
0.0000000000
11
11.4816506122
21
-66.8047900529
31
0.0000000000
0
SPLINE
5
3C1
100
AcDbEntity
8
0
100
AcDbSpline
62
7
6
CONTINUOUS
70
0
71
3
72
10
73
6
74
4
42
0.0000001000
43
0.0000001000
44
0.0000000001
12
0.8528669109
22
0.4161707872
32
0.0000000000
13
0.0000000000
23
0.9380317758
33
0.0000000000
40
0.0000000000
40
0.0000000000
40
0.0000000000
40
0.0000000000
40
0.0970802368
40
0.5055259762
40
1.0000000000
40
1.0000000000
40
1.0000000000
40
1.0000000000
10
85.1262240378
20
-30.5977714321
30
0.0000000000
10
85.1538228784
20
-30.5843041126
30
0.0000000000
10
85.2914293317
20
-30.5030400064
30
0.0000000000
10
85.4776071026
20
-30.2289016124
30
0.0000000000
10
85.5157306024
20
-29.9423608399
30
0.0000000000
10
85.5157306024
20
-29.7877500577
30
0.0000000000
11
85.1262240378
21
-30.5977714321
31
0.0000000000
11
85.2050704306
21
-30.5509786254
31
0.0000000000
11
85.4349926543
21
-30.2445014447
31
0.0000000000
11
85.5157306024
21
-29.7877500577
31
0.0000000000
0
SPLINE
5
3C2
100
AcDbEntity
8
0
100
AcDbSpline
62
7
6
CONTINUOUS
70
0
71
3
72
10
73
6
74
4
42
0.0000001000
43
0.0000001000
44
0.0000000001
12
0.8528669109
22
0.4161707872
32
0.0000000000
13
0.0000000000
23
0.9380317758
33
0.0000000000
40
0.0000000000
40
0.0000000000
40
0.0000000000
40
0.0000000000
40
0.0970802368
40
0.5055259762
40
1.0000000000
40
1.0000000000
40
1.0000000000
40
1.0000000000
10
159.1603040281
20
6.4192685630
30
0.0000000000
10
159.1879028686
20
6.4327358825
30
0.0000000000
10
159.3255093219
20
6.5139999887
30
0.0000000000
10
159.5116870929
20
6.7881383827
30
0.0000000000
10
159.5498105926
20
7.0746791552
30
0.0000000000
10
159.5498105926
20
7.2292899374
30
0.0000000000
11
159.1603040281
21
6.4192685630
31
0.0000000000
11
159.2391504209
21
6.4660613697
31
0.0000000000
11
159.4690726445
21
6.7725385504
31
0.0000000000
11
159.5498105926
21
7.2292899374
31
0.0000000000
0
SPLINE
5
3C3
100
AcDbEntity
8
0
100
AcDbSpline
62
7
6
CONTINUOUS
70
0
71
3
72
10
73
6
74
4
42
0.0000001000
43
0.0000001000
44
0.0000000001
12
0.0000000000
22
0.7323403464
32
0.0000000000
13
0.6550251189
23
0.3275125595
33
0.0000000000
40
0.0000000000
40
0.0000000000
40
0.0000000000
40
0.0000000000
40
0.3336135105
40
0.6846804276
40
1.0000000000
40
1.0000000000
40
1.0000000000
40
1.0000000000
10
-163.8101204440
20
-94.5849771140
30
0.0000000000
10
-163.8101204440
20
-94.5035375694
30
0.0000000000
10
-163.7730635572
20
-94.3360264411
30
0.0000000000
10
-163.6508083640
20
-94.1218964949
30
0.0000000000
10
-163.5254144668
20
-94.0096114235
30
0.0000000000
10
-163.4565670534
20
-93.9751877168
30
0.0000000000
11
-163.8101204440
21
-94.5849771140
31
0.0000000000
11
-163.7629329654
21
-94.3452586610
31
0.0000000000
11
-163.6342471553
21
-94.1226814547
31
0.0000000000
11
-163.4565670534
21
-93.9751877168
31
0.0000000000
0
SPLINE
5
3C4
100
AcDbEntity
8
0
100
AcDbSpline
62
7
6
CONTINUOUS
70
0
71
3
72
8
73
4
74
2
42
0.0000001000
43
0.0000001000
44
0.0000000001
12
0.1160451783
22
0.0580225892
32
0.0000000000
13
0.1325848876
23
0.0033613955
33
0.0000000000
40
0.0000000000
40
0.0000000000
40
0.0000000000
40
0.0000000000
40
1.0000000000
40
1.0000000000
40
1.0000000000
40
1.0000000000
10
-163.1030138709
20
-93.7984109174
30
0.0000000000
10
-163.0643321448
20
-93.7790700544
30
0.0000000000
10
-163.0191686693
20
-93.7666914948
30
0.0000000000
10
-162.9749737068
20
-93.7655710297
30
0.0000000000
11
-163.1030138709
21
-93.7984109174
31
0.0000000000
11
-162.9749737068
21
-93.7655710297
31
0.0000000000
0
SPLINE
5
3C5
100
AcDbEntity
8
0
100
AcDbSpline
62
7
6
CONTINUOUS
70
0
71
3
72
8
73
4
74
2
42
0.0000001000
43
0.0000001000
44
0.0000000001
12
0.0631951602
22
0.0016021730
32
0.0000000000
13
0.0594547097
23
-0.0151393583
33
0.0000000000
40
0.0000000000
40
0.0000000000
40
0.0000000000
40
0.0000000000
40
1.0000000000
40
1.0000000000
40
1.0000000000
40
1.0000000000
10
-162.9749737068
20
-93.7655710297
30
0.0000000000
10
-162.9539086534
20
-93.7650369720
30
0.0000000000
10
-162.9330636316
20
-93.7670605842
30
0.0000000000
10
-162.9132453950
20
-93.7721070369
30
0.0000000000
11
-162.9749737068
21
-93.7655710297
31
0.0000000000
11
-162.9132453950
21
-93.7721070369
31
0.0000000000
0
SPLINE
5
3C6
100
AcDbEntity
8
0
100
AcDbSpline
62
7
6
CONTINUOUS
70
0
71
3
72
8
73
4
74
2
42
0.0000001000
43
0.0000001000
44
0.0000000001
12
0.0487535651
22
-0.0124144529
32
0.0000000000
13
0.0448200766
23
-0.0231516438
33
0.0000000000
40
0.0000000000
40
0.0000000000
40
0.0000000000
40
0.0000000000
40
1.0000000000
40
1.0000000000
40
1.0000000000
40
1.0000000000
10
-162.9132453950
20
-93.7721070369
30
0.0000000000
10
-162.8969942067
20
-93.7762451879
30
0.0000000000
10
-162.8814334486
20
-93.7824159556
30
0.0000000000
10
-162.8664934231
20
-93.7901331702
30
0.0000000000
11
-162.9132453950
21
-93.7721070369
31
0.0000000000
11
-162.8664934231
21
-93.7901331702
31
0.0000000000
0
SPLINE
5
3C7
100
AcDbEntity
8
0
100
AcDbSpline
62
7
6
CONTINUOUS
70
0
71
3
72
9
73
5
74
3
42
0.0000001000
43
0.0000001000
44
0.0000000001
12
-0.2143224208
22
0.1071612104
32
0.0000000000
13
-0.2127067951
23
-0.1070614177
33
0.0000000000
40
0.0000000000
40
0.0000000000
40
0.0000000000
40
0.0000000000
40
0.7975544468
40
1.0000000000
40
1.0000000000
40
1.0000000000
40
1.0000000000
10
-162.3959072045
20
-58.7243820068
30
0.0000000000
10
-162.4528851378
20
-58.6958930401
30
0.0000000000
10
-162.5419414209
20
-58.6790673104
30
0.0000000000
10
-162.6156531980
20
-58.7076548372
30
0.0000000000
10
-162.6300070463
20
-58.7148795398
30
0.0000000000
11
-162.3959072045
21
-58.7243820068
31
0.0000000000
11
-162.5851790727
21
-58.6979412279
31
0.0000000000
11
-162.6300070463
21
-58.7148795398
31
0.0000000000
0
SPLINE
5
3C8
100
AcDbEntity
8
0
100
AcDbSpline
62
7
6
CONTINUOUS
70
0
71
3
72
8
73
4
74
2
42
0.0000001000
43
0.0000001000
44
0.0000000001
12
0.1601662057
22
0.0800831029
32
0.0000000000
13
0.1755394488
23
-0.0401736465
33
0.0000000000
40
0.0000000000
40
0.0000000000
40
0.0000000000
40
0.0000000000
40
1.0000000000
40
1.0000000000
40
1.0000000000
40
1.0000000000
10
151.9130573558
20
63.7096244878
30
0.0000000000
10
151.9664460911
20
63.7363188554
30
0.0000000000
10
152.0310092960
20
63.7534556259
30
0.0000000000
10
152.0895224457
20
63.7400644104
30
0.0000000000
11
151.9130573558
21
63.7096244878
31
0.0000000000
11
152.0895224457
21
63.7400644104
31
0.0000000000
0
SPLINE
5
3C9
100
AcDbEntity
8
0
100
AcDbSpline
62
7
6
CONTINUOUS
70
0
71
3
72
8
73
4
74
2
42
0.0000001000
43
0.0000001000
44
0.0000000001
12
0.0476372511
22
-0.0109021767
32
0.0000000000
13
0.0438961892
23
-0.0231042106
33
0.0000000000
40
0.0000000000
40
0.0000000000
40
0.0000000000
40
0.0000000000
40
1.0000000000
40
1.0000000000
40
1.0000000000
40
1.0000000000
10
152.0895224457
20
63.7400644104
30
0.0000000000
10
152.1054015294
20
63.7364303515
30
0.0000000000
10
152.1208350560
20
63.7305480557
30
0.0000000000
10
152.1354671191
20
63.7228466522
30
0.0000000000
11
152.0895224457
21
63.7400644104
31
0.0000000000
11
152.1354671191
21
63.7228466522
31
0.0000000000
0
SPLINE
5
3CA
100
AcDbEntity
8
0
100
AcDbSpline
62
7
6
CONTINUOUS
70
0
71
3
72
11
73
7
74
5
42
0.0000001000
43
0.0000001000
44
0.0000000001
12
-0.8015662527
22
0.4007831263
32
0.0000000000
13
0.7270994396
23
0.5345931067
33
0.0000000000
40
0.0000000000
40
0.0000000000
40
0.0000000000
40
0.0000000000
40
0.2691427076
40
0.5447962715
40
0.8202952055
40
1.0000000000
40
1.0000000000
40
1.0000000000
40
1.0000000000
10
151.5595036425
20
62.7462818614
30
0.0000000000
10
151.4875917386
20
62.7822378133
30
0.0000000000
10
151.3597696052
20
62.8939592299
30
0.0000000000
10
151.2707302684
20
63.1397810630
30
0.0000000000
10
151.3502850876
20
63.3586934037
30
0.0000000000
10
151.4477223104
20
63.4590451172
30
0.0000000000
10
151.4912767288
20
63.4910680986
30
0.0000000000
11
151.5595036425
21
62.7462818614
31
0.0000000000
11
151.3780609607
21
62.9052029889
31
0.0000000000
11
151.3006849989
21
63.1398071799
31
0.0000000000
11
151.3782533143
21
63.3742018800
31
0.0000000000
11
151.4912767288
21
63.4910680986
31
0.0000000000
0
SPLINE
5
3CB
100
AcDbEntity
8
0
100
AcDbSpline
62
7
6
CONTINUOUS
70
0
71
3
72
8
73
4
74
2
42
0.0000001000
43
0.0000001000
44
0.0000000001
12
0.0647658739
22
0.0476185070
32
0.0000000000
13
0.0713989532
23
0.0356994766
33
0.0000000000
40
0.0000000000
40
0.0000000000
40
0.0000000000
40
0.0000000000
40
1.0000000000
40
1.0000000000
40
1.0000000000
40
1.0000000000
10
151.4912767288
20
63.4910680986
30
0.0000000000
10
151.5128653535
20
63.5069409343
30
0.0000000000
10
151.5357041085
20
63.5209480699
30
0.0000000000
10
151.5595037595
20
63.5328478954
30
0.0000000000
11
151.4912767288
21
63.4910680986
31
0.0000000000
11
151.5595037595
21
63.5328478954
31
0.0000000000
0
SPLINE
5
3CC
100
AcDbEntity
8
0
100
AcDbSpline
62
7
6
CONTINUOUS
70
0
71
3
72
8
73
4
74
2
42
0.0000001000
43
0.0000001000
44
0.0000000001
12
-0.4908428039
22
0.2454214020
32
0.0000000000
13
-0.5032902495
23
0.2196828877
33
0.0000000000
40
0.0000000000
40
0.0000000000
40
0.0000000000
40
0.0000000000
40
1.0000000000
40
1.0000000000
40
1.0000000000
40
1.0000000000
10
-110.9892438893
20
-45.3954193428
30
0.0000000000
10
-111.1528581573
20
-45.3136122089
30
0.0000000000
10
-111.3187334890
20
-45.2362476677
30
0.0000000000
10
-111.4864969055
20
-45.1630200384
30
0.0000000000
11
-110.9892438893
21
-45.3954193428
31
0.0000000000
11
-111.4864969055
21
-45.1630200384
31
0.0000000000
0
SPLINE
5
3CD
100
AcDbEntity
8
0
100
AcDbSpline
62
7
6
CONTINUOUS
70
0
71
3
72
14
73
10
74
8
42
0.0000001000
43
0.0000001000
44
0.0000000001
12
-12.3408407751
22
5.3866959298
32
0.0000000000
13
-12.3408969036
23
-5.3865665193
33
0.0000000000
40
0.0000000000
40
0.0000000000
40
0.0000000000
40
0.0000000000
40
0.0974318991
40
0.2533799363
40
0.4177936547
40
0.5818819683
40
0.7464777289
40
0.9025765450
40
1.0000000000
40
1.0000000000
40
1.0000000000
40
1.0000000000
10
-111.4864969055
20
-45.1630200384
30
0.0000000000
10
-111.8872940898
20
-44.9880747003
30
0.0000000000
10
-112.9576263512
20
-44.5945192498
30
0.0000000000
10
-114.7859363802
20
-44.1624182207
30
0.0000000000
10
-116.9504684064
20
-43.9208048348
30
0.0000000000
10
-119.1664829150
20
-43.9205599568
30
0.0000000000
10
-121.3325528252
20
-44.1619657826
30
0.0000000000
10
-123.1623226668
20
-44.5942764981
30
0.0000000000
10
-124.2332573020
20
-44.9880483104
30
0.0000000000
10
-124.6340215732
20
-45.1629742840
30
0.0000000000
11
-111.4864969055
21
-45.1630200384
31
0.0000000000
11
-112.7161319663
21
-44.7048515297
31
0.0000000000
11
-114.7558669451
21
-44.2118260823
31
0.0000000000
11
-116.9540657794
21
-43.9616419293
31
0.0000000000
11
-119.1620772040
21
-43.9613930877
31
0.0000000000
11
-121.3627530049
21
-44.2114754854
31
0.0000000000
11
-123.4044906411
21
-44.7048512783
31
0.0000000000
11
-124.6340215732
21
-45.1629742840
31
0.0000000000
0
SPLINE
5
3CE
100
AcDbEntity
8
0
100
AcDbSpline
62
7
6
CONTINUOUS
70
0
71
3
72
8
73
4
74
2
42
0.0000001000
43
0.0000001000
44
0.0000000001
12
-0.5033975090
22
-0.2197234277
32
0.0000000000
13
-0.4909451778
23
-0.2454725889
33
0.0000000000
40
0.0000000000
40
0.0000000000
40
0.0000000000
40
0.0000000000
40
1.0000000000
40
1.0000000000
40
1.0000000000
40
1.0000000000
10
-124.6340215732
20
-45.1629742840
30
0.0000000000
10
-124.8018207429
20
-45.2362154265
30
0.0000000000
10
-124.9677311205
20
-45.3135951465
30
0.0000000000
10
-125.1313795131
20
-45.3954193428
30
0.0000000000
11
-124.6340215732
21
-45.1629742840
31
0.0000000000
11
-125.1313795131
21
-45.3954193428
31
0.0000000000
0
SPLINE
5
3CF
100
AcDbEntity
8
0
100
AcDbSpline
62
7
6
CONTINUOUS
70
0
71
3
72
9
73
5
74
3
42
0.0000001000
43
0.0000001000
44
0.0000000001
12
-1.9001618714
22
-0.9500809357
32
0.0000000000
13
-1.5547815560
23
-1.4587688229
33
0.0000000000
40
0.0000000000
40
0.0000000000
40
0.0000000000
40
0.0000000000
40
0.7667059771
40
1.0000000000
40
1.0000000000
40
1.0000000000
40
1.0000000000
10
-97.2006616562
20
-31.4300604144
30
0.0000000000
10
-97.6862834776
20
-31.6728713251
30
0.0000000000
10
-98.2967730985
20
-32.0419181826
30
0.0000000000
10
-98.8381649853
20
-32.5040727666
30
0.0000000000
10
-98.9590720667
20
-32.6175134490
30
0.0000000000
11
-97.2006616562
21
-31.4300604144
31
0.0000000000
11
-98.5817972825
21
-32.2935044529
31
0.0000000000
11
-98.9590720667
21
-32.6175134490
31
0.0000000000
0
SPLINE
5
3D0
100
AcDbEntity
8
0
100
AcDbSpline
62
7
6
CONTINUOUS
70
0
71
3
72
9
73
5
74
3
42
0.0000001000
43
0.0000001000
44
0.0000000001
12
-1.4858584031
22
-1.3941018951
32
0.0000000000
13
-0.5160755326
23
-1.9734052387
33
0.0000000000
40
0.0000000000
40
0.0000000000
40
0.0000000000
40
0.0000000000
40
0.4546094353
40
1.0000000000
40
1.0000000000
40
1.0000000000
40
1.0000000000
10
-98.9590720667
20
-32.6175134490
30
0.0000000000
10
-99.1842338165
20
-32.8287707407
30
0.0000000000
10
-99.6383526642
20
-33.3363655578
30
0.0000000000
10
-99.9508007225
20
-33.9556671754
30
0.0000000000
10
-100.0446216312
20
-34.3144260412
30
0.0000000000
11
-98.9590720667
21
-32.6175134490
31
0.0000000000
11
-99.5678481773
21
-33.3133719423
31
0.0000000000
11
-100.0446216312
21
-34.3144260412
31
0.0000000000
0
SPLINE
5
3D1
100
AcDbEntity
8
0
100
AcDbSpline
62
7
6
CONTINUOUS
70
0
71
3
72
11
73
7
74
5
42
0.0000001000
43
0.0000001000
44
0.0000000001
12
-4.1383732058
22
2.0691866029
32
0.0000000000
13
-0.3273111177
23
4.6547814582
33
0.0000000000
40
0.0000000000
40
0.0000000000
40
0.0000000000
40
0.0000000000
40
0.3520383401
40
0.6589014232
40
0.9201336911
40
1.0000000000
40
1.0000000000
40
1.0000000000
40
1.0000000000
10
-97.2006616562
20
-74.0081697814
30
0.0000000000
10
-97.6862836675
20
-73.7653587758
30
0.0000000000
10
-98.5623436280
20
-73.2357666150
30
0.0000000000
10
-99.5870664372
20
-72.2284586619
30
0.0000000000
10
-100.0376414237
20
-71.3054810092
30
0.0000000000
10
-100.1127885129
20
-70.7793407179
30
0.0000000000
10
-100.1215022231
20
-70.6554206467
30
0.0000000000
11
-97.2006616562
21
-74.0081697814
31
0.0000000000
11
-98.5817977852
21
-73.1447253454
31
0.0000000000
11
-99.5685493711
21
-72.1238565273
31
0.0000000000
11
-100.0687141664
21
-71.0235186269
31
0.0000000000
11
-100.1215022231
21
-70.6554206467
31
0.0000000000
0
SPLINE
5
3D2
100
AcDbEntity
8
0
100
AcDbSpline
62
7
6
CONTINUOUS
70
0
71
3
72
8
73
4
74
2
42
0.0000001000
43
0.0000001000
44
0.0000000001
12
-0.0128332832
22
0.1825056508
32
0.0000000000
13
0.0000089369
23
0.1830318828
33
0.0000000000
40
0.0000000000
40
0.0000000000
40
0.0000000000
40
0.0000000000
40
1.0000000000
40
1.0000000000
40
1.0000000000
40
1.0000000000
10
-100.1215022231
20
-70.6554206467
30
0.0000000000
10
-100.1257799842
20
-70.5945854298
30
0.0000000000
10
-100.1279172419
20
-70.5335749325
30
0.0000000000
10
-100.1279142629
20
-70.4725643049
30
0.0000000000
11
-100.1215022231
21
-70.6554206467
31
0.0000000000
11
-100.1279142629
21
-70.4725643049
31
0.0000000000
0
SPLINE
5
3D3
100
AcDbEntity
8
0
100
AcDbSpline
62
7
6
CONTINUOUS
70
0
71
3
72
11
73
7
74
5
42
0.0000001000
43
0.0000001000
44
0.0000000001
12
-4.1383732058
22
2.0691866029
32
0.0000000000
13
-0.3273111177
23
4.6547814582
33
0.0000000000
40
0.0000000000
40
0.0000000000
40
0.0000000000
40
0.0000000000
40
0.3520383401
40
0.6589014232
40
0.9201336911
40
1.0000000000
40
1.0000000000
40
1.0000000000
40
1.0000000000
10
-23.1665816660
20
-36.9911297863
30
0.0000000000
10
-23.6522036773
20
-36.7483187807
30
0.0000000000
10
-24.5282636377
20
-36.2187266198
30
0.0000000000
10
-25.5529864470
20
-35.2114186668
30
0.0000000000
10
-26.0035614335
20
-34.2884410141
30
0.0000000000
10
-26.0787085226
20
-33.7623007228
30
0.0000000000
10
-26.0874222329
20
-33.6383806516
30
0.0000000000
11
-23.1665816660
21
-36.9911297863
31
0.0000000000
11
-24.5477177950
21
-36.1276853503
31
0.0000000000
11
-25.5344693808
21
-35.1068165322
31
0.0000000000
11
-26.0346341762
21
-34.0064786318
31
0.0000000000
11
-26.0874222329
21
-33.6383806516
31
0.0000000000
0
SPLINE
5
3D4
100
AcDbEntity
8
0
100
AcDbSpline
62
7
6
CONTINUOUS
70
0
71
3
72
8
73
4
74
2
42
0.0000001000
43
0.0000001000
44
0.0000000001
12
-0.0128332832
22
0.1825056508
32
0.0000000000
13
0.0000089369
23
0.1830318828
33
0.0000000000
40
0.0000000000
40
0.0000000000
40
0.0000000000
40
0.0000000000
40
1.0000000000
40
1.0000000000
40
1.0000000000
40
1.0000000000
10
-26.0874222329
20
-33.6383806516
30
0.0000000000
10
-26.0916999940
20
-33.5775454347
30
0.0000000000
10
-26.0938372516
20
-33.5165349374
30
0.0000000000
10
-26.0938342727
20
-33.4555243098
30
0.0000000000
11
-26.0874222329
21
-33.6383806516
31
0.0000000000
11
-26.0938342727
21
-33.4555243098
31
0.0000000000
0
SPLINE
5
3D5
100
AcDbEntity
8
0
100
AcDbSpline
62
7
6
CONTINUOUS
70
0
71
3
72
9
73
5
74
3
42
0.0000001000
43
0.0000001000
44
0.0000000001
12
-1.9001618714
22
-0.9500809357
32
0.0000000000
13
-1.5547815560
23
-1.4587688229
33
0.0000000000
40
0.0000000000
40
0.0000000000
40
0.0000000000
40
0.0000000000
40
0.7667059771
40
1.0000000000
40
1.0000000000
40
1.0000000000
40
1.0000000000
10
-23.1665816660
20
5.5869795807
30
0.0000000000
10
-23.6522034874
20
5.3441686700
30
0.0000000000
10
-24.2626931083
20
4.9751218125
30
0.0000000000
10
-24.8040849951
20
4.5129672285
30
0.0000000000
10
-24.9249920764
20
4.3995265461
30
0.0000000000
11
-23.1665816660
21
5.5869795807
31
0.0000000000
11
-24.5477172923
21
4.7235355422
31
0.0000000000
11
-24.9249920764
21
4.3995265461
31
0.0000000000
0
SPLINE
5
3D6
100
AcDbEntity
8
0
100
AcDbSpline
62
7
6
CONTINUOUS
70
0
71
3
72
9
73
5
74
3
42
0.0000001000
43
0.0000001000
44
0.0000000001
12
-1.4858584031
22
-1.3941018951
32
0.0000000000
13
-0.5160755326
23
-1.9734052387
33
0.0000000000
40
0.0000000000
40
0.0000000000
40
0.0000000000
40
0.0000000000
40
0.4546094353
40
1.0000000000
40
1.0000000000
40
1.0000000000
40
1.0000000000
10
-24.9249920764
20
4.3995265461
30
0.0000000000
10
-25.1501538263
20
4.1882692544
30
0.0000000000
10
-25.6042726740
20
3.6806744373
30
0.0000000000
10
-25.9167207323
20
3.0613728198
30
0.0000000000
10
-26.0105416410
20
2.7026139539
30
0.0000000000
11
-24.9249920764
21
4.3995265461
31
0.0000000000
11
-25.5337681871
21
3.7036680528
31
0.0000000000
11
-26.0105416410
21
2.7026139539
31
0.0000000000
0
SPLINE
5
3D7
100
AcDbEntity
8
0
100
AcDbSpline
62
7
6
CONTINUOUS
70
0
71
3
72
8
73
4
74
2
42
0.0000001000
43
0.0000001000
44
0.0000000001
12
-0.4908428039
22
0.2454214020
32
0.0000000000
13
-0.5032902495
23
0.2196828877
33
0.0000000000
40
0.0000000000
40
0.0000000000
40
0.0000000000
40
0.0000000000
40
1.0000000000
40
1.0000000000
40
1.0000000000
40
1.0000000000
10
-36.9551638991
20
-8.3783793477
30
0.0000000000
10
-37.1187781671
20
-8.2965722137
30
0.0000000000
10
-37.2846534988
20
-8.2192076725
30
0.0000000000
10
-37.4524169153
20
-8.1459800433
30
0.0000000000
11
-36.9551638991
21
-8.3783793477
31
0.0000000000
11
-37.4524169153
21
-8.1459800433
31
0.0000000000
0
SPLINE
5
3D8
100
AcDbEntity
8
0
100
AcDbSpline
62
7
6
CONTINUOUS
70
0
71
3
72
14
73
10
74
8
42
0.0000001000
43
0.0000001000
44
0.0000000001
12
-12.3408407751
22
5.3866959298
32
0.0000000000
13
-12.3408969036
23
-5.3865665193
33
0.0000000000
40
0.0000000000
40
0.0000000000
40
0.0000000000
40
0.0000000000
40
0.0974318991
40
0.2533799363
40
0.4177936547
40
0.5818819683
40
0.7464777289
40
0.9025765450
40
1.0000000000
40
1.0000000000
40
1.0000000000
40
1.0000000000
10
-37.4524169153
20
-8.1459800433
30
0.0000000000
10
-37.8532140996
20
-7.9710347052
30
0.0000000000
10
-38.9235463609
20
-7.5774792547
30
0.0000000000
10
-40.7518563900
20
-7.1453782255
30
0.0000000000
10
-42.9163884162
20
-6.9037648396
30
0.0000000000
10
-45.1324029248
20
-6.9035199616
30
0.0000000000
10
-47.2984728350
20
-7.1449257875
30
0.0000000000
10
-49.1282426765
20
-7.5772365030
30
0.0000000000
10
-50.1991773117
20
-7.9710083153
30
0.0000000000
10
-50.5999415830
20
-8.1459342889
30
0.0000000000
11
-37.4524169153
21
-8.1459800433
31
0.0000000000
11
-38.6820519760
21
-7.6878115346
31
0.0000000000
11
-40.7217869549
21
-7.1947860872
31
0.0000000000
11
-42.9199857892
21
-6.9446019342
31
0.0000000000
11
-45.1279972137
21
-6.9443530926
31
0.0000000000
11
-47.3286730147
21
-7.1944354903
31
0.0000000000
11
-49.3704106508
21
-7.6878112832
31
0.0000000000
11
-50.5999415830
21
-8.1459342889
31
0.0000000000
0
SPLINE
5
3D9
100
AcDbEntity
8
0
100
AcDbSpline
62
7
6
CONTINUOUS
70
0
71
3
72
8
73
4
74
2
42
0.0000001000
43
0.0000001000
44
0.0000000001
12
-0.5033975090
22
-0.2197234277
32
0.0000000000
13
-0.4909451778
23
-0.2454725889
33
0.0000000000
40
0.0000000000
40
0.0000000000
40
0.0000000000
40
0.0000000000
40
1.0000000000
40
1.0000000000
40
1.0000000000
40
1.0000000000
10
-50.5999415830
20
-8.1459342889
30
0.0000000000
10
-50.7677407527
20
-8.2191754314
30
0.0000000000
10
-50.9336511302
20
-8.2965551514
30
0.0000000000
10
-51.0972995228
20
-8.3783793477
30
0.0000000000
11
-50.5999415830
21
-8.1459342889
31
0.0000000000
11
-51.0972995228
21
-8.3783793477
31
0.0000000000
0
SPLINE
5
3DA
100
AcDbEntity
8
0
100
AcDbSpline
62
7
6
CONTINUOUS
70
0
71
3
72
8
73
4
74
2
42
0.0000001000
43
0.0000001000
44
0.0000000001
12
-0.4908428039
22
0.2454214020
32
0.0000000000
13
-0.5032902495
23
0.2196828877
33
0.0000000000
40
0.0000000000
40
0.0000000000
40
0.0000000000
40
0.0000000000
40
1.0000000000
40
1.0000000000
40
1.0000000000
40
1.0000000000
10
37.0789160911
20
28.6386606474
30
0.0000000000
10
36.9153018232
20
28.7204677814
30
0.0000000000
10
36.7494264914
20
28.7978323226
30
0.0000000000
10
36.5816630749
20
28.8710599518
30
0.0000000000
11
37.0789160911
21
28.6386606474
31
0.0000000000
11
36.5816630749
21
28.8710599518
31
0.0000000000
0
SPLINE
5
3DB
100
AcDbEntity
8
0
100
AcDbSpline
62
7
6
CONTINUOUS
70
0
71
3
72
14
73
10
74
8
42
0.0000001000
43
0.0000001000
44
0.0000000001
12
-12.3408407751
22
5.3866959298
32
0.0000000000
13
-12.3408969036
23
-5.3865665193
33
0.0000000000
40
0.0000000000
40
0.0000000000
40
0.0000000000
40
0.0000000000
40
0.0974318991
40
0.2533799363
40
0.4177936547
40
0.5818819683
40
0.7464777289
40
0.9025765450
40
1.0000000000
40
1.0000000000
40
1.0000000000
40
1.0000000000
10
36.5816630749
20
28.8710599518
30
0.0000000000
10
36.1808658906
20
29.0460052899
30
0.0000000000
10
35.1105336293
20
29.4395607404
30
0.0000000000
10
33.2822236002
20
29.8716617696
30
0.0000000000
10
31.1176915740
20
30.1132751555
30
0.0000000000
10
28.9016770655
20
30.1135200335
30
0.0000000000
10
26.7356071553
20
29.8721142076
30
0.0000000000
10
24.9058373137
20
29.4398034921
30
0.0000000000
10
23.8349026785
20
29.0460316798
30
0.0000000000
10
23.4341384072
20
28.8711057062
30
0.0000000000
11
36.5816630749
21
28.8710599518
31
0.0000000000
11
35.3520280142
21
29.3292284606
31
0.0000000000
11
33.3122930354
21
29.8222539079
31
0.0000000000
11
31.1140942011
21
30.0724380610
31
0.0000000000
11
28.9060827765
21
30.0726869025
31
0.0000000000
11
26.7054069756
21
29.8226045048
31
0.0000000000
11
24.6636693394
21
29.3292287119
31
0.0000000000
11
23.4341384072
21
28.8711057062
31
0.0000000000
0
SPLINE
5
3DC
100
AcDbEntity
8
0
100
AcDbSpline
62
7
6
CONTINUOUS
70
0
71
3
72
8
73
4
74
2
42
0.0000001000
43
0.0000001000
44
0.0000000001
12
-0.5033975090
22
-0.2197234277
32
0.0000000000
13
-0.4909451778
23
-0.2454725889
33
0.0000000000
40
0.0000000000
40
0.0000000000
40
0.0000000000
40
0.0000000000
40
1.0000000000
40
1.0000000000
40
1.0000000000
40
1.0000000000
10
23.4341384072
20
28.8711057062
30
0.0000000000
10
23.2663392375
20
28.7978645637
30
0.0000000000
10
23.1004288600
20
28.7204848437
30
0.0000000000
10
22.9367804674
20
28.6386606474
30
0.0000000000
11
23.4341384072
21
28.8711057062
31
0.0000000000
11
22.9367804674
21
28.6386606474
31
0.0000000000
0
SPLINE
5
3DD
100
AcDbEntity
8
0
100
AcDbSpline
62
7
6
CONTINUOUS
70
0
71
3
72
9
73
5
74
3
42
0.0000001000
43
0.0000001000
44
0.0000000001
12
-1.9001618714
22
-0.9500809357
32
0.0000000000
13
-1.5547815560
23
-1.4587688229
33
0.0000000000
40
0.0000000000
40
0.0000000000
40
0.0000000000
40
0.0000000000
40
0.7667059771
40
1.0000000000
40
1.0000000000
40
1.0000000000
40
1.0000000000
10
50.8674983243
20
42.6040195758
30
0.0000000000
10
50.3818765029
20
42.3612086651
30
0.0000000000
10
49.7713868820
20
41.9921618076
30
0.0000000000
10
49.2299949951
20
41.5300072237
30
0.0000000000
10
49.1090879138
20
41.4165665412
30
0.0000000000
11
50.8674983243
21
42.6040195758
31
0.0000000000
11
49.4863626979
21
41.7405755373
31
0.0000000000
11
49.1090879138
21
41.4165665412
31
0.0000000000
0
SPLINE
5
3DE
100
AcDbEntity
8
0
100
AcDbSpline
62
7
6
CONTINUOUS
70
0
71
3
72
9
73
5
74
3
42
0.0000001000
43
0.0000001000
44
0.0000000001
12
-1.4858584031
22
-1.3941018951
32
0.0000000000
13
-0.5160755326
23
-1.9734052387
33
0.0000000000
40
0.0000000000
40
0.0000000000
40
0.0000000000
40
0.0000000000
40
0.4546094353
40
1.0000000000
40
1.0000000000
40
1.0000000000
40
1.0000000000
10
49.1090879138
20
41.4165665412
30
0.0000000000
10
48.8839261639
20
41.2053092495
30
0.0000000000
10
48.4298073163
20
40.6977144324
30
0.0000000000
10
48.1173592580
20
40.0784128149
30
0.0000000000
10
48.0235383492
20
39.7196539490
30
0.0000000000
11
49.1090879138
21
41.4165665412
31
0.0000000000
11
48.5003118032
21
40.7207080479
31
0.0000000000
11
48.0235383492
21
39.7196539490
31
0.0000000000
0
SPLINE
5
3DF
100
AcDbEntity
8
0
100
AcDbSpline
62
7
6
CONTINUOUS
70
0
71
3
72
11
73
7
74
5
42
0.0000001000
43
0.0000001000
44
0.0000000001
12
-4.1383732058
22
2.0691866029
32
0.0000000000
13
-0.3273111177
23
4.6547814582
33
0.0000000000
40
0.0000000000
40
0.0000000000
40
0.0000000000
40
0.0000000000
40
0.3520383401
40
0.6589014232
40
0.9201336911
40
1.0000000000
40
1.0000000000
40
1.0000000000
40
1.0000000000
10
50.8674983243
20
0.0259102088
30
0.0000000000
10
50.3818763130
20
0.2687212144
30
0.0000000000
10
49.5058163525
20
0.7983133753
30
0.0000000000
10
48.4810935432
20
1.8056213283
30
0.0000000000
10
48.0305185567
20
2.7285989810
30
0.0000000000
10
47.9553714676
20
3.2547392723
30
0.0000000000
10
47.9466577573
20
3.3786593435
30
0.0000000000
11
50.8674983243
21
0.0259102088
31
0.0000000000
11
49.4863621952
21
0.8893546448
31
0.0000000000
11
48.4996106094
21
1.9102234629
31
0.0000000000
11
47.9994458141
21
3.0105613633
31
0.0000000000
11
47.9466577573
21
3.3786593435
31
0.0000000000
0
SPLINE
5
3E0
100
AcDbEntity
8
0
100
AcDbSpline
62
7
6
CONTINUOUS
70
0
71
3
72
8
73
4
74
2
42
0.0000001000
43
0.0000001000
44
0.0000000001
12
-0.0128332832
22
0.1825056508
32
0.0000000000
13
0.0000089369
23
0.1830318828
33
0.0000000000
40
0.0000000000
40
0.0000000000
40
0.0000000000
40
0.0000000000
40
1.0000000000
40
1.0000000000
40
1.0000000000
40
1.0000000000
10
47.9466577573
20
3.3786593435
30
0.0000000000
10
47.9423799963
20
3.4394945604
30
0.0000000000
10
47.9402427386
20
3.5005050578
30
0.0000000000
10
47.9402457176
20
3.5615156854
30
0.0000000000
11
47.9466577573
21
3.3786593435
31
0.0000000000
11
47.9402457176
21
3.5615156854
31
0.0000000000
0
SPLINE
5
3E1
100
AcDbEntity
8
0
100
AcDbSpline
62
7
6
CONTINUOUS
70
0
71
3
72
8
73
4
74
2
42
0.0000001000
43
0.0000001000
44
0.0000000001
12
-0.4908428039
22
0.2454214020
32
0.0000000000
13
-0.5032902495
23
0.2196828877
33
0.0000000000
40
0.0000000000
40
0.0000000000
40
0.0000000000
40
0.0000000000
40
1.0000000000
40
1.0000000000
40
1.0000000000
40
1.0000000000
10
111.1129960814
20
65.6557006425
30
0.0000000000
10
110.9493818134
20
65.7375077765
30
0.0000000000
10
110.7835064817
20
65.8148723177
30
0.0000000000
10
110.6157430652
20
65.8880999469
30
0.0000000000
11
111.1129960814
21
65.6557006425
31
0.0000000000
11
110.6157430652
21
65.8880999469
31
0.0000000000
0
SPLINE
5
3E2
100
AcDbEntity
8
0
100
AcDbSpline
62
7
6
CONTINUOUS
70
0
71
3
72
14
73
10
74
8
42
0.0000001000
43
0.0000001000
44
0.0000000001
12
-12.3408407751
22
5.3866959298
32
0.0000000000
13
-12.3408969036
23
-5.3865665193
33
0.0000000000
40
0.0000000000
40
0.0000000000
40
0.0000000000
40
0.0000000000
40
0.0974318991
40
0.2533799363
40
0.4177936547
40
0.5818819683
40
0.7464777289
40
0.9025765450
40
1.0000000000
40
1.0000000000
40
1.0000000000
40
1.0000000000
10
110.6157430652
20
65.8880999469
30
0.0000000000
10
110.2149458809
20
66.0630452850
30
0.0000000000
10
109.1446136195
20
66.4566007355
30
0.0000000000
10
107.3163035905
20
66.8887017647
30
0.0000000000
10
105.1517715642
20
67.1303151506
30
0.0000000000
10
102.9357570557
20
67.1305600286
30
0.0000000000
10
100.7696871455
20
66.8891542027
30
0.0000000000
10
98.9399173039
20
66.4568434872
30
0.0000000000
10
97.8689826687
20
66.0630716749
30
0.0000000000
10
97.4682183975
20
65.8881457014
30
0.0000000000
11
110.6157430652
21
65.8880999469
31
0.0000000000
11
109.3861080044
21
66.3462684557
31
0.0000000000
11
107.3463730256
21
66.8392939031
31
0.0000000000
11
105.1481741913
21
67.0894780561
31
0.0000000000
11
102.9401627667
21
67.0897268976
31
0.0000000000
11
100.7394869658
21
66.8396444999
31
0.0000000000
11
98.6977493296
21
66.3462687070
31
0.0000000000
11
97.4682183975
21
65.8881457014
31
0.0000000000
0
SPLINE
5
3E3
100
AcDbEntity
8
0
100
AcDbSpline
62
7
6
CONTINUOUS
70
0
71
3
72
8
73
4
74
2
42
0.0000001000
43
0.0000001000
44
0.0000000001
12
-0.5033975090
22
-0.2197234277
32
0.0000000000
13
-0.4909451778
23
-0.2454725889
33
0.0000000000
40
0.0000000000
40
0.0000000000
40
0.0000000000
40
0.0000000000
40
1.0000000000
40
1.0000000000
40
1.0000000000
40
1.0000000000
10
97.4682183975
20
65.8881457014
30
0.0000000000
10
97.3004192278
20
65.8149045588
30
0.0000000000
10
97.1345088502
20
65.7375248388
30
0.0000000000
10
96.9708604576
20
65.6557006425
30
0.0000000000
11
97.4682183975
21
65.8881457014
31
0.0000000000
11
96.9708604576
21
65.6557006425
31
0.0000000000
0
SPLINE
5
3E4
100
AcDbEntity
8
0
100
AcDbSpline
62
7
6
CONTINUOUS
70
0
71
3
72
9
73
5
74
3
42
0.0000001000
43
0.0000001000
44
0.0000000001
12
-1.9001618714
22
-0.9500809357
32
0.0000000000
13
-1.5547815560
23
-1.4587688229
33
0.0000000000
40
0.0000000000
40
0.0000000000
40
0.0000000000
40
0.0000000000
40
0.7667059771
40
1.0000000000
40
1.0000000000
40
1.0000000000
40
1.0000000000
10
124.9015783145
20
79.6210595709
30
0.0000000000
10
124.4159564931
20
79.3782486602
30
0.0000000000
10
123.8054668722
20
79.0092018027
30
0.0000000000
10
123.2640749854
20
78.5470472188
30
0.0000000000
10
123.1431679040
20
78.4336065364
30
0.0000000000
11
124.9015783145
21
79.6210595709
31
0.0000000000
11
123.5204426882
21
78.7576155325
31
0.0000000000
11
123.1431679040
21
78.4336065364
31
0.0000000000
0
SPLINE
5
3E5
100
AcDbEntity
8
0
100
AcDbSpline
62
7
6
CONTINUOUS
70
0
71
3
72
9
73
5
74
3
42
0.0000001000
43
0.0000001000
44
0.0000000001
12
-1.4858584031
22
-1.3941018951
32
0.0000000000
13
-0.5160755326
23
-1.9734052387
33
0.0000000000
40
0.0000000000
40
0.0000000000
40
0.0000000000
40
0.0000000000
40
0.4546094353
40
1.0000000000
40
1.0000000000
40
1.0000000000
40
1.0000000000
10
123.1431679040
20
78.4336065364
30
0.0000000000
10
122.9180061542
20
78.2223492446
30
0.0000000000
10
122.4638873065
20
77.7147544275
30
0.0000000000
10
122.1514392482
20
77.0954528100
30
0.0000000000
10
122.0576183395
20
76.7366939441
30
0.0000000000
11
123.1431679040
21
78.4336065364
31
0.0000000000
11
122.5343917934
21
77.7377480431
31
0.0000000000
11
122.0576183395
21
76.7366939441
31
0.0000000000
0
SPLINE
5
3E6
100
AcDbEntity
8
0
100
AcDbSpline
62
7
6
CONTINUOUS
70
0
71
3
72
11
73
7
74
5
42
0.0000001000
43
0.0000001000
44
0.0000000001
12
-4.1383732058
22
2.0691866029
32
0.0000000000
13
-0.3273111177
23
4.6547814582
33
0.0000000000
40
0.0000000000
40
0.0000000000
40
0.0000000000
40
0.0000000000
40
0.3520383401
40
0.6589014232
40
0.9201336911
40
1.0000000000
40
1.0000000000
40
1.0000000000
40
1.0000000000
10
124.9015783145
20
37.0429502039
30
0.0000000000
10
124.4159563032
20
37.2857612096
30
0.0000000000
10
123.5398963427
20
37.8153533704
30
0.0000000000
10
122.5151735334
20
38.8226613234
30
0.0000000000
10
122.0645985470
20
39.7456389761
30
0.0000000000
10
121.9894514578
20
40.2717792674
30
0.0000000000
10
121.9807377476
20
40.3956993386
30
0.0000000000
11
124.9015783145
21
37.0429502039
31
0.0000000000
11
123.5204421855
21
37.9063946399
31
0.0000000000
11
122.5336905996
21
38.9272634580
31
0.0000000000
11
122.0335258043
21
40.0276013585
31
0.0000000000
11
121.9807377476
21
40.3956993386
31
0.0000000000
0
SPLINE
5
3E7
100
AcDbEntity
8
0
100
AcDbSpline
62
7
6
CONTINUOUS
70
0
71
3
72
8
73
4
74
2
42
0.0000001000
43
0.0000001000
44
0.0000000001
12
-0.0128332832
22
0.1825056508
32
0.0000000000
13
0.0000089369
23
0.1830318828
33
0.0000000000
40
0.0000000000
40
0.0000000000
40
0.0000000000
40
0.0000000000
40
1.0000000000
40
1.0000000000
40
1.0000000000
40
1.0000000000
10
121.9807377476
20
40.3956993386
30
0.0000000000
10
121.9764599865
20
40.4565345556
30
0.0000000000
10
121.9743227288
20
40.5175450529
30
0.0000000000
10
121.9743257078
20
40.5785556805
30
0.0000000000
11
121.9807377476
21
40.3956993386
31
0.0000000000
11
121.9743257078
21
40.5785556805
31
0.0000000000
0
SPLINE
5
3E8
100
AcDbEntity
8
0
100
AcDbSpline
62
7
6
CONTINUOUS
70
0
71
3
72
9
73
5
74
3
42
0.0000001000
43
0.0000001000
44
0.0000000001
12
0.9026545652
22
-0.4495886540
32
0.0000000000
13
0.9900586914
23
0.2044917204
33
0.0000000000
40
0.0000000000
40
0.0000000000
40
0.0000000000
40
0.0000000000
40
0.7297298523
40
1.0000000000
40
1.0000000000
40
1.0000000000
40
1.0000000000
10
-172.9065028033
20
-97.4751886693
30
0.0000000000
10
-172.6869381424
20
-97.5845480899
30
0.0000000000
10
-172.3402991763
20
-97.6446410787
30
0.0000000000
10
-172.0053629845
20
-97.5999878847
30
0.0000000000
10
-171.9161685482
20
-97.5815652155
30
0.0000000000
11
-172.9065028033
21
-97.4751886693
31
0.0000000000
11
-172.1872643329
21
-97.6164734506
31
0.0000000000
11
-171.9161685482
21
-97.5815652155
31
0.0000000000
0
SPLINE
5
3E9
100
AcDbEntity
8
0
100
AcDbSpline
62
7
6
CONTINUOUS
70
0
71
3
72
8
73
4
74
2
42
0.0000001000
43
0.0000001000
44
0.0000000001
12
0.2876668352
22
0.0594161604
32
0.0000000000
13
0.2766854635
23
0.0986447511
33
0.0000000000
40
0.0000000000
40
0.0000000000
40
0.0000000000
40
0.0000000000
40
1.0000000000
40
1.0000000000
40
1.0000000000
40
1.0000000000
10
-171.9161685482
20
-97.5815652155
30
0.0000000000
10
-171.8202796032
20
-97.5617598287
30
0.0000000000
10
-171.7259264310
20
-97.5346105644
30
0.0000000000
10
-171.6336979431
20
-97.5017289807
30
0.0000000000
11
-171.9161685482
21
-97.5815652155
31
0.0000000000
11
-171.6336979431
21
-97.5017289807
31
0.0000000000
0
SPLINE
5
3EA
100
AcDbEntity
8
0
100
AcDbSpline
62
7
6
CONTINUOUS
70
0
71
3
72
8
73
4
74
2
42
0.0000001000
43
0.0000001000
44
0.0000000001
12
0.3012038049
22
0.1073861054
32
0.0000000000
13
0.2838170012
23
0.1419085006
33
0.0000000000
40
0.0000000000
40
0.0000000000
40
0.0000000000
40
0.0000000000
40
1.0000000000
40
1.0000000000
40
1.0000000000
40
1.0000000000
10
-171.6336979431
20
-97.5017289807
30
0.0000000000
10
-171.5332966748
20
-97.4659336122
30
0.0000000000
10
-171.4354133307
20
-97.4233449781
30
0.0000000000
10
-171.3408076636
20
-97.3760421445
30
0.0000000000
11
-171.6336979431
21
-97.5017289807
31
0.0000000000
11
-171.3408076636
21
-97.3760421445
31
0.0000000000
0
SPLINE
5
3EB
100
AcDbEntity
8
0
100
AcDbSpline
62
7
6
CONTINUOUS
70
0
71
3
72
14
73
10
74
8
42
0.0000001000
43
0.0000001000
44
0.0000000001
12
13.0174133381
22
6.5087066690
32
0.0000000000
13
13.0174133381
23
-6.5087066690
33
0.0000000000
40
0.0000000000
40
0.0000000000
40
0.0000000000
40
0.0000000000
40
0.1277901638
40
0.2721158313
40
0.4242975942
40
0.5760101823
40
0.7280236328
40
0.8722098933
40
1.0000000000
40
1.0000000000
40
1.0000000000
40
1.0000000000
10
-125.1313795131
20
-80.9024608980
30
0.0000000000
10
-124.5768803855
20
-80.6252113342
30
0.0000000000
10
-123.3408324021
20
-80.1434936699
30
0.0000000000
10
-121.3325528252
20
-79.6690073378
30
0.0000000000
10
-119.1664829150
20
-79.4276015119
30
0.0000000000
10
-116.9504684064
20
-79.4278463899
30
0.0000000000
10
-114.7859363802
20
-79.6694597758
30
0.0000000000
10
-112.7791577706
20
-80.1437398972
30
0.0000000000
10
-111.5437427690
20
-80.6252114582
30
0.0000000000
10
-110.9892438893
20
-80.9024608980
30
0.0000000000
11
-125.1313795131
21
-80.9024608980
31
0.0000000000
11
-123.4044906411
21
-80.2118928335
31
0.0000000000
11
-121.3627530049
21
-79.7185170406
31
0.0000000000
11
-119.1620772040
21
-79.4684346429
31
0.0000000000
11
-116.9540657794
21
-79.4686834844
31
0.0000000000
11
-114.7558669451
21
-79.7188676375
31
0.0000000000
11
-112.7161319663
21
-80.2118930848
31
0.0000000000
11
-110.9892438893
21
-80.9024608980
31
0.0000000000
0
SPLINE
5
3EC
100
AcDbEntity
8
0
100
AcDbSpline
62
7
6
CONTINUOUS
70
0
71
3
72
15
73
11
74
9
42
0.0000001000
43
0.0000001000
44
0.0000000001
12
6.5610124507
22
3.2805062254
32
0.0000000000
13
-6.6001985956
23
3.2873864677
33
0.0000000000
40
0.0000000000
40
0.0000000000
40
0.0000000000
40
0.0000000000
40
0.1419187625
40
0.3009820854
40
0.4666803603
40
0.6266710587
40
0.7701780414
40
0.8917858587
40
0.9961709149
40
1.0000000000
40
1.0000000000
40
1.0000000000
40
1.0000000000
10
-169.0073552857
20
-68.7130093854
30
0.0000000000
10
-168.6969783630
20
-68.5578209241
30
0.0000000000
10
-168.0973950508
20
-68.1097187602
30
0.0000000000
10
-167.3724125940
20
-67.2178434408
30
0.0000000000
10
-166.8297732087
20
-66.1541481583
30
0.0000000000
10
-166.5308928796
20
-65.0365896761
30
0.0000000000
10
-166.5105433253
20
-63.9852291190
30
0.0000000000
10
-166.7810398696
20
-63.0993190954
30
0.0000000000
10
-167.1965466808
20
-62.6771868224
30
0.0000000000
10
-167.4332359054
20
-62.5558809283
30
0.0000000000
10
-167.4416601460
20
-62.5516850342
30
0.0000000000
11
-169.0073552857
21
-68.7130093854
31
0.0000000000
11
-168.1608986164
21
-68.1069840223
31
0.0000000000
11
-167.4165371138
21
-67.2084602048
31
0.0000000000
11
-166.8640517608
21
-66.1258131663
31
0.0000000000
11
-166.5700804446
21
-64.9896261177
31
0.0000000000
11
-166.5700804446
21
-63.9369399855
31
0.0000000000
11
-166.8640517608
21
-63.0947242531
31
0.0000000000
11
-167.4165371138
21
-62.5645625676
31
0.0000000000
11
-167.4416601460
21
-62.5516850342
31
0.0000000000
0
SPLINE
5
3ED
100
AcDbEntity
8
0
100
AcDbSpline
62
7
6
CONTINUOUS
70
0
71
3
72
12
73
8
74
6
42
0.0000001000
43
0.0000001000
44
0.0000000001
12
4.5529452036
22
-2.2764726018
32
0.0000000000
13
4.5529452036
23
2.2764726018
33
0.0000000000
40
0.0000000000
40
0.0000000000
40
0.0000000000
40
0.0000000000
40
0.1847850289
40
0.3925024576
40
0.6071552103
40
0.8154091400
40
1.0000000000
40
1.0000000000
40
1.0000000000
40
1.0000000000
10
-159.5674797568
20
-95.6456372857
30
0.0000000000
10
-159.2870410532
20
-95.7858566376
30
0.0000000000
10
-158.6519825528
20
-96.0056619648
30
0.0000000000
10
-157.6303037208
20
-96.1653513091
30
0.0000000000
10
-156.5557470531
20
-96.1654796736
30
0.0000000000
10
-155.5334485358
20
-96.0057814839
30
0.0000000000
10
-154.8978763121
20
-95.7857092975
30
0.0000000000
10
-154.6177322885
20
-95.6456372857
30
0.0000000000
11
-159.5674797568
21
-95.6456372857
31
0.0000000000
11
-158.6834530177
21
-95.9669824623
31
0.0000000000
11
-157.6398056387
21
-96.1366804287
31
0.0000000000
11
-156.5471485473
21
-96.1368180848
31
0.0000000000
11
-155.5007966506
21
-95.9667368253
31
0.0000000000
11
-154.6177322885
21
-95.6456372857
31
0.0000000000
0
SPLINE
5
3EE
100
AcDbEntity
8
0
100
AcDbSpline
62
7
6
CONTINUOUS
70
0
71
3
72
9
73
5
74
3
42
0.0000001000
43
0.0000001000
44
0.0000000001
12
0.9026545652
22
-0.4495886540
32
0.0000000000
13
0.9900586914
23
0.2044917204
33
0.0000000000
40
0.0000000000
40
0.0000000000
40
0.0000000000
40
0.0000000000
40
0.7297298523
40
1.0000000000
40
1.0000000000
40
1.0000000000
40
1.0000000000
10
-172.9065028033
20
-69.9788820991
30
0.0000000000
10
-172.6869381424
20
-70.0882415198
30
0.0000000000
10
-172.3402991763
20
-70.1483345085
30
0.0000000000
10
-172.0053629845
20
-70.1036813145
30
0.0000000000
10
-171.9161685482
20
-70.0852586454
30
0.0000000000
11
-172.9065028033
21
-69.9788820991
31
0.0000000000
11
-172.1872643329
21
-70.1201668805
31
0.0000000000
11
-171.9161685482
21
-70.0852586454
31
0.0000000000
0
SPLINE
5
3EF
100
AcDbEntity
8
0
100
AcDbSpline
62
7
6
CONTINUOUS
70
0
71
3
72
8
73
4
74
2
42
0.0000001000
43
0.0000001000
44
0.0000000001
12
0.2876668352
22
0.0594161604
32
0.0000000000
13
0.2766854635
23
0.0986447511
33
0.0000000000
40
0.0000000000
40
0.0000000000
40
0.0000000000
40
0.0000000000
40
1.0000000000
40
1.0000000000
40
1.0000000000
40
1.0000000000
10
-171.9161685482
20
-70.0852586454
30
0.0000000000
10
-171.8202796032
20
-70.0654532586
30
0.0000000000
10
-171.7259264310
20
-70.0383039942
30
0.0000000000
10
-171.6336979431
20
-70.0054224105
30
0.0000000000
11
-171.9161685482
21
-70.0852586454
31
0.0000000000
11
-171.6336979431
21
-70.0054224105
31
0.0000000000
0
SPLINE
5
3F0
100
AcDbEntity
8
0
100
AcDbSpline
62
7
6
CONTINUOUS
70
0
71
3
72
8
73
4
74
2
42
0.0000001000
43
0.0000001000
44
0.0000000001
12
0.3012038049
22
0.1073861054
32
0.0000000000
13
0.2838170012
23
0.1419085006
33
0.0000000000
40
0.0000000000
40
0.0000000000
40
0.0000000000
40
0.0000000000
40
1.0000000000
40
1.0000000000
40
1.0000000000
40
1.0000000000
10
-171.6336979431
20
-70.0054224105
30
0.0000000000
10
-171.5332966748
20
-69.9696270420
30
0.0000000000
10
-171.4354133307
20
-69.9270384079
30
0.0000000000
10
-171.3408076636
20
-69.8797355744
30
0.0000000000
11
-171.6336979431
21
-70.0054224105
31
0.0000000000
11
-171.3408076636
21
-69.8797355744
31
0.0000000000
0
SPLINE
5
3F1
100
AcDbEntity
8
0
100
AcDbSpline
62
7
6
CONTINUOUS
70
0
71
3
72
8
73
4
74
2
42
0.0000001000
43
0.0000001000
44
0.0000000001
12
0.4366707270
22
0.2663502603
32
0.0000000000
13
0.3697252460
23
0.3618955796
33
0.0000000000
40
0.0000000000
40
0.0000000000
40
0.0000000000
40
0.0000000000
40
1.0000000000
40
1.0000000000
40
1.0000000000
40
1.0000000000
10
154.6237330447
20
58.9871410076
30
0.0000000000
10
154.7692899537
20
59.0759244277
30
0.0000000000
10
154.9068884204
20
59.1780947247
30
0.0000000000
10
155.0301301690
20
59.2987265845
30
0.0000000000
11
154.6237330447
21
58.9871410076
31
0.0000000000
11
155.0301301690
21
59.2987265845
31
0.0000000000
0
SPLINE
5
3F2
100
AcDbEntity
8
0
100
AcDbSpline
62
7
6
CONTINUOUS
70
0
71
3
72
9
73
5
74
3
42
0.0000001000
43
0.0000001000
44
0.0000000001
12
0.6496683091
22
0.6359102925
32
0.0000000000
13
-0.0001208795
23
0.9128901471
33
0.0000000000
40
0.0000000000
40
0.0000000000
40
0.0000000000
40
0.0000000000
40
0.6958244013
40
1.0000000000
40
1.0000000000
40
1.0000000000
40
1.0000000000
10
155.0301301690
20
59.2987265845
30
0.0000000000
10
155.1808151898
20
59.4462205507
30
0.0000000000
10
155.3665266336
20
59.6978543524
30
0.0000000000
10
155.4097935175
20
60.0021473838
30
0.0000000000
10
155.4097812613
20
60.0947070195
30
0.0000000000
11
155.0301301690
21
59.2987265845
31
0.0000000000
11
155.3702926881
21
59.8219025329
31
0.0000000000
11
155.4097812613
21
60.0947070195
31
0.0000000000
0
SPLINE
5
3F3
100
AcDbEntity
8
0
100
AcDbSpline
62
7
6
CONTINUOUS
70
0
71
3
72
9
73
5
74
3
42
0.0000001000
43
0.0000001000
44
0.0000000001
12
0.9026545652
22
-0.4495886540
32
0.0000000000
13
0.9900586914
23
0.2044917204
33
0.0000000000
40
0.0000000000
40
0.0000000000
40
0.0000000000
40
0.0000000000
40
0.7297298523
40
1.0000000000
40
1.0000000000
40
1.0000000000
40
1.0000000000
10
155.8981504485
20
66.9271379566
30
0.0000000000
10
156.1177151093
20
66.8177785359
30
0.0000000000
10
156.4643540754
20
66.7576855472
30
0.0000000000
10
156.7992902673
20
66.8023387412
30
0.0000000000
10
156.8884847035
20
66.8207614104
30
0.0000000000
11
155.8981504485
21
66.9271379566
31
0.0000000000
11
156.6173889189
21
66.7858531752
31
0.0000000000
11
156.8884847035
21
66.8207614104
31
0.0000000000
0
SPLINE
5
3F4
100
AcDbEntity
8
0
100
AcDbSpline
62
7
6
CONTINUOUS
70
0
71
3
72
8
73
4
74
2
42
0.0000001000
43
0.0000001000
44
0.0000000001
12
0.2876668352
22
0.0594161604
32
0.0000000000
13
0.2766854635
23
0.0986447511
33
0.0000000000
40
0.0000000000
40
0.0000000000
40
0.0000000000
40
0.0000000000
40
1.0000000000
40
1.0000000000
40
1.0000000000
40
1.0000000000
10
156.8884847035
20
66.8207614104
30
0.0000000000
10
156.9843736486
20
66.8405667972
30
0.0000000000
10
157.0787268208
20
66.8677160615
30
0.0000000000
10
157.1709553086
20
66.9005976452
30
0.0000000000
11
156.8884847035
21
66.8207614104
31
0.0000000000
11
157.1709553086
21
66.9005976452
31
0.0000000000
0
SPLINE
5
3F5
100
AcDbEntity
8
0
100
AcDbSpline
62
7
6
CONTINUOUS
70
0
71
3
72
8
73
4
74
2
42
0.0000001000
43
0.0000001000
44
0.0000000001
12
0.3012038049
22
0.1073861054
32
0.0000000000
13
0.2838170012
23
0.1419085006
33
0.0000000000
40
0.0000000000
40
0.0000000000
40
0.0000000000
40
0.0000000000
40
1.0000000000
40
1.0000000000
40
1.0000000000
40
1.0000000000
10
157.1709553086
20
66.9005976452
30
0.0000000000
10
157.2713565769
20
66.9363930137
30
0.0000000000
10
157.3692399211
20
66.9789816478
30
0.0000000000
10
157.4638455881
20
67.0262844813
30
0.0000000000
11
157.1709553086
21
66.9005976452
31
0.0000000000
11
157.4638455881
21
67.0262844813
31
0.0000000000
0
SPLINE
5
3F6
100
AcDbEntity
8
0
100
AcDbSpline
62
7
6
CONTINUOUS
70
0
71
3
72
9
73
5
74
3
42
0.0000001000
43
0.0000001000
44
0.0000000001
12
0.9026545652
22
-0.4495886540
32
0.0000000000
13
0.9900586914
23
0.2044917204
33
0.0000000000
40
0.0000000000
40
0.0000000000
40
0.0000000000
40
0.0000000000
40
0.7297298523
40
1.0000000000
40
1.0000000000
40
1.0000000000
40
1.0000000000
10
155.8981504485
20
94.4234445268
30
0.0000000000
10
156.1177151093
20
94.3140851061
30
0.0000000000
10
156.4643540754
20
94.2539921174
30
0.0000000000
10
156.7992902673
20
94.2986453114
30
0.0000000000
10
156.8884847035
20
94.3170679805
30
0.0000000000
11
155.8981504485
21
94.4234445268
31
0.0000000000
11
156.6173889189
21
94.2821597454
31
0.0000000000
11
156.8884847035
21
94.3170679805
31
0.0000000000
0
SPLINE
5
3F7
100
AcDbEntity
8
0
100
AcDbSpline
62
7
6
CONTINUOUS
70
0
71
3
72
8
73
4
74
2
42
0.0000001000
43
0.0000001000
44
0.0000000001
12
0.2876668352
22
0.0594161604
32
0.0000000000
13
0.2766854635
23
0.0986447511
33
0.0000000000
40
0.0000000000
40
0.0000000000
40
0.0000000000
40
0.0000000000
40
1.0000000000
40
1.0000000000
40
1.0000000000
40
1.0000000000
10
156.8884847035
20
94.3170679805
30
0.0000000000
10
156.9843736486
20
94.3368733673
30
0.0000000000
10
157.0787268208
20
94.3640226317
30
0.0000000000
10
157.1709553086
20
94.3969042154
30
0.0000000000
11
156.8884847035
21
94.3170679805
31
0.0000000000
11
157.1709553086
21
94.3969042154
31
0.0000000000
0
SPLINE
5
3F8
100
AcDbEntity
8
0
100
AcDbSpline
62
7
6
CONTINUOUS
70
0
71
3
72
8
73
4
74
2
42
0.0000001000
43
0.0000001000
44
0.0000000001
12
0.3012038049
22
0.1073861054
32
0.0000000000
13
0.2838170012
23
0.1419085006
33
0.0000000000
40
0.0000000000
40
0.0000000000
40
0.0000000000
40
0.0000000000
40
1.0000000000
40
1.0000000000
40
1.0000000000
40
1.0000000000
10
157.1709553086
20
94.3969042154
30
0.0000000000
10
157.2713565769
20
94.4326995838
30
0.0000000000
10
157.3692399211
20
94.4752882180
30
0.0000000000
10
157.4638455881
20
94.5225910515
30
0.0000000000
11
157.1709553086
21
94.3969042154
31
0.0000000000
11
157.4638455881
21
94.5225910515
31
0.0000000000
0
SPLINE
5
3F9
100
AcDbEntity
8
0
100
AcDbSpline
62
7
6
CONTINUOUS
70
0
71
3
72
15
73
11
74
9
42
0.0000001000
43
0.0000001000
44
0.0000000001
12
6.5610124507
22
3.2805062254
32
0.0000000000
13
-6.6001985956
23
3.2873864677
33
0.0000000000
40
0.0000000000
40
0.0000000000
40
0.0000000000
40
0.0000000000
40
0.1419187625
40
0.3009820854
40
0.4666803603
40
0.6266710587
40
0.7701780414
40
0.8917858587
40
0.9961709149
40
1.0000000000
40
1.0000000000
40
1.0000000000
40
1.0000000000
10
159.7972979661
20
95.6893172405
30
0.0000000000
10
160.1076748887
20
95.8445057018
30
0.0000000000
10
160.7072582010
20
96.2926078657
30
0.0000000000
10
161.4322406577
20
97.1844831851
30
0.0000000000
10
161.9748800430
20
98.2481784676
30
0.0000000000
10
162.2737603721
20
99.3657369498
30
0.0000000000
10
162.2941099264
20
100.4170975069
30
0.0000000000
10
162.0236133821
20
101.3030075305
30
0.0000000000
10
161.6081065709
20
101.7251398035
30
0.0000000000
10
161.3714173463
20
101.8464456976
30
0.0000000000
10
161.3629931057
20
101.8506415917
30
0.0000000000
11
159.7972979661
21
95.6893172405
31
0.0000000000
11
160.6437546353
21
96.2953426036
31
0.0000000000
11
161.3881161379
21
97.1938664210
31
0.0000000000
11
161.9406014910
21
98.2765134596
31
0.0000000000
11
162.2345728072
21
99.4127005081
31
0.0000000000
11
162.2345728072
21
100.4653866404
31
0.0000000000
11
161.9406014910
21
101.3076023728
31
0.0000000000
11
161.3881161379
21
101.8377640582
31
0.0000000000
11
161.3629931057
21
101.8506415917
31
0.0000000000
0
SPLINE
5
3FA
100
AcDbEntity
8
0
100
AcDbSpline
62
7
6
CONTINUOUS
70
0
71
3
72
14
73
10
74
8
42
0.0000001000
43
0.0000001000
44
0.0000000001
12
13.0174133381
22
6.5087066690
32
0.0000000000
13
13.0174133381
23
-6.5087066690
33
0.0000000000
40
0.0000000000
40
0.0000000000
40
0.0000000000
40
0.0000000000
40
0.1277901638
40
0.2721158313
40
0.4242975942
40
0.5760101823
40
0.7280236328
40
0.8722098933
40
1.0000000000
40
1.0000000000
40
1.0000000000
40
1.0000000000
10
-51.0972995228
20
-43.8854209029
30
0.0000000000
10
-50.5428003953
20
-43.6081713391
30
0.0000000000
10
-49.3067524118
20
-43.1264536748
30
0.0000000000
10
-47.2984728350
20
-42.6519673426
30
0.0000000000
10
-45.1324029248
20
-42.4105615168
30
0.0000000000
10
-42.9163884162
20
-42.4108063948
30
0.0000000000
10
-40.7518563900
20
-42.6524197807
30
0.0000000000
10
-38.7450777804
20
-43.1266999021
30
0.0000000000
10
-37.5096627788
20
-43.6081714631
30
0.0000000000
10
-36.9551638991
20
-43.8854209029
30
0.0000000000
11
-51.0972995228
21
-43.8854209029
31
0.0000000000
11
-49.3704106508
21
-43.1948528384
31
0.0000000000
11
-47.3286730147
21
-42.7014770455
31
0.0000000000
11
-45.1279972137
21
-42.4513946478
31
0.0000000000
11
-42.9199857892
21
-42.4516434893
31
0.0000000000
11
-40.7217869549
21
-42.7018276423
31
0.0000000000
11
-38.6820519760
21
-43.1948530897
31
0.0000000000
11
-36.9551638991
21
-43.8854209029
31
0.0000000000
0
SPLINE
5
3FB
100
AcDbEntity
8
0
100
AcDbSpline
62
7
6
CONTINUOUS
70
0
71
3
72
10
73
6
74
4
42
0.0000001000
43
0.0000001000
44
0.0000000001
12
-1.3669401458
22
0.6916167999
32
0.0000000000
13
-1.4329483543
23
-0.5323065482
33
0.0000000000
40
0.0000000000
40
0.0000000000
40
0.0000000000
40
0.0000000000
40
0.0888357456
40
0.6146485531
40
1.0000000000
40
1.0000000000
40
1.0000000000
40
1.0000000000
10
164.6610181419
20
105.6762596527
30
0.0000000000
10
164.6205404262
20
105.6967397507
30
0.0000000000
10
164.3343388115
20
105.8254857789
30
0.0000000000
10
163.8090128420
20
105.8765497423
30
0.0000000000
10
163.3557651282
20
105.7613788676
30
0.0000000000
10
163.1717022209
20
105.6930038347
30
0.0000000000
11
164.6610181419
21
105.6762596527
31
0.0000000000
11
164.5370440291
21
105.7319215601
31
0.0000000000
11
163.7436870306
21
105.8298735772
31
0.0000000000
11
163.1717022209
21
105.6930038347
31
0.0000000000
0
SPLINE
5
3FC
100
AcDbEntity
8
0
100
AcDbSpline
62
7
6
CONTINUOUS
70
0
71
3
72
8
73
4
74
2
42
0.0000001000
43
0.0000001000
44
0.0000000001
12
-0.3060413206
22
-0.1136871392
32
0.0000000000
13
-0.2904137430
23
-0.1452068715
33
0.0000000000
40
0.0000000000
40
0.0000000000
40
0.0000000000
40
0.0000000000
40
1.0000000000
40
1.0000000000
40
1.0000000000
40
1.0000000000
10
163.1717022209
20
105.6930038347
30
0.0000000000
10
163.0696884474
20
105.6551081217
30
0.0000000000
10
162.9700170452
20
105.6111712915
30
0.0000000000
10
162.8732124642
20
105.5627690010
30
0.0000000000
11
163.1717022209
21
105.6930038347
31
0.0000000000
11
162.8732124642
21
105.5627690010
31
0.0000000000
0
SPLINE
5
3FD
100
AcDbEntity
8
0
100
AcDbSpline
62
7
6
CONTINUOUS
70
0
71
3
72
15
73
11
74
9
42
0.0000001000
43
0.0000001000
44
0.0000000001
12
6.5610124507
22
3.2805062254
32
0.0000000000
13
-6.6001985956
23
3.2873864677
33
0.0000000000
40
0.0000000000
40
0.0000000000
40
0.0000000000
40
0.0000000000
40
0.1419187625
40
0.3009820854
40
0.4666803603
40
0.6266710587
40
0.7701780414
40
0.8917858587
40
0.9961709149
40
1.0000000000
40
1.0000000000
40
1.0000000000
40
1.0000000000
10
-169.0073552857
20
-96.2093159556
30
0.0000000000
10
-168.6969783630
20
-96.0541274942
30
0.0000000000
10
-168.0973950508
20
-95.6060253304
30
0.0000000000
10
-167.3724125940
20
-94.7141500109
30
0.0000000000
10
-166.8297732087
20
-93.6504547284
30
0.0000000000
10
-166.5308928796
20
-92.5328962463
30
0.0000000000
10
-166.5105433253
20
-91.4815356891
30
0.0000000000
10
-166.7810398696
20
-90.5956256655
30
0.0000000000
10
-167.1965466808
20
-90.1734933926
30
0.0000000000
10
-167.4332359054
20
-90.0521874985
30
0.0000000000
10
-167.4416601460
20
-90.0479916043
30
0.0000000000
11
-169.0073552857
21
-96.2093159556
31
0.0000000000
11
-168.1608986164
21
-95.6032905924
31
0.0000000000
11
-167.4165371138
21
-94.7047667750
31
0.0000000000
11
-166.8640517608
21
-93.6221197365
31
0.0000000000
11
-166.5700804446
21
-92.4859326879
31
0.0000000000
11
-166.5700804446
21
-91.4332465556
31
0.0000000000
11
-166.8640517608
21
-90.5910308232
31
0.0000000000
11
-167.4165371138
21
-90.0608691378
31
0.0000000000
11
-167.4416601460
21
-90.0479916043
31
0.0000000000
0
SPLINE
5
3FE
100
AcDbEntity
8
0
100
AcDbSpline
62
7
6
CONTINUOUS
70
0
71
3
72
8
73
4
74
2
42
0.0000001000
43
0.0000001000
44
0.0000000001
12
0.0000000000
22
-0.6930420456
32
0.0000000000
13
0.1307141392
23
-0.6835970052
33
0.0000000000
40
0.0000000000
40
0.0000000000
40
0.0000000000
40
0.0000000000
40
1.0000000000
40
1.0000000000
40
1.0000000000
40
1.0000000000
10
-177.2451492865
20
-99.1374280258
30
0.0000000000
10
-177.2451492865
20
-99.3684420410
30
0.0000000000
10
-177.2267222077
20
-99.6007430938
30
0.0000000000
10
-177.1831508280
20
-99.8286087622
30
0.0000000000
11
-177.2451492865
21
-99.1374280258
31
0.0000000000
11
-177.1831508280
21
-99.8286087622
31
0.0000000000
0
SPLINE
5
3FF
100
AcDbEntity
8
0
100
AcDbSpline
62
7
6
CONTINUOUS
70
0
71
3
72
10
73
6
74
4
42
0.0000001000
43
0.0000001000
44
0.0000000001
12
0.3428893605
22
-1.7932118240
32
0.0000000000
13
1.6346240437
23
-0.8270540985
33
0.0000000000
40
0.0000000000
40
0.0000000000
40
0.0000000000
40
0.0000000000
40
0.1731044872
40
0.6501054550
40
1.0000000000
40
1.0000000000
40
1.0000000000
40
1.0000000000
10
-177.1831508280
20
-99.8286087622
30
0.0000000000
10
-177.1633655990
20
-99.9320797666
30
0.0000000000
10
-177.0695895673
20
-100.3172373495
30
0.0000000000
10
-176.7992142320
20
-100.8782254122
30
0.0000000000
10
-176.3951765181
20
-101.2043461578
30
0.0000000000
10
-176.2045278394
20
-101.3008067303
30
0.0000000000
11
-177.1831508280
21
-99.8286087622
31
0.0000000000
11
-177.1076122636
21
-100.1357423087
31
0.0000000000
11
-176.7047952216
21
-100.9036896763
31
0.0000000000
11
-176.2045278394
21
-101.3008067303
31
0.0000000000
0
SPLINE
5
400
100
AcDbEntity
8
0
100
AcDbSpline
62
7
6
CONTINUOUS
70
0
71
3
72
9
73
5
74
3
42
0.0000001000
43
0.0000001000
44
0.0000000001
12
0.3528892065
22
-0.1822836063
32
0.0000000000
13
0.2674399668
23
-0.2977251130
33
0.0000000000
40
0.0000000000
40
0.0000000000
40
0.0000000000
40
0.0000000000
40
0.3708602311
40
1.0000000000
40
1.0000000000
40
1.0000000000
40
1.0000000000
10
-162.8664934231
20
-93.7901331702
30
0.0000000000
10
-162.8228692322
20
-93.8126670836
30
0.0000000000
10
-162.7195102317
20
-93.9089813343
30
0.0000000000
10
-162.6420151802
20
-94.0131594101
30
0.0000000000
10
-162.5859294739
20
-94.0755963131
30
0.0000000000
11
-162.8664934231
21
-93.7901331702
31
0.0000000000
11
-162.7497630046
21
-93.8851869035
31
0.0000000000
11
-162.5859294739
21
-94.0755963131
31
0.0000000000
0
SPLINE
5
401
100
AcDbEntity
8
0
100
AcDbSpline
62
7
6
CONTINUOUS
70
0
71
3
72
8
73
4
74
2
42
0.0000001000
43
0.0000001000
44
0.0000000001
12
0.1646088432
22
-0.1832492990
32
0.0000000000
13
0.2198009906
23
-0.1099004953
33
0.0000000000
40
0.0000000000
40
0.0000000000
40
0.0000000000
40
0.0000000000
40
1.0000000000
40
1.0000000000
40
1.0000000000
40
1.0000000000
10
-162.5859294739
20
-94.0755963131
30
0.0000000000
10
-162.5310598595
20
-94.1366794128
30
0.0000000000
10
-162.4691742014
20
-94.1947900635
30
0.0000000000
10
-162.3959072045
20
-94.2314235619
30
0.0000000000
11
-162.5859294739
21
-94.0755963131
31
0.0000000000
11
-162.3959072045
21
-94.2314235619
31
0.0000000000
0
SPLINE
5
402
100
AcDbEntity
8
0
100
AcDbSpline
62
7
6
CONTINUOUS
70
0
71
3
72
14
73
10
74
8
42
0.0000001000
43
0.0000001000
44
0.0000000001
12
13.0174133381
22
6.5087066690
32
0.0000000000
13
13.0174133381
23
-6.5087066690
33
0.0000000000
40
0.0000000000
40
0.0000000000
40
0.0000000000
40
0.0000000000
40
0.1277901638
40
0.2721158313
40
0.4242975942
40
0.5760101823
40
0.7280236328
40
0.8722098933
40
1.0000000000
40
1.0000000000
40
1.0000000000
40
1.0000000000
10
22.9367804674
20
-6.8683809078
30
0.0000000000
10
23.4912795950
20
-6.5911313440
30
0.0000000000
10
24.7273275784
20
-6.1094136797
30
0.0000000000
10
26.7356071553
20
-5.6349273475
30
0.0000000000
10
28.9016770655
20
-5.3935215217
30
0.0000000000
10
31.1176915740
20
-5.3937663997
30
0.0000000000
10
33.2822236002
20
-5.6353797856
30
0.0000000000
10
35.2890022099
20
-6.1096599070
30
0.0000000000
10
36.5244172115
20
-6.5911314679
30
0.0000000000
10
37.0789160911
20
-6.8683809078
30
0.0000000000
11
22.9367804674
21
-6.8683809078
31
0.0000000000
11
24.6636693394
21
-6.1778128433
31
0.0000000000
11
26.7054069756
21
-5.6844370503
31
0.0000000000
11
28.9060827765
21
-5.4343546527
31
0.0000000000
11
31.1140942011
21
-5.4346034942
31
0.0000000000
11
33.3122930354
21
-5.6847876472
31
0.0000000000
11
35.3520280142
21
-6.1778130946
31
0.0000000000
11
37.0789160911
21
-6.8683809078
31
0.0000000000
0
SPLINE
5
403
100
AcDbEntity
8
0
100
AcDbSpline
62
7
6
CONTINUOUS
70
0
71
3
72
8
73
4
74
2
42
0.0000001000
43
0.0000001000
44
0.0000000001
12
-0.3076088119
22
-0.1538044060
32
0.0000000000
13
-0.2915842394
23
-0.1837088248
33
0.0000000000
40
0.0000000000
40
0.0000000000
40
0.0000000000
40
0.0000000000
40
1.0000000000
40
1.0000000000
40
1.0000000000
40
1.0000000000
10
-174.4167221618
20
-63.0821983120
30
0.0000000000
10
-174.5192584324
20
-63.1334664473
30
0.0000000000
10
-174.6191525613
20
-63.1901224617
30
0.0000000000
10
-174.7163473078
20
-63.2513587366
30
0.0000000000
11
-174.4167221618
21
-63.0821983120
31
0.0000000000
11
-174.7163473078
21
-63.2513587366
31
0.0000000000
0
SPLINE
5
404
100
AcDbEntity
8
0
100
AcDbSpline
62
7
6
CONTINUOUS
70
0
71
3
72
8
73
4
74
2
42
0.0000001000
43
0.0000001000
44
0.0000000001
12
-0.6072890346
22
-0.3826144894
32
0.0000000000
13
-0.5354824505
23
-0.4799333794
33
0.0000000000
40
0.0000000000
40
0.0000000000
40
0.0000000000
40
0.0000000000
40
1.0000000000
40
1.0000000000
40
1.0000000000
40
1.0000000000
10
-174.7163473078
20
-63.2513587366
30
0.0000000000
10
-174.9187769860
20
-63.3788968998
30
0.0000000000
10
-175.1094974648
20
-63.5263030090
30
0.0000000000
10
-175.2879916149
20
-63.6862808021
30
0.0000000000
11
-174.7163473078
21
-63.2513587366
31
0.0000000000
11
-175.2879916149
21
-63.6862808021
31
0.0000000000
0
SPLINE
5
405
100
AcDbEntity
8
0
100
AcDbSpline
62
7
6
CONTINUOUS
70
0
71
3
72
11
73
7
74
5
42
0.0000001000
43
0.0000001000
44
0.0000000001
12
-3.6028418978
22
-3.2290957169
32
0.0000000000
13
0.0000000000
23
-4.8193130154
33
0.0000000000
40
0.0000000000
40
0.0000000000
40
0.0000000000
40
0.0000000000
40
0.2469935769
40
0.5052902279
40
0.7628245132
40
1.0000000000
40
1.0000000000
40
1.0000000000
40
1.0000000000
10
-175.2879916149
20
-63.6862808021
30
0.0000000000
10
-175.5846178840
20
-63.9521361025
30
0.0000000000
10
-176.1223695554
20
-64.5670393613
30
0.0000000000
10
-176.7391384599
20
-65.6348659004
30
0.0000000000
10
-177.1398374243
20
-66.7834930212
30
0.0000000000
10
-177.2451492865
20
-67.5795058527
30
0.0000000000
10
-177.2451492865
20
-67.9605134895
30
0.0000000000
11
-175.2879916149
21
-63.6862808021
31
0.0000000000
11
-176.0794673837
21
-64.5753667928
31
0.0000000000
11
-176.7040053807
21
-65.6521723608
31
0.0000000000
11
-177.1078695062
21
-66.8257643385
31
0.0000000000
11
-177.2451492865
21
-67.9605134895
31
0.0000000000
0
SPLINE
5
406
100
AcDbEntity
8
0
100
AcDbSpline
62
7
6
CONTINUOUS
70
0
71
3
72
9
73
5
74
3
42
0.0000001000
43
0.0000001000
44
0.0000000001
12
0.2801103567
22
-0.1474325856
32
0.0000000000
13
0.0000000000
23
-0.3100988845
33
0.0000000000
40
0.0000000000
40
0.0000000000
40
0.0000000000
40
0.0000000000
40
0.3566538860
40
1.0000000000
40
1.0000000000
40
1.0000000000
40
1.0000000000
10
152.1354671191
20
63.7228466522
30
0.0000000000
10
152.1687679348
20
63.7053191840
30
0.0000000000
10
152.2504985227
20
63.6297563725
30
0.0000000000
10
152.2666107464
20
63.5198887853
30
0.0000000000
10
152.2666107464
20
63.4533884812
30
0.0000000000
11
152.1354671191
21
63.7228466522
31
0.0000000000
11
152.2187202116
21
63.6470560074
31
0.0000000000
11
152.2666107464
21
63.4533884812
31
0.0000000000
0
SPLINE
5
407
100
AcDbEntity
8
0
100
AcDbSpline
62
7
6
CONTINUOUS
70
0
71
3
72
14
73
10
74
8
42
0.0000001000
43
0.0000001000
44
0.0000000001
12
13.0174133381
22
6.5087066690
32
0.0000000000
13
13.0174133381
23
-6.5087066690
33
0.0000000000
40
0.0000000000
40
0.0000000000
40
0.0000000000
40
0.0000000000
40
0.1277901638
40
0.2721158313
40
0.4242975942
40
0.5760101823
40
0.7280236328
40
0.8722098933
40
1.0000000000
40
1.0000000000
40
1.0000000000
40
1.0000000000
10
96.9708604576
20
30.1486590873
30
0.0000000000
10
97.5253595852
20
30.4259086511
30
0.0000000000
10
98.7614075686
20
30.9076263154
30
0.0000000000
10
100.7696871455
20
31.3821126476
30
0.0000000000
10
102.9357570557
20
31.6235184734
30
0.0000000000
10
105.1517715642
20
31.6232735954
30
0.0000000000
10
107.3163035905
20
31.3816602095
30
0.0000000000
10
109.3230822001
20
30.9073800881
30
0.0000000000
10
110.5584972017
20
30.4259085272
30
0.0000000000
10
111.1129960814
20
30.1486590873
30
0.0000000000
11
96.9708604576
21
30.1486590873
31
0.0000000000
11
98.6977493296
21
30.8392271519
31
0.0000000000
11
100.7394869658
21
31.3326029448
31
0.0000000000
11
102.9401627667
21
31.5826853425
31
0.0000000000
11
105.1481741913
21
31.5824365009
31
0.0000000000
11
107.3463730256
21
31.3322523479
31
0.0000000000
11
109.3861080044
21
30.8392269005
31
0.0000000000
11
111.1129960814
21
30.1486590873
31
0.0000000000
0
SPLINE
5
408
100
AcDbEntity
8
0
100
AcDbSpline
62
7
6
CONTINUOUS
70
0
71
3
72
11
73
7
74
5
42
0.0000001000
43
0.0000001000
44
0.0000000001
12
0.0001819998
22
3.7274523242
32
0.0000000000
13
3.0676729379
23
2.0721196425
33
0.0000000000
40
0.0000000000
40
0.0000000000
40
0.0000000000
40
0.0000000000
40
0.1497030323
40
0.4765839032
40
0.8605677333
40
1.0000000000
40
1.0000000000
40
1.0000000000
40
1.0000000000
10
-100.1279142629
20
-70.4725643049
30
0.0000000000
10
-100.1279051809
20
-70.2865606663
30
0.0000000000
10
-100.0645472934
20
-69.6944088851
30
0.0000000000
10
-99.5862337300
20
-68.7159663698
30
0.0000000000
10
-98.8300820411
20
-67.9727768076
30
0.0000000000
10
-98.3073707560
20
-67.5924332124
30
0.0000000000
10
-98.1647932256
20
-67.4961264329
30
0.0000000000
11
-100.1279142629
21
-70.4725643049
31
0.0000000000
11
-100.0682164833
21
-69.9195129146
31
0.0000000000
11
-99.5678481773
21
-68.8204134975
31
0.0000000000
11
-98.5817972825
21
-67.8005460080
31
0.0000000000
11
-98.1647932256
21
-67.4961264329
31
0.0000000000
0
SPLINE
5
409
100
AcDbEntity
8
0
100
AcDbSpline
62
7
6
CONTINUOUS
70
0
71
3
72
8
73
4
74
2
42
0.0000001000
43
0.0000001000
44
0.0000000001
12
0.4500454659
22
0.3039920059
32
0.0000000000
13
0.4696353109
23
0.2723099978
33
0.0000000000
40
0.0000000000
40
0.0000000000
40
0.0000000000
40
0.0000000000
40
1.0000000000
40
1.0000000000
40
1.0000000000
40
1.0000000000
10
-98.1647932256
20
-67.4961264329
30
0.0000000000
10
-98.0147780703
20
-67.3947957642
30
0.0000000000
10
-97.8610730904
20
-67.2990142534
30
0.0000000000
10
-97.7045279868
20
-67.2082442542
30
0.0000000000
11
-98.1647932256
21
-67.4961264329
31
0.0000000000
11
-97.7045279868
21
-67.2082442542
31
0.0000000000
0
SPLINE
5
40A
100
AcDbEntity
8
0
100
AcDbSpline
62
7
6
CONTINUOUS
70
0
71
3
72
8
73
4
74
2
42
0.0000001000
43
0.0000001000
44
0.0000000001
12
0.4953833391
22
0.2872395513
32
0.0000000000
13
0.5113520629
23
0.2556760315
33
0.0000000000
40
0.0000000000
40
0.0000000000
40
0.0000000000
40
0.0000000000
40
1.0000000000
40
1.0000000000
40
1.0000000000
40
1.0000000000
10
-97.7045279868
20
-67.2082442542
30
0.0000000000
10
-97.5394002071
20
-67.1124977371
30
0.0000000000
10
-97.3711123438
20
-67.0223273134
30
0.0000000000
10
-97.2006616562
20
-66.9371019696
30
0.0000000000
11
-97.7045279868
21
-67.2082442542
31
0.0000000000
11
-97.2006616562
21
-66.9371019696
31
0.0000000000
0
SPLINE
5
40B
100
AcDbEntity
8
0
100
AcDbSpline
62
7
6
CONTINUOUS
70
0
71
3
72
11
73
7
74
5
42
0.0000001000
43
0.0000001000
44
0.0000000001
12
0.0001819998
22
3.7274523242
32
0.0000000000
13
3.0676729379
23
2.0721196425
33
0.0000000000
40
0.0000000000
40
0.0000000000
40
0.0000000000
40
0.0000000000
40
0.1497030323
40
0.4765839032
40
0.8605677333
40
1.0000000000
40
1.0000000000
40
1.0000000000
40
1.0000000000
10
-26.0938342727
20
-33.4555243098
30
0.0000000000
10
-26.0938251907
20
-33.2695206712
30
0.0000000000
10
-26.0304673032
20
-32.6773688899
30
0.0000000000
10
-25.5521537397
20
-31.6989263747
30
0.0000000000
10
-24.7960020509
20
-30.9557368125
30
0.0000000000
10
-24.2732907657
20
-30.5753932173
30
0.0000000000
10
-24.1307132354
20
-30.4790864377
30
0.0000000000
11
-26.0938342727
21
-33.4555243098
31
0.0000000000
11
-26.0341364931
21
-32.9024729195
31
0.0000000000
11
-25.5337681871
21
-31.8033735023
31
0.0000000000
11
-24.5477172923
21
-30.7835060129
31
0.0000000000
11
-24.1307132354
21
-30.4790864377
31
0.0000000000
0
SPLINE
5
40C
100
AcDbEntity
8
0
100
AcDbSpline
62
7
6
CONTINUOUS
70
0
71
3
72
8
73
4
74
2
42
0.0000001000
43
0.0000001000
44
0.0000000001
12
0.4500454659
22
0.3039920059
32
0.0000000000
13
0.4696353109
23
0.2723099978
33
0.0000000000
40
0.0000000000
40
0.0000000000
40
0.0000000000
40
0.0000000000
40
1.0000000000
40
1.0000000000
40
1.0000000000
40
1.0000000000
10
-24.1307132354
20
-30.4790864377
30
0.0000000000
10
-23.9806980801
20
-30.3777557691
30
0.0000000000
10
-23.8269931002
20
-30.2819742583
30
0.0000000000
10
-23.6704479965
20
-30.1912042591
30
0.0000000000
11
-24.1307132354
21
-30.4790864377
31
0.0000000000
11
-23.6704479965
21
-30.1912042591
31
0.0000000000
0
SPLINE
5
40D
100
AcDbEntity
8
0
100
AcDbSpline
62
7
6
CONTINUOUS
70
0
71
3
72
8
73
4
74
2
42
0.0000001000
43
0.0000001000
44
0.0000000001
12
0.4953833391
22
0.2872395513
32
0.0000000000
13
0.5113520629
23
0.2556760315
33
0.0000000000
40
0.0000000000
40
0.0000000000
40
0.0000000000
40
0.0000000000
40
1.0000000000
40
1.0000000000
40
1.0000000000
40
1.0000000000
10
-23.6704479965
20
-30.1912042591
30
0.0000000000
10
-23.5053202168
20
-30.0954577420
30
0.0000000000
10
-23.3370323536
20
-30.0052873183
30
0.0000000000
10
-23.1665816660
20
-29.9200619745
30
0.0000000000
11
-23.6704479965
21
-30.1912042591
31
0.0000000000
11
-23.1665816660
21
-29.9200619745
31
0.0000000000
0
SPLINE
5
40E
100
AcDbEntity
8
0
100
AcDbSpline
62
7
6
CONTINUOUS
70
0
71
3
72
9
73
5
74
3
42
0.0000001000
43
0.0000001000
44
0.0000000001
12
-0.3580974819
22
-0.1802407115
32
0.0000000000
13
-0.2704982833
23
-0.3005007227
33
0.0000000000
40
0.0000000000
40
0.0000000000
40
0.0000000000
40
0.0000000000
40
0.3753485173
40
1.0000000000
40
1.0000000000
40
1.0000000000
40
1.0000000000
10
-162.6300070463
20
-58.7148795398
30
0.0000000000
10
-162.6748108326
20
-58.7374305678
30
0.0000000000
10
-162.7794128930
20
-58.8348187140
30
0.0000000000
10
-162.8576565390
20
-58.9400908351
30
0.0000000000
10
-162.9139789236
20
-59.0026602425
30
0.0000000000
11
-162.6300070463
21
-58.7148795398
31
0.0000000000
11
-162.7496217442
21
-58.8116503061
31
0.0000000000
11
-162.9139789236
21
-59.0026602425
31
0.0000000000
0
SPLINE
5
40F
100
AcDbEntity
8
0
100
AcDbSpline
62
7
6
CONTINUOUS
70
0
71
3
72
8
73
4
74
2
42
0.0000001000
43
0.0000001000
44
0.0000000001
12
-0.1638043494
22
-0.1819727828
32
0.0000000000
13
-0.2184984824
23
-0.1092492412
33
0.0000000000
40
0.0000000000
40
0.0000000000
40
0.0000000000
40
0.0000000000
40
1.0000000000
40
1.0000000000
40
1.0000000000
40
1.0000000000
10
-162.9139789236
20
-59.0026602425
30
0.0000000000
10
-162.9685803734
20
-59.0633178367
30
0.0000000000
10
-163.0301810410
20
-59.1209783535
30
0.0000000000
10
-163.1030138685
20
-59.1573947673
30
0.0000000000
11
-162.9139789236
21
-59.0026602425
31
0.0000000000
11
-163.1030138685
21
-59.1573947673
31
0.0000000000
0
SPLINE
5
410
100
AcDbEntity
8
0
100
AcDbSpline
62
7
6
CONTINUOUS
70
0
71
3
72
9
73
5
74
3
42
0.0000001000
43
0.0000001000
44
0.0000000001
12
0.6163315107
22
-0.3081657554
32
0.0000000000
13
0.6265173373
23
0.3057196968
33
0.0000000000
40
0.0000000000
40
0.0000000000
40
0.0000000000
40
0.0000000000
40
0.6080938427
40
1.0000000000
40
1.0000000000
40
1.0000000000
40
1.0000000000
10
10.4209904404
20
-67.5734980726
30
0.0000000000
10
10.5459195727
20
-67.6359626388
30
0.0000000000
10
10.7751337762
20
-67.7086681029
30
0.0000000000
10
11.0102987136
20
-67.6547492378
30
0.0000000000
10
11.0921440476
20
-67.6148114273
30
0.0000000000
11
10.4209904404
21
-67.5734980726
31
0.0000000000
11
10.8268875155
21
-67.6775632223
31
0.0000000000
11
11.0921440476
21
-67.6148114273
31
0.0000000000
0
SPLINE
5
411
100
AcDbEntity
8
0
100
AcDbSpline
62
7
6
CONTINUOUS
70
0
71
3
72
9
73
5
74
3
42
0.0000001000
43
0.0000001000
44
0.0000000001
12
0.6163315107
22
-0.3081657554
32
0.0000000000
13
0.6265173373
23
0.3057196968
33
0.0000000000
40
0.0000000000
40
0.0000000000
40
0.0000000000
40
0.0000000000
40
0.6080938427
40
1.0000000000
40
1.0000000000
40
1.0000000000
40
1.0000000000
10
84.4550704306
20
-30.5564580775
30
0.0000000000
10
84.5799995629
20
-30.6189226436
30
0.0000000000
10
84.8092137664
20
-30.6916281078
30
0.0000000000
10
85.0443787038
20
-30.6377092427
30
0.0000000000
10
85.1262240378
20
-30.5977714321
30
0.0000000000
11
84.4550704306
21
-30.5564580775
31
0.0000000000
11
84.8609675057
21
-30.6605232272
31
0.0000000000
11
85.1262240378
21
-30.5977714321
31
0.0000000000
0
SPLINE
5
412
100
AcDbEntity
8
0
100
AcDbSpline
62
7
6
CONTINUOUS
70
0
71
3
72
9
73
5
74
3
42
0.0000001000
43
0.0000001000
44
0.0000000001
12
-0.2036315225
22
-0.1018157613
32
0.0000000000
13
-0.2056501249
23
0.1082413731
33
0.0000000000
40
0.0000000000
40
0.0000000000
40
0.0000000000
40
0.0000000000
40
0.7865491733
40
1.0000000000
40
1.0000000000
40
1.0000000000
40
1.0000000000
10
-163.4565670534
20
-59.3341715654
30
0.0000000000
10
-163.5099557886
20
-59.3608659330
30
0.0000000000
10
-163.5920399191
20
-59.3826532173
30
0.0000000000
10
-163.6643447536
20
-59.3550951333
30
0.0000000000
10
-163.6789768166
20
-59.3473937297
30
0.0000000000
11
-163.4565670534
21
-59.3341715654
31
0.0000000000
11
-163.6330321432
21
-59.3646114880
31
0.0000000000
11
-163.6789768166
21
-59.3473937297
31
0.0000000000
0
SPLINE
5
413
100
AcDbEntity
8
0
100
AcDbSpline
62
7
6
CONTINUOUS
70
0
71
3
72
11
73
7
74
5
42
0.0000001000
43
0.0000001000
44
0.0000000001
12
0.0001819998
22
3.7274523242
32
0.0000000000
13
3.0676729379
23
2.0721196425
33
0.0000000000
40
0.0000000000
40
0.0000000000
40
0.0000000000
40
0.0000000000
40
0.1497030323
40
0.4765839032
40
0.8605677333
40
1.0000000000
40
1.0000000000
40
1.0000000000
40
1.0000000000
10
47.9402457176
20
3.5615156854
30
0.0000000000
10
47.9402547995
20
3.7475193239
30
0.0000000000
10
48.0036126870
20
4.3396711052
30
0.0000000000
10
48.4819262505
20
5.3181136204
30
0.0000000000
10
49.2380779394
20
6.0613031826
30
0.0000000000
10
49.7607892245
20
6.4416467779
30
0.0000000000
10
49.9033667549
20
6.5379535574
30
0.0000000000
11
47.9402457176
21
3.5615156854
31
0.0000000000
11
47.9999434971
21
4.1145670756
31
0.0000000000
11
48.5003118032
21
5.2136664928
31
0.0000000000
11
49.4863626979
21
6.2335339822
31
0.0000000000
11
49.9033667549
21
6.5379535574
31
0.0000000000
0
SPLINE
5
414
100
AcDbEntity
8
0
100
AcDbSpline
62
7
6
CONTINUOUS
70
0
71
3
72
8
73
4
74
2
42
0.0000001000
43
0.0000001000
44
0.0000000001
12
0.4500454659
22
0.3039920059
32
0.0000000000
13
0.4696353109
23
0.2723099978
33
0.0000000000
40
0.0000000000
40
0.0000000000
40
0.0000000000
40
0.0000000000
40
1.0000000000
40
1.0000000000
40
1.0000000000
40
1.0000000000
10
49.9033667549
20
6.5379535574
30
0.0000000000
10
50.0533819102
20
6.6392842260
30
0.0000000000
10
50.2070868901
20
6.7350657368
30
0.0000000000
10
50.3636319937
20
6.8258357360
30
0.0000000000
11
49.9033667549
21
6.5379535574
31
0.0000000000
11
50.3636319937
21
6.8258357360
31
0.0000000000
0
SPLINE
5
415
100
AcDbEntity
8
0
100
AcDbSpline
62
7
6
CONTINUOUS
70
0
71
3
72
8
73
4
74
2
42
0.0000001000
43
0.0000001000
44
0.0000000001
12
0.4953833391
22
0.2872395513
32
0.0000000000
13
0.5113520629
23
0.2556760315
33
0.0000000000
40
0.0000000000
40
0.0000000000
40
0.0000000000
40
0.0000000000
40
1.0000000000
40
1.0000000000
40
1.0000000000
40
1.0000000000
10
50.3636319937
20
6.8258357360
30
0.0000000000
10
50.5287597734
20
6.9215822531
30
0.0000000000
10
50.6970476366
20
7.0117526768
30
0.0000000000
10
50.8674983243
20
7.0969780207
30
0.0000000000
11
50.3636319937
21
6.8258357360
31
0.0000000000
11
50.8674983243
21
7.0969780207
31
0.0000000000
0
SPLINE
5
416
100
AcDbEntity
8
0
100
AcDbSpline
62
7
6
CONTINUOUS
70
0
71
3
72
9
73
5
74
3
42
0.0000001000
43
0.0000001000
44
0.0000000001
12
0.6163315107
22
-0.3081657554
32
0.0000000000
13
0.6265173373
23
0.3057196968
33
0.0000000000
40
0.0000000000
40
0.0000000000
40
0.0000000000
40
0.0000000000
40
0.6080938427
40
1.0000000000
40
1.0000000000
40
1.0000000000
40
1.0000000000
10
158.4891504209
20
6.4605819176
30
0.0000000000
10
158.6140795531
20
6.3981173515
30
0.0000000000
10
158.8432937566
20
6.3254118873
30
0.0000000000
10
159.0784586940
20
6.3793307524
30
0.0000000000
10
159.1603040281
20
6.4192685630
30
0.0000000000
11
158.4891504209
21
6.4605819176
31
0.0000000000
11
158.8950474960
21
6.3565167679
31
0.0000000000
11
159.1603040281
21
6.4192685630
31
0.0000000000
0
SPLINE
5
417
100
AcDbEntity
8
0
100
AcDbSpline
62
7
6
CONTINUOUS
70
0
71
3
72
9
73
5
74
3
42
0.0000001000
43
0.0000001000
44
0.0000000001
12
0.6163315107
22
-0.3081657554
32
0.0000000000
13
0.6265173373
23
0.3057196968
33
0.0000000000
40
0.0000000000
40
0.0000000000
40
0.0000000000
40
0.0000000000
40
0.6080938427
40
1.0000000000
40
1.0000000000
40
1.0000000000
40
1.0000000000
10
-63.6130895498
20
-104.5905380678
30
0.0000000000
10
-63.4881604176
20
-104.6530026339
30
0.0000000000
10
-63.2589462141
20
-104.7257080980
30
0.0000000000
10
-63.0237812767
20
-104.6717892329
30
0.0000000000
10
-62.9419359426
20
-104.6318514224
30
0.0000000000
11
-63.6130895498
21
-104.5905380678
31
0.0000000000
11
-63.2071924747
21
-104.6946032174
31
0.0000000000
11
-62.9419359426
21
-104.6318514224
31
0.0000000000
0
SPLINE
5
418
100
AcDbEntity
8
0
100
AcDbSpline
62
7
6
CONTINUOUS
70
0
71
3
72
11
73
7
74
5
42
0.0000001000
43
0.0000001000
44
0.0000000001
12
0.0001819998
22
3.7274523242
32
0.0000000000
13
3.0676729379
23
2.0721196425
33
0.0000000000
40
0.0000000000
40
0.0000000000
40
0.0000000000
40
0.0000000000
40
0.1497030323
40
0.4765839032
40
0.8605677333
40
1.0000000000
40
1.0000000000
40
1.0000000000
40
1.0000000000
10
121.9743257078
20
40.5785556805
30
0.0000000000
10
121.9743347898
20
40.7645593191
30
0.0000000000
10
122.0376926773
20
41.3567111003
30
0.0000000000
10
122.5160062407
20
42.3351536155
30
0.0000000000
10
123.2721579296
20
43.0783431777
30
0.0000000000
10
123.7948692147
20
43.4586867730
30
0.0000000000
10
123.9374467451
20
43.5549935525
30
0.0000000000
11
121.9743257078
21
40.5785556805
31
0.0000000000
11
122.0340234874
21
41.1316070707
31
0.0000000000
11
122.5343917934
21
42.2307064879
31
0.0000000000
11
123.5204426882
21
43.2505739773
31
0.0000000000
11
123.9374467451
21
43.5549935525
31
0.0000000000
0
SPLINE
5
419
100
AcDbEntity
8
0
100
AcDbSpline
62
7
6
CONTINUOUS
70
0
71
3
72
8
73
4
74
2
42
0.0000001000
43
0.0000001000
44
0.0000000001
12
0.4500454659
22
0.3039920059
32
0.0000000000
13
0.4696353109
23
0.2723099978
33
0.0000000000
40
0.0000000000
40
0.0000000000
40
0.0000000000
40
0.0000000000
40
1.0000000000
40
1.0000000000
40
1.0000000000
40
1.0000000000
10
123.9374467451
20
43.5549935525
30
0.0000000000
10
124.0874619004
20
43.6563242211
30
0.0000000000
10
124.2411668803
20
43.7521057319
30
0.0000000000
10
124.3977119839
20
43.8428757312
30
0.0000000000
11
123.9374467451
21
43.5549935525
31
0.0000000000
11
124.3977119839
21
43.8428757312
31
0.0000000000
0
SPLINE
5
41A
100
AcDbEntity
8
0
100
AcDbSpline
62
7
6
CONTINUOUS
70
0
71
3
72
8
73
4
74
2
42
0.0000001000
43
0.0000001000
44
0.0000000001
12
0.4953833391
22
0.2872395513
32
0.0000000000
13
0.5113520629
23
0.2556760315
33
0.0000000000
40
0.0000000000
40
0.0000000000
40
0.0000000000
40
0.0000000000
40
1.0000000000
40
1.0000000000
40
1.0000000000
40
1.0000000000
10
124.3977119839
20
43.8428757312
30
0.0000000000
10
124.5628397636
20
43.9386222483
30
0.0000000000
10
124.7311276269
20
44.0287926720
30
0.0000000000
10
124.9015783145
20
44.1140180158
30
0.0000000000
11
124.3977119839
21
43.8428757312
31
0.0000000000
11
124.9015783145
21
44.1140180158
31
0.0000000000
0
SPLINE
5
41B
100
AcDbEntity
8
0
100
AcDbSpline
62
7
6
CONTINUOUS
70
0
71
3
72
15
73
11
74
9
42
0.0000001000
43
0.0000001000
44
0.0000000001
12
6.5610124507
22
3.2805062254
32
0.0000000000
13
-6.6001985956
23
3.2873864677
33
0.0000000000
40
0.0000000000
40
0.0000000000
40
0.0000000000
40
0.0000000000
40
0.1419187625
40
0.3009820854
40
0.4666803603
40
0.6266710587
40
0.7701780414
40
0.8917858587
40
0.9961709149
40
1.0000000000
40
1.0000000000
40
1.0000000000
40
1.0000000000
10
159.7972979661
20
68.1930106703
30
0.0000000000
10
160.1076748887
20
68.3481991316
30
0.0000000000
10
160.7072582010
20
68.7963012955
30
0.0000000000
10
161.4322406577
20
69.6881766149
30
0.0000000000
10
161.9748800430
20
70.7518718975
30
0.0000000000
10
162.2737603721
20
71.8694303796
30
0.0000000000
10
162.2941099264
20
72.9207909367
30
0.0000000000
10
162.0236133821
20
73.8067009603
30
0.0000000000
10
161.6081065709
20
74.2288332333
30
0.0000000000
10
161.3714173463
20
74.3501391274
30
0.0000000000
10
161.3629931057
20
74.3543350215
30
0.0000000000
11
159.7972979661
21
68.1930106703
31
0.0000000000
11
160.6437546353
21
68.7990360335
31
0.0000000000
11
161.3881161379
21
69.6975598509
31
0.0000000000
11
161.9406014910
21
70.7802068894
31
0.0000000000
11
162.2345728072
21
71.9163939380
31
0.0000000000
11
162.2345728072
21
72.9690800702
31
0.0000000000
11
161.9406014910
21
73.8112958026
31
0.0000000000
11
161.3881161379
21
74.3414574881
31
0.0000000000
11
161.3629931057
21
74.3543350215
31
0.0000000000
0
ENDSEC
0
SECTION
2
OBJECTS
0
DICTIONARY
5
41C
100
AcDbDictionary
3
ACAD_GROUP
350
41D
3
ACAD_MLINESTYLE
350
41E
0
DICTIONARY
5
41D
102
{ACAD_REACTORS
330
41C
102
}
100
AcDbDictionary
0
DICTIONARY
5
41E
102
{ACAD_REACTORS
330
41C
102
}
100
AcDbDictionary
3
STANDARD
350
41F
0
MLINESTYLE
5
41F
102
{ACAD_REACTORS
330
41E
102
}
100
AcDbMlineStyle
2
STANDARD
70
0
3

62
256
51
90.0
52
90.0
71
2
49
0.5
62
256
6
BYLAYER
49
-0.5
62
256
6
BYLAYER
0
ENDSEC
0
EOF
