0
SECTION
2
HEADER
9
$ACADVER
1
AC1014
9
$HANDSEED
5
       2C9
9
$EXTMAX
10
297.0000000000
20
210.0000000000
9
$EXTMIN
10
0.0000000000
20
0.0000000000
9
$LIMMIN
10
0.0000000000
20
0.0000000000
9
$LIMMAX
10
297.0000000000
20
210.0000000000
9
$VIEWCTR
10
148.5000000000
20
105.0000000000
9
$VIEWSIZE
40
210.0000000000
9
$CLAYER
8
0
9
$LTSCALE
40
16.3350000000
9
$CELTYPE
6
BYLAYER
9
$DIMSCALE
40
1
9
$DIMASZ
40
3.0000000000
9
$DIMEXO
40
1.8562500000
9
$DIMDLI
40
11.2860000000
9
$DIMEXE
40
5.3460000000
9
$DIMCEN
40
2.6730000000
9
$DIMLFAC
40
1.0000000000
9
$DIMTXT
40
3.0000000000
9
$DIMTOL
70
1
9
$DIMLIM
70
0
9
$DIMTFAC
40
1.0000000000
9
$DIMTP
40
0.0100000000
9
$DIMTM
40
0.0100000000
9
$MEASUREMENT
70
1
0
ENDSEC
0
SECTION
2
CLASSES
0
ENDSEC
0
SECTION
2
TABLES
0
TABLE
2
VPORT
5
8
100
AcDbSymbolTable
70
2
0
VPORT
5
1F4
100
AcDbSymbolTableRecord
100
AcDbViewportTableRecord
2
*ACTIVE
70
0
10
0.0
20
0.0
11
1.0
21
1.0
12
148.5000000000
22
105.0000000000
13
0.0
23
0.0
14
1.0
24
1.0
15
0.0
25
0.0
16
0.0
26
0.0
36
1.0
17
0.0
27
0.0
37
0.0
40
210.0000000000
41
1.4142857143
42
50.0
43
0.0
44
0.0
50
0.0
51
0.0
71
0
72
100
73
1
74
1
75
0
76
0
77
0
78
0
0
ENDTAB
0
TABLE
2
LTYPE
5
5
100
AcDbSymbolTable
70
6
0
LTYPE
5
14
100
AcDbSymbolTableRecord
100
AcDbLinetypeTableRecord
2
BYBLOCK
70
0
3

72
65
73
0
40
0.0
0
LTYPE
5
15
100
AcDbSymbolTableRecord
100
AcDbLinetypeTableRecord
2
BYLAYER
70
0
3

72
65
73
0
40
0.0
0
LTYPE
5
16
100
AcDbSymbolTableRecord
100
AcDbLinetypeTableRecord
2
CONTINUOUS
70
64
3
Solid line
72
65
73
0
40
0
0
LTYPE
5
1F5
100
AcDbSymbolTableRecord
100
AcDbLinetypeTableRecord
2
CENTER
70
64
3
____ _ ____ _ ____ _ ____ _ ____ _ ____ _ ____
72
65
73
4
40
0.6
49
0.375
74
0
49
-0.075
74
0
49
0.075
74
0
49
-0.075
74
0
0
LTYPE
5
1F6
100
AcDbSymbolTableRecord
100
AcDbLinetypeTableRecord
2
HIDDEN
70
64
3
- - - - - - - - - - - - - - - - - - - -
72
65
73
2
40
0.2
49
0.1
74
0
49
-0.1
74
0
0
LTYPE
5
1F7
100
AcDbSymbolTableRecord
100
AcDbLinetypeTableRecord
2
PHANTOM
70
64
3
_____ _ _ _____ _ _ _____ _ _ _____
72
65
73
6
40
0.8
49
0.45
74
0
49
-0.05
74
0
49
0.1
74
0
49
-0.05
74
0
49
0.1
74
0
49
-0.05
74
0
0
LTYPE
5
1F8
100
AcDbSymbolTableRecord
100
AcDbLinetypeTableRecord
2
DOT
70
64
3
. . . . . . . . . . . . . . . . . . . .
72
65
73
2
40
0.2
49
0.1
74
0
49
-0.1
74
0
0
LTYPE
5
1F9
100
AcDbSymbolTableRecord
100
AcDbLinetypeTableRecord
2
DASHED
70
64
3
- - - - - - - - - - - - - - - - - - - -
72
65
73
2
40
0.2
49
0.1
74
0
49
-0.1
74
0
0
ENDTAB
0
TABLE
2
LAYER
5
2
100
AcDbSymbolTable
70
36
0
LAYER
5
10
100
AcDbSymbolTableRecord
100
AcDbLayerTableRecord
2
0
70
0
62
7
6
CONTINUOUS
0
LAYER
5
1FA
100
AcDbSymbolTableRecord
100
AcDbLayerTableRecord
2
DEFAULT_1
70
0
62
7
6
CENTER
0
LAYER
5
1FB
100
AcDbSymbolTableRecord
100
AcDbLayerTableRecord
2
DEFAULT_2
70
0
62
8
6
HIDDEN
0
LAYER
5
1FC
100
AcDbSymbolTableRecord
100
AcDbLayerTableRecord
2
DEFAULT_3
70
0
62
7
6
PHANTOM
0
LAYER
5
1FD
100
AcDbSymbolTableRecord
100
AcDbLayerTableRecord
2
ASSI
70
0
62
7
6
CONTINUOUS
0
LAYER
5
1FE
100
AcDbSymbolTableRecord
100
AcDbLayerTableRecord
2
COORDINATE
70
0
62
7
6
CONTINUOUS
0
LAYER
5
1FF
100
AcDbSymbolTableRecord
100
AcDbLayerTableRecord
2
COORD_ORIGINE
70
0
62
7
6
CONTINUOUS
0
LAYER
5
200
100
AcDbSymbolTableRecord
100
AcDbLayerTableRecord
2
PIANI
70
0
62
7
6
CONTINUOUS
0
LAYER
5
201
100
AcDbSymbolTableRecord
100
AcDbLayerTableRecord
2
PIANI_ORIGINE
70
0
62
7
6
CONTINUOUS
0
LAYER
5
202
100
AcDbSymbolTableRecord
100
AcDbLayerTableRecord
2
RACCORDO
70
0
62
7
6
CONTINUOUS
0
LAYER
5
203
100
AcDbSymbolTableRecord
100
AcDbLayerTableRecord
2
TRASH
70
0
62
7
6
CONTINUOUS
0
ENDTAB
0
TABLE
2
STYLE
5
3
100
AcDbSymbolTable
70
1
0
STYLE
5
11
100
AcDbSymbolTableRecord
100
AcDbTextStyleTableRecord
2
STANDARD
70
0
40
0.0
41
0.8000000000
50
0.0
71
0
42
0.2
3
txt
4

0
ENDTAB
0
TABLE
2
VIEW
5
6
100
AcDbSymbolTable
70
0
0
ENDTAB
0
TABLE
2
UCS
5
7
100
AcDbSymbolTable
70
0
0
ENDTAB
0
TABLE
2
APPID
5
9
100
AcDbSymbolTable
70
1
0
APPID
5
204
100
AcDbSymbolTableRecord
100
AcDbRegAppTableRecord
2
ACAD
70
0
0
ENDTAB
0
TABLE
2
DIMSTYLE
5
A
100
AcDbSymbolTable
70
1
0
DIMSTYLE
105
205
100
AcDbSymbolTableRecord
100
AcDbDimStyleTableRecord
2
STANDARD
70
0
3

4

5

6

7

40
1.0
41
3.0000000000
42
0.0625
43
0.38
44
0.18
45
0.0
46
0.0
47
0.0100000000
48
0.0100000000
140
3.0000000000
141
0.09
142
0.0
143
25.4
144
1.0000000000
145
0.0
146
1.0000000000
147
0.09
71
1
72
0
73
0
74
0
75
0
76
0
77
1
78
8
170
0
171
2
172
0
173
0
174
0
175
0
176
0
177
0
178
0
270
2
271
2
272
2
273
2
274
2
340
11
275
0
280
0
281
0
282
0
283
1
284
8
285
0
286
0
287
3
288
0
0
ENDTAB
0
TABLE
2
BLOCK_RECORD
5
1
100
AcDbSymbolTable
70
0
0
BLOCK_RECORD
5
1B
100
AcDbSymbolTableRecord
100
AcDbBlockTableRecord
2
*MODEL_SPACE
0
BLOCK_RECORD
5
1C
100
AcDbSymbolTableRecord
100
AcDbBlockTableRecord
2
*PAPER_SPACE
0
ENDTAB
0
ENDSEC
0
SECTION
2
BLOCKS
0
BLOCK
5
1E
100
AcDbEntity
8
0
100
AcDbBlockBegin
2
*MODEL_SPACE
70
0
10
0.0
20
0.0
30
0.0
3
*MODEL_SPACE
1

0
ENDBLK
5
1F
100
AcDbEntity
8
0
100
AcDbBlockEnd
0
BLOCK
5
20
100
AcDbEntity
8
0
100
AcDbBlockBegin
2
*PAPER_SPACE
70
0
10
0.0
20
0.0
30
0.0
3
*PAPER_SPACE
1

0
ENDBLK
5
21
100
AcDbEntity
8
0
100
AcDbBlockEnd
0
ENDSEC
0
SECTION
2
ENTITIES
0
LINE
5
206
100
AcDbEntity
8
0
100
AcDbLine
62
7
6
CONTINUOUS
10
-171.2609471781
20
-102.8327919280
11
-171.2609471781
21
-68.1917757766
0
LINE
5
207
100
AcDbEntity
8
0
100
AcDbLine
62
7
6
CONTINUOUS
10
-170.2002870063
20
-103.3631220139
11
-170.2002870063
21
-68.7221058625
0
LINE
5
208
100
AcDbEntity
8
0
100
AcDbLine
62
7
6
CONTINUOUS
10
-162.9472386791
20
-91.5190834290
11
-162.9472386791
21
-91.4037052489
0
LINE
5
209
100
AcDbEntity
8
0
100
AcDbLine
62
7
6
CONTINUOUS
10
-162.9472386791
20
-53.4139656625
11
-162.9472386791
21
-54.7130037682
0
LINE
5
20A
100
AcDbEntity
8
0
100
AcDbLine
62
9
6
CONTINUOUS
10
-162.0685590227
20
-92.5797436008
11
-162.0685590227
21
-91.2807054951
0
LINE
5
20B
100
AcDbEntity
8
0
100
AcDbLine
62
9
6
CONTINUOUS
10
-162.0685590227
20
-54.4746258343
11
-162.0685590227
21
-55.7736639399
0
LINE
5
20C
100
AcDbEntity
8
0
100
AcDbLine
62
7
6
CONTINUOUS
10
-171.2609471781
20
-102.8327919280
11
-170.2002870063
21
-103.3631220139
0
LINE
5
20D
100
AcDbEntity
8
0
100
AcDbLine
62
9
6
CONTINUOUS
10
-166.4879764051
20
-98.1729898565
11
-165.4273162333
21
-98.7033199424
0
LINE
5
20E
100
AcDbEntity
8
0
100
AcDbLine
62
9
6
CONTINUOUS
10
-164.0131026710
20
-96.9355529895
11
-162.9524424992
21
-97.4658830754
0
LINE
5
20F
100
AcDbEntity
8
0
100
AcDbLine
62
7
6
CONTINUOUS
10
-156.7652581638
20
-96.6456075926
11
-156.7652581638
21
-95.3465694869
0
LINE
5
210
100
AcDbEntity
8
0
100
AcDbLine
62
9
6
CONTINUOUS
10
-156.7652581638
20
-58.4253135131
11
-156.7652581638
21
-57.1262762637
0
LINE
5
211
100
AcDbEntity
8
0
100
AcDbLine
62
7
6
CONTINUOUS
10
-156.7652581638
20
-58.5404898261
11
-156.7652581638
21
-59.8395279318
0
LINE
5
212
100
AcDbEntity
8
0
100
AcDbLine
62
7
6
CONTINUOUS
10
-162.0685590227
20
-92.5797436008
11
-161.5431643503
21
-92.8424409370
0
LINE
5
213
100
AcDbEntity
8
0
100
AcDbLine
62
7
6
CONTINUOUS
10
-162.0685590227
20
-91.2807054951
11
-161.8265174175
21
-91.4017262977
0
LINE
5
214
100
AcDbEntity
8
0
100
AcDbLine
62
9
6
CONTINUOUS
10
-166.4879764051
20
-70.6766832864
11
-165.4273162333
21
-71.2070133723
0
LINE
5
215
100
AcDbEntity
8
0
100
AcDbLine
62
9
6
CONTINUOUS
10
-170.2002870063
20
-68.7221058625
11
-171.2609471781
21
-68.1917757766
0
LINE
5
216
100
AcDbEntity
8
0
100
AcDbLine
62
9
6
CONTINUOUS
10
-164.0131026710
20
-69.4392464193
11
-162.9524424992
21
-69.9695765052
0
LINE
5
217
100
AcDbEntity
8
0
100
AcDbLine
62
9
6
CONTINUOUS
10
-167.3718598816
20
-63.8437906850
11
-168.4325200534
21
-63.3134605991
0
LINE
5
218
100
AcDbEntity
8
0
100
AcDbLine
62
9
6
CONTINUOUS
10
-156.7970418883
20
-59.9030953808
11
-156.4117047732
21
-60.0957639384
0
LINE
5
219
100
AcDbEntity
8
0
100
AcDbLine
62
7
6
CONTINUOUS
10
-157.8259183356
20
-58.0101597402
11
-156.7652581638
21
-58.5404898261
0
LINE
5
21A
100
AcDbEntity
8
0
100
AcDbLine
62
7
6
CONTINUOUS
10
-162.0685590227
20
-55.7736639399
11
-156.7652581638
21
-58.4253143694
0
LINE
5
21B
100
AcDbEntity
8
0
100
AcDbLine
62
7
6
CONTINUOUS
10
-162.0685590227
20
-54.4746258343
11
-156.7652581638
21
-57.1262762637
0
LINE
5
21C
100
AcDbEntity
8
0
100
AcDbLine
62
7
6
CONTINUOUS
10
144.8157840123
20
101.0888660268
11
-162.0685590227
21
-52.3533054907
0
LINE
5
21D
100
AcDbEntity
8
0
100
AcDbLine
62
9
6
CONTINUOUS
10
154.3617255583
20
98.4372155973
11
-156.7652581638
21
-57.1262762637
0
LINE
5
21E
100
AcDbEntity
8
0
100
AcDbLine
62
7
6
CONTINUOUS
10
-168.4325200534
20
-63.3134605991
11
-157.8259183356
21
-58.0101597402
0
LINE
5
21F
100
AcDbEntity
8
0
100
AcDbLine
62
7
6
CONTINUOUS
10
156.1294925112
20
98.9675456832
11
166.7360942290
21
104.2708465421
0
LINE
5
220
100
AcDbEntity
8
0
100
AcDbLine
62
7
6
CONTINUOUS
10
-167.3718598816
20
-63.8437906850
11
-156.7652581638
21
-58.5404898261
0
LINE
5
221
100
AcDbEntity
8
0
100
AcDbLine
62
7
6
CONTINUOUS
10
157.1901526830
20
98.4372155973
11
167.7967544008
21
103.7405164562
0
LINE
5
222
100
AcDbEntity
8
0
100
AcDbLine
62
7
6
CONTINUOUS
10
155.5830935059
20
96.9622953730
11
155.7759391207
21
97.0587181804
0
LINE
5
223
100
AcDbEntity
8
0
100
AcDbLine
62
7
6
CONTINUOUS
10
-156.4117047732
20
-60.0957639384
11
-155.7045928635
21
-59.7422079835
0
LINE
5
224
100
AcDbEntity
8
0
100
AcDbLine
62
9
6
CONTINUOUS
10
156.1294873828
20
96.1748321396
11
-155.7045928635
21
-59.7422079835
0
LINE
5
225
100
AcDbEntity
8
0
100
AcDbLine
62
7
6
CONTINUOUS
10
156.1294873828
20
96.1748321396
11
156.8365992924
21
96.5283880945
0
LINE
5
226
100
AcDbEntity
8
0
100
AcDbLine
62
7
6
CONTINUOUS
10
165.8522107526
20
100.4949279472
11
163.3773370184
21
99.2574910801
0
LINE
5
227
100
AcDbEntity
8
0
100
AcDbLine
62
7
6
CONTINUOUS
10
-162.9524424992
20
-63.9073986787
11
-165.4273162333
21
-65.1448355458
0
LINE
5
228
100
AcDbEntity
8
0
100
AcDbLine
62
7
6
CONTINUOUS
10
-166.4879764051
20
-70.6766832864
11
-164.0131026710
21
-69.4392464193
0
LINE
5
229
100
AcDbEntity
8
0
100
AcDbLine
62
7
6
CONTINUOUS
10
162.3166768466
20
93.7256433395
11
164.7915505808
21
94.9630802066
0
LINE
5
22A
100
AcDbEntity
8
0
100
AcDbLine
62
7
6
CONTINUOUS
10
-165.4273162333
20
-71.2070133723
11
-162.9524424992
21
-69.9695765052
0
LINE
5
22B
100
AcDbEntity
8
0
100
AcDbLine
62
7
6
CONTINUOUS
10
163.3773370184
20
93.1953132536
11
165.8522107526
21
94.4327501207
0
LINE
5
22C
100
AcDbEntity
8
0
100
AcDbLine
62
7
6
CONTINUOUS
10
165.8522107526
20
72.9986213770
11
163.3773370184
21
71.7611845099
0
LINE
5
22D
100
AcDbEntity
8
0
100
AcDbLine
62
7
6
CONTINUOUS
10
-162.9524424992
20
-91.4037052489
11
-165.4273162333
21
-92.6411421159
0
LINE
5
22E
100
AcDbEntity
8
0
100
AcDbLine
62
7
6
CONTINUOUS
10
-166.4879764051
20
-98.1729898565
11
-164.0131026710
21
-96.9355529895
0
LINE
5
22F
100
AcDbEntity
8
0
100
AcDbLine
62
7
6
CONTINUOUS
10
162.3166768466
20
66.2293367693
11
164.7915505808
21
67.4667736364
0
LINE
5
230
100
AcDbEntity
8
0
100
AcDbLine
62
7
6
CONTINUOUS
10
-165.4273162333
20
-98.7033199424
11
-162.9524424992
21
-97.4658830754
0
LINE
5
231
100
AcDbEntity
8
0
100
AcDbLine
62
7
6
CONTINUOUS
10
163.3773370184
20
65.6990066834
11
165.8522107526
21
66.9364435505
0
LINE
5
232
100
AcDbEntity
8
0
100
AcDbLine
62
7
6
CONTINUOUS
10
156.8365992924
20
61.8873719431
11
156.1294873828
21
61.5338159883
0
LINE
5
233
100
AcDbEntity
8
0
100
AcDbLine
62
7
6
CONTINUOUS
10
-155.7045928635
20
-94.3832241349
11
-156.4117047732
21
-94.7367800897
0
LINE
5
234
100
AcDbEntity
8
0
100
AcDbLine
62
9
6
CONTINUOUS
10
-155.7045928635
20
-94.3832241349
11
156.1294873828
21
61.5338159883
0
LINE
5
235
100
AcDbEntity
8
0
100
AcDbLine
62
7
6
CONTINUOUS
10
155.2561527493
20
60.2752942564
11
-155.3758510975
21
-95.0407076670
0
LINE
5
236
100
AcDbEntity
8
0
100
AcDbLine
62
7
6
CONTINUOUS
10
167.7967544008
20
65.6353986897
11
157.1901526830
21
60.3320978308
0
LINE
5
237
100
AcDbEntity
8
0
100
AcDbLine
62
7
6
CONTINUOUS
10
-156.7652581638
20
-96.6456075926
11
-170.2002870063
21
-103.3631220139
0
LINE
5
238
100
AcDbEntity
8
0
100
AcDbLine
62
7
6
CONTINUOUS
10
156.1294925112
20
60.8624279167
11
157.1901526830
21
60.3320978308
0
LINE
5
239
100
AcDbEntity
8
0
100
AcDbLine
62
9
6
CONTINUOUS
10
156.8048155679
20
61.8238044940
11
157.1901526830
21
61.6311359365
0
LINE
5
23A
100
AcDbEntity
8
0
100
AcDbLine
62
9
6
CONTINUOUS
10
162.3166768466
20
66.2293367693
11
163.3773370184
21
65.6990066834
0
LINE
5
23B
100
AcDbEntity
8
0
100
AcDbLine
62
9
6
CONTINUOUS
10
164.7915505808
20
67.4667736364
11
165.8522107526
21
66.9364435505
0
LINE
5
23C
100
AcDbEntity
8
0
100
AcDbLine
62
7
6
CONTINUOUS
10
156.1294925112
20
98.9675456832
11
156.1294925112
21
97.6685075775
0
LINE
5
23D
100
AcDbEntity
8
0
100
AcDbLine
62
7
6
CONTINUOUS
10
156.1294925112
20
60.8624279167
11
156.1294925112
21
61.5338134240
0
LINE
5
23E
100
AcDbEntity
8
0
100
AcDbLine
62
7
6
CONTINUOUS
10
157.1901526830
20
98.4372155973
11
157.1901526830
21
97.1381774917
0
LINE
5
23F
100
AcDbEntity
8
0
100
AcDbLine
62
7
6
CONTINUOUS
10
157.1901526830
20
60.3320978308
11
157.1901526830
21
61.6311359365
0
LINE
5
240
100
AcDbEntity
8
0
100
AcDbLine
62
9
6
CONTINUOUS
10
162.3166768466
20
93.7256433395
11
163.3773370184
21
93.1953132536
0
LINE
5
241
100
AcDbEntity
8
0
100
AcDbLine
62
9
6
CONTINUOUS
10
155.7759391207
20
97.0587181804
11
156.8365992924
21
96.5283880945
0
LINE
5
242
100
AcDbEntity
8
0
100
AcDbLine
62
7
6
CONTINUOUS
10
149.0584246994
20
101.0888660268
11
154.3617255583
21
98.4372155973
0
LINE
5
243
100
AcDbEntity
8
0
100
AcDbLine
62
9
6
CONTINUOUS
10
156.1294925112
20
97.6685075775
11
157.1901526830
21
97.1381774917
0
LINE
5
244
100
AcDbEntity
8
0
100
AcDbLine
62
7
6
CONTINUOUS
10
156.1294925112
20
98.9675456832
11
157.1901526830
21
98.4372155973
0
LINE
5
245
100
AcDbEntity
8
0
100
AcDbLine
62
9
6
CONTINUOUS
10
164.7915505808
20
94.9630802066
11
165.8522107526
21
94.4327501207
0
LINE
5
246
100
AcDbEntity
8
0
100
AcDbLine
62
7
6
CONTINUOUS
10
170.6251815256
20
101.6906284035
11
170.6251815256
21
70.5137138672
0
LINE
5
247
100
AcDbEntity
8
0
100
AcDbLine
62
9
6
CONTINUOUS
10
167.7967544008
20
103.7405164562
11
166.7360942290
21
104.2708465421
0
LINE
5
248
100
AcDbEntity
8
0
100
AcDbLine
62
7
6
CONTINUOUS
10
169.5856087828
20
103.8541236051
11
168.5249486110
21
104.3844536910
0
SPLINE
5
249
100
AcDbEntity
8
0
100
AcDbSpline
62
7
6
CONTINUOUS
70
0
71
3
72
9
73
5
74
3
42
0.0000001000
43
0.0000001000
44
0.0000000001
12
-0.2124581087
22
0.1120552736
32
0.0000000000
13
-0.0357337563
23
0.2372861410
33
0.0000000000
40
0.0000000000
40
0.0000000000
40
0.0000000000
40
0.0000000000
40
0.4748980336
40
1.0000000000
40
1.0000000000
40
1.0000000000
40
1.0000000000
10
-156.6342042972
20
-60.1089889696
30
0.0000000000
10
-156.6678362766
20
-60.0912506933
30
0.0000000000
10
-156.7296935337
20
-60.0335392074
30
0.0000000000
10
-156.7537844581
20
-59.9564170854
30
0.0000000000
10
-156.7600390800
20
-59.9148839456
30
0.0000000000
11
-156.6342042972
21
-60.1089889696
31
0.0000000000
11
-156.7180706853
21
-60.0320589062
31
0.0000000000
11
-156.7600390800
21
-59.9148839456
31
0.0000000000
0
SPLINE
5
24A
100
AcDbEntity
8
0
100
AcDbSpline
62
7
6
CONTINUOUS
70
0
71
3
72
8
73
4
74
2
42
0.0000001000
43
0.0000001000
44
0.0000000001
12
-0.0113204683
22
0.0751723444
32
0.0000000000
13
0.0000000000
23
0.0745919090
33
0.0000000000
40
0.0000000000
40
0.0000000000
40
0.0000000000
40
0.0000000000
40
1.0000000000
40
1.0000000000
40
1.0000000000
40
1.0000000000
10
-156.7600390800
20
-59.9148839456
30
0.0000000000
10
-156.7638125695
20
-59.8898264975
30
0.0000000000
10
-156.7652581638
20
-59.8643919014
30
0.0000000000
10
-156.7652581638
20
-59.8395279318
30
0.0000000000
11
-156.7600390800
21
-59.9148839456
31
0.0000000000
11
-156.7652581638
21
-59.8395279318
31
0.0000000000
0
SPLINE
5
24B
100
AcDbEntity
8
0
100
AcDbSpline
62
7
6
CONTINUOUS
70
0
71
3
72
9
73
5
74
3
42
0.0000001000
43
0.0000001000
44
0.0000000001
12
-0.2333821788
22
0.1230716607
32
0.0000000000
13
-0.0761196626
23
0.2518731467
33
0.0000000000
40
0.0000000000
40
0.0000000000
40
0.0000000000
40
0.0000000000
40
0.4672480730
40
1.0000000000
40
1.0000000000
40
1.0000000000
40
1.0000000000
10
155.9039858314
20
96.1628086812
30
0.0000000000
10
155.8676367070
20
96.1819770133
30
0.0000000000
10
155.7993862617
20
96.2459909223
30
0.0000000000
10
155.7641751730
20
96.3268869583
30
0.0000000000
10
155.7506575407
20
96.3716155931
30
0.0000000000
11
155.9039858314
21
96.1628086812
31
0.0000000000
11
155.8110701064
21
96.2454834834
31
0.0000000000
11
155.7506575407
21
96.3716155931
31
0.0000000000
0
SPLINE
5
24C
100
AcDbEntity
8
0
100
AcDbSpline
62
7
6
CONTINUOUS
70
0
71
3
72
8
73
4
74
2
42
0.0000001000
43
0.0000001000
44
0.0000000001
12
-0.0244261769
22
0.0808240320
32
0.0000000000
13
-0.0157288715
23
0.0823027351
33
0.0000000000
40
0.0000000000
40
0.0000000000
40
0.0000000000
40
0.0000000000
40
1.0000000000
40
1.0000000000
40
1.0000000000
40
1.0000000000
10
155.7506575407
20
96.3716155931
30
0.0000000000
10
155.7425154817
20
96.3985569370
30
0.0000000000
10
155.7362749092
20
96.4260900497
30
0.0000000000
10
155.7310319520
20
96.4535242948
30
0.0000000000
11
155.7506575407
21
96.3716155931
31
0.0000000000
11
155.7310319520
21
96.4535242948
31
0.0000000000
0
SPLINE
5
24D
100
AcDbEntity
8
0
100
AcDbSpline
62
7
6
CONTINUOUS
70
0
71
3
72
9
73
5
74
3
42
0.0000001000
43
0.0000001000
44
0.0000000001
12
0.7566636055
22
0.3810526558
32
0.0000000000
13
0.1932283629
23
0.8199484217
33
0.0000000000
40
0.0000000000
40
0.0000000000
40
0.0000000000
40
0.0000000000
40
0.4474080906
40
1.0000000000
40
1.0000000000
40
1.0000000000
40
1.0000000000
10
155.2557236569
20
60.2751609945
30
0.0000000000
10
155.3685694632
20
60.3319896748
30
0.0000000000
10
155.5883725732
20
60.5261707898
30
0.0000000000
10
155.6954398080
20
60.7954504500
30
0.0000000000
10
155.7310319513
20
60.9464827380
30
0.0000000000
11
155.2557236569
21
60.2751609945
31
0.0000000000
11
155.5426860517
21
60.5207788548
31
0.0000000000
11
155.7310319513
21
60.9464827380
31
0.0000000000
0
SPLINE
5
24E
100
AcDbEntity
8
0
100
AcDbSpline
62
7
6
CONTINUOUS
70
0
71
3
72
9
73
5
74
3
42
0.0000001000
43
0.0000001000
44
0.0000000001
12
-0.7142348237
22
0.3557417039
32
0.0000000000
13
-0.4256070256
23
0.6803909048
33
0.0000000000
40
0.0000000000
40
0.0000000000
40
0.0000000000
40
0.0000000000
40
0.0353843315
40
1.0000000000
40
1.0000000000
40
1.0000000000
40
1.0000000000
10
-166.9930113730
20
-71.3061598970
30
0.0000000000
10
-167.0014356136
20
-71.3019640029
30
0.0000000000
10
-167.2381248382
20
-71.1806581088
30
0.0000000000
10
-167.4337706898
20
-70.9818925873
30
0.0000000000
10
-167.5706197583
20
-70.7631206781
30
0.0000000000
11
-166.9930113730
21
-71.3061598970
31
0.0000000000
11
-167.0181344052
21
-71.2932823635
31
0.0000000000
11
-167.5706197583
21
-70.7631206781
31
0.0000000000
0
SPLINE
5
24F
100
AcDbEntity
8
0
100
AcDbSpline
62
7
6
CONTINUOUS
70
0
71
3
72
8
73
4
74
2
42
0.0000001000
43
0.0000001000
44
0.0000000001
12
-0.3105125147
22
0.4963966244
32
0.0000000000
13
-0.1545474498
23
0.5625389216
33
0.0000000000
40
0.0000000000
40
0.0000000000
40
0.0000000000
40
0.0000000000
40
1.0000000000
40
1.0000000000
40
1.0000000000
40
1.0000000000
10
-167.5706197583
20
-70.7631206781
30
0.0000000000
10
-167.6741239298
20
-70.5976551367
30
0.0000000000
10
-167.7479537229
20
-70.4167216780
30
0.0000000000
10
-167.7994695395
20
-70.2292087041
30
0.0000000000
11
-167.5706197583
21
-70.7631206781
31
0.0000000000
11
-167.7994695395
21
-70.2292087041
31
0.0000000000
0
SPLINE
5
250
100
AcDbEntity
8
0
100
AcDbSpline
62
7
6
CONTINUOUS
70
0
71
3
72
13
73
9
74
7
42
0.0000001000
43
0.0000001000
44
0.0000000001
12
-1.5911464194
22
5.7916309320
32
0.0000000000
13
5.3330235609
23
2.6665117805
33
0.0000000000
40
0.0000000000
40
0.0000000000
40
0.0000000000
40
0.0000000000
40
0.0524797685
40
0.2290308543
40
0.4258612175
40
0.6297133911
40
0.8254028400
40
1.0000000000
40
1.0000000000
40
1.0000000000
40
1.0000000000
10
-167.7994695395
20
-70.2292087041
30
0.0000000000
10
-167.8273038714
20
-70.1278942206
30
0.0000000000
10
-167.9203488837
20
-69.6773576059
30
0.0000000000
10
-167.9037786394
20
-68.8212552551
30
0.0000000000
10
-167.6048983103
20
-67.7036967729
30
0.0000000000
10
-167.0622589250
20
-66.6400014904
30
0.0000000000
10
-166.3372764683
20
-65.7481261710
30
0.0000000000
10
-165.7376931560
20
-65.3000240071
30
0.0000000000
10
-165.4273162333
20
-65.1448355458
30
0.0000000000
11
-167.7994695395
21
-70.2292087041
31
0.0000000000
11
-167.8645910745
21
-69.9209049457
31
0.0000000000
11
-167.8645910745
21
-68.8682188135
31
0.0000000000
11
-167.5706197583
21
-67.7320317649
31
0.0000000000
11
-167.0181344052
21
-66.6493847264
31
0.0000000000
11
-166.2737729026
21
-65.7508609089
31
0.0000000000
11
-165.4273162333
21
-65.1448355458
31
0.0000000000
0
SPLINE
5
251
100
AcDbEntity
8
0
100
AcDbSpline
62
7
6
CONTINUOUS
70
0
71
3
72
9
73
5
74
3
42
0.0000001000
43
0.0000001000
44
0.0000000001
12
-0.7142348237
22
0.3557417039
32
0.0000000000
13
-0.4256070256
23
0.6803909048
33
0.0000000000
40
0.0000000000
40
0.0000000000
40
0.0000000000
40
0.0000000000
40
0.0353843315
40
1.0000000000
40
1.0000000000
40
1.0000000000
40
1.0000000000
10
-166.9930113730
20
-98.8024664672
30
0.0000000000
10
-167.0014356136
20
-98.7982705730
30
0.0000000000
10
-167.2381248382
20
-98.6769646790
30
0.0000000000
10
-167.4337706898
20
-98.4781991574
30
0.0000000000
10
-167.5706197583
20
-98.2594272483
30
0.0000000000
11
-166.9930113730
21
-98.8024664672
31
0.0000000000
11
-167.0181344052
21
-98.7895889337
31
0.0000000000
11
-167.5706197583
21
-98.2594272483
31
0.0000000000
0
SPLINE
5
252
100
AcDbEntity
8
0
100
AcDbSpline
62
7
6
CONTINUOUS
70
0
71
3
72
8
73
4
74
2
42
0.0000001000
43
0.0000001000
44
0.0000000001
12
-0.3105125147
22
0.4963966244
32
0.0000000000
13
-0.1545474498
23
0.5625389216
33
0.0000000000
40
0.0000000000
40
0.0000000000
40
0.0000000000
40
0.0000000000
40
1.0000000000
40
1.0000000000
40
1.0000000000
40
1.0000000000
10
-167.5706197583
20
-98.2594272483
30
0.0000000000
10
-167.6741239298
20
-98.0939617068
30
0.0000000000
10
-167.7479537229
20
-97.9130282481
30
0.0000000000
10
-167.7994695395
20
-97.7255152743
30
0.0000000000
11
-167.5706197583
21
-98.2594272483
31
0.0000000000
11
-167.7994695395
21
-97.7255152743
31
0.0000000000
0
SPLINE
5
253
100
AcDbEntity
8
0
100
AcDbSpline
62
7
6
CONTINUOUS
70
0
71
3
72
13
73
9
74
7
42
0.0000001000
43
0.0000001000
44
0.0000000001
12
-1.5911464194
22
5.7916309320
32
0.0000000000
13
5.3330235609
23
2.6665117805
33
0.0000000000
40
0.0000000000
40
0.0000000000
40
0.0000000000
40
0.0000000000
40
0.0524797685
40
0.2290308543
40
0.4258612175
40
0.6297133911
40
0.8254028400
40
1.0000000000
40
1.0000000000
40
1.0000000000
40
1.0000000000
10
-167.7994695395
20
-97.7255152743
30
0.0000000000
10
-167.8273038714
20
-97.6242007908
30
0.0000000000
10
-167.9203488837
20
-97.1736641760
30
0.0000000000
10
-167.9037786394
20
-96.3175618252
30
0.0000000000
10
-167.6048983103
20
-95.2000033431
30
0.0000000000
10
-167.0622589250
20
-94.1363080606
30
0.0000000000
10
-166.3372764683
20
-93.2444327411
30
0.0000000000
10
-165.7376931560
20
-92.7963305773
30
0.0000000000
10
-165.4273162333
20
-92.6411421159
30
0.0000000000
11
-167.7994695395
21
-97.7255152743
31
0.0000000000
11
-167.8645910745
21
-97.4172115159
31
0.0000000000
11
-167.8645910745
21
-96.3645253836
31
0.0000000000
11
-167.5706197583
21
-95.2283383350
31
0.0000000000
11
-167.0181344052
21
-94.1456912965
31
0.0000000000
11
-166.2737729026
21
-93.2471674791
31
0.0000000000
11
-165.4273162333
21
-92.6411421159
31
0.0000000000
0
SPLINE
5
254
100
AcDbEntity
8
0
100
AcDbSpline
62
7
6
CONTINUOUS
70
0
71
3
72
9
73
5
74
3
42
0.0000001000
43
0.0000001000
44
0.0000000001
12
-0.7142348237
22
0.3557417039
32
0.0000000000
13
-0.4256070256
23
0.6803909048
33
0.0000000000
40
0.0000000000
40
0.0000000000
40
0.0000000000
40
0.0000000000
40
0.0353843315
40
1.0000000000
40
1.0000000000
40
1.0000000000
40
1.0000000000
10
161.8116418787
20
93.0961667289
30
0.0000000000
10
161.8032176381
20
93.1003626230
30
0.0000000000
10
161.5665284136
20
93.2216685171
30
0.0000000000
10
161.3708825620
20
93.4204340386
30
0.0000000000
10
161.2340334935
20
93.6392059478
30
0.0000000000
11
161.8116418787
21
93.0961667289
31
0.0000000000
11
161.7865188466
21
93.1090442623
31
0.0000000000
11
161.2340334935
21
93.6392059478
31
0.0000000000
0
SPLINE
5
255
100
AcDbEntity
8
0
100
AcDbSpline
62
7
6
CONTINUOUS
70
0
71
3
72
8
73
4
74
2
42
0.0000001000
43
0.0000001000
44
0.0000000001
12
-0.3105125147
22
0.4963966244
32
0.0000000000
13
-0.1545474498
23
0.5625389216
33
0.0000000000
40
0.0000000000
40
0.0000000000
40
0.0000000000
40
0.0000000000
40
1.0000000000
40
1.0000000000
40
1.0000000000
40
1.0000000000
10
161.2340334935
20
93.6392059478
30
0.0000000000
10
161.1305293219
20
93.8046714892
30
0.0000000000
10
161.0566995289
20
93.9856049479
30
0.0000000000
10
161.0051837122
20
94.1731179218
30
0.0000000000
11
161.2340334935
21
93.6392059478
31
0.0000000000
11
161.0051837122
21
94.1731179218
31
0.0000000000
0
SPLINE
5
256
100
AcDbEntity
8
0
100
AcDbSpline
62
7
6
CONTINUOUS
70
0
71
3
72
13
73
9
74
7
42
0.0000001000
43
0.0000001000
44
0.0000000001
12
-1.5911464194
22
5.7916309320
32
0.0000000000
13
5.3330235609
23
2.6665117805
33
0.0000000000
40
0.0000000000
40
0.0000000000
40
0.0000000000
40
0.0000000000
40
0.0524797685
40
0.2290308543
40
0.4258612175
40
0.6297133911
40
0.8254028400
40
1.0000000000
40
1.0000000000
40
1.0000000000
40
1.0000000000
10
161.0051837122
20
94.1731179218
30
0.0000000000
10
160.9773493803
20
94.2744324052
30
0.0000000000
10
160.8843043680
20
94.7249690200
30
0.0000000000
10
160.9008746123
20
95.5810713708
30
0.0000000000
10
161.1997549415
20
96.6986298529
30
0.0000000000
10
161.7423943267
20
97.7623251355
30
0.0000000000
10
162.4673767835
20
98.6542004549
30
0.0000000000
10
163.0669600958
20
99.1023026188
30
0.0000000000
10
163.3773370184
20
99.2574910801
30
0.0000000000
11
161.0051837122
21
94.1731179218
31
0.0000000000
11
160.9400621773
21
94.4814216802
31
0.0000000000
11
160.9400621773
21
95.5341078124
31
0.0000000000
11
161.2340334935
21
96.6702948610
31
0.0000000000
11
161.7865188466
21
97.7529418995
31
0.0000000000
11
162.5308803491
21
98.6514657169
31
0.0000000000
11
163.3773370184
21
99.2574910801
31
0.0000000000
0
SPLINE
5
257
100
AcDbEntity
8
0
100
AcDbSpline
62
7
6
CONTINUOUS
70
0
71
3
72
9
73
5
74
3
42
0.0000001000
43
0.0000001000
44
0.0000000001
12
-0.7142348237
22
0.3557417039
32
0.0000000000
13
-0.4256070256
23
0.6803909048
33
0.0000000000
40
0.0000000000
40
0.0000000000
40
0.0000000000
40
0.0000000000
40
0.0353843315
40
1.0000000000
40
1.0000000000
40
1.0000000000
40
1.0000000000
10
161.8116418787
20
65.5998601587
30
0.0000000000
10
161.8032176381
20
65.6040560528
30
0.0000000000
10
161.5665284136
20
65.7253619469
30
0.0000000000
10
161.3708825620
20
65.9241274685
30
0.0000000000
10
161.2340334935
20
66.1428993776
30
0.0000000000
11
161.8116418787
21
65.5998601587
31
0.0000000000
11
161.7865188466
21
65.6127376922
31
0.0000000000
11
161.2340334935
21
66.1428993776
31
0.0000000000
0
SPLINE
5
258
100
AcDbEntity
8
0
100
AcDbSpline
62
7
6
CONTINUOUS
70
0
71
3
72
8
73
4
74
2
42
0.0000001000
43
0.0000001000
44
0.0000000001
12
-0.3105125147
22
0.4963966244
32
0.0000000000
13
-0.1545474498
23
0.5625389216
33
0.0000000000
40
0.0000000000
40
0.0000000000
40
0.0000000000
40
0.0000000000
40
1.0000000000
40
1.0000000000
40
1.0000000000
40
1.0000000000
10
161.2340334935
20
66.1428993776
30
0.0000000000
10
161.1305293219
20
66.3083649190
30
0.0000000000
10
161.0566995289
20
66.4892983778
30
0.0000000000
10
161.0051837122
20
66.6768113516
30
0.0000000000
11
161.2340334935
21
66.1428993776
31
0.0000000000
11
161.0051837122
21
66.6768113516
31
0.0000000000
0
SPLINE
5
259
100
AcDbEntity
8
0
100
AcDbSpline
62
7
6
CONTINUOUS
70
0
71
3
72
13
73
9
74
7
42
0.0000001000
43
0.0000001000
44
0.0000000001
12
-1.5911464194
22
5.7916309320
32
0.0000000000
13
5.3330235609
23
2.6665117805
33
0.0000000000
40
0.0000000000
40
0.0000000000
40
0.0000000000
40
0.0000000000
40
0.0524797685
40
0.2290308543
40
0.4258612175
40
0.6297133911
40
0.8254028400
40
1.0000000000
40
1.0000000000
40
1.0000000000
40
1.0000000000
10
161.0051837122
20
66.6768113516
30
0.0000000000
10
160.9773493803
20
66.7781258351
30
0.0000000000
10
160.8843043680
20
67.2286624498
30
0.0000000000
10
160.9008746123
20
68.0847648006
30
0.0000000000
10
161.1997549415
20
69.2023232828
30
0.0000000000
10
161.7423943267
20
70.2660185653
30
0.0000000000
10
162.4673767835
20
71.1578938847
30
0.0000000000
10
163.0669600958
20
71.6059960486
30
0.0000000000
10
163.3773370184
20
71.7611845099
30
0.0000000000
11
161.0051837122
21
66.6768113516
31
0.0000000000
11
160.9400621773
21
66.9851151100
31
0.0000000000
11
160.9400621773
21
68.0378012423
31
0.0000000000
11
161.2340334935
21
69.1739882908
31
0.0000000000
11
161.7865188466
21
70.2566353294
31
0.0000000000
11
162.5308803491
21
71.1551591468
31
0.0000000000
11
163.3773370184
21
71.7611845099
31
0.0000000000
0
SPLINE
5
25A
100
AcDbEntity
8
0
100
AcDbSpline
62
7
6
CONTINUOUS
70
0
71
3
72
9
73
5
74
3
42
0.0000001000
43
0.0000001000
44
0.0000000001
12
0.2036671096
22
0.1018335548
32
0.0000000000
13
0.2054675380
23
-0.1083682865
33
0.0000000000
40
0.0000000000
40
0.0000000000
40
0.0000000000
40
0.0000000000
40
0.7914831957
40
1.0000000000
40
1.0000000000
40
1.0000000000
40
1.0000000000
10
156.8365992924
20
61.8873719431
30
0.0000000000
10
156.8903323240
20
61.9142384589
30
0.0000000000
10
156.9726481273
20
61.9358910502
30
0.0000000000
10
157.0448176716
20
61.9081291773
30
0.0000000000
10
157.0590988164
20
61.9005969744
30
0.0000000000
11
156.8365992924
21
61.8873719431
31
0.0000000000
11
157.0142793943
21
61.9175583071
31
0.0000000000
11
157.0590988164
21
61.9005969744
31
0.0000000000
0
SPLINE
5
25B
100
AcDbEntity
8
0
100
AcDbSpline
62
7
6
CONTINUOUS
70
0
71
3
72
10
73
6
74
4
42
0.0000001000
43
0.0000001000
44
0.0000000001
12
0.1491998401
22
0.6320642358
32
0.0000000000
13
0.5269149328
23
0.3840376912
33
0.0000000000
40
0.0000000000
40
0.0000000000
40
0.0000000000
40
0.0000000000
40
0.3617417611
40
0.7605943413
40
1.0000000000
40
1.0000000000
40
1.0000000000
40
1.0000000000
10
155.7310319520
20
60.9464827396
30
0.0000000000
10
155.7490225563
20
61.0226974162
30
0.0000000000
10
155.8076889614
20
61.1782012508
30
0.0000000000
10
155.9211131873
20
61.3637139664
30
0.0000000000
10
156.0218148765
20
61.4629672111
30
0.0000000000
10
156.0638636821
20
61.4936141433
30
0.0000000000
11
155.7310319520
21
60.9464827396
31
0.0000000000
11
155.8110703900
21
61.1673557741
31
0.0000000000
11
155.9502527822
21
61.3858144419
31
0.0000000000
11
156.0638636821
21
61.4936141433
31
0.0000000000
0
SPLINE
5
25C
100
AcDbEntity
8
0
100
AcDbSpline
62
7
6
CONTINUOUS
70
0
71
3
72
8
73
4
74
2
42
0.0000001000
43
0.0000001000
44
0.0000000001
12
0.0624397641
22
0.0455087176
32
0.0000000000
13
0.0688329928
23
0.0344183838
33
0.0000000000
40
0.0000000000
40
0.0000000000
40
0.0000000000
40
0.0000000000
40
1.0000000000
40
1.0000000000
40
1.0000000000
40
1.0000000000
10
156.0638636821
20
61.4936141433
30
0.0000000000
10
156.0846769368
20
61.5087837158
30
0.0000000000
10
156.1065379234
20
61.5223406294
30
0.0000000000
10
156.1294822543
20
61.5338134240
30
0.0000000000
11
156.0638636821
21
61.4936141433
31
0.0000000000
11
156.1294822543
21
61.5338134240
31
0.0000000000
0
SPLINE
5
25D
100
AcDbEntity
8
0
100
AcDbSpline
62
7
6
CONTINUOUS
70
0
71
3
72
10
73
6
74
4
42
0.0000001000
43
0.0000001000
44
0.0000000001
12
0.0000000000
22
2.5111298787
32
0.0000000000
13
-2.2579806405
23
1.1422706772
33
0.0000000000
40
0.0000000000
40
0.0000000000
40
0.0000000000
40
0.0000000000
40
0.4009437823
40
0.7471202070
40
1.0000000000
40
1.0000000000
40
1.0000000000
40
1.0000000000
10
170.6251815256
20
101.6906284035
30
0.0000000000
10
170.6251815256
20
102.0262357073
30
0.0000000000
10
170.5527250084
20
102.6566273814
30
0.0000000000
10
170.1792283109
20
103.4316588054
30
0.0000000000
10
169.7747757267
20
103.7577698395
30
0.0000000000
10
169.5844431677
20
103.8540555636
30
0.0000000000
11
170.6251815256
21
101.6906284035
31
0.0000000000
11
170.4879164613
21
102.6880494095
31
0.0000000000
11
170.0840382084
21
103.4578249298
31
0.0000000000
11
169.5844431677
21
103.8540555636
31
0.0000000000
0
SPLINE
5
25E
100
AcDbEntity
8
0
100
AcDbSpline
62
7
6
CONTINUOUS
70
0
71
3
72
12
73
8
74
6
42
0.0000001000
43
0.0000001000
44
0.0000000001
12
5.2587972568
22
2.6293986284
32
0.0000000000
13
0.0000000000
23
5.8795140731
33
0.0000000000
40
0.0000000000
40
0.0000000000
40
0.0000000000
40
0.0000000000
40
0.1801307301
40
0.3830913746
40
0.5948177684
40
0.8054128753
40
1.0000000000
40
1.0000000000
40
1.0000000000
40
1.0000000000
10
167.7967544008
20
65.6353986897
30
0.0000000000
10
168.1125113973
20
65.7932771880
30
0.0000000000
10
168.7307521941
20
66.2377107914
30
0.0000000000
10
169.5029945777
20
67.1209191363
30
0.0000000000
10
170.1194711912
20
68.1889348146
30
0.0000000000
10
170.5198594718
20
69.3369662258
30
0.0000000000
10
170.6251815256
20
70.1323546213
30
0.0000000000
10
170.6251815256
20
70.5137138672
30
0.0000000000
11
167.7967544008
21
65.6353986897
31
0.0000000000
11
168.6671834699
21
66.2387279077
31
0.0000000000
11
169.4605851565
21
67.1300765700
31
0.0000000000
11
170.0848263486
21
68.2070957217
31
0.0000000000
11
170.4876605717
21
69.3779313803
31
0.0000000000
11
170.6251815256
21
70.5137138672
31
0.0000000000
0
SPLINE
5
25F
100
AcDbEntity
8
0
100
AcDbSpline
62
7
6
CONTINUOUS
70
0
71
3
72
9
73
5
74
3
42
0.0000001000
43
0.0000001000
44
0.0000000001
12
1.2458637437
22
0.6229318719
32
0.0000000000
13
1.3471239385
23
-0.4053960296
33
0.0000000000
40
0.0000000000
40
0.0000000000
40
0.0000000000
40
0.0000000000
40
0.6317248829
40
1.0000000000
40
1.0000000000
40
1.0000000000
40
1.0000000000
10
-162.9524424992
20
-63.9073986787
30
0.0000000000
10
-162.6900947900
20
-63.7762248241
30
0.0000000000
10
-162.2349082047
20
-63.6259661083
30
0.0000000000
10
-161.7571605832
20
-63.6776409130
30
0.0000000000
10
-161.5917898412
20
-63.7274066697
30
0.0000000000
11
-162.9524424992
21
-63.9073986787
31
0.0000000000
11
-162.1059858299
21
-63.6669673726
31
0.0000000000
11
-161.5917898412
21
-63.7274066697
31
0.0000000000
0
SPLINE
5
260
100
AcDbEntity
8
0
100
AcDbSpline
62
7
6
CONTINUOUS
70
0
71
3
72
8
73
4
74
2
42
0.0000001000
43
0.0000001000
44
0.0000000001
12
0.2118898980
22
-0.0637649743
32
0.0000000000
13
0.1971330254
23
-0.0981868092
33
0.0000000000
40
0.0000000000
40
0.0000000000
40
0.0000000000
40
0.0000000000
40
1.0000000000
40
1.0000000000
40
1.0000000000
40
1.0000000000
10
-161.5917898412
20
-63.7274066697
30
0.0000000000
10
-161.5211598752
20
-63.7486616612
30
0.0000000000
10
-161.4524583680
20
-63.7755232176
30
0.0000000000
10
-161.3867473595
20
-63.8082521540
30
0.0000000000
11
-161.5917898412
21
-63.7274066697
31
0.0000000000
11
-161.3867473595
21
-63.8082521540
31
0.0000000000
0
SPLINE
5
261
100
AcDbEntity
8
0
100
AcDbSpline
62
7
6
CONTINUOUS
70
0
71
3
72
9
73
5
74
3
42
0.0000001000
43
0.0000001000
44
0.0000000001
12
1.2458637437
22
0.6229318719
32
0.0000000000
13
1.3471239385
23
-0.4053960296
33
0.0000000000
40
0.0000000000
40
0.0000000000
40
0.0000000000
40
0.0000000000
40
0.6317248829
40
1.0000000000
40
1.0000000000
40
1.0000000000
40
1.0000000000
10
-162.9524424992
20
-91.4037052489
30
0.0000000000
10
-162.6900947900
20
-91.2725313943
30
0.0000000000
10
-162.2349082047
20
-91.1222726784
30
0.0000000000
10
-161.7571605832
20
-91.1739474831
30
0.0000000000
10
-161.5917898412
20
-91.2237132399
30
0.0000000000
11
-162.9524424992
21
-91.4037052489
31
0.0000000000
11
-162.1059858299
21
-91.1632739428
31
0.0000000000
11
-161.5917898412
21
-91.2237132399
31
0.0000000000
0
SPLINE
5
262
100
AcDbEntity
8
0
100
AcDbSpline
62
7
6
CONTINUOUS
70
0
71
3
72
8
73
4
74
2
42
0.0000001000
43
0.0000001000
44
0.0000000001
12
0.2118898980
22
-0.0637649743
32
0.0000000000
13
0.1971330254
23
-0.0981868092
33
0.0000000000
40
0.0000000000
40
0.0000000000
40
0.0000000000
40
0.0000000000
40
1.0000000000
40
1.0000000000
40
1.0000000000
40
1.0000000000
10
-161.5917898412
20
-91.2237132399
30
0.0000000000
10
-161.5211598752
20
-91.2449682313
30
0.0000000000
10
-161.4524583680
20
-91.2718297877
30
0.0000000000
10
-161.3867473595
20
-91.3045587241
30
0.0000000000
11
-161.5917898412
21
-91.2237132399
31
0.0000000000
11
-161.3867473595
21
-91.3045587241
31
0.0000000000
0
SPLINE
5
263
100
AcDbEntity
8
0
100
AcDbSpline
62
7
6
CONTINUOUS
70
0
71
3
72
9
73
5
74
3
42
0.0000001000
43
0.0000001000
44
0.0000000001
12
1.2458637437
22
0.6229318719
32
0.0000000000
13
1.3471239385
23
-0.4053960296
33
0.0000000000
40
0.0000000000
40
0.0000000000
40
0.0000000000
40
0.0000000000
40
0.6317248829
40
1.0000000000
40
1.0000000000
40
1.0000000000
40
1.0000000000
10
165.8522107526
20
100.4949279472
30
0.0000000000
10
166.1145584618
20
100.6261018018
30
0.0000000000
10
166.5697450471
20
100.7763605176
30
0.0000000000
10
167.0474926685
20
100.7246857129
30
0.0000000000
10
167.2128634106
20
100.6749199561
30
0.0000000000
11
165.8522107526
21
100.4949279472
31
0.0000000000
11
166.6986674218
21
100.7353592533
31
0.0000000000
11
167.2128634106
21
100.6749199561
31
0.0000000000
0
SPLINE
5
264
100
AcDbEntity
8
0
100
AcDbSpline
62
7
6
CONTINUOUS
70
0
71
3
72
8
73
4
74
2
42
0.0000001000
43
0.0000001000
44
0.0000000001
12
0.2118898980
22
-0.0637649743
32
0.0000000000
13
0.1971330254
23
-0.0981868092
33
0.0000000000
40
0.0000000000
40
0.0000000000
40
0.0000000000
40
0.0000000000
40
1.0000000000
40
1.0000000000
40
1.0000000000
40
1.0000000000
10
167.2128634106
20
100.6749199561
30
0.0000000000
10
167.2834933766
20
100.6536649647
30
0.0000000000
10
167.3521948838
20
100.6268034083
30
0.0000000000
10
167.4179058922
20
100.5940744719
30
0.0000000000
11
167.2128634106
21
100.6749199561
31
0.0000000000
11
167.4179058922
21
100.5940744719
31
0.0000000000
0
SPLINE
5
265
100
AcDbEntity
8
0
100
AcDbSpline
62
7
6
CONTINUOUS
70
0
71
3
72
9
73
5
74
3
42
0.0000001000
43
0.0000001000
44
0.0000000001
12
1.2458637437
22
0.6229318719
32
0.0000000000
13
1.3471239385
23
-0.4053960296
33
0.0000000000
40
0.0000000000
40
0.0000000000
40
0.0000000000
40
0.0000000000
40
0.6317248829
40
1.0000000000
40
1.0000000000
40
1.0000000000
40
1.0000000000
10
165.8522107526
20
72.9986213770
30
0.0000000000
10
166.1145584618
20
73.1297952316
30
0.0000000000
10
166.5697450471
20
73.2800539474
30
0.0000000000
10
167.0474926685
20
73.2283791427
30
0.0000000000
10
167.2128634106
20
73.1786133860
30
0.0000000000
11
165.8522107526
21
72.9986213770
31
0.0000000000
11
166.6986674218
21
73.2390526831
31
0.0000000000
11
167.2128634106
21
73.1786133860
31
0.0000000000
0
SPLINE
5
266
100
AcDbEntity
8
0
100
AcDbSpline
62
7
6
CONTINUOUS
70
0
71
3
72
8
73
4
74
2
42
0.0000001000
43
0.0000001000
44
0.0000000001
12
0.2118898980
22
-0.0637649743
32
0.0000000000
13
0.1971330254
23
-0.0981868092
33
0.0000000000
40
0.0000000000
40
0.0000000000
40
0.0000000000
40
0.0000000000
40
1.0000000000
40
1.0000000000
40
1.0000000000
40
1.0000000000
10
167.2128634106
20
73.1786133860
30
0.0000000000
10
167.2834933766
20
73.1573583945
30
0.0000000000
10
167.3521948838
20
73.1304968381
30
0.0000000000
10
167.4179058922
20
73.0977679017
30
0.0000000000
11
167.2128634106
21
73.1786133860
31
0.0000000000
11
167.4179058922
21
73.0977679017
31
0.0000000000
0
SPLINE
5
267
100
AcDbEntity
8
0
100
AcDbSpline
62
7
6
CONTINUOUS
70
0
71
3
72
9
73
5
74
3
42
0.0000001000
43
0.0000001000
44
0.0000000001
12
0.2014195575
22
0.1007042554
32
0.0000000000
13
0.2054949784
23
-0.1098567281
33
0.0000000000
40
0.0000000000
40
0.0000000000
40
0.0000000000
40
0.0000000000
40
0.8000299446
40
1.0000000000
40
1.0000000000
40
1.0000000000
40
1.0000000000
10
-155.7045877351
20
-94.3832215707
30
0.0000000000
10
-155.6508738426
20
-94.3563660974
30
0.0000000000
10
-155.5702735303
20
-94.3338978269
30
0.0000000000
10
-155.4976466200
20
-94.3620539988
30
0.0000000000
10
-155.4839490059
20
-94.3693766841
30
0.0000000000
11
-155.7045877351
21
-94.3832215707
31
0.0000000000
11
-155.5270118751
21
-94.3528175877
31
0.0000000000
11
-155.4839490059
21
-94.3693766841
31
0.0000000000
0
SPLINE
5
268
100
AcDbEntity
8
0
100
AcDbSpline
62
7
6
CONTINUOUS
70
0
71
3
72
10
73
6
74
4
42
0.0000001000
43
0.0000001000
44
0.0000000001
12
0.0000000000
22
0.7323445251
32
0.0000000000
13
0.6550288565
23
0.3275144282
33
0.0000000000
40
0.0000000000
40
0.0000000000
40
0.0000000000
40
0.0000000000
40
0.3362619791
40
0.6872392329
40
1.0000000000
40
1.0000000000
40
1.0000000000
40
1.0000000000
10
-156.7652581638
20
-95.3465694869
30
0.0000000000
10
-156.7652581638
20
-95.2644829471
30
0.0000000000
10
-156.7277900630
20
-95.0963452548
30
0.0000000000
10
-156.6050478602
20
-94.8824789828
30
0.0000000000
10
-156.4799938824
20
-94.7709246443
30
0.0000000000
10
-156.4117047732
20
-94.7367800897
30
0.0000000000
11
-156.7652581638
21
-95.3465694869
31
0.0000000000
11
-156.7173676290
21
-95.1050114260
31
0.0000000000
11
-156.5881698630
21
-94.8828052570
31
0.0000000000
11
-156.4117047732
21
-94.7367800897
31
0.0000000000
0
SPLINE
5
269
100
AcDbEntity
8
0
100
AcDbSpline
62
7
6
CONTINUOUS
70
0
71
3
72
8
73
4
74
2
42
0.0000001000
43
0.0000001000
44
0.0000000001
12
-0.4166508659
22
0.2083254330
32
0.0000000000
13
-0.3700384442
23
0.2865475802
33
0.0000000000
40
0.0000000000
40
0.0000000000
40
0.0000000000
40
0.0000000000
40
1.0000000000
40
1.0000000000
40
1.0000000000
40
1.0000000000
10
-162.0685590227
20
-92.5797436008
30
0.0000000000
10
-162.2074426447
20
-92.5103017898
30
0.0000000000
10
-162.3418803377
20
-92.4304442303
30
0.0000000000
10
-162.4652264858
20
-92.3349283702
30
0.0000000000
11
-162.0685590227
21
-92.5797436008
31
0.0000000000
11
-162.4652264858
21
-92.3349283702
31
0.0000000000
0
SPLINE
5
26A
100
AcDbEntity
8
0
100
AcDbSpline
62
7
6
CONTINUOUS
70
0
71
3
72
10
73
6
74
4
42
0.0000001000
43
0.0000001000
44
0.0000000001
12
-0.7712468625
22
0.5972323300
32
0.0000000000
13
0.0001369890
23
0.9882784504
33
0.0000000000
40
0.0000000000
40
0.0000000000
40
0.0000000000
40
0.0000000000
40
0.2092912972
40
0.7592423104
40
1.0000000000
40
1.0000000000
40
1.0000000000
40
1.0000000000
10
-162.4652264858
20
-92.3349283702
30
0.0000000000
10
-162.5190315712
20
-92.2932631939
30
0.0000000000
10
-162.7065630599
20
-92.1313065788
30
0.0000000000
10
-162.9074183533
20
-91.8588068315
30
0.0000000000
10
-162.9444453028
20
-91.5983306569
30
0.0000000000
10
-162.9444343091
20
-91.5190187780
30
0.0000000000
11
-162.4652264858
21
-92.3349283702
31
0.0000000000
11
-162.6197586053
21
-92.2005592620
31
0.0000000000
11
-162.9106058489
21
-91.7527792876
31
0.0000000000
11
-162.9444343091
21
-91.5190187780
31
0.0000000000
0
SPLINE
5
26B
100
AcDbEntity
8
0
100
AcDbSpline
62
7
6
CONTINUOUS
70
0
71
3
72
8
73
4
74
2
42
0.0000001000
43
0.0000001000
44
0.0000000001
12
0.1168531464
22
-0.0584265732
32
0.0000000000
13
0.1220958467
23
-0.0485993523
33
0.0000000000
40
0.0000000000
40
0.0000000000
40
0.0000000000
40
0.0000000000
40
1.0000000000
40
1.0000000000
40
1.0000000000
40
1.0000000000
10
-156.7652581638
20
-95.2313940302
30
0.0000000000
10
-156.7263071150
20
-95.2508695546
30
0.0000000000
10
-156.6864080479
20
-95.2689202371
30
0.0000000000
10
-156.6457094323
20
-95.2851200212
30
0.0000000000
11
-156.7652581638
21
-95.2313940302
31
0.0000000000
11
-156.6457094323
21
-95.2851200212
31
0.0000000000
0
SPLINE
5
26C
100
AcDbEntity
8
0
100
AcDbSpline
62
7
6
CONTINUOUS
70
0
71
3
72
8
73
4
74
2
42
0.0000001000
43
0.0000001000
44
0.0000000001
12
0.3243893177
22
-0.1291207782
32
0.0000000000
13
0.3498991970
23
-0.0267590136
33
0.0000000000
40
0.0000000000
40
0.0000000000
40
0.0000000000
40
0.0000000000
40
1.0000000000
40
1.0000000000
40
1.0000000000
40
1.0000000000
10
-156.6457094323
20
-95.2851200212
30
0.0000000000
10
-156.5375796598
20
-95.3281602806
30
0.0000000000
10
-156.4238060290
20
-95.3581354056
30
0.0000000000
10
-156.3071729634
20
-95.3670550768
30
0.0000000000
11
-156.6457094323
21
-95.2851200212
31
0.0000000000
11
-156.3071729634
21
-95.3670550768
31
0.0000000000
0
SPLINE
5
26D
100
AcDbEntity
8
0
100
AcDbSpline
62
7
6
CONTINUOUS
70
0
71
3
72
9
73
5
74
3
42
0.0000001000
43
0.0000001000
44
0.0000000001
12
0.4475454271
22
-0.0342266409
32
0.0000000000
13
0.3987816729
23
0.2008247977
33
0.0000000000
40
0.0000000000
40
0.0000000000
40
0.0000000000
40
0.0000000000
40
0.9305733259
40
1.0000000000
40
1.0000000000
40
1.0000000000
40
1.0000000000
10
-156.3071729634
20
-95.3670550768
30
0.0000000000
10
-156.1683483512
20
-95.3776718765
30
0.0000000000
10
-156.0148132364
20
-95.3570251825
30
0.0000000000
10
-155.8804887603
20
-95.2929783992
30
0.0000000000
10
-155.8712600652
20
-95.2883308666
30
0.0000000000
11
-156.3071729634
21
-95.3670550768
31
0.0000000000
11
-155.8992327600
21
-95.3016623183
31
0.0000000000
11
-155.8712600652
21
-95.2883308666
31
0.0000000000
0
SPLINE
5
26E
100
AcDbEntity
8
0
100
AcDbSpline
62
7
6
CONTINUOUS
70
0
71
3
72
11
73
7
74
5
42
0.0000001000
43
0.0000001000
44
0.0000000001
12
1.7278075649
22
-0.8639037824
32
0.0000000000
13
0.7049940961
23
-1.8043215618
33
0.0000000000
40
0.0000000000
40
0.0000000000
40
0.0000000000
40
0.0000000000
40
0.2899850889
40
0.6134576964
40
0.9523322270
40
1.0000000000
40
1.0000000000
40
1.0000000000
40
1.0000000000
10
154.3617255583
20
98.4372155973
30
0.0000000000
10
154.5287383684
20
98.3537091923
30
0.0000000000
10
154.8523981772
20
98.1167454935
30
0.0000000000
10
155.2511968115
20
97.6454399546
30
0.0000000000
10
155.4721340716
20
97.2419033191
30
0.0000000000
10
155.5663103850
20
97.0107337123
30
0.0000000000
10
155.5775122178
20
96.9820643821
30
0.0000000000
11
154.3617255583
21
98.4372155973
31
0.0000000000
11
154.8198107587
21
98.1147914435
31
0.0000000000
11
155.2277509621
21
97.6414584816
31
0.0000000000
11
155.5426860517
21
97.0675740800
31
0.0000000000
11
155.5775122178
21
96.9820643821
31
0.0000000000
0
SPLINE
5
26F
100
AcDbEntity
8
0
100
AcDbSpline
62
7
6
CONTINUOUS
70
0
71
3
72
8
73
4
74
2
42
0.0000001000
43
0.0000001000
44
0.0000000001
12
0.0277566457
22
-0.0710387713
32
0.0000000000
13
0.0260458068
23
-0.0716798771
33
0.0000000000
40
0.0000000000
40
0.0000000000
40
0.0000000000
40
0.0000000000
40
1.0000000000
40
1.0000000000
40
1.0000000000
40
1.0000000000
10
155.5775122178
20
96.9820643821
30
0.0000000000
10
155.5867644331
20
96.9583847916
30
0.0000000000
10
155.5957356913
20
96.9345947748
30
0.0000000000
10
155.6044176270
20
96.9107014825
30
0.0000000000
11
155.5775122178
21
96.9820643821
31
0.0000000000
11
155.6044176270
21
96.9107014825
31
0.0000000000
0
SPLINE
5
270
100
AcDbEntity
8
0
100
AcDbSpline
62
7
6
CONTINUOUS
70
0
71
3
72
8
73
4
74
2
42
0.0000001000
43
0.0000001000
44
0.0000000001
12
0.0888658569
22
-0.2445650366
32
0.0000000000
13
0.0676608279
23
-0.2509264394
33
0.0000000000
40
0.0000000000
40
0.0000000000
40
0.0000000000
40
0.0000000000
40
1.0000000000
40
1.0000000000
40
1.0000000000
40
1.0000000000
10
155.6044176270
20
96.9107014825
30
0.0000000000
10
155.6340395793
20
96.8291798036
30
0.0000000000
10
155.6602934958
20
96.7464558827
30
0.0000000000
10
155.6828471052
20
96.6628137362
30
0.0000000000
11
155.6044176270
21
96.9107014825
31
0.0000000000
11
155.6828471052
21
96.6628137362
31
0.0000000000
0
SPLINE
5
271
100
AcDbEntity
8
0
100
AcDbSpline
62
7
6
CONTINUOUS
70
0
71
3
72
8
73
4
74
2
42
0.0000001000
43
0.0000001000
44
0.0000000001
12
0.0559687534
22
-0.2075652992
32
0.0000000000
13
0.0402128691
23
-0.2108528210
33
0.0000000000
40
0.0000000000
40
0.0000000000
40
0.0000000000
40
0.0000000000
40
1.0000000000
40
1.0000000000
40
1.0000000000
40
1.0000000000
10
155.6828471052
20
96.6628137362
30
0.0000000000
10
155.7015033563
20
96.5936253032
30
0.0000000000
10
155.7176276614
20
96.5238085716
30
0.0000000000
10
155.7310319511
20
96.4535242979
30
0.0000000000
11
155.6828471052
21
96.6628137362
31
0.0000000000
11
155.7310319511
21
96.4535242979
31
0.0000000000
0
SPLINE
5
272
100
AcDbEntity
8
0
100
AcDbSpline
62
7
6
CONTINUOUS
70
0
71
3
72
12
73
8
74
6
42
0.0000001000
43
0.0000001000
44
0.0000000001
12
-3.9025219901
22
1.9512609950
32
0.0000000000
13
-3.9025219901
23
-1.9512609950
33
0.0000000000
40
0.0000000000
40
0.0000000000
40
0.0000000000
40
0.0000000000
40
0.1849337787
40
0.3928775388
40
0.6075028439
40
0.8149061982
40
1.0000000000
40
1.0000000000
40
1.0000000000
40
1.0000000000
10
149.0584246994
20
101.0888660268
30
0.0000000000
10
148.8178553200
20
101.2091507165
30
0.0000000000
10
148.2729746761
20
101.3976840622
30
0.0000000000
10
147.3967159962
20
101.5344504930
30
0.0000000000
10
146.4766127448
20
101.5343281136
30
0.0000000000
10
145.6009432747
20
101.3975528787
30
0.0000000000
10
145.0565615562
20
101.2092547988
30
0.0000000000
10
144.8157840123
20
101.0888660268
30
0.0000000000
11
149.0584246994
21
101.0888660268
31
0.0000000000
11
148.3000560219
21
101.3644658181
31
0.0000000000
11
147.4044960729
21
101.5098894399
31
0.0000000000
11
146.4680532042
21
101.5097583361
31
0.0000000000
11
145.5748325833
21
101.3646391322
31
0.0000000000
11
144.8157840123
21
101.0888660268
31
0.0000000000
0
SPLINE
5
273
100
AcDbEntity
8
0
100
AcDbSpline
62
7
6
CONTINUOUS
70
0
71
3
72
10
73
6
74
4
42
0.0000001000
43
0.0000001000
44
0.0000000001
12
-1.2850489424
22
-0.6425244712
32
0.0000000000
13
0.0002027153
23
-1.4624470182
33
0.0000000000
40
0.0000000000
40
0.0000000000
40
0.0000000000
40
0.0000000000
40
0.4656624398
40
0.8373030725
40
1.0000000000
40
1.0000000000
40
1.0000000000
40
1.0000000000
10
-162.0685590227
20
-52.3533054907
30
0.0000000000
10
-162.2680253646
20
-52.4530386617
30
0.0000000000
10
-162.6101942007
20
-52.6709991833
30
0.0000000000
10
-162.9074183533
20
-53.0742422600
30
0.0000000000
10
-162.9444453028
20
-53.3347184346
30
0.0000000000
10
-162.9444343091
20
-53.4140303134
30
0.0000000000
11
-162.0685590227
21
-52.3533054907
31
0.0000000000
11
-162.6197586053
21
-52.7324898294
31
0.0000000000
11
-162.9106058489
21
-53.1802698039
31
0.0000000000
11
-162.9444343091
21
-53.4140303134
31
0.0000000000
0
SPLINE
5
274
100
AcDbEntity
8
0
100
AcDbSpline
62
7
6
CONTINUOUS
70
0
71
3
72
15
73
11
74
9
42
0.0000001000
43
0.0000001000
44
0.0000000001
12
6.6001985956
22
-3.2873864677
32
0.0000000000
13
-6.5610124507
23
-3.2805062254
33
0.0000000000
40
0.0000000000
40
0.0000000000
40
0.0000000000
40
0.0000000000
40
0.0038290851
40
0.1082141413
40
0.2298219586
40
0.3733289413
40
0.5333196397
40
0.6990179146
40
0.8580812375
40
1.0000000000
40
1.0000000000
40
1.0000000000
40
1.0000000000
10
167.4179058922
20
73.0977679017
30
0.0000000000
10
167.4263301328
20
73.0935720076
30
0.0000000000
10
167.6630193574
20
72.9722661135
30
0.0000000000
10
168.0785261686
20
72.5501338406
30
0.0000000000
10
168.3490227129
20
71.6642238170
30
0.0000000000
10
168.3286731586
20
70.6128632598
30
0.0000000000
10
168.0297928295
20
69.4953047777
30
0.0000000000
10
167.4871534442
20
68.4316094951
30
0.0000000000
10
166.7621709875
20
67.5397341757
30
0.0000000000
10
166.1625876752
20
67.0916320118
30
0.0000000000
10
165.8522107526
20
66.9364435505
30
0.0000000000
11
167.4179058922
21
73.0977679017
31
0.0000000000
11
167.4430289244
21
73.0848903683
31
0.0000000000
11
167.9955142775
21
72.5547286829
31
0.0000000000
11
168.2894855937
21
71.7125129505
31
0.0000000000
11
168.2894855937
21
70.6598268182
31
0.0000000000
11
167.9955142775
21
69.5236397696
31
0.0000000000
11
167.4430289244
21
68.4409927311
31
0.0000000000
11
166.6986674218
21
67.5424689137
31
0.0000000000
11
165.8522107526
21
66.9364435505
31
0.0000000000
0
SPLINE
5
275
100
AcDbEntity
8
0
100
AcDbSpline
62
7
6
CONTINUOUS
70
0
71
3
72
8
73
4
74
2
42
0.0000001000
43
0.0000001000
44
0.0000000001
12
-0.2838170012
22
-0.1419085006
32
0.0000000000
13
-0.3012038049
23
-0.1073861054
33
0.0000000000
40
0.0000000000
40
0.0000000000
40
0.0000000000
40
0.0000000000
40
1.0000000000
40
1.0000000000
40
1.0000000000
40
1.0000000000
10
-165.4273162333
20
-71.2070133723
30
0.0000000000
10
-165.5219219004
20
-71.2543162058
30
0.0000000000
10
-165.6198052446
20
-71.2969048399
30
0.0000000000
10
-165.7202065129
20
-71.3327002084
30
0.0000000000
11
-165.4273162333
21
-71.2070133723
31
0.0000000000
11
-165.7202065129
21
-71.3327002084
31
0.0000000000
0
SPLINE
5
276
100
AcDbEntity
8
0
100
AcDbSpline
62
7
6
CONTINUOUS
70
0
71
3
72
9
73
5
74
3
42
0.0000001000
43
0.0000001000
44
0.0000000001
12
-1.0209823162
22
-0.3640037505
32
0.0000000000
13
-1.0402391139
23
0.3130438073
33
0.0000000000
40
0.0000000000
40
0.0000000000
40
0.0000000000
40
0.0000000000
40
0.5230786657
40
1.0000000000
40
1.0000000000
40
1.0000000000
40
1.0000000000
10
-165.7202065129
20
-71.3327002084
30
0.0000000000
10
-165.8982245354
20
-71.3961677405
30
0.0000000000
10
-166.2536849794
20
-71.4766740389
30
0.0000000000
10
-166.6225981493
20
-71.4367711380
30
0.0000000000
10
-166.7879688914
20
-71.3870053812
30
0.0000000000
11
-165.7202065129
21
-71.3327002084
31
0.0000000000
11
-166.2737729026
21
-71.4474446784
31
0.0000000000
11
-166.7879688914
21
-71.3870053812
31
0.0000000000
0
SPLINE
5
277
100
AcDbEntity
8
0
100
AcDbSpline
62
7
6
CONTINUOUS
70
0
71
3
72
8
73
4
74
2
42
0.0000001000
43
0.0000001000
44
0.0000000001
12
-0.2118898980
22
0.0637649743
32
0.0000000000
13
-0.1971330254
23
0.0981868092
33
0.0000000000
40
0.0000000000
40
0.0000000000
40
0.0000000000
40
0.0000000000
40
1.0000000000
40
1.0000000000
40
1.0000000000
40
1.0000000000
10
-166.7879688914
20
-71.3870053812
30
0.0000000000
10
-166.8585988574
20
-71.3657503898
30
0.0000000000
10
-166.9273003645
20
-71.3388888334
30
0.0000000000
10
-166.9930113730
20
-71.3061598970
30
0.0000000000
11
-166.7879688914
21
-71.3870053812
31
0.0000000000
11
-166.9930113730
21
-71.3061598970
31
0.0000000000
0
SPLINE
5
278
100
AcDbEntity
8
0
100
AcDbSpline
62
7
6
CONTINUOUS
70
0
71
3
72
8
73
4
74
2
42
0.0000001000
43
0.0000001000
44
0.0000000001
12
-0.2838170012
22
-0.1419085006
32
0.0000000000
13
-0.3012038049
23
-0.1073861054
33
0.0000000000
40
0.0000000000
40
0.0000000000
40
0.0000000000
40
0.0000000000
40
1.0000000000
40
1.0000000000
40
1.0000000000
40
1.0000000000
10
-165.4273162333
20
-98.7033199424
30
0.0000000000
10
-165.5219219004
20
-98.7506227760
30
0.0000000000
10
-165.6198052446
20
-98.7932114101
30
0.0000000000
10
-165.7202065129
20
-98.8290067786
30
0.0000000000
11
-165.4273162333
21
-98.7033199424
31
0.0000000000
11
-165.7202065129
21
-98.8290067786
31
0.0000000000
0
SPLINE
5
279
100
AcDbEntity
8
0
100
AcDbSpline
62
7
6
CONTINUOUS
70
0
71
3
72
9
73
5
74
3
42
0.0000001000
43
0.0000001000
44
0.0000000001
12
-1.0209823162
22
-0.3640037505
32
0.0000000000
13
-1.0402391139
23
0.3130438073
33
0.0000000000
40
0.0000000000
40
0.0000000000
40
0.0000000000
40
0.0000000000
40
0.5230786657
40
1.0000000000
40
1.0000000000
40
1.0000000000
40
1.0000000000
10
-165.7202065129
20
-98.8290067786
30
0.0000000000
10
-165.8982245354
20
-98.8924743106
30
0.0000000000
10
-166.2536849794
20
-98.9729806091
30
0.0000000000
10
-166.6225981493
20
-98.9330777082
30
0.0000000000
10
-166.7879688914
20
-98.8833119514
30
0.0000000000
11
-165.7202065129
21
-98.8290067786
31
0.0000000000
11
-166.2737729026
21
-98.9437512485
31
0.0000000000
11
-166.7879688914
21
-98.8833119514
31
0.0000000000
0
SPLINE
5
27A
100
AcDbEntity
8
0
100
AcDbSpline
62
7
6
CONTINUOUS
70
0
71
3
72
8
73
4
74
2
42
0.0000001000
43
0.0000001000
44
0.0000000001
12
-0.2118898980
22
0.0637649743
32
0.0000000000
13
-0.1971330254
23
0.0981868092
33
0.0000000000
40
0.0000000000
40
0.0000000000
40
0.0000000000
40
0.0000000000
40
1.0000000000
40
1.0000000000
40
1.0000000000
40
1.0000000000
10
-166.7879688914
20
-98.8833119514
30
0.0000000000
10
-166.8585988574
20
-98.8620569600
30
0.0000000000
10
-166.9273003645
20
-98.8351954036
30
0.0000000000
10
-166.9930113730
20
-98.8024664672
30
0.0000000000
11
-166.7879688914
21
-98.8833119514
31
0.0000000000
11
-166.9930113730
21
-98.8024664672
31
0.0000000000
0
SPLINE
5
27B
100
AcDbEntity
8
0
100
AcDbSpline
62
7
6
CONTINUOUS
70
0
71
3
72
10
73
6
74
4
42
0.0000001000
43
0.0000001000
44
0.0000000001
12
-1.3664892706
22
0.6912816685
32
0.0000000000
13
-1.4325392312
23
-0.5318353573
33
0.0000000000
40
0.0000000000
40
0.0000000000
40
0.0000000000
40
0.0000000000
40
0.0895473639
40
0.6143398692
40
1.0000000000
40
1.0000000000
40
1.0000000000
40
1.0000000000
10
169.5844431677
20
103.8540555636
30
0.0000000000
10
169.5436546637
20
103.8746897140
30
0.0000000000
10
169.2576494327
20
104.0032141772
30
0.0000000000
10
168.7326363148
20
104.0542108936
30
0.0000000000
10
168.2798717013
20
103.9392912418
30
0.0000000000
10
168.0957139455
20
103.8709220107
30
0.0000000000
11
169.5844431677
21
103.8540555636
31
0.0000000000
11
169.4595011529
21
103.9100926006
31
0.0000000000
11
168.6679742237
21
104.0076982847
31
0.0000000000
11
168.0957139455
21
103.8709220107
31
0.0000000000
0
SPLINE
5
27C
100
AcDbEntity
8
0
100
AcDbSpline
62
7
6
CONTINUOUS
70
0
71
3
72
8
73
4
74
2
42
0.0000001000
43
0.0000001000
44
0.0000000001
12
-0.3065356071
22
-0.1138024499
32
0.0000000000
13
-0.2908536955
23
-0.1454268477
33
0.0000000000
40
0.0000000000
40
0.0000000000
40
0.0000000000
40
0.0000000000
40
1.0000000000
40
1.0000000000
40
1.0000000000
40
1.0000000000
10
168.0957139455
20
103.8709220107
30
0.0000000000
10
167.9935354098
20
103.8329878607
30
0.0000000000
10
167.8937056326
20
103.7889920721
30
0.0000000000
10
167.7967544008
20
103.7405164562
30
0.0000000000
11
168.0957139455
21
103.8709220107
31
0.0000000000
11
167.7967544008
21
103.7405164562
31
0.0000000000
0
SPLINE
5
27D
100
AcDbEntity
8
0
100
AcDbSpline
62
7
6
CONTINUOUS
70
0
71
3
72
10
73
6
74
4
42
0.0000001000
43
0.0000001000
44
0.0000000001
12
0.0001683167
22
-1.2142856609
32
0.0000000000
13
1.0173118828
23
-0.6282710280
33
0.0000000000
40
0.0000000000
40
0.0000000000
40
0.0000000000
40
0.0000000000
40
0.1965496508
40
0.6430415469
40
1.0000000000
40
1.0000000000
40
1.0000000000
40
1.0000000000
10
-162.9444343091
20
-53.4140303134
30
0.0000000000
10
-162.9444232816
20
-53.4935861210
30
0.0000000000
10
-162.9072389047
20
-53.7538687892
30
0.0000000000
10
-162.6605148999
20
-54.0885776775
30
0.0000000000
10
-162.4029635699
20
-54.2815862686
30
0.0000000000
10
-162.2819175446
20
-54.3563418201
30
0.0000000000
11
-162.9444343091
21
-53.4140303134
31
0.0000000000
11
-162.9103436414
21
-53.6484912383
31
0.0000000000
11
-162.6201052336
21
-54.0951015487
31
0.0000000000
11
-162.2819175446
21
-54.3563418201
31
0.0000000000
0
SPLINE
5
27E
100
AcDbEntity
8
0
100
AcDbSpline
62
7
6
CONTINUOUS
70
0
71
3
72
8
73
4
74
2
42
0.0000001000
43
0.0000001000
44
0.0000000001
12
0.2078078063
22
-0.1283378542
32
0.0000000000
13
0.2179556514
23
-0.1089778257
33
0.0000000000
40
0.0000000000
40
0.0000000000
40
0.0000000000
40
0.0000000000
40
1.0000000000
40
1.0000000000
40
1.0000000000
40
1.0000000000
10
-162.2819175446
20
-54.3563418201
30
0.0000000000
10
-162.2126482758
20
-54.3991211048
30
0.0000000000
10
-162.1412109065
20
-54.4382998924
30
0.0000000000
10
-162.0685590227
20
-54.4746258343
30
0.0000000000
11
-162.2819175446
21
-54.3563418201
31
0.0000000000
11
-162.0685590227
21
-54.4746258343
31
0.0000000000
0
SPLINE
5
27F
100
AcDbEntity
8
0
100
AcDbSpline
62
7
6
CONTINUOUS
70
0
71
3
72
8
73
4
74
2
42
0.0000001000
43
0.0000001000
44
0.0000000001
12
-0.2838170012
22
-0.1419085006
32
0.0000000000
13
-0.3012038049
23
-0.1073861054
33
0.0000000000
40
0.0000000000
40
0.0000000000
40
0.0000000000
40
0.0000000000
40
1.0000000000
40
1.0000000000
40
1.0000000000
40
1.0000000000
10
163.3773370184
20
93.1953132536
30
0.0000000000
10
163.2827313513
20
93.1480104201
30
0.0000000000
10
163.1848480072
20
93.1054217859
30
0.0000000000
10
163.0844467389
20
93.0696264175
30
0.0000000000
11
163.3773370184
21
93.1953132536
31
0.0000000000
11
163.0844467389
21
93.0696264175
31
0.0000000000
0
SPLINE
5
280
100
AcDbEntity
8
0
100
AcDbSpline
62
7
6
CONTINUOUS
70
0
71
3
72
9
73
5
74
3
42
0.0000001000
43
0.0000001000
44
0.0000000001
12
-1.0209823162
22
-0.3640037505
32
0.0000000000
13
-1.0402391139
23
0.3130438073
33
0.0000000000
40
0.0000000000
40
0.0000000000
40
0.0000000000
40
0.0000000000
40
0.5230786657
40
1.0000000000
40
1.0000000000
40
1.0000000000
40
1.0000000000
10
163.0844467389
20
93.0696264175
30
0.0000000000
10
162.9064287163
20
93.0061588854
30
0.0000000000
10
162.5509682723
20
92.9256525869
30
0.0000000000
10
162.1820551024
20
92.9655554879
30
0.0000000000
10
162.0166843604
20
93.0153212446
30
0.0000000000
11
163.0844467389
21
93.0696264175
31
0.0000000000
11
162.5308803491
21
92.9548819475
31
0.0000000000
11
162.0166843604
21
93.0153212446
31
0.0000000000
0
SPLINE
5
281
100
AcDbEntity
8
0
100
AcDbSpline
62
7
6
CONTINUOUS
70
0
71
3
72
8
73
4
74
2
42
0.0000001000
43
0.0000001000
44
0.0000000001
12
-0.2118898980
22
0.0637649743
32
0.0000000000
13
-0.1971330254
23
0.0981868092
33
0.0000000000
40
0.0000000000
40
0.0000000000
40
0.0000000000
40
0.0000000000
40
1.0000000000
40
1.0000000000
40
1.0000000000
40
1.0000000000
10
162.0166843604
20
93.0153212446
30
0.0000000000
10
161.9460543944
20
93.0365762361
30
0.0000000000
10
161.8773528872
20
93.0634377925
30
0.0000000000
10
161.8116418787
20
93.0961667289
30
0.0000000000
11
162.0166843604
21
93.0153212446
31
0.0000000000
11
161.8116418787
21
93.0961667289
31
0.0000000000
0
SPLINE
5
282
100
AcDbEntity
8
0
100
AcDbSpline
62
7
6
CONTINUOUS
70
0
71
3
72
8
73
4
74
2
42
0.0000001000
43
0.0000001000
44
0.0000000001
12
-0.2838170012
22
-0.1419085006
32
0.0000000000
13
-0.3012038049
23
-0.1073861054
33
0.0000000000
40
0.0000000000
40
0.0000000000
40
0.0000000000
40
0.0000000000
40
1.0000000000
40
1.0000000000
40
1.0000000000
40
1.0000000000
10
163.3773370184
20
65.6990066834
30
0.0000000000
10
163.2827313513
20
65.6517038499
30
0.0000000000
10
163.1848480072
20
65.6091152158
30
0.0000000000
10
163.0844467389
20
65.5733198473
30
0.0000000000
11
163.3773370184
21
65.6990066834
31
0.0000000000
11
163.0844467389
21
65.5733198473
31
0.0000000000
0
SPLINE
5
283
100
AcDbEntity
8
0
100
AcDbSpline
62
7
6
CONTINUOUS
70
0
71
3
72
9
73
5
74
3
42
0.0000001000
43
0.0000001000
44
0.0000000001
12
-1.0209823162
22
-0.3640037505
32
0.0000000000
13
-1.0402391139
23
0.3130438073
33
0.0000000000
40
0.0000000000
40
0.0000000000
40
0.0000000000
40
0.0000000000
40
0.5230786657
40
1.0000000000
40
1.0000000000
40
1.0000000000
40
1.0000000000
10
163.0844467389
20
65.5733198473
30
0.0000000000
10
162.9064287163
20
65.5098523153
30
0.0000000000
10
162.5509682723
20
65.4293460168
30
0.0000000000
10
162.1820551024
20
65.4692489177
30
0.0000000000
10
162.0166843604
20
65.5190146745
30
0.0000000000
11
163.0844467389
21
65.5733198473
31
0.0000000000
11
162.5308803491
21
65.4585753773
31
0.0000000000
11
162.0166843604
21
65.5190146745
31
0.0000000000
0
SPLINE
5
284
100
AcDbEntity
8
0
100
AcDbSpline
62
7
6
CONTINUOUS
70
0
71
3
72
8
73
4
74
2
42
0.0000001000
43
0.0000001000
44
0.0000000001
12
-0.2118898980
22
0.0637649743
32
0.0000000000
13
-0.1971330254
23
0.0981868092
33
0.0000000000
40
0.0000000000
40
0.0000000000
40
0.0000000000
40
0.0000000000
40
1.0000000000
40
1.0000000000
40
1.0000000000
40
1.0000000000
10
162.0166843604
20
65.5190146745
30
0.0000000000
10
161.9460543944
20
65.5402696659
30
0.0000000000
10
161.8773528872
20
65.5671312223
30
0.0000000000
10
161.8116418787
20
65.5998601587
30
0.0000000000
11
162.0166843604
21
65.5190146745
31
0.0000000000
11
161.8116418787
21
65.5998601587
31
0.0000000000
0
SPLINE
5
285
100
AcDbEntity
8
0
100
AcDbSpline
62
7
6
CONTINUOUS
70
0
71
3
72
9
73
5
74
3
42
0.0000001000
43
0.0000001000
44
0.0000000001
12
0.2797649225
22
-0.1475544292
32
0.0000000000
13
0.0000000000
23
-0.3100458697
33
0.0000000000
40
0.0000000000
40
0.0000000000
40
0.0000000000
40
0.0000000000
40
0.3606454202
40
1.0000000000
40
1.0000000000
40
1.0000000000
40
1.0000000000
10
157.0590988164
20
61.9005969744
30
0.0000000000
10
157.0927307958
20
61.8828586980
30
0.0000000000
10
157.1741844568
20
61.8068641903
30
0.0000000000
10
157.1901526830
20
61.6972123521
30
0.0000000000
10
157.1901526830
20
61.6311359365
30
0.0000000000
11
157.0590988164
21
61.9005969744
31
0.0000000000
11
157.1429652045
21
61.8236669110
31
0.0000000000
11
157.1901526830
21
61.6311359365
31
0.0000000000
0
SPLINE
5
286
100
AcDbEntity
8
0
100
AcDbSpline
62
7
6
CONTINUOUS
70
0
71
3
72
15
73
11
74
9
42
0.0000001000
43
0.0000001000
44
0.0000000001
12
6.6001985956
22
-3.2873864677
32
0.0000000000
13
-6.5610124507
23
-3.2805062254
33
0.0000000000
40
0.0000000000
40
0.0000000000
40
0.0000000000
40
0.0000000000
40
0.0038290851
40
0.1082141413
40
0.2298219586
40
0.3733289413
40
0.5333196397
40
0.6990179146
40
0.8580812375
40
1.0000000000
40
1.0000000000
40
1.0000000000
40
1.0000000000
10
-161.3867473595
20
-91.3045587241
30
0.0000000000
10
-161.3783231189
20
-91.3087546183
30
0.0000000000
10
-161.1416338943
20
-91.4300605123
30
0.0000000000
10
-160.7261270831
20
-91.8521927853
30
0.0000000000
10
-160.4556305388
20
-92.7381028089
30
0.0000000000
10
-160.4759800931
20
-93.7894633661
30
0.0000000000
10
-160.7748604222
20
-94.9070218482
30
0.0000000000
10
-161.3174998075
20
-95.9707171307
30
0.0000000000
10
-162.0424822643
20
-96.8625924502
30
0.0000000000
10
-162.6420655765
20
-97.3106946140
30
0.0000000000
10
-162.9524424992
20
-97.4658830754
30
0.0000000000
11
-161.3867473595
21
-91.3045587241
31
0.0000000000
11
-161.3616243273
21
-91.3174362576
31
0.0000000000
11
-160.8091389742
21
-91.8475979430
31
0.0000000000
11
-160.5151676581
21
-92.6898136754
31
0.0000000000
11
-160.5151676581
21
-93.7424998077
31
0.0000000000
11
-160.8091389742
21
-94.8786868563
31
0.0000000000
11
-161.3616243273
21
-95.9613338948
31
0.0000000000
11
-162.1059858299
21
-96.8598577122
31
0.0000000000
11
-162.9524424992
21
-97.4658830754
31
0.0000000000
0
SPLINE
5
287
100
AcDbEntity
8
0
100
AcDbSpline
62
7
6
CONTINUOUS
70
0
71
3
72
10
73
6
74
4
42
0.0000001000
43
0.0000001000
44
0.0000000001
12
0.1391310092
22
-0.7310338383
32
0.0000000000
13
-0.6655859150
23
-0.3328112080
33
0.0000000000
40
0.0000000000
40
0.0000000000
40
0.0000000000
40
0.0000000000
40
0.3424009405
40
0.6886477413
40
1.0000000000
40
1.0000000000
40
1.0000000000
40
1.0000000000
10
-155.3959517700
20
-59.1099675663
30
0.0000000000
10
-155.3800722406
20
-59.1934031242
30
0.0000000000
10
-155.3916725279
20
-59.3712934734
30
0.0000000000
10
-155.5094068833
20
-59.5952135951
30
0.0000000000
10
-155.6355105091
20
-59.7076649122
30
0.0000000000
10
-155.7045877351
20
-59.7422054193
30
0.0000000000
11
-155.3959517700
21
-59.1099675663
31
0.0000000000
11
-155.4087835855
21
-59.3644439120
31
0.0000000000
11
-155.5270114545
21
-59.5933798415
31
0.0000000000
11
-155.7045877351
21
-59.7422054193
31
0.0000000000
0
SPLINE
5
288
100
AcDbEntity
8
0
100
AcDbSpline
62
7
6
CONTINUOUS
70
0
71
3
72
15
73
11
74
9
42
0.0000001000
43
0.0000001000
44
0.0000000001
12
6.6001985956
22
-3.2873864677
32
0.0000000000
13
-6.5610124507
23
-3.2805062254
33
0.0000000000
40
0.0000000000
40
0.0000000000
40
0.0000000000
40
0.0000000000
40
0.0038290851
40
0.1082141413
40
0.2298219586
40
0.3733289413
40
0.5333196397
40
0.6990179146
40
0.8580812375
40
1.0000000000
40
1.0000000000
40
1.0000000000
40
1.0000000000
10
-161.3867473595
20
-63.8082521540
30
0.0000000000
10
-161.3783231189
20
-63.8124480481
30
0.0000000000
10
-161.1416338943
20
-63.9337539422
30
0.0000000000
10
-160.7261270831
20
-64.3558862152
30
0.0000000000
10
-160.4556305388
20
-65.2417962388
30
0.0000000000
10
-160.4759800931
20
-66.2931567959
30
0.0000000000
10
-160.7748604222
20
-67.4107152780
30
0.0000000000
10
-161.3174998075
20
-68.4744105606
30
0.0000000000
10
-162.0424822643
20
-69.3662858800
30
0.0000000000
10
-162.6420655765
20
-69.8143880439
30
0.0000000000
10
-162.9524424992
20
-69.9695765052
30
0.0000000000
11
-161.3867473595
21
-63.8082521540
31
0.0000000000
11
-161.3616243273
21
-63.8211296874
31
0.0000000000
11
-160.8091389742
21
-64.3512913729
31
0.0000000000
11
-160.5151676581
21
-65.1935071053
31
0.0000000000
11
-160.5151676581
21
-66.2461932375
31
0.0000000000
11
-160.8091389742
21
-67.3823802861
31
0.0000000000
11
-161.3616243273
21
-68.4650273246
31
0.0000000000
11
-162.1059858299
21
-69.3635511420
31
0.0000000000
11
-162.9524424992
21
-69.9695765052
31
0.0000000000
0
SPLINE
5
289
100
AcDbEntity
8
0
100
AcDbSpline
62
7
6
CONTINUOUS
70
0
71
3
72
9
73
5
74
3
42
0.0000001000
43
0.0000001000
44
0.0000000001
12
-0.2036671096
22
-0.1018335548
32
0.0000000000
13
-0.2054675380
23
0.1083682865
33
0.0000000000
40
0.0000000000
40
0.0000000000
40
0.0000000000
40
0.0000000000
40
0.7914831957
40
1.0000000000
40
1.0000000000
40
1.0000000000
40
1.0000000000
10
-156.4117047732
20
-60.0957639384
30
0.0000000000
10
-156.4654378048
20
-60.1226304541
30
0.0000000000
10
-156.5477536081
20
-60.1442830455
30
0.0000000000
10
-156.6199231524
20
-60.1165211726
30
0.0000000000
10
-156.6342042972
20
-60.1089889696
30
0.0000000000
11
-156.4117047732
21
-60.0957639384
31
0.0000000000
11
-156.5893848751
21
-60.1259503024
31
0.0000000000
11
-156.6342042972
21
-60.1089889696
31
0.0000000000
0
SPLINE
5
28A
100
AcDbEntity
8
0
100
AcDbSpline
62
7
6
CONTINUOUS
70
0
71
3
72
10
73
6
74
4
42
0.0000001000
43
0.0000001000
44
0.0000000001
12
0.0000000000
22
-0.7323445251
32
0.0000000000
13
-0.6550288565
23
-0.3275144282
33
0.0000000000
40
0.0000000000
40
0.0000000000
40
0.0000000000
40
0.0000000000
40
0.3362619791
40
0.6872392329
40
1.0000000000
40
1.0000000000
40
1.0000000000
40
1.0000000000
10
157.1901526830
20
97.1381774917
30
0.0000000000
10
157.1901526830
20
97.0560909519
30
0.0000000000
10
157.1526845822
20
96.8879532595
30
0.0000000000
10
157.0299423794
20
96.6740869876
30
0.0000000000
10
156.9048884016
20
96.5625326491
30
0.0000000000
10
156.8365992924
20
96.5283880945
30
0.0000000000
11
157.1901526830
21
97.1381774917
31
0.0000000000
11
157.1422621482
21
96.8966194307
31
0.0000000000
11
157.0130643823
21
96.6744132617
31
0.0000000000
11
156.8365992924
21
96.5283880945
31
0.0000000000
0
SPLINE
5
28B
100
AcDbEntity
8
0
100
AcDbSpline
62
7
6
CONTINUOUS
70
0
71
3
72
9
73
5
74
3
42
0.0000001000
43
0.0000001000
44
0.0000000001
12
-0.2067593516
22
-0.1033740060
32
0.0000000000
13
-0.2066036530
23
0.1089502841
33
0.0000000000
40
0.0000000000
40
0.0000000000
40
0.0000000000
40
0.0000000000
40
0.7858280794
40
1.0000000000
40
1.0000000000
40
1.0000000000
40
1.0000000000
10
156.1294822543
20
96.1748295754
30
0.0000000000
10
156.0753231529
20
96.1477515099
30
0.0000000000
10
155.9910315014
20
96.1269722722
30
0.0000000000
10
155.9187353985
20
96.1550306507
30
0.0000000000
10
155.9039858314
20
96.1628086812
30
0.0000000000
11
156.1294822543
21
96.1748295754
31
0.0000000000
11
155.9502532201
21
96.1452521795
31
0.0000000000
11
155.9039858314
21
96.1628086812
31
0.0000000000
0
SPLINE
5
28C
100
AcDbEntity
8
0
100
AcDbSpline
62
7
6
CONTINUOUS
70
0
71
3
72
9
73
5
74
3
42
0.0000001000
43
0.0000001000
44
0.0000000001
12
0.2036658303
22
-0.0939190677
32
0.0000000000
13
0.2173119629
23
-0.0602696643
33
0.0000000000
40
0.0000000000
40
0.0000000000
40
0.0000000000
40
0.0000000000
40
0.5085053112
40
1.0000000000
40
1.0000000000
40
1.0000000000
40
1.0000000000
10
-156.0998582931
20
-94.5808094748
30
0.0000000000
10
-156.0653365743
20
-94.5967289230
30
0.0000000000
10
-155.9961386524
20
-94.6255999315
30
0.0000000000
10
-155.9245789175
20
-94.6496732074
30
0.0000000000
10
-155.8889763589
20
-94.6595472807
30
0.0000000000
11
-156.0998582931
21
-94.5808094748
31
0.0000000000
11
-155.9943508406
21
-94.6248504589
31
0.0000000000
11
-155.8889763589
21
-94.6595472807
31
0.0000000000
0
SPLINE
5
28D
100
AcDbEntity
8
0
100
AcDbSpline
62
7
6
CONTINUOUS
70
0
71
3
72
9
73
5
74
3
42
0.0000001000
43
0.0000001000
44
0.0000000001
12
0.3923365813
22
-0.1088112855
32
0.0000000000
13
0.3873026870
23
0.1286230592
33
0.0000000000
40
0.0000000000
40
0.0000000000
40
0.0000000000
40
0.0000000000
40
0.5148139041
40
1.0000000000
40
1.0000000000
40
1.0000000000
40
1.0000000000
10
-155.8889763589
20
-94.6595472807
30
0.0000000000
10
-155.8216495832
20
-94.6782198016
30
0.0000000000
10
-155.6878745180
20
-94.7008903723
30
0.0000000000
10
-155.5518315441
20
-94.6767603922
30
0.0000000000
10
-155.4891935845
20
-94.6559583523
30
0.0000000000
11
-155.8889763589
21
-94.6595472807
31
0.0000000000
11
-155.6833099846
21
-94.6891583446
31
0.0000000000
11
-155.4891935845
21
-94.6559583523
31
0.0000000000
0
SPLINE
5
28E
100
AcDbEntity
8
0
100
AcDbSpline
62
7
6
CONTINUOUS
70
0
71
3
72
8
73
4
74
2
42
0.0000001000
43
0.0000001000
44
0.0000000001
12
0.0964299935
22
0.0320243602
32
0.0000000000
13
0.0895263360
23
0.0456142913
33
0.0000000000
40
0.0000000000
40
0.0000000000
40
0.0000000000
40
0.0000000000
40
1.0000000000
40
1.0000000000
40
1.0000000000
40
1.0000000000
10
-155.4891935845
20
-94.6559583523
30
0.0000000000
10
-155.4570502534
20
-94.6452835655
30
0.0000000000
10
-155.4257938830
20
-94.6322138874
30
0.0000000000
10
-155.3959517710
20
-94.6170091236
30
0.0000000000
11
-155.4891935845
21
-94.6559583523
31
0.0000000000
11
-155.3959517710
21
-94.6170091236
31
0.0000000000
0
SPLINE
5
28F
100
AcDbEntity
8
0
100
AcDbSpline
62
7
6
CONTINUOUS
70
0
71
3
72
15
73
11
74
9
42
0.0000001000
43
0.0000001000
44
0.0000000001
12
6.6001985956
22
-3.2873864677
32
0.0000000000
13
-6.5610124507
23
-3.2805062254
33
0.0000000000
40
0.0000000000
40
0.0000000000
40
0.0000000000
40
0.0000000000
40
0.0038290851
40
0.1082141413
40
0.2298219586
40
0.3733289413
40
0.5333196397
40
0.6990179146
40
0.8580812375
40
1.0000000000
40
1.0000000000
40
1.0000000000
40
1.0000000000
10
167.4179058922
20
100.5940744719
30
0.0000000000
10
167.4263301328
20
100.5898785778
30
0.0000000000
10
167.6630193574
20
100.4685726837
30
0.0000000000
10
168.0785261686
20
100.0464404107
30
0.0000000000
10
168.3490227129
20
99.1605303871
30
0.0000000000
10
168.3286731586
20
98.1091698300
30
0.0000000000
10
168.0297928295
20
96.9916113478
30
0.0000000000
10
167.4871534442
20
95.9279160653
30
0.0000000000
10
166.7621709875
20
95.0360407459
30
0.0000000000
10
166.1625876752
20
94.5879385820
30
0.0000000000
10
165.8522107526
20
94.4327501207
30
0.0000000000
11
167.4179058922
21
100.5940744719
31
0.0000000000
11
167.4430289244
21
100.5811969384
31
0.0000000000
11
167.9955142775
21
100.0510352530
31
0.0000000000
11
168.2894855937
21
99.2088195206
31
0.0000000000
11
168.2894855937
21
98.1561333883
31
0.0000000000
11
167.9955142775
21
97.0199463398
31
0.0000000000
11
167.4430289244
21
95.9372993013
31
0.0000000000
11
166.6986674218
21
95.0387754838
31
0.0000000000
11
165.8522107526
21
94.4327501207
31
0.0000000000
0
SPLINE
5
290
100
AcDbEntity
8
0
100
AcDbSpline
62
7
6
CONTINUOUS
70
0
71
3
72
9
73
5
74
3
42
0.0000001000
43
0.0000001000
44
0.0000000001
12
0.1939287882
22
-0.1036734928
32
0.0000000000
13
-0.0077194134
23
-0.2198995436
33
0.0000000000
40
0.0000000000
40
0.0000000000
40
0.0000000000
40
0.0000000000
40
0.4865790486
40
1.0000000000
40
1.0000000000
40
1.0000000000
40
1.0000000000
10
-155.4839490059
20
-94.3693766841
30
0.0000000000
10
-155.4524951108
20
-94.3861918006
30
0.0000000000
10
-155.3967990636
20
-94.4390888763
30
0.0000000000
10
-155.3854069129
20
-94.5126928644
30
0.0000000000
10
-155.3867280158
20
-94.5503265421
30
0.0000000000
11
-155.4839490059
21
-94.3693766841
31
0.0000000000
11
-155.4087834053
21
-94.4425715696
31
0.0000000000
11
-155.3867280158
21
-94.5503265421
31
0.0000000000
0
SPLINE
5
291
100
AcDbEntity
8
0
100
AcDbSpline
62
7
6
CONTINUOUS
70
0
71
3
72
8
73
4
74
2
42
0.0000001000
43
0.0000001000
44
0.0000000001
12
-0.0023900471
22
-0.0680842221
32
0.0000000000
13
-0.0150687351
23
-0.0640496532
33
0.0000000000
40
0.0000000000
40
0.0000000000
40
0.0000000000
40
0.0000000000
40
1.0000000000
40
1.0000000000
40
1.0000000000
40
1.0000000000
10
-155.3867280158
20
-94.5503265421
30
0.0000000000
10
-155.3875246981
20
-94.5730212828
30
0.0000000000
10
-155.3909288584
20
-94.5956592370
30
0.0000000000
10
-155.3959517700
20
-94.6170091214
30
0.0000000000
11
-155.3867280158
21
-94.5503265421
31
0.0000000000
11
-155.3959517700
21
-94.6170091214
31
0.0000000000
0
SPLINE
5
292
100
AcDbEntity
8
0
100
AcDbSpline
62
7
6
CONTINUOUS
70
0
71
3
72
9
73
5
74
3
42
0.0000001000
43
0.0000001000
44
0.0000000001
12
0.2782928407
22
0.3888404386
32
0.0000000000
13
0.4614754366
23
-0.1509823546
33
0.0000000000
40
0.0000000000
40
0.0000000000
40
0.0000000000
40
0.0000000000
40
0.4260017722
40
1.0000000000
40
1.0000000000
40
1.0000000000
40
1.0000000000
10
-156.7652581638
20
-58.4253135131
30
0.0000000000
10
-156.7257404160
20
-58.3700979411
30
0.0000000000
10
-156.5695397326
20
-58.2848996904
30
0.0000000000
10
-156.4067541235
20
-58.3184885269
30
0.0000000000
10
-156.3184587625
20
-58.3473763949
30
0.0000000000
11
-156.7652581638
21
-58.4253135131
31
0.0000000000
11
-156.5914618642
21
-58.3190659143
31
0.0000000000
11
-156.3184587625
21
-58.3473763949
31
0.0000000000
0
SPLINE
5
293
100
AcDbEntity
8
0
100
AcDbSpline
62
7
6
CONTINUOUS
70
0
71
3
72
10
73
6
74
4
42
0.0000001000
43
0.0000001000
44
0.0000000001
12
1.1746207497
22
-0.3843043258
32
0.0000000000
13
0.6721772701
23
-1.0146562687
33
0.0000000000
40
0.0000000000
40
0.0000000000
40
0.0000000000
40
0.0000000000
40
0.2956595119
40
0.6218578902
40
1.0000000000
40
1.0000000000
40
1.0000000000
40
1.0000000000
10
-156.3184587625
20
-58.3473763949
30
0.0000000000
10
-156.2026961634
20
-58.3852508047
30
0.0000000000
10
-155.9778089798
20
-58.4996485229
30
0.0000000000
10
-155.6552825872
20
-58.7525903191
30
0.0000000000
10
-155.4806779478
20
-58.9820728099
30
0.0000000000
10
-155.3959517708
20
-59.1099675639
30
0.0000000000
11
-156.3184587625
21
-58.3473763949
31
0.0000000000
11
-155.9943508404
21
-58.5037271584
31
0.0000000000
11
-155.6833099844
21
-58.7504601290
31
0.0000000000
11
-155.3959517708
21
-59.1099675639
31
0.0000000000
0
SPLINE
5
294
100
AcDbEntity
8
0
100
AcDbSpline
62
7
6
CONTINUOUS
70
0
71
3
72
8
73
4
74
2
42
0.0000001000
43
0.0000001000
44
0.0000000001
12
0.3296065077
22
-0.1648032539
32
0.0000000000
13
0.2924397602
23
-0.2271946955
33
0.0000000000
40
0.0000000000
40
0.0000000000
40
0.0000000000
40
0.0000000000
40
1.0000000000
40
1.0000000000
40
1.0000000000
40
1.0000000000
10
-156.7652581638
20
-57.1262762637
30
0.0000000000
10
-156.6553893279
20
-57.1812106817
30
0.0000000000
10
-156.5515864788
20
-57.2484821763
30
0.0000000000
10
-156.4541065587
20
-57.3242137415
30
0.0000000000
11
-156.7652581638
21
-57.1262762637
31
0.0000000000
11
-156.4541065587
21
-57.3242137415
31
0.0000000000
0
SPLINE
5
295
100
AcDbEntity
8
0
100
AcDbSpline
62
7
6
CONTINUOUS
70
0
71
3
72
9
73
5
74
3
42
0.0000001000
43
0.0000001000
44
0.0000000001
12
0.3121611569
22
-0.2425161302
32
0.0000000000
13
0.2685517149
23
-0.2885643606
33
0.0000000000
40
0.0000000000
40
0.0000000000
40
0.0000000000
40
0.0000000000
40
0.4872518262
40
1.0000000000
40
1.0000000000
40
1.0000000000
40
1.0000000000
10
-156.4541065587
20
-57.3242137415
30
0.0000000000
10
-156.4034061941
20
-57.3636025506
30
0.0000000000
10
-156.3028628757
20
-57.4491381718
30
0.0000000000
10
-156.2096763171
20
-57.5420157745
30
0.0000000000
10
-156.1637765166
20
-57.5913360575
30
0.0000000000
11
-156.4541065587
21
-57.3242137415
31
0.0000000000
11
-156.3071729634
21
-57.4487004176
31
0.0000000000
11
-156.1637765166
21
-57.5913360575
31
0.0000000000
0
SPLINE
5
296
100
AcDbEntity
8
0
100
AcDbSpline
62
7
6
CONTINUOUS
70
0
71
3
72
10
73
6
74
4
42
0.0000001000
43
0.0000001000
44
0.0000000001
12
1.1743098618
22
-1.2618201847
32
0.0000000000
13
0.3222372494
23
-1.6896241071
33
0.0000000000
40
0.0000000000
40
0.0000000000
40
0.0000000000
40
0.0000000000
40
0.2460188033
40
0.6265947197
40
1.0000000000
40
1.0000000000
40
1.0000000000
40
1.0000000000
10
-156.1637765166
20
-57.5913360575
30
0.0000000000
10
-156.0674757477
20
-57.6948132214
30
0.0000000000
10
-155.8432970037
20
-57.9773939462
30
0.0000000000
10
-155.5662208683
20
-58.4834668985
30
0.0000000000
10
-155.4360601342
20
-58.8996627095
30
0.0000000000
10
-155.3959517708
20
-59.1099675639
30
0.0000000000
11
-156.1637765166
21
-57.5913360575
31
0.0000000000
11
-155.8992327600
21
-57.9220333794
31
0.0000000000
11
-155.5842976704
21
-58.4959177811
31
0.0000000000
11
-155.3959517708
21
-59.1099675639
31
0.0000000000
0
SPLINE
5
297
100
AcDbEntity
8
0
100
AcDbSpline
62
7
6
CONTINUOUS
70
0
71
3
72
8
73
4
74
2
42
0.0000001000
43
0.0000001000
44
0.0000000001
12
-0.3068865184
22
-0.1534432592
32
0.0000000000
13
-0.2909363632
23
-0.1832132974
33
0.0000000000
40
0.0000000000
40
0.0000000000
40
0.0000000000
40
0.0000000000
40
1.0000000000
40
1.0000000000
40
1.0000000000
40
1.0000000000
10
-167.3718598816
20
-63.8437906850
30
0.0000000000
10
-167.4741553877
20
-63.8949384380
30
0.0000000000
10
-167.5738208764
20
-63.9514489725
30
0.0000000000
10
-167.6707996642
20
-64.0125200716
30
0.0000000000
11
-167.3718598816
21
-63.8437906850
31
0.0000000000
11
-167.6707996642
21
-64.0125200716
31
0.0000000000
0
SPLINE
5
298
100
AcDbEntity
8
0
100
AcDbSpline
62
7
6
CONTINUOUS
70
0
71
3
72
8
73
4
74
2
42
0.0000001000
43
0.0000001000
44
0.0000000001
12
-0.6071010550
22
-0.3823137987
32
0.0000000000
13
-0.5353624714
23
-0.4795966512
33
0.0000000000
40
0.0000000000
40
0.0000000000
40
0.0000000000
40
0.0000000000
40
1.0000000000
40
1.0000000000
40
1.0000000000
40
1.0000000000
10
-167.6707996642
20
-64.0125200716
30
0.0000000000
10
-167.8731666825
20
-64.1399580045
30
0.0000000000
10
-168.0638347935
20
-64.2872543526
30
0.0000000000
10
-168.2422889506
20
-64.4471199030
30
0.0000000000
11
-167.6707996642
21
-64.0125200716
31
0.0000000000
11
-168.2422889506
21
-64.4471199030
31
0.0000000000
0
SPLINE
5
299
100
AcDbEntity
8
0
100
AcDbSpline
62
7
6
CONTINUOUS
70
0
71
3
72
11
73
7
74
5
42
0.0000001000
43
0.0000001000
44
0.0000000001
12
-3.6044430521
22
-3.2289876669
32
0.0000000000
13
-0.0000000000
23
-4.8204329102
33
0.0000000000
40
0.0000000000
40
0.0000000000
40
0.0000000000
40
0.0000000000
40
0.2475524476
40
0.5057965379
40
0.7626607902
40
1.0000000000
40
1.0000000000
40
1.0000000000
40
1.0000000000
10
-168.2422889506
20
-64.4471199030
30
0.0000000000
10
-168.5397185173
20
-64.7135678364
30
0.0000000000
10
-169.0781000584
20
-65.3293111316
30
0.0000000000
10
-169.6945766720
20
-66.3973268099
30
0.0000000000
10
-170.0949649526
20
-67.5453582210
30
0.0000000000
10
-170.2002870063
20
-68.3407466165
30
0.0000000000
10
-170.2002870063
20
-68.7221058625
30
0.0000000000
11
-168.2422889506
21
-64.4471199030
31
0.0000000000
11
-169.0356906373
21
-65.3384685652
31
0.0000000000
11
-169.6599318294
21
-66.4154877170
31
0.0000000000
11
-170.0627660524
21
-67.5863233756
31
0.0000000000
11
-170.2002870063
21
-68.7221058625
31
0.0000000000
0
SPLINE
5
29A
100
AcDbEntity
8
0
100
AcDbSpline
62
9
6
CONTINUOUS
70
0
71
3
72
8
73
4
74
2
42
0.0000001000
43
0.0000001000
44
0.0000000001
12
0.2510589880
22
-0.1255294940
32
0.0000000000
13
0.2510589880
23
-0.1255294940
33
0.0000000000
40
0.0000000000
40
0.0000000000
40
0.0000000000
40
0.0000000000
40
1.0000000000
40
1.0000000000
40
1.0000000000
40
1.0000000000
10
-156.7652581638
20
-59.2118804619
30
0.0000000000
10
-156.6815718345
20
-59.2537236265
30
0.0000000000
10
-156.5978855052
20
-59.2955667912
30
0.0000000000
10
-156.5141991758
20
-59.3374099558
30
0.0000000000
11
-156.7652581638
21
-59.2118804619
31
0.0000000000
11
-156.5141991758
21
-59.3374099558
31
0.0000000000
0
SPLINE
5
29B
100
AcDbEntity
8
0
100
AcDbSpline
62
9
6
CONTINUOUS
70
0
71
3
72
8
73
4
74
2
42
0.0000001000
43
0.0000001000
44
0.0000000001
12
0.2126102698
22
-0.1063051349
32
0.0000000000
13
0.2126102698
23
-0.1063051349
33
0.0000000000
40
0.0000000000
40
0.0000000000
40
0.0000000000
40
0.0000000000
40
1.0000000000
40
1.0000000000
40
1.0000000000
40
1.0000000000
10
-156.5141991758
20
-59.3374099558
30
0.0000000000
10
-156.4433290859
20
-59.3728450008
30
0.0000000000
10
-156.3724589960
20
-59.4082800458
30
0.0000000000
10
-156.3015889061
20
-59.4437150907
30
0.0000000000
11
-156.5141991758
21
-59.3374099558
31
0.0000000000
11
-156.3015889061
21
-59.4437150907
31
0.0000000000
0
SPLINE
5
29C
100
AcDbEntity
8
0
100
AcDbSpline
62
9
6
CONTINUOUS
70
0
71
3
72
9
73
5
74
3
42
0.0000001000
43
0.0000001000
44
0.0000000001
12
0.5969909140
22
-0.2984954570
32
0.0000000000
13
0.5969909140
23
-0.2984954570
33
0.0000000000
40
0.0000000000
40
0.0000000000
40
0.0000000000
40
0.0000000000
40
0.1116613781
40
1.0000000000
40
1.0000000000
40
1.0000000000
40
1.0000000000
10
-156.3015889061
20
-59.4437150907
30
0.0000000000
10
-156.2793686300
20
-59.4548252288
30
0.0000000000
10
-156.0803716587
20
-59.5543237144
30
0.0000000000
10
-155.8813746873
20
-59.6538222001
30
0.0000000000
10
-155.7045979920
20
-59.7422105478
30
0.0000000000
11
-156.3015889061
21
-59.4437150907
31
0.0000000000
11
-156.2349280779
21
-59.4770455048
31
0.0000000000
11
-155.7045979920
21
-59.7422105478
31
0.0000000000
0
SPLINE
5
29D
100
AcDbEntity
8
0
100
AcDbSpline
62
9
6
CONTINUOUS
70
0
71
3
72
8
73
4
74
2
42
0.0000001000
43
0.0000001000
44
0.0000000001
12
0.1977349474
22
-0.0988674737
32
0.0000000000
13
0.1977349474
23
-0.0988674737
33
0.0000000000
40
0.0000000000
40
0.0000000000
40
0.0000000000
40
0.0000000000
40
1.0000000000
40
1.0000000000
40
1.0000000000
40
1.0000000000
10
155.7561524668
20
96.3615047261
30
0.0000000000
10
155.8220641159
20
96.3285489016
30
0.0000000000
10
155.8879757650
20
96.2955930770
30
0.0000000000
10
155.9538874142
20
96.2626372524
30
0.0000000000
11
155.7561524668
21
96.3615047261
31
0.0000000000
11
155.9538874142
21
96.2626372524
31
0.0000000000
0
SPLINE
5
29E
100
AcDbEntity
8
0
100
AcDbSpline
62
9
6
CONTINUOUS
70
0
71
3
72
8
73
4
74
2
42
0.0000001000
43
0.0000001000
44
0.0000000001
12
0.1756050971
22
-0.0878025485
32
0.0000000000
13
0.1756050971
23
-0.0878025485
33
0.0000000000
40
0.0000000000
40
0.0000000000
40
0.0000000000
40
0.0000000000
40
1.0000000000
40
1.0000000000
40
1.0000000000
40
1.0000000000
10
155.9538874142
20
96.2626372524
30
0.0000000000
10
156.0124224465
20
96.2333697362
30
0.0000000000
10
156.0709574789
20
96.2041022201
30
0.0000000000
10
156.1294925112
20
96.1748347039
30
0.0000000000
11
155.9538874142
21
96.2626372524
31
0.0000000000
11
156.1294925112
21
96.1748347039
31
0.0000000000
0
SPLINE
5
29F
100
AcDbEntity
8
0
100
AcDbSpline
62
7
6
CONTINUOUS
70
0
71
3
72
9
73
5
74
3
42
0.0000001000
43
0.0000001000
44
0.0000000001
12
0.7566636050
22
0.3810526555
32
0.0000000000
13
0.1932283628
23
0.8199484211
33
0.0000000000
40
0.0000000000
40
0.0000000000
40
0.0000000000
40
0.0000000000
40
0.4474080910
40
1.0000000000
40
1.0000000000
40
1.0000000000
40
1.0000000000
10
-155.8712600652
20
-95.2883308666
30
0.0000000000
10
-155.7584142589
20
-95.2315021862
30
0.0000000000
10
-155.5386111490
20
-95.0373210714
30
0.0000000000
10
-155.4315439143
20
-94.7680414114
30
0.0000000000
10
-155.3959517710
20
-94.6170091236
30
0.0000000000
11
-155.8712600652
21
-95.2883308666
31
0.0000000000
11
-155.5842976704
21
-95.0427130063
31
0.0000000000
11
-155.3959517710
21
-94.6170091236
31
0.0000000000
0
SPLINE
5
2A0
100
AcDbEntity
8
0
100
AcDbSpline
62
7
6
CONTINUOUS
70
0
71
3
72
8
73
4
74
2
42
0.0000001000
43
0.0000001000
44
0.0000000001
12
0.2908536955
22
0.1454268477
32
0.0000000000
13
0.3065356071
23
0.1138024499
33
0.0000000000
40
0.0000000000
40
0.0000000000
40
0.0000000000
40
0.0000000000
40
1.0000000000
40
1.0000000000
40
1.0000000000
40
1.0000000000
10
166.7360942290
20
104.2708465421
30
0.0000000000
10
166.8330454609
20
104.3193221580
30
0.0000000000
10
166.9328752380
20
104.3633179466
30
0.0000000000
10
167.0350537738
20
104.4012520966
30
0.0000000000
11
166.7360942290
21
104.2708465421
31
0.0000000000
11
167.0350537738
21
104.4012520966
31
0.0000000000
0
SPLINE
5
2A1
100
AcDbEntity
8
0
100
AcDbSpline
62
7
6
CONTINUOUS
70
0
71
3
72
9
73
5
74
3
42
0.0000001000
43
0.0000001000
44
0.0000000001
12
1.3042591193
22
0.4842109030
32
0.0000000000
13
1.2952549660
23
-0.5084322465
33
0.0000000000
40
0.0000000000
40
0.0000000000
40
0.0000000000
40
0.0000000000
40
0.4235916461
40
1.0000000000
40
1.0000000000
40
1.0000000000
40
1.0000000000
10
167.0350537738
20
104.4012520966
30
0.0000000000
10
167.2192115295
20
104.4696213277
30
0.0000000000
10
167.6719761431
20
104.5845409795
30
0.0000000000
10
168.1499757202
20
104.5381108846
30
0.0000000000
10
168.3988409812
20
104.4404226865
30
0.0000000000
11
167.0350537738
21
104.4012520966
31
0.0000000000
11
167.6073140519
21
104.5380283705
31
0.0000000000
11
168.3988409812
21
104.4404226865
31
0.0000000000
0
SPLINE
5
2A2
100
AcDbEntity
8
0
100
AcDbSpline
62
7
6
CONTINUOUS
70
0
71
3
72
8
73
4
74
2
42
0.0000001000
43
0.0000001000
44
0.0000000001
12
0.1273945104
22
-0.0500067391
32
0.0000000000
13
0.1223655120
23
-0.0619024512
33
0.0000000000
40
0.0000000000
40
0.0000000000
40
0.0000000000
40
0.0000000000
40
1.0000000000
40
1.0000000000
40
1.0000000000
40
1.0000000000
10
168.3988409812
20
104.4404226865
30
0.0000000000
10
168.4413058180
20
104.4237537735
30
0.0000000000
10
168.4829944919
20
104.4050197999
30
0.0000000000
10
168.5237829959
20
104.3843856495
30
0.0000000000
11
168.3988409812
21
104.4404226865
31
0.0000000000
11
168.5237829959
21
104.3843856495
31
0.0000000000
0
SPLINE
5
2A3
100
AcDbEntity
8
0
100
AcDbSpline
62
7
6
CONTINUOUS
70
0
71
3
72
12
73
8
74
6
42
0.0000001000
43
0.0000001000
44
0.0000000001
12
0.0000000000
22
5.8795140731
32
0.0000000000
13
5.2587972568
23
2.6293986284
33
0.0000000000
40
0.0000000000
40
0.0000000000
40
0.0000000000
40
0.0000000000
40
0.1945871247
40
0.4051822316
40
0.6169086254
40
0.8198692699
40
1.0000000000
40
1.0000000000
40
1.0000000000
40
1.0000000000
10
-171.2609471781
20
-68.1917757766
30
0.0000000000
10
-171.2609471781
20
-67.8104165307
30
0.0000000000
10
-171.1556251244
20
-67.0150281351
30
0.0000000000
10
-170.7552368437
20
-65.8669967240
30
0.0000000000
10
-170.1387602302
20
-64.7989810457
30
0.0000000000
10
-169.3665178467
20
-63.9157727007
30
0.0000000000
10
-168.7482770499
20
-63.4713390973
30
0.0000000000
10
-168.4325200534
20
-63.3134605991
30
0.0000000000
11
-171.2609471781
21
-68.1917757766
31
0.0000000000
11
-171.1234262242
21
-67.0559932897
31
0.0000000000
11
-170.7205920012
21
-65.8851576311
31
0.0000000000
11
-170.0963508091
21
-64.8081384793
31
0.0000000000
11
-169.3029491224
21
-63.9167898171
31
0.0000000000
11
-168.4325200534
21
-63.3134605991
31
0.0000000000
0
SPLINE
5
2A4
100
AcDbEntity
8
0
100
AcDbSpline
62
7
6
CONTINUOUS
70
0
71
3
72
8
73
4
74
2
42
0.0000001000
43
0.0000001000
44
0.0000000001
12
-0.7870431276
22
-0.3935215638
32
0.0000000000
13
-0.8896688033
23
-0.0430058456
33
0.0000000000
40
0.0000000000
40
0.0000000000
40
0.0000000000
40
0.0000000000
40
1.0000000000
40
1.0000000000
40
1.0000000000
40
1.0000000000
10
162.3166768466
20
66.2293367693
30
0.0000000000
10
162.0543291374
20
66.0981629147
30
0.0000000000
10
161.7667764451
20
66.0032407451
30
0.0000000000
10
161.4702201774
20
65.9889054632
30
0.0000000000
11
162.3166768466
21
66.2293367693
31
0.0000000000
11
161.4702201774
21
65.9889054632
31
0.0000000000
0
SPLINE
5
2A5
100
AcDbEntity
8
0
100
AcDbSpline
62
7
6
CONTINUOUS
70
0
71
3
72
8
73
4
74
2
42
0.0000001000
43
0.0000001000
44
0.0000000001
12
-0.7870431276
22
-0.3935215638
32
0.0000000000
13
-0.8896688033
23
-0.0430058456
33
0.0000000000
40
0.0000000000
40
0.0000000000
40
0.0000000000
40
0.0000000000
40
1.0000000000
40
1.0000000000
40
1.0000000000
40
1.0000000000
10
162.3166768466
20
93.7256433395
30
0.0000000000
10
162.0543291374
20
93.5944694849
30
0.0000000000
10
161.7667764451
20
93.4995473152
30
0.0000000000
10
161.4702201774
20
93.4852120334
30
0.0000000000
11
162.3166768466
21
93.7256433395
31
0.0000000000
11
161.4702201774
21
93.4852120334
31
0.0000000000
0
SPLINE
5
2A6
100
AcDbEntity
8
0
100
AcDbSpline
62
7
6
CONTINUOUS
70
0
71
3
72
8
73
4
74
2
42
0.0000001000
43
0.0000001000
44
0.0000000001
12
0.1162594289
22
-0.1466723924
32
0.0000000000
13
0.0988044731
23
-0.1579524321
33
0.0000000000
40
0.0000000000
40
0.0000000000
40
0.0000000000
40
0.0000000000
40
1.0000000000
40
1.0000000000
40
1.0000000000
40
1.0000000000
10
-161.9774264683
20
-63.6683349946
30
0.0000000000
10
-161.9386733253
20
-63.7172257921
30
0.0000000000
10
-161.9027339704
20
-63.7683104763
30
0.0000000000
10
-161.8697991460
20
-63.8209612870
30
0.0000000000
11
-161.9774264683
21
-63.6683349946
31
0.0000000000
11
-161.8697991460
21
-63.8209612870
31
0.0000000000
0
SPLINE
5
2A7
100
AcDbEntity
8
0
100
AcDbSpline
62
7
6
CONTINUOUS
70
0
71
3
72
8
73
4
74
2
42
0.0000001000
43
0.0000001000
44
0.0000000001
12
0.3105125147
22
-0.4963966244
32
0.0000000000
13
0.1545474498
23
-0.5625389216
33
0.0000000000
40
0.0000000000
40
0.0000000000
40
0.0000000000
40
0.0000000000
40
1.0000000000
40
1.0000000000
40
1.0000000000
40
1.0000000000
10
-161.8697991460
20
-63.8209612870
30
0.0000000000
10
-161.7662949745
20
-63.9864268284
30
0.0000000000
10
-161.6924651814
20
-64.1673602871
30
0.0000000000
10
-161.6409493648
20
-64.3548732610
30
0.0000000000
11
-161.8697991460
21
-63.8209612870
31
0.0000000000
11
-161.6409493648
21
-64.3548732610
31
0.0000000000
0
SPLINE
5
2A8
100
AcDbEntity
8
0
100
AcDbSpline
62
7
6
CONTINUOUS
70
0
71
3
72
8
73
4
74
2
42
0.0000001000
43
0.0000001000
44
0.0000000001
12
0.0835029957
22
-0.3039434504
32
0.0000000000
13
0.0479010474
23
-0.3112620782
33
0.0000000000
40
0.0000000000
40
0.0000000000
40
0.0000000000
40
0.0000000000
40
1.0000000000
40
1.0000000000
40
1.0000000000
40
1.0000000000
10
-161.6409493648
20
-64.3548732610
30
0.0000000000
10
-161.6131150329
20
-64.4561877445
30
0.0000000000
10
-161.5917948456
20
-64.5594229933
30
0.0000000000
10
-161.5758278298
20
-64.6631770194
30
0.0000000000
11
-161.6409493648
21
-64.3548732610
31
0.0000000000
11
-161.5758278298
21
-64.6631770194
31
0.0000000000
0
SPLINE
5
2A9
100
AcDbEntity
8
0
100
AcDbSpline
62
7
6
CONTINUOUS
70
0
71
3
72
11
73
7
74
5
42
0.0000001000
43
0.0000001000
44
0.0000000001
12
0.7054875763
22
-4.5842740651
32
0.0000000000
13
-3.3648576791
23
-3.1813636883
33
0.0000000000
40
0.0000000000
40
0.0000000000
40
0.0000000000
40
0.0000000000
40
0.2284199972
40
0.4830771170
40
0.7468189835
40
1.0000000000
40
1.0000000000
40
1.0000000000
40
1.0000000000
10
-161.5758278298
20
-64.6631770194
30
0.0000000000
10
-161.5221120065
20
-65.0122236423
30
0.0000000000
10
-161.5366402649
20
-65.7628267100
30
0.0000000000
10
-161.8355205940
20
-66.8803851922
30
0.0000000000
10
-162.3781599793
20
-67.9440804747
30
0.0000000000
10
-162.8826733058
20
-68.5647340920
30
0.0000000000
10
-163.1666460017
20
-68.8332210562
30
0.0000000000
11
-161.5758278298
21
-64.6631770194
31
0.0000000000
11
-161.5758278298
21
-65.7158631516
31
0.0000000000
11
-161.8697991460
21
-66.8520502002
31
0.0000000000
11
-162.4222844991
21
-67.9346972387
31
0.0000000000
11
-163.1666460017
21
-68.8332210562
31
0.0000000000
0
SPLINE
5
2AA
100
AcDbEntity
8
0
100
AcDbSpline
62
7
6
CONTINUOUS
70
0
71
3
72
8
73
4
74
2
42
0.0000001000
43
0.0000001000
44
0.0000000001
12
-0.5127011766
22
-0.4847423165
32
0.0000000000
13
-0.5912693738
23
-0.3819644219
33
0.0000000000
40
0.0000000000
40
0.0000000000
40
0.0000000000
40
0.0000000000
40
1.0000000000
40
1.0000000000
40
1.0000000000
40
1.0000000000
10
-163.1666460017
20
-68.8332210562
30
0.0000000000
10
-163.3375463939
20
-68.9948018283
30
0.0000000000
10
-163.5218005123
20
-69.1435250323
30
0.0000000000
10
-163.7188903036
20
-69.2708465063
30
0.0000000000
11
-163.1666460017
21
-68.8332210562
31
0.0000000000
11
-163.7188903036
21
-69.2708465063
31
0.0000000000
0
SPLINE
5
2AB
100
AcDbEntity
8
0
100
AcDbSpline
62
7
6
CONTINUOUS
70
0
71
3
72
8
73
4
74
2
42
0.0000001000
43
0.0000001000
44
0.0000000001
12
-0.2853048064
22
-0.1843090312
32
0.0000000000
13
-0.3030617254
23
-0.1515308627
33
0.0000000000
40
0.0000000000
40
0.0000000000
40
0.0000000000
40
0.0000000000
40
1.0000000000
40
1.0000000000
40
1.0000000000
40
1.0000000000
10
-163.7188903036
20
-69.2708465063
30
0.0000000000
10
-163.8139919057
20
-69.3322828500
30
0.0000000000
10
-163.9120820958
20
-69.3887361317
30
0.0000000000
10
-164.0131026710
20
-69.4392464193
30
0.0000000000
11
-163.7188903036
21
-69.2708465063
31
0.0000000000
11
-164.0131026710
21
-69.4392464193
31
0.0000000000
0
SPLINE
5
2AC
100
AcDbEntity
8
0
100
AcDbSpline
62
7
6
CONTINUOUS
70
0
71
3
72
8
73
4
74
2
42
0.0000001000
43
0.0000001000
44
0.0000000001
12
-0.7870431276
22
-0.3935215638
32
0.0000000000
13
-0.8896688033
23
-0.0430058456
33
0.0000000000
40
0.0000000000
40
0.0000000000
40
0.0000000000
40
0.0000000000
40
1.0000000000
40
1.0000000000
40
1.0000000000
40
1.0000000000
10
-166.4879764051
20
-98.1729898565
30
0.0000000000
10
-166.7503241143
20
-98.3041637111
30
0.0000000000
10
-167.0378768066
20
-98.3990858808
30
0.0000000000
10
-167.3344330744
20
-98.4134211627
30
0.0000000000
11
-166.4879764051
21
-98.1729898565
31
0.0000000000
11
-167.3344330744
21
-98.4134211627
31
0.0000000000
0
SPLINE
5
2AD
100
AcDbEntity
8
0
100
AcDbSpline
62
7
6
CONTINUOUS
70
0
71
3
72
8
73
4
74
2
42
0.0000001000
43
0.0000001000
44
0.0000000001
12
0.1162594289
22
-0.1466723924
32
0.0000000000
13
0.0988044731
23
-0.1579524321
33
0.0000000000
40
0.0000000000
40
0.0000000000
40
0.0000000000
40
0.0000000000
40
1.0000000000
40
1.0000000000
40
1.0000000000
40
1.0000000000
10
-161.9774264683
20
-91.1646415647
30
0.0000000000
10
-161.9386733253
20
-91.2135323622
30
0.0000000000
10
-161.9027339704
20
-91.2646170464
30
0.0000000000
10
-161.8697991460
20
-91.3172678571
30
0.0000000000
11
-161.9774264683
21
-91.1646415647
31
0.0000000000
11
-161.8697991460
21
-91.3172678571
31
0.0000000000
0
SPLINE
5
2AE
100
AcDbEntity
8
0
100
AcDbSpline
62
7
6
CONTINUOUS
70
0
71
3
72
8
73
4
74
2
42
0.0000001000
43
0.0000001000
44
0.0000000001
12
0.3105125147
22
-0.4963966244
32
0.0000000000
13
0.1545474498
23
-0.5625389216
33
0.0000000000
40
0.0000000000
40
0.0000000000
40
0.0000000000
40
0.0000000000
40
1.0000000000
40
1.0000000000
40
1.0000000000
40
1.0000000000
10
-161.8697991460
20
-91.3172678571
30
0.0000000000
10
-161.7662949745
20
-91.4827333986
30
0.0000000000
10
-161.6924651814
20
-91.6636668573
30
0.0000000000
10
-161.6409493648
20
-91.8511798311
30
0.0000000000
11
-161.8697991460
21
-91.3172678571
31
0.0000000000
11
-161.6409493648
21
-91.8511798311
31
0.0000000000
0
SPLINE
5
2AF
100
AcDbEntity
8
0
100
AcDbSpline
62
7
6
CONTINUOUS
70
0
71
3
72
8
73
4
74
2
42
0.0000001000
43
0.0000001000
44
0.0000000001
12
0.0835029957
22
-0.3039434504
32
0.0000000000
13
0.0479010474
23
-0.3112620782
33
0.0000000000
40
0.0000000000
40
0.0000000000
40
0.0000000000
40
0.0000000000
40
1.0000000000
40
1.0000000000
40
1.0000000000
40
1.0000000000
10
-161.6409493648
20
-91.8511798311
30
0.0000000000
10
-161.6131150329
20
-91.9524943146
30
0.0000000000
10
-161.5917948456
20
-92.0557295635
30
0.0000000000
10
-161.5758278298
20
-92.1594835895
30
0.0000000000
11
-161.6409493648
21
-91.8511798311
31
0.0000000000
11
-161.5758278298
21
-92.1594835895
31
0.0000000000
0
SPLINE
5
2B0
100
AcDbEntity
8
0
100
AcDbSpline
62
7
6
CONTINUOUS
70
0
71
3
72
11
73
7
74
5
42
0.0000001000
43
0.0000001000
44
0.0000000001
12
0.7054875763
22
-4.5842740651
32
0.0000000000
13
-3.3648576791
23
-3.1813636883
33
0.0000000000
40
0.0000000000
40
0.0000000000
40
0.0000000000
40
0.0000000000
40
0.2284199972
40
0.4830771170
40
0.7468189835
40
1.0000000000
40
1.0000000000
40
1.0000000000
40
1.0000000000
10
-161.5758278298
20
-92.1594835895
30
0.0000000000
10
-161.5221120065
20
-92.5085302125
30
0.0000000000
10
-161.5366402649
20
-93.2591332802
30
0.0000000000
10
-161.8355205940
20
-94.3766917623
30
0.0000000000
10
-162.3781599793
20
-95.4403870448
30
0.0000000000
10
-162.8826733058
20
-96.0610406621
30
0.0000000000
10
-163.1666460017
20
-96.3295276263
30
0.0000000000
11
-161.5758278298
21
-92.1594835895
31
0.0000000000
11
-161.5758278298
21
-93.2121697218
31
0.0000000000
11
-161.8697991460
21
-94.3483567704
31
0.0000000000
11
-162.4222844991
21
-95.4310038089
31
0.0000000000
11
-163.1666460017
21
-96.3295276263
31
0.0000000000
0
SPLINE
5
2B1
100
AcDbEntity
8
0
100
AcDbSpline
62
7
6
CONTINUOUS
70
0
71
3
72
8
73
4
74
2
42
0.0000001000
43
0.0000001000
44
0.0000000001
12
-0.5127011766
22
-0.4847423165
32
0.0000000000
13
-0.5912693738
23
-0.3819644219
33
0.0000000000
40
0.0000000000
40
0.0000000000
40
0.0000000000
40
0.0000000000
40
1.0000000000
40
1.0000000000
40
1.0000000000
40
1.0000000000
10
-163.1666460017
20
-96.3295276263
30
0.0000000000
10
-163.3375463939
20
-96.4911083985
30
0.0000000000
10
-163.5218005123
20
-96.6398316024
30
0.0000000000
10
-163.7188903036
20
-96.7671530764
30
0.0000000000
11
-163.1666460017
21
-96.3295276263
31
0.0000000000
11
-163.7188903036
21
-96.7671530764
31
0.0000000000
0
SPLINE
5
2B2
100
AcDbEntity
8
0
100
AcDbSpline
62
7
6
CONTINUOUS
70
0
71
3
72
8
73
4
74
2
42
0.0000001000
43
0.0000001000
44
0.0000000001
12
-0.2853048064
22
-0.1843090312
32
0.0000000000
13
-0.3030617254
23
-0.1515308627
33
0.0000000000
40
0.0000000000
40
0.0000000000
40
0.0000000000
40
0.0000000000
40
1.0000000000
40
1.0000000000
40
1.0000000000
40
1.0000000000
10
-163.7188903036
20
-96.7671530764
30
0.0000000000
10
-163.8139919057
20
-96.8285894201
30
0.0000000000
10
-163.9120820958
20
-96.8850427019
30
0.0000000000
10
-164.0131026710
20
-96.9355529895
30
0.0000000000
11
-163.7188903036
21
-96.7671530764
31
0.0000000000
11
-164.0131026710
21
-96.9355529895
31
0.0000000000
0
SPLINE
5
2B3
100
AcDbEntity
8
0
100
AcDbSpline
62
7
6
CONTINUOUS
70
0
71
3
72
8
73
4
74
2
42
0.0000001000
43
0.0000001000
44
0.0000000001
12
-0.7870431276
22
-0.3935215638
32
0.0000000000
13
-0.8896688033
23
-0.0430058456
33
0.0000000000
40
0.0000000000
40
0.0000000000
40
0.0000000000
40
0.0000000000
40
1.0000000000
40
1.0000000000
40
1.0000000000
40
1.0000000000
10
-166.4879764051
20
-70.6766832864
30
0.0000000000
10
-166.7503241143
20
-70.8078571410
30
0.0000000000
10
-167.0378768066
20
-70.9027793106
30
0.0000000000
10
-167.3344330744
20
-70.9171145925
30
0.0000000000
11
-166.4879764051
21
-70.6766832864
31
0.0000000000
11
-167.3344330744
21
-70.9171145925
31
0.0000000000
0
SPLINE
5
2B4
100
AcDbEntity
8
0
100
AcDbSpline
62
7
6
CONTINUOUS
70
0
71
3
72
8
73
4
74
2
42
0.0000001000
43
0.0000001000
44
0.0000000001
12
0.1162594289
22
-0.1466723924
32
0.0000000000
13
0.0988044731
23
-0.1579524321
33
0.0000000000
40
0.0000000000
40
0.0000000000
40
0.0000000000
40
0.0000000000
40
1.0000000000
40
1.0000000000
40
1.0000000000
40
1.0000000000
10
166.8272267835
20
100.7339916313
30
0.0000000000
10
166.8659799264
20
100.6851008338
30
0.0000000000
10
166.9019192814
20
100.6340161496
30
0.0000000000
10
166.9348541057
20
100.5813653389
30
0.0000000000
11
166.8272267835
21
100.7339916313
31
0.0000000000
11
166.9348541057
21
100.5813653389
31
0.0000000000
0
SPLINE
5
2B5
100
AcDbEntity
8
0
100
AcDbSpline
62
7
6
CONTINUOUS
70
0
71
3
72
8
73
4
74
2
42
0.0000001000
43
0.0000001000
44
0.0000000001
12
0.3105125147
22
-0.4963966244
32
0.0000000000
13
0.1545474498
23
-0.5625389216
33
0.0000000000
40
0.0000000000
40
0.0000000000
40
0.0000000000
40
0.0000000000
40
1.0000000000
40
1.0000000000
40
1.0000000000
40
1.0000000000
10
166.9348541057
20
100.5813653389
30
0.0000000000
10
167.0383582773
20
100.4158997974
30
0.0000000000
10
167.1121880703
20
100.2349663387
30
0.0000000000
10
167.1637038869
20
100.0474533649
30
0.0000000000
11
166.9348541057
21
100.5813653389
31
0.0000000000
11
167.1637038869
21
100.0474533649
31
0.0000000000
0
SPLINE
5
2B6
100
AcDbEntity
8
0
100
AcDbSpline
62
7
6
CONTINUOUS
70
0
71
3
72
8
73
4
74
2
42
0.0000001000
43
0.0000001000
44
0.0000000001
12
0.0835029957
22
-0.3039434504
32
0.0000000000
13
0.0479010474
23
-0.3112620782
33
0.0000000000
40
0.0000000000
40
0.0000000000
40
0.0000000000
40
0.0000000000
40
1.0000000000
40
1.0000000000
40
1.0000000000
40
1.0000000000
10
167.1637038869
20
100.0474533649
30
0.0000000000
10
167.1915382188
20
99.9461388814
30
0.0000000000
10
167.2128584061
20
99.8429036326
30
0.0000000000
10
167.2288254219
20
99.7391496065
30
0.0000000000
11
167.1637038869
21
100.0474533649
31
0.0000000000
11
167.2288254219
21
99.7391496065
31
0.0000000000
0
SPLINE
5
2B7
100
AcDbEntity
8
0
100
AcDbSpline
62
7
6
CONTINUOUS
70
0
71
3
72
11
73
7
74
5
42
0.0000001000
43
0.0000001000
44
0.0000000001
12
0.7054875763
22
-4.5842740651
32
0.0000000000
13
-3.3648576791
23
-3.1813636883
33
0.0000000000
40
0.0000000000
40
0.0000000000
40
0.0000000000
40
0.0000000000
40
0.2284199972
40
0.4830771170
40
0.7468189835
40
1.0000000000
40
1.0000000000
40
1.0000000000
40
1.0000000000
10
167.2288254219
20
99.7391496065
30
0.0000000000
10
167.2825412453
20
99.3901029835
30
0.0000000000
10
167.2680129869
20
98.6394999159
30
0.0000000000
10
166.9691326577
20
97.5219414337
30
0.0000000000
10
166.4264932724
20
96.4582461512
30
0.0000000000
10
165.9219799459
20
95.8375925339
30
0.0000000000
10
165.6380072500
20
95.5691055697
30
0.0000000000
11
167.2288254219
21
99.7391496065
31
0.0000000000
11
167.2288254219
21
98.6864634742
31
0.0000000000
11
166.9348541057
21
97.5502764257
31
0.0000000000
11
166.3823687526
21
96.4676293871
31
0.0000000000
11
165.6380072500
21
95.5691055697
31
0.0000000000
0
SPLINE
5
2B8
100
AcDbEntity
8
0
100
AcDbSpline
62
7
6
CONTINUOUS
70
0
71
3
72
8
73
4
74
2
42
0.0000001000
43
0.0000001000
44
0.0000000001
12
-0.5127011766
22
-0.4847423165
32
0.0000000000
13
-0.5912693738
23
-0.3819644219
33
0.0000000000
40
0.0000000000
40
0.0000000000
40
0.0000000000
40
0.0000000000
40
1.0000000000
40
1.0000000000
40
1.0000000000
40
1.0000000000
10
165.6380072500
20
95.5691055697
30
0.0000000000
10
165.4671068579
20
95.4075247975
30
0.0000000000
10
165.2828527395
20
95.2588015936
30
0.0000000000
10
165.0857629482
20
95.1314801196
30
0.0000000000
11
165.6380072500
21
95.5691055697
31
0.0000000000
11
165.0857629482
21
95.1314801196
31
0.0000000000
0
SPLINE
5
2B9
100
AcDbEntity
8
0
100
AcDbSpline
62
7
6
CONTINUOUS
70
0
71
3
72
8
73
4
74
2
42
0.0000001000
43
0.0000001000
44
0.0000000001
12
-0.2853048064
22
-0.1843090312
32
0.0000000000
13
-0.3030617254
23
-0.1515308627
33
0.0000000000
40
0.0000000000
40
0.0000000000
40
0.0000000000
40
0.0000000000
40
1.0000000000
40
1.0000000000
40
1.0000000000
40
1.0000000000
10
165.0857629482
20
95.1314801196
30
0.0000000000
10
164.9906613461
20
95.0700437759
30
0.0000000000
10
164.8925711559
20
95.0135904941
30
0.0000000000
10
164.7915505808
20
94.9630802066
30
0.0000000000
11
165.0857629482
21
95.1314801196
31
0.0000000000
11
164.7915505808
21
94.9630802066
31
0.0000000000
0
SPLINE
5
2BA
100
AcDbEntity
8
0
100
AcDbSpline
62
7
6
CONTINUOUS
70
0
71
3
72
8
73
4
74
2
42
0.0000001000
43
0.0000001000
44
0.0000000001
12
0.1162594289
22
-0.1466723924
32
0.0000000000
13
0.0988044731
23
-0.1579524321
33
0.0000000000
40
0.0000000000
40
0.0000000000
40
0.0000000000
40
0.0000000000
40
1.0000000000
40
1.0000000000
40
1.0000000000
40
1.0000000000
10
166.8272267835
20
73.2376850611
30
0.0000000000
10
166.8659799264
20
73.1887942637
30
0.0000000000
10
166.9019192814
20
73.1377095795
30
0.0000000000
10
166.9348541057
20
73.0850587687
30
0.0000000000
11
166.8272267835
21
73.2376850611
31
0.0000000000
11
166.9348541057
21
73.0850587687
31
0.0000000000
0
SPLINE
5
2BB
100
AcDbEntity
8
0
100
AcDbSpline
62
7
6
CONTINUOUS
70
0
71
3
72
8
73
4
74
2
42
0.0000001000
43
0.0000001000
44
0.0000000001
12
0.3105125147
22
-0.4963966244
32
0.0000000000
13
0.1545474498
23
-0.5625389216
33
0.0000000000
40
0.0000000000
40
0.0000000000
40
0.0000000000
40
0.0000000000
40
1.0000000000
40
1.0000000000
40
1.0000000000
40
1.0000000000
10
166.9348541057
20
73.0850587687
30
0.0000000000
10
167.0383582773
20
72.9195932273
30
0.0000000000
10
167.1121880703
20
72.7386597686
30
0.0000000000
10
167.1637038869
20
72.5511467947
30
0.0000000000
11
166.9348541057
21
73.0850587687
31
0.0000000000
11
167.1637038869
21
72.5511467947
31
0.0000000000
0
SPLINE
5
2BC
100
AcDbEntity
8
0
100
AcDbSpline
62
7
6
CONTINUOUS
70
0
71
3
72
8
73
4
74
2
42
0.0000001000
43
0.0000001000
44
0.0000000001
12
0.0835029957
22
-0.3039434504
32
0.0000000000
13
0.0479010474
23
-0.3112620782
33
0.0000000000
40
0.0000000000
40
0.0000000000
40
0.0000000000
40
0.0000000000
40
1.0000000000
40
1.0000000000
40
1.0000000000
40
1.0000000000
10
167.1637038869
20
72.5511467947
30
0.0000000000
10
167.1915382188
20
72.4498323113
30
0.0000000000
10
167.2128584061
20
72.3465970624
30
0.0000000000
10
167.2288254219
20
72.2428430363
30
0.0000000000
11
167.1637038869
21
72.5511467947
31
0.0000000000
11
167.2288254219
21
72.2428430363
31
0.0000000000
0
SPLINE
5
2BD
100
AcDbEntity
8
0
100
AcDbSpline
62
7
6
CONTINUOUS
70
0
71
3
72
11
73
7
74
5
42
0.0000001000
43
0.0000001000
44
0.0000000001
12
0.7054875763
22
-4.5842740651
32
0.0000000000
13
-3.3648576791
23
-3.1813636883
33
0.0000000000
40
0.0000000000
40
0.0000000000
40
0.0000000000
40
0.0000000000
40
0.2284199972
40
0.4830771170
40
0.7468189835
40
1.0000000000
40
1.0000000000
40
1.0000000000
40
1.0000000000
10
167.2288254219
20
72.2428430363
30
0.0000000000
10
167.2825412453
20
71.8937964134
30
0.0000000000
10
167.2680129869
20
71.1431933457
30
0.0000000000
10
166.9691326577
20
70.0256348636
30
0.0000000000
10
166.4264932724
20
68.9619395810
30
0.0000000000
10
165.9219799459
20
68.3412859637
30
0.0000000000
10
165.6380072500
20
68.0727989996
30
0.0000000000
11
167.2288254219
21
72.2428430363
31
0.0000000000
11
167.2288254219
21
71.1901569041
31
0.0000000000
11
166.9348541057
21
70.0539698555
31
0.0000000000
11
166.3823687526
21
68.9713228170
31
0.0000000000
11
165.6380072500
21
68.0727989996
31
0.0000000000
0
SPLINE
5
2BE
100
AcDbEntity
8
0
100
AcDbSpline
62
7
6
CONTINUOUS
70
0
71
3
72
8
73
4
74
2
42
0.0000001000
43
0.0000001000
44
0.0000000001
12
-0.5127011766
22
-0.4847423165
32
0.0000000000
13
-0.5912693738
23
-0.3819644219
33
0.0000000000
40
0.0000000000
40
0.0000000000
40
0.0000000000
40
0.0000000000
40
1.0000000000
40
1.0000000000
40
1.0000000000
40
1.0000000000
10
165.6380072500
20
68.0727989996
30
0.0000000000
10
165.4671068579
20
67.9112182274
30
0.0000000000
10
165.2828527395
20
67.7624950234
30
0.0000000000
10
165.0857629482
20
67.6351735495
30
0.0000000000
11
165.6380072500
21
68.0727989996
31
0.0000000000
11
165.0857629482
21
67.6351735495
31
0.0000000000
0
SPLINE
5
2BF
100
AcDbEntity
8
0
100
AcDbSpline
62
7
6
CONTINUOUS
70
0
71
3
72
8
73
4
74
2
42
0.0000001000
43
0.0000001000
44
0.0000000001
12
-0.2853048064
22
-0.1843090312
32
0.0000000000
13
-0.3030617254
23
-0.1515308627
33
0.0000000000
40
0.0000000000
40
0.0000000000
40
0.0000000000
40
0.0000000000
40
1.0000000000
40
1.0000000000
40
1.0000000000
40
1.0000000000
10
165.0857629482
20
67.6351735495
30
0.0000000000
10
164.9906613461
20
67.5737372057
30
0.0000000000
10
164.8925711559
20
67.5172839240
30
0.0000000000
10
164.7915505808
20
67.4667736364
30
0.0000000000
11
165.0857629482
21
67.6351735495
31
0.0000000000
11
164.7915505808
21
67.4667736364
31
0.0000000000
0
SPLINE
5
2C0
100
AcDbEntity
8
0
100
AcDbSpline
62
7
6
CONTINUOUS
70
0
71
3
72
11
73
7
74
5
42
0.0000001000
43
0.0000001000
44
0.0000000001
12
0.8728596015
22
0.4364298008
32
0.0000000000
13
-0.8728596027
23
0.4364297984
33
0.0000000000
40
0.0000000000
40
0.0000000000
40
0.0000000000
40
0.0000000000
40
0.2525337833
40
0.4997620718
40
0.7471494154
40
1.0000000000
40
1.0000000000
40
1.0000000000
40
1.0000000000
10
-156.7652479068
20
-59.2118753334
30
0.0000000000
10
-156.6917723943
20
-59.1751375771
30
0.0000000000
10
-156.5642718059
20
-59.0625803794
30
0.0000000000
10
-156.4780319016
20
-58.8188273483
30
0.0000000000
10
-156.5643790178
20
-58.5751346859
30
0.0000000000
10
-156.6916904704
20
-58.4620982094
30
0.0000000000
10
-156.7652581573
20
-58.4253143661
30
0.0000000000
11
-156.7652479068
21
-59.2118753334
31
0.0000000000
11
-156.5807446604
21
-59.0484942602
31
0.0000000000
11
-156.5065891491
21
-58.8189063065
31
0.0000000000
11
-156.5807513545
21
-58.5891574034
31
0.0000000000
11
-156.7652581573
21
-58.4253143661
31
0.0000000000
0
SPLINE
5
2C1
100
AcDbEntity
8
0
100
AcDbSpline
62
7
6
CONTINUOUS
70
0
71
3
72
8
73
4
74
2
42
0.0000001000
43
0.0000001000
44
0.0000000001
12
-0.4170934544
22
0.2085467272
32
0.0000000000
13
-0.3703591280
23
0.2869498885
33
0.0000000000
40
0.0000000000
40
0.0000000000
40
0.0000000000
40
0.0000000000
40
1.0000000000
40
1.0000000000
40
1.0000000000
40
1.0000000000
10
-162.0685590227
20
-55.7736639399
30
0.0000000000
10
-162.2075901742
20
-55.7041483642
30
0.0000000000
10
-162.3421736493
20
-55.6241853756
30
0.0000000000
10
-162.4656266919
20
-55.5285354127
30
0.0000000000
11
-162.0685590227
21
-55.7736639399
31
0.0000000000
11
-162.4656266919
21
-55.5285354127
31
0.0000000000
0
SPLINE
5
2C2
100
AcDbEntity
8
0
100
AcDbSpline
62
7
6
CONTINUOUS
70
0
71
3
72
10
73
6
74
4
42
0.0000001000
43
0.0000001000
44
0.0000000001
12
-0.7706115264
22
0.5970607307
32
0.0000000000
13
-0.0001369029
23
0.9876573383
33
0.0000000000
40
0.0000000000
40
0.0000000000
40
0.0000000000
40
0.0000000000
40
0.2094058339
40
0.7583499729
40
1.0000000000
40
1.0000000000
40
1.0000000000
40
1.0000000000
10
-162.4656266919
20
-55.5285354127
30
0.0000000000
10
-162.5194168750
20
-55.4868594127
30
0.0000000000
10
-162.7065622585
20
-55.3251473572
30
0.0000000000
10
-162.9072389047
20
-55.0529068949
30
0.0000000000
10
-162.9444232816
20
-54.7926242266
30
0.0000000000
10
-162.9444343091
20
-54.7130684191
30
0.0000000000
11
-162.4656266919
21
-55.5285354127
31
0.0000000000
11
-162.6201052336
21
-55.3941396544
31
0.0000000000
11
-162.9103436414
21
-54.9475293440
31
0.0000000000
11
-162.9444343091
21
-54.7130684191
31
0.0000000000
0
SPLINE
5
2C3
100
AcDbEntity
8
0
100
AcDbSpline
62
7
6
CONTINUOUS
70
0
71
3
72
10
73
6
74
4
42
0.0000001000
43
0.0000001000
44
0.0000000001
12
0.6550288565
22
0.3275144282
32
0.0000000000
13
0.0000000000
23
0.7323445251
33
0.0000000000
40
0.0000000000
40
0.0000000000
40
0.0000000000
40
0.0000000000
40
0.3127607671
40
0.6637380209
40
1.0000000000
40
1.0000000000
40
1.0000000000
40
1.0000000000
10
155.7759391207
20
97.0587181804
30
0.0000000000
10
155.8442282298
20
97.0928627350
30
0.0000000000
10
155.9692822076
20
97.2044170735
30
0.0000000000
10
156.0920244105
20
97.4182833454
30
0.0000000000
10
156.1294925112
20
97.5864210377
30
0.0000000000
10
156.1294925112
20
97.6685075775
30
0.0000000000
11
155.7759391207
21
97.0587181804
31
0.0000000000
11
155.9524042105
21
97.2047433476
31
0.0000000000
11
156.0816019764
21
97.4269495166
31
0.0000000000
11
156.1294925112
21
97.6685075775
31
0.0000000000
0
SPLINE
5
2C4
100
AcDbEntity
8
0
100
AcDbSpline
62
7
6
CONTINUOUS
70
0
71
3
72
8
73
4
74
2
42
0.0000001000
43
0.0000001000
44
0.0000000001
12
0.2075384826
22
-0.1281279166
32
0.0000000000
13
0.2176608238
23
-0.1088304119
33
0.0000000000
40
0.0000000000
40
0.0000000000
40
0.0000000000
40
0.0000000000
40
1.0000000000
40
1.0000000000
40
1.0000000000
40
1.0000000000
10
-162.2816324041
20
-91.1626000425
30
0.0000000000
10
-162.2124529099
20
-91.2053093481
30
0.0000000000
10
-162.1411126306
20
-91.2444286911
30
0.0000000000
10
-162.0685590227
20
-91.2807054951
30
0.0000000000
11
-162.2816324041
21
-91.1626000425
31
0.0000000000
11
-162.0685590227
21
-91.2807054951
31
0.0000000000
0
ENDSEC
0
SECTION
2
OBJECTS
0
DICTIONARY
5
2C5
100
AcDbDictionary
3
ACAD_GROUP
350
2C6
3
ACAD_MLINESTYLE
350
2C7
0
DICTIONARY
5
2C6
102
{ACAD_REACTORS
330
2C5
102
}
100
AcDbDictionary
0
DICTIONARY
5
2C7
102
{ACAD_REACTORS
330
2C5
102
}
100
AcDbDictionary
3
STANDARD
350
2C8
0
MLINESTYLE
5
2C8
102
{ACAD_REACTORS
330
2C7
102
}
100
AcDbMlineStyle
2
STANDARD
70
0
3

62
256
51
90.0
52
90.0
71
2
49
0.5
62
256
6
BYLAYER
49
-0.5
62
256
6
BYLAYER
0
ENDSEC
0
EOF
