0
SECTION
2
HEADER
9
$ACADVER
1
AC1014
9
$HANDSEED
5
       2D9
9
$EXTMAX
10
297.0000000000
20
210.0000000000
9
$EXTMIN
10
0.0000000000
20
0.0000000000
9
$LIMMIN
10
0.0000000000
20
0.0000000000
9
$LIMMAX
10
297.0000000000
20
210.0000000000
9
$VIEWCTR
10
148.5000000000
20
105.0000000000
9
$VIEWSIZE
40
210.0000000000
9
$CLAYER
8
0
9
$LTSCALE
40
16.3350000000
9
$CELTYPE
6
BYLAYER
9
$DIMSCALE
40
1
9
$DIMASZ
40
3.0000000000
9
$DIMEXO
40
1.8562500000
9
$DIMDLI
40
11.2860000000
9
$DIMEXE
40
5.3460000000
9
$DIMCEN
40
2.6730000000
9
$DIMLFAC
40
1.0000000000
9
$DIMTXT
40
3.0000000000
9
$DIMTOL
70
1
9
$DIMLIM
70
0
9
$DIMTFAC
40
1.0000000000
9
$DIMTP
40
0.0100000000
9
$DIMTM
40
0.0100000000
9
$MEASUREMENT
70
1
0
ENDSEC
0
SECTION
2
CLASSES
0
ENDSEC
0
SECTION
2
TABLES
0
TABLE
2
VPORT
5
8
100
AcDbSymbolTable
70
2
0
VPORT
5
1F4
100
AcDbSymbolTableRecord
100
AcDbViewportTableRecord
2
*ACTIVE
70
0
10
0.0
20
0.0
11
1.0
21
1.0
12
148.5000000000
22
105.0000000000
13
0.0
23
0.0
14
1.0
24
1.0
15
0.0
25
0.0
16
0.0
26
0.0
36
1.0
17
0.0
27
0.0
37
0.0
40
210.0000000000
41
1.4142857143
42
50.0
43
0.0
44
0.0
50
0.0
51
0.0
71
0
72
100
73
1
74
1
75
0
76
0
77
0
78
0
0
ENDTAB
0
TABLE
2
LTYPE
5
5
100
AcDbSymbolTable
70
6
0
LTYPE
5
14
100
AcDbSymbolTableRecord
100
AcDbLinetypeTableRecord
2
BYBLOCK
70
0
3

72
65
73
0
40
0.0
0
LTYPE
5
15
100
AcDbSymbolTableRecord
100
AcDbLinetypeTableRecord
2
BYLAYER
70
0
3

72
65
73
0
40
0.0
0
LTYPE
5
16
100
AcDbSymbolTableRecord
100
AcDbLinetypeTableRecord
2
CONTINUOUS
70
64
3
Solid line
72
65
73
0
40
0
0
LTYPE
5
1F5
100
AcDbSymbolTableRecord
100
AcDbLinetypeTableRecord
2
CENTER
70
64
3
____ _ ____ _ ____ _ ____ _ ____ _ ____ _ ____
72
65
73
4
40
0.6
49
0.375
74
0
49
-0.075
74
0
49
0.075
74
0
49
-0.075
74
0
0
LTYPE
5
1F6
100
AcDbSymbolTableRecord
100
AcDbLinetypeTableRecord
2
HIDDEN
70
64
3
- - - - - - - - - - - - - - - - - - - -
72
65
73
2
40
0.2
49
0.1
74
0
49
-0.1
74
0
0
LTYPE
5
1F7
100
AcDbSymbolTableRecord
100
AcDbLinetypeTableRecord
2
PHANTOM
70
64
3
_____ _ _ _____ _ _ _____ _ _ _____
72
65
73
6
40
0.8
49
0.45
74
0
49
-0.05
74
0
49
0.1
74
0
49
-0.05
74
0
49
0.1
74
0
49
-0.05
74
0
0
LTYPE
5
1F8
100
AcDbSymbolTableRecord
100
AcDbLinetypeTableRecord
2
DOT
70
64
3
. . . . . . . . . . . . . . . . . . . .
72
65
73
2
40
0.2
49
0.1
74
0
49
-0.1
74
0
0
LTYPE
5
1F9
100
AcDbSymbolTableRecord
100
AcDbLinetypeTableRecord
2
DASHED
70
64
3
- - - - - - - - - - - - - - - - - - - -
72
65
73
2
40
0.2
49
0.1
74
0
49
-0.1
74
0
0
ENDTAB
0
TABLE
2
LAYER
5
2
100
AcDbSymbolTable
70
36
0
LAYER
5
10
100
AcDbSymbolTableRecord
100
AcDbLayerTableRecord
2
0
70
0
62
7
6
CONTINUOUS
0
LAYER
5
1FA
100
AcDbSymbolTableRecord
100
AcDbLayerTableRecord
2
DEFAULT_1
70
0
62
7
6
CENTER
0
LAYER
5
1FB
100
AcDbSymbolTableRecord
100
AcDbLayerTableRecord
2
DEFAULT_2
70
0
62
8
6
HIDDEN
0
LAYER
5
1FC
100
AcDbSymbolTableRecord
100
AcDbLayerTableRecord
2
DEFAULT_3
70
0
62
7
6
PHANTOM
0
LAYER
5
1FD
100
AcDbSymbolTableRecord
100
AcDbLayerTableRecord
2
ASSI
70
0
62
7
6
CONTINUOUS
0
LAYER
5
1FE
100
AcDbSymbolTableRecord
100
AcDbLayerTableRecord
2
COORDINATE
70
0
62
7
6
CONTINUOUS
0
LAYER
5
1FF
100
AcDbSymbolTableRecord
100
AcDbLayerTableRecord
2
COORD_ORIGINE
70
0
62
7
6
CONTINUOUS
0
LAYER
5
200
100
AcDbSymbolTableRecord
100
AcDbLayerTableRecord
2
PIANI
70
0
62
7
6
CONTINUOUS
0
LAYER
5
201
100
AcDbSymbolTableRecord
100
AcDbLayerTableRecord
2
PIANI_ORIGINE
70
0
62
7
6
CONTINUOUS
0
LAYER
5
202
100
AcDbSymbolTableRecord
100
AcDbLayerTableRecord
2
RACCORDO
70
0
62
7
6
CONTINUOUS
0
LAYER
5
203
100
AcDbSymbolTableRecord
100
AcDbLayerTableRecord
2
TRASH
70
0
62
7
6
CONTINUOUS
0
ENDTAB
0
TABLE
2
STYLE
5
3
100
AcDbSymbolTable
70
1
0
STYLE
5
11
100
AcDbSymbolTableRecord
100
AcDbTextStyleTableRecord
2
STANDARD
70
0
40
0.0
41
0.8000000000
50
0.0
71
0
42
0.2
3
txt
4

0
ENDTAB
0
TABLE
2
VIEW
5
6
100
AcDbSymbolTable
70
0
0
ENDTAB
0
TABLE
2
UCS
5
7
100
AcDbSymbolTable
70
0
0
ENDTAB
0
TABLE
2
APPID
5
9
100
AcDbSymbolTable
70
1
0
APPID
5
204
100
AcDbSymbolTableRecord
100
AcDbRegAppTableRecord
2
ACAD
70
0
0
ENDTAB
0
TABLE
2
DIMSTYLE
5
A
100
AcDbSymbolTable
70
1
0
DIMSTYLE
105
205
100
AcDbSymbolTableRecord
100
AcDbDimStyleTableRecord
2
STANDARD
70
0
3

4

5

6

7

40
1.0
41
3.0000000000
42
0.0625
43
0.38
44
0.18
45
0.0
46
0.0
47
0.0100000000
48
0.0100000000
140
3.0000000000
141
0.09
142
0.0
143
25.4
144
1.0000000000
145
0.0
146
1.0000000000
147
0.09
71
1
72
0
73
0
74
0
75
0
76
0
77
1
78
8
170
0
171
2
172
0
173
0
174
0
175
0
176
0
177
0
178
0
270
2
271
2
272
2
273
2
274
2
340
11
275
0
280
0
281
0
282
0
283
1
284
8
285
0
286
0
287
3
288
0
0
ENDTAB
0
TABLE
2
BLOCK_RECORD
5
1
100
AcDbSymbolTable
70
0
0
BLOCK_RECORD
5
1B
100
AcDbSymbolTableRecord
100
AcDbBlockTableRecord
2
*MODEL_SPACE
0
BLOCK_RECORD
5
1C
100
AcDbSymbolTableRecord
100
AcDbBlockTableRecord
2
*PAPER_SPACE
0
ENDTAB
0
ENDSEC
0
SECTION
2
BLOCKS
0
BLOCK
5
1E
100
AcDbEntity
8
0
100
AcDbBlockBegin
2
*MODEL_SPACE
70
0
10
0.0
20
0.0
30
0.0
3
*MODEL_SPACE
1

0
ENDBLK
5
1F
100
AcDbEntity
8
0
100
AcDbBlockEnd
0
BLOCK
5
20
100
AcDbEntity
8
0
100
AcDbBlockBegin
2
*PAPER_SPACE
70
0
10
0.0
20
0.0
30
0.0
3
*PAPER_SPACE
1

0
ENDBLK
5
21
100
AcDbEntity
8
0
100
AcDbBlockEnd
0
ENDSEC
0
SECTION
2
ENTITIES
0
LINE
5
206
100
AcDbEntity
8
0
100
AcDbLine
62
7
6
CONTINUOUS
10
-170.3661074127
20
-121.7720247719
11
-171.4267675845
21
-121.2416946860
0
LINE
5
207
100
AcDbEntity
8
0
100
AcDbLine
62
9
6
CONTINUOUS
10
-171.4056801555
20
-119.6085295703
11
-172.4663403273
21
-119.0781994844
0
LINE
5
208
100
AcDbEntity
8
0
100
AcDbLine
62
9
6
CONTINUOUS
10
-167.6933695542
20
-118.0773547439
11
-166.6327093825
21
-118.6076848298
0
LINE
5
209
100
AcDbEntity
8
0
100
AcDbLine
62
7
6
CONTINUOUS
10
-172.4663403273
20
-119.0781994844
11
-172.4663403273
21
-49.7961671816
0
LINE
5
20A
100
AcDbEntity
8
0
100
AcDbLine
62
7
6
CONTINUOUS
10
-171.4056801555
20
-119.6085295703
11
-171.4056801555
21
-50.3264972675
0
LINE
5
20B
100
AcDbEntity
8
0
100
AcDbLine
62
9
6
CONTINUOUS
10
-165.2184958201
20
-116.8399178769
11
-164.1578356483
21
-117.3702479628
0
LINE
5
20C
100
AcDbEntity
8
0
100
AcDbLine
62
7
6
CONTINUOUS
10
-163.2739521718
20
-112.2892527723
11
-162.7485574994
21
-112.5519501085
0
LINE
5
20D
100
AcDbEntity
8
0
100
AcDbLine
62
9
6
CONTINUOUS
10
-156.9028479121
20
-114.0891642562
11
-156.5850106669
21
-114.2480828788
0
LINE
5
20E
100
AcDbEntity
8
0
100
AcDbLine
62
7
6
CONTINUOUS
10
-164.1526318283
20
-35.0183570675
11
-164.1526318283
21
-36.3173951732
0
LINE
5
20F
100
AcDbEntity
8
0
100
AcDbLine
62
9
6
CONTINUOUS
10
-163.2739521718
20
-112.2892527723
11
-163.2739521718
21
-111.0688112952
0
LINE
5
210
100
AcDbEntity
8
0
100
AcDbLine
62
9
6
CONTINUOUS
10
-163.2739521718
20
-36.0790172393
11
-163.2739521718
21
-37.3780553450
0
LINE
5
211
100
AcDbEntity
8
0
100
AcDbLine
62
7
6
CONTINUOUS
10
-157.9706513129
20
-115.9221040623
11
-157.9706513129
21
-115.3158862796
0
LINE
5
212
100
AcDbEntity
8
0
100
AcDbLine
62
9
6
CONTINUOUS
10
-157.9706513129
20
-40.0297057744
11
-157.9706513129
21
-38.7306676688
0
LINE
5
213
100
AcDbEntity
8
0
100
AcDbLine
62
7
6
CONTINUOUS
10
-157.9706513129
20
-40.5778939330
11
-157.9706513129
21
-41.1841117157
0
LINE
5
214
100
AcDbEntity
8
0
100
AcDbLine
62
9
6
CONTINUOUS
10
-171.4056801555
20
-50.3264972675
11
-172.4663403273
21
-49.7961671816
0
LINE
5
215
100
AcDbEntity
8
0
100
AcDbLine
62
9
6
CONTINUOUS
10
-167.6933695542
20
-52.0862189756
11
-166.6327093825
21
-52.6165490615
0
LINE
5
216
100
AcDbEntity
8
0
100
AcDbLine
62
9
6
CONTINUOUS
10
-165.2184958201
20
-50.8487821085
11
-164.1578356483
21
-51.3791121944
0
LINE
5
217
100
AcDbEntity
8
0
100
AcDbLine
62
9
6
CONTINUOUS
10
-168.5772530307
20
-45.4481820900
11
-169.6379132025
21
-44.9178520041
0
LINE
5
218
100
AcDbEntity
8
0
100
AcDbLine
62
9
6
CONTINUOUS
10
-157.9576702073
20
-41.3177371666
11
-157.4049658880
21
-41.5940893262
0
LINE
5
219
100
AcDbEntity
8
0
100
AcDbLine
62
9
6
CONTINUOUS
10
-157.8999406348
20
-40.7809165279
11
-156.8392804630
21
-41.3112466137
0
LINE
5
21A
100
AcDbEntity
8
0
100
AcDbLine
62
9
6
CONTINUOUS
10
-158.3242047035
20
-40.3216579264
11
-159.3848648753
21
-39.7913278405
0
LINE
5
21B
100
AcDbEntity
8
0
100
AcDbLine
62
7
6
CONTINUOUS
10
-158.2738029865
20
-40.2208544924
11
-159.1612580776
21
-39.7771269469
0
LINE
5
21C
100
AcDbEntity
8
0
100
AcDbLine
62
9
6
CONTINUOUS
10
-157.7585192786
20
-40.2223743320
11
-156.5850106669
21
-40.8091286378
0
LINE
5
21D
100
AcDbEntity
8
0
100
AcDbLine
62
7
6
CONTINUOUS
10
-163.2739521718
20
-37.3780553450
11
-157.9706513129
21
-40.0297057744
0
LINE
5
21E
100
AcDbEntity
8
0
100
AcDbLine
62
7
6
CONTINUOUS
10
-163.2739521718
20
-36.0790172393
11
-157.9706513129
21
-38.7306676688
0
LINE
5
21F
100
AcDbEntity
8
0
100
AcDbLine
62
7
6
CONTINUOUS
10
143.6103908631
20
119.4844746217
11
-163.2739521718
21
-33.9576968957
0
LINE
5
220
100
AcDbEntity
8
0
100
AcDbLine
62
9
6
CONTINUOUS
10
153.1563324091
20
116.8328241923
11
-157.9706513129
21
-38.7306676688
0
LINE
5
221
100
AcDbEntity
8
0
100
AcDbLine
62
7
6
CONTINUOUS
10
-169.6379132025
20
-44.9178520041
11
-159.3848648753
21
-39.7913278405
0
LINE
5
222
100
AcDbEntity
8
0
100
AcDbLine
62
7
6
CONTINUOUS
10
155.2776527527
20
117.5399309735
11
165.5307010799
21
122.6664551371
0
LINE
5
223
100
AcDbEntity
8
0
100
AcDbLine
62
7
6
CONTINUOUS
10
-168.5772530307
20
-45.4481820900
11
-158.3242047035
21
-40.3216579264
0
LINE
5
224
100
AcDbEntity
8
0
100
AcDbLine
62
7
6
CONTINUOUS
10
156.3383129245
20
117.0096008876
11
166.5913612517
21
122.1361250512
0
LINE
5
225
100
AcDbEntity
8
0
100
AcDbLine
62
7
6
CONTINUOUS
10
-157.9706513129
20
-40.8162718669
11
-157.8999360798
21
-40.7809142503
0
LINE
5
226
100
AcDbEntity
8
0
100
AcDbLine
62
7
6
CONTINUOUS
10
-157.4049658880
20
-41.5940893262
11
-156.8392759079
21
-41.3112443362
0
LINE
5
227
100
AcDbEntity
8
0
100
AcDbLine
62
9
6
CONTINUOUS
10
154.8533841289
20
114.5350856822
11
-156.8392759079
21
-41.3112443362
0
LINE
5
228
100
AcDbEntity
8
0
100
AcDbLine
62
7
6
CONTINUOUS
10
154.8533841289
20
114.5350856822
11
155.4190741089
21
114.8179306722
0
LINE
5
229
100
AcDbEntity
8
0
100
AcDbLine
62
7
6
CONTINUOUS
10
164.6468176034
20
119.0853922580
11
162.1719438693
21
117.8479553909
0
LINE
5
22A
100
AcDbEntity
8
0
100
AcDbLine
62
7
6
CONTINUOUS
10
-164.1578356483
20
-45.3169343679
11
-166.6327093825
21
-46.5543712350
0
LINE
5
22B
100
AcDbEntity
8
0
100
AcDbLine
62
7
6
CONTINUOUS
10
-167.6933695542
20
-52.0862189756
11
-165.2184958201
21
-50.8487821085
0
LINE
5
22C
100
AcDbEntity
8
0
100
AcDbLine
62
7
6
CONTINUOUS
10
161.1112836975
20
112.3161076503
11
163.5861574317
21
113.5535445174
0
LINE
5
22D
100
AcDbEntity
8
0
100
AcDbLine
62
7
6
CONTINUOUS
10
-166.6327093825
20
-52.6165490615
11
-164.1578356483
21
-51.3791121944
0
LINE
5
22E
100
AcDbEntity
8
0
100
AcDbLine
62
7
6
CONTINUOUS
10
162.1719438693
20
111.7857775644
11
164.6468176034
21
113.0232144315
0
LINE
5
22F
100
AcDbEntity
8
0
100
AcDbLine
62
7
6
CONTINUOUS
10
164.6468176034
20
53.0942564896
11
162.1719438693
21
51.8568196225
0
LINE
5
230
100
AcDbEntity
8
0
100
AcDbLine
62
7
6
CONTINUOUS
10
-164.1578356483
20
-111.3080701363
11
-166.6327093825
21
-112.5455070033
0
LINE
5
231
100
AcDbEntity
8
0
100
AcDbLine
62
7
6
CONTINUOUS
10
-167.6933695542
20
-118.0773547439
11
-165.2184958201
21
-116.8399178769
0
LINE
5
232
100
AcDbEntity
8
0
100
AcDbLine
62
7
6
CONTINUOUS
10
161.1112836975
20
46.3249718819
11
163.5861574317
21
47.5624087490
0
LINE
5
233
100
AcDbEntity
8
0
100
AcDbLine
62
7
6
CONTINUOUS
10
-166.6327093825
20
-118.6076848298
11
-164.1578356483
21
-117.3702479628
0
LINE
5
234
100
AcDbEntity
8
0
100
AcDbLine
62
7
6
CONTINUOUS
10
162.1719438693
20
45.7946417960
11
164.6468176034
21
47.0320786631
0
LINE
5
235
100
AcDbEntity
8
0
100
AcDbLine
62
7
6
CONTINUOUS
10
155.4190741089
20
42.0717967544
11
154.8533841289
21
41.7889517643
0
LINE
5
236
100
AcDbEntity
8
0
100
AcDbLine
62
9
6
CONTINUOUS
10
-156.8392759080
20
-114.0573782541
11
154.8533841289
21
41.7889517643
0
LINE
5
237
100
AcDbEntity
8
0
100
AcDbLine
62
7
6
CONTINUOUS
10
-156.8392759080
20
-114.0573782541
11
-157.4049658880
21
-114.3402232441
0
LINE
5
238
100
AcDbEntity
8
0
100
AcDbLine
62
7
6
CONTINUOUS
10
154.0507596001
20
40.5657850848
11
-156.5105341419
21
-114.7148617862
0
LINE
5
239
100
AcDbEntity
8
0
100
AcDbLine
62
7
6
CONTINUOUS
10
166.5913612517
20
45.9258895182
11
156.3383129245
21
40.7993653546
0
LINE
5
23A
100
AcDbEntity
8
0
100
AcDbLine
62
7
6
CONTINUOUS
10
-158.3242047035
20
-116.5318934595
11
-168.5772530307
21
-121.6584176231
0
LINE
5
23B
100
AcDbEntity
8
0
100
AcDbLine
62
7
6
CONTINUOUS
10
156.1147061267
20
40.7851644609
11
155.0540459550
21
41.3154945468
0
LINE
5
23C
100
AcDbEntity
8
0
100
AcDbLine
62
9
6
CONTINUOUS
10
155.9847595339
20
41.0556013612
11
154.9240993621
21
41.5859314470
0
LINE
5
23D
100
AcDbEntity
8
0
100
AcDbLine
62
9
6
CONTINUOUS
10
155.2919392109
20
42.0082293053
11
155.9847595339
21
41.6618191438
0
LINE
5
23E
100
AcDbEntity
8
0
100
AcDbLine
62
9
6
CONTINUOUS
10
161.1112836975
20
46.3249718819
11
162.1719438693
21
45.7946417960
0
LINE
5
23F
100
AcDbEntity
8
0
100
AcDbLine
62
9
6
CONTINUOUS
10
163.5861574317
20
47.5624087490
11
164.6468176034
21
47.0320786631
0
LINE
5
240
100
AcDbEntity
8
0
100
AcDbLine
62
7
6
CONTINUOUS
10
154.9240993621
20
116.9301415763
11
154.9240993621
21
116.3239237936
0
LINE
5
241
100
AcDbEntity
8
0
100
AcDbLine
62
7
6
CONTINUOUS
10
154.9240993621
20
41.5859314470
11
154.9240993621
21
41.7889517643
0
LINE
5
242
100
AcDbEntity
8
0
100
AcDbLine
62
7
6
CONTINUOUS
10
155.9847595339
20
116.3998114904
11
155.9847595339
21
115.7935937077
0
LINE
5
243
100
AcDbEntity
8
0
100
AcDbLine
62
7
6
CONTINUOUS
10
155.9847595339
20
41.0556013612
11
155.9847595339
21
41.6618191438
0
LINE
5
244
100
AcDbEntity
8
0
100
AcDbLine
62
7
6
CONTINUOUS
10
169.4197883764
20
120.0862369984
11
169.4197883764
21
50.8042046957
0
LINE
5
245
100
AcDbEntity
8
0
100
AcDbLine
62
9
6
CONTINUOUS
10
154.5584753926
20
114.6825446055
11
154.8533886840
21
114.5350879598
0
LINE
5
246
100
AcDbEntity
8
0
100
AcDbLine
62
9
6
CONTINUOUS
10
154.3584139372
20
115.3482607581
11
155.4190741089
21
114.8179306722
0
LINE
5
247
100
AcDbEntity
8
0
100
AcDbLine
62
9
6
CONTINUOUS
10
161.1112836975
20
112.3161076503
11
162.1719438693
21
111.7857775644
0
LINE
5
248
100
AcDbEntity
8
0
100
AcDbLine
62
7
6
CONTINUOUS
10
147.8530315502
20
119.4844746217
11
153.1563324091
21
116.8328241923
0
LINE
5
249
100
AcDbEntity
8
0
100
AcDbLine
62
9
6
CONTINUOUS
10
154.9240993621
20
116.3239237936
11
155.9847595339
21
115.7935937077
0
LINE
5
24A
100
AcDbEntity
8
0
100
AcDbLine
62
9
6
CONTINUOUS
10
155.9847595339
20
116.3998114904
11
154.9240993621
21
116.9301415763
0
LINE
5
24B
100
AcDbEntity
8
0
100
AcDbLine
62
9
6
CONTINUOUS
10
156.3383129245
20
117.0096008876
11
155.2776527527
21
117.5399309735
0
LINE
5
24C
100
AcDbEntity
8
0
100
AcDbLine
62
9
6
CONTINUOUS
10
163.5861574317
20
113.5535445174
11
164.6468176034
21
113.0232144315
0
LINE
5
24D
100
AcDbEntity
8
0
100
AcDbLine
62
9
6
CONTINUOUS
10
166.5913612517
20
122.1361250512
11
165.5307010799
21
122.6664551371
0
LINE
5
24E
100
AcDbEntity
8
0
100
AcDbLine
62
7
6
CONTINUOUS
10
168.3802156337
20
122.2497322001
11
167.3195554619
21
122.7800622859
0
SPLINE
5
24F
100
AcDbEntity
8
0
100
AcDbSpline
62
7
6
CONTINUOUS
70
0
71
3
72
10
73
6
74
4
42
0.0000001000
43
0.0000001000
44
0.0000000001
12
1.6588904552
22
-0.8391966785
32
0.0000000000
13
1.6501030481
23
0.8250515240
33
0.0000000000
40
0.0000000000
40
0.0000000000
40
0.0000000000
40
0.0000000000
40
0.0737629277
40
0.5060001634
40
1.0000000000
40
1.0000000000
40
1.0000000000
40
1.0000000000
10
-170.3649378161
20
-121.7719586348
30
0.0000000000
10
-170.3241496106
20
-121.7925925028
30
0.0000000000
10
-170.0381751758
20
-121.9211024402
30
0.0000000000
10
-169.4008292138
20
-121.9830317276
30
0.0000000000
10
-168.8489699094
20
-121.7942760624
30
0.0000000000
10
-168.5772530307
20
-121.6584176231
30
0.0000000000
11
-170.3649378161
21
-121.7719586348
31
0.0000000000
11
-170.2399967754
21
-121.8279949404
31
0.0000000000
11
-169.4485719127
21
-121.9256096988
31
0.0000000000
11
-168.5772530307
21
-121.6584176231
31
0.0000000000
0
SPLINE
5
250
100
AcDbEntity
8
0
100
AcDbSpline
62
7
6
CONTINUOUS
70
0
71
3
72
9
73
5
74
3
42
0.0000001000
43
0.0000001000
44
0.0000000001
12
-0.1849536681
22
0.0978417426
32
0.0000000000
13
-0.0538677012
23
0.2016156776
33
0.0000000000
40
0.0000000000
40
0.0000000000
40
0.0000000000
40
0.0000000000
40
0.4591292984
40
1.0000000000
40
1.0000000000
40
1.0000000000
40
1.0000000000
10
154.6732849972
20
114.5253809549
30
0.0000000000
10
154.6449791145
20
114.5403549584
30
0.0000000000
10
154.5908255638
20
114.5908146094
30
0.0000000000
10
154.5644039725
20
114.6557030715
30
0.0000000000
10
154.5546921520
20
114.6920524092
30
0.0000000000
11
154.6732849972
21
114.5253809549
31
0.0000000000
11
154.6010980401
21
114.5897315560
31
0.0000000000
11
154.5546921520
21
114.6920524092
31
0.0000000000
0
SPLINE
5
251
100
AcDbEntity
8
0
100
AcDbSpline
62
7
6
CONTINUOUS
70
0
71
3
72
8
73
4
74
2
42
0.0000001000
43
0.0000001000
44
0.0000000001
12
-0.0164704930
22
0.0616456530
32
0.0000000000
13
-0.0096061220
23
0.0624397919
33
0.0000000000
40
0.0000000000
40
0.0000000000
40
0.0000000000
40
0.0000000000
40
1.0000000000
40
1.0000000000
40
1.0000000000
40
1.0000000000
10
154.5546921520
20
114.6920524092
30
0.0000000000
10
154.5492019877
20
114.7126009602
30
0.0000000000
10
154.5451750960
20
114.7335499578
30
0.0000000000
10
154.5419730553
20
114.7543632218
30
0.0000000000
11
154.5546921520
21
114.6920524092
31
0.0000000000
11
154.5419730553
21
114.7543632218
31
0.0000000000
0
SPLINE
5
252
100
AcDbEntity
8
0
100
AcDbSpline
62
7
6
CONTINUOUS
70
0
71
3
72
9
73
5
74
3
42
0.0000001000
43
0.0000001000
44
0.0000000001
12
0.1450620185
22
-0.0763515806
32
0.0000000000
13
0.1596584844
23
0.0446399941
33
0.0000000000
40
0.0000000000
40
0.0000000000
40
0.0000000000
40
0.0000000000
40
0.3026029115
40
1.0000000000
40
1.0000000000
40
1.0000000000
40
1.0000000000
10
156.1159031612
20
40.7861431902
30
0.0000000000
10
156.1305352243
20
40.7784417867
30
0.0000000000
10
156.1815377960
20
40.7590027939
30
0.0000000000
10
156.2374061992
20
40.7641163097
30
0.0000000000
10
156.2745213200
20
40.7744935770
30
0.0000000000
11
156.1159031612
21
40.7861431902
31
0.0000000000
11
156.1618478347
21
40.7689254320
31
0.0000000000
11
156.2745213200
21
40.7744935770
31
0.0000000000
0
SPLINE
5
253
100
AcDbEntity
8
0
100
AcDbSpline
62
7
6
CONTINUOUS
70
0
71
3
72
8
73
4
74
2
42
0.0000001000
43
0.0000001000
44
0.0000000001
12
0.0666846175
22
0.0186448026
32
0.0000000000
13
0.0599933909
23
0.0299966955
33
0.0000000000
40
0.0000000000
40
0.0000000000
40
0.0000000000
40
0.0000000000
40
1.0000000000
40
1.0000000000
40
1.0000000000
40
1.0000000000
10
156.2745213200
20
40.7744935770
30
0.0000000000
10
156.2967495258
20
40.7807085112
30
0.0000000000
10
156.3183151275
20
40.7893664561
30
0.0000000000
10
156.3383129245
20
40.7993653546
30
0.0000000000
11
156.2745213200
21
40.7744935770
31
0.0000000000
11
156.3383129245
21
40.7993653546
31
0.0000000000
0
SPLINE
5
254
100
AcDbEntity
8
0
100
AcDbSpline
62
7
6
CONTINUOUS
70
0
71
3
72
10
73
6
74
4
42
0.0000001000
43
0.0000001000
44
0.0000000001
12
-0.3739769189
22
0.1824050805
32
0.0000000000
13
-0.0462469589
23
0.4106552418
33
0.0000000000
40
0.0000000000
40
0.0000000000
40
0.0000000000
40
0.0000000000
40
0.1205454484
40
0.6197046715
40
1.0000000000
40
1.0000000000
40
1.0000000000
40
1.0000000000
10
-157.7629281375
20
-41.6160814067
30
0.0000000000
10
-157.7779552093
20
-41.6087520393
30
0.0000000000
10
-157.8518596101
20
-41.5649784708
30
0.0000000000
10
-157.9329443914
20
-41.4444134876
30
0.0000000000
10
-157.9600035720
20
-41.3253782033
30
0.0000000000
10
-157.9658660728
20
-41.2733214466
30
0.0000000000
11
-157.7629281375
21
-41.6160814067
31
0.0000000000
11
-157.8058120000
21
-41.5905515397
31
0.0000000000
11
-157.9283271416
21
-41.4258935353
31
0.0000000000
11
-157.9658660728
21
-41.2733214466
31
0.0000000000
0
SPLINE
5
255
100
AcDbEntity
8
0
100
AcDbSpline
62
7
6
CONTINUOUS
70
0
71
3
72
8
73
4
74
2
42
0.0000001000
43
0.0000001000
44
0.0000000001
12
-0.0100210991
22
0.0889835132
32
0.0000000000
13
0.0000000000
23
0.0890940487
33
0.0000000000
40
0.0000000000
40
0.0000000000
40
0.0000000000
40
0.0000000000
40
1.0000000000
40
1.0000000000
40
1.0000000000
40
1.0000000000
10
-157.9658660728
20
-41.2733214466
30
0.0000000000
10
-157.9692064392
20
-41.2436602755
30
0.0000000000
10
-157.9706513129
20
-41.2138097319
30
0.0000000000
10
-157.9706513129
20
-41.1841117157
30
0.0000000000
11
-157.9658660728
21
-41.2733214466
31
0.0000000000
11
-157.9706513129
21
-41.1841117157
31
0.0000000000
0
SPLINE
5
256
100
AcDbEntity
8
0
100
AcDbSpline
62
7
6
CONTINUOUS
70
0
71
3
72
9
73
5
74
3
42
0.0000001000
43
0.0000001000
44
0.0000000001
12
0.8281654851
22
0.4140827425
32
0.0000000000
13
0.1648131233
23
0.9064721780
33
0.0000000000
40
0.0000000000
40
0.0000000000
40
0.0000000000
40
0.0000000000
40
0.4631784703
40
1.0000000000
40
1.0000000000
40
1.0000000000
40
1.0000000000
10
154.0507596001
20
40.5657850848
30
0.0000000000
10
154.1786224077
20
40.6297164886
30
0.0000000000
10
154.4120519751
20
40.8529952579
30
0.0000000000
10
154.5124813109
20
41.1532043886
30
0.0000000000
10
154.5419730552
20
41.3154089823
30
0.0000000000
11
154.0507596001
21
40.5657850848
31
0.0000000000
11
154.3663283967
21
40.8530565271
31
0.0000000000
11
154.5419730552
21
41.3154089823
31
0.0000000000
0
SPLINE
5
257
100
AcDbEntity
8
0
100
AcDbSpline
62
7
6
CONTINUOUS
70
0
71
3
72
9
73
5
74
3
42
0.0000001000
43
0.0000001000
44
0.0000000001
12
-0.7142348237
22
0.3557417039
32
0.0000000000
13
-0.4256070256
23
0.6803909048
33
0.0000000000
40
0.0000000000
40
0.0000000000
40
0.0000000000
40
0.0000000000
40
0.0353843315
40
1.0000000000
40
1.0000000000
40
1.0000000000
40
1.0000000000
10
-168.1984045221
20
-52.7156955862
30
0.0000000000
10
-168.2068287627
20
-52.7114996921
30
0.0000000000
10
-168.4435179873
20
-52.5901937980
30
0.0000000000
10
-168.6391638389
20
-52.3914282765
30
0.0000000000
10
-168.7760129074
20
-52.1726563673
30
0.0000000000
11
-168.1984045221
21
-52.7156955862
31
0.0000000000
11
-168.2235275543
21
-52.7028180527
31
0.0000000000
11
-168.7760129074
21
-52.1726563673
31
0.0000000000
0
SPLINE
5
258
100
AcDbEntity
8
0
100
AcDbSpline
62
7
6
CONTINUOUS
70
0
71
3
72
8
73
4
74
2
42
0.0000001000
43
0.0000001000
44
0.0000000001
12
-0.3105125147
22
0.4963966244
32
0.0000000000
13
-0.1545474498
23
0.5625389216
33
0.0000000000
40
0.0000000000
40
0.0000000000
40
0.0000000000
40
0.0000000000
40
1.0000000000
40
1.0000000000
40
1.0000000000
40
1.0000000000
10
-168.7760129074
20
-52.1726563673
30
0.0000000000
10
-168.8795170790
20
-52.0071908259
30
0.0000000000
10
-168.9533468720
20
-51.8262573671
30
0.0000000000
10
-169.0048626886
20
-51.6387443933
30
0.0000000000
11
-168.7760129074
21
-52.1726563673
31
0.0000000000
11
-169.0048626886
21
-51.6387443933
31
0.0000000000
0
SPLINE
5
259
100
AcDbEntity
8
0
100
AcDbSpline
62
7
6
CONTINUOUS
70
0
71
3
72
13
73
9
74
7
42
0.0000001000
43
0.0000001000
44
0.0000000001
12
-1.5911464194
22
5.7916309320
32
0.0000000000
13
5.3330235609
23
2.6665117805
33
0.0000000000
40
0.0000000000
40
0.0000000000
40
0.0000000000
40
0.0000000000
40
0.0524797685
40
0.2290308543
40
0.4258612175
40
0.6297133911
40
0.8254028400
40
1.0000000000
40
1.0000000000
40
1.0000000000
40
1.0000000000
10
-169.0048626886
20
-51.6387443933
30
0.0000000000
10
-169.0326970205
20
-51.5374299098
30
0.0000000000
10
-169.1257420328
20
-51.0868932951
30
0.0000000000
10
-169.1091717885
20
-50.2307909443
30
0.0000000000
10
-168.8102914594
20
-49.1132324621
30
0.0000000000
10
-168.2676520741
20
-48.0495371796
30
0.0000000000
10
-167.5426696174
20
-47.1576618602
30
0.0000000000
10
-166.9430863051
20
-46.7095596963
30
0.0000000000
10
-166.6327093825
20
-46.5543712350
30
0.0000000000
11
-169.0048626886
21
-51.6387443933
31
0.0000000000
11
-169.0699842236
21
-51.3304406349
31
0.0000000000
11
-169.0699842236
21
-50.2777545026
31
0.0000000000
11
-168.7760129074
21
-49.1415674541
31
0.0000000000
11
-168.2235275543
21
-48.0589204156
31
0.0000000000
11
-167.4791660517
21
-47.1603965981
31
0.0000000000
11
-166.6327093825
21
-46.5543712350
31
0.0000000000
0
SPLINE
5
25A
100
AcDbEntity
8
0
100
AcDbSpline
62
7
6
CONTINUOUS
70
0
71
3
72
9
73
5
74
3
42
0.0000001000
43
0.0000001000
44
0.0000000001
12
-0.7142348237
22
0.3557417039
32
0.0000000000
13
-0.4256070256
23
0.6803909048
33
0.0000000000
40
0.0000000000
40
0.0000000000
40
0.0000000000
40
0.0000000000
40
0.0353843315
40
1.0000000000
40
1.0000000000
40
1.0000000000
40
1.0000000000
10
-168.1984045221
20
-118.7068313546
30
0.0000000000
10
-168.2068287627
20
-118.7026354605
30
0.0000000000
10
-168.4435179873
20
-118.5813295664
30
0.0000000000
10
-168.6391638389
20
-118.3825640448
30
0.0000000000
10
-168.7760129074
20
-118.1637921357
30
0.0000000000
11
-168.1984045221
21
-118.7068313546
31
0.0000000000
11
-168.2235275543
21
-118.6939538211
31
0.0000000000
11
-168.7760129074
21
-118.1637921357
31
0.0000000000
0
SPLINE
5
25B
100
AcDbEntity
8
0
100
AcDbSpline
62
7
6
CONTINUOUS
70
0
71
3
72
8
73
4
74
2
42
0.0000001000
43
0.0000001000
44
0.0000000001
12
-0.3105125147
22
0.4963966244
32
0.0000000000
13
-0.1545474498
23
0.5625389216
33
0.0000000000
40
0.0000000000
40
0.0000000000
40
0.0000000000
40
0.0000000000
40
1.0000000000
40
1.0000000000
40
1.0000000000
40
1.0000000000
10
-168.7760129074
20
-118.1637921357
30
0.0000000000
10
-168.8795170790
20
-117.9983265942
30
0.0000000000
10
-168.9533468720
20
-117.8173931355
30
0.0000000000
10
-169.0048626886
20
-117.6298801617
30
0.0000000000
11
-168.7760129074
21
-118.1637921357
31
0.0000000000
11
-169.0048626886
21
-117.6298801617
31
0.0000000000
0
SPLINE
5
25C
100
AcDbEntity
8
0
100
AcDbSpline
62
7
6
CONTINUOUS
70
0
71
3
72
13
73
9
74
7
42
0.0000001000
43
0.0000001000
44
0.0000000001
12
-1.5911464194
22
5.7916309320
32
0.0000000000
13
5.3330235609
23
2.6665117805
33
0.0000000000
40
0.0000000000
40
0.0000000000
40
0.0000000000
40
0.0000000000
40
0.0524797685
40
0.2290308543
40
0.4258612175
40
0.6297133911
40
0.8254028400
40
1.0000000000
40
1.0000000000
40
1.0000000000
40
1.0000000000
10
-169.0048626886
20
-117.6298801617
30
0.0000000000
10
-169.0326970205
20
-117.5285656782
30
0.0000000000
10
-169.1257420328
20
-117.0780290634
30
0.0000000000
10
-169.1091717885
20
-116.2219267127
30
0.0000000000
10
-168.8102914594
20
-115.1043682305
30
0.0000000000
10
-168.2676520741
20
-114.0406729480
30
0.0000000000
10
-167.5426696174
20
-113.1487976285
30
0.0000000000
10
-166.9430863051
20
-112.7006954647
30
0.0000000000
10
-166.6327093825
20
-112.5455070033
30
0.0000000000
11
-169.0048626886
21
-117.6298801617
31
0.0000000000
11
-169.0699842236
21
-117.3215764033
31
0.0000000000
11
-169.0699842236
21
-116.2688902710
31
0.0000000000
11
-168.7760129074
21
-115.1327032224
31
0.0000000000
11
-168.2235275543
21
-114.0500561839
31
0.0000000000
11
-167.4791660517
21
-113.1515323665
31
0.0000000000
11
-166.6327093825
21
-112.5455070033
31
0.0000000000
0
SPLINE
5
25D
100
AcDbEntity
8
0
100
AcDbSpline
62
7
6
CONTINUOUS
70
0
71
3
72
9
73
5
74
3
42
0.0000001000
43
0.0000001000
44
0.0000000001
12
-0.7142348237
22
0.3557417039
32
0.0000000000
13
-0.4256070256
23
0.6803909048
33
0.0000000000
40
0.0000000000
40
0.0000000000
40
0.0000000000
40
0.0000000000
40
0.0353843315
40
1.0000000000
40
1.0000000000
40
1.0000000000
40
1.0000000000
10
160.6062487296
20
111.6866310397
30
0.0000000000
10
160.5978244890
20
111.6908269338
30
0.0000000000
10
160.3611352644
20
111.8121328279
30
0.0000000000
10
160.1654894128
20
112.0108983494
30
0.0000000000
10
160.0286403443
20
112.2296702586
30
0.0000000000
11
160.6062487296
21
111.6866310397
31
0.0000000000
11
160.5811256974
21
111.6995085731
31
0.0000000000
11
160.0286403443
21
112.2296702586
31
0.0000000000
0
SPLINE
5
25E
100
AcDbEntity
8
0
100
AcDbSpline
62
7
6
CONTINUOUS
70
0
71
3
72
8
73
4
74
2
42
0.0000001000
43
0.0000001000
44
0.0000000001
12
-0.3105125147
22
0.4963966244
32
0.0000000000
13
-0.1545474498
23
0.5625389216
33
0.0000000000
40
0.0000000000
40
0.0000000000
40
0.0000000000
40
0.0000000000
40
1.0000000000
40
1.0000000000
40
1.0000000000
40
1.0000000000
10
160.0286403443
20
112.2296702586
30
0.0000000000
10
159.9251361728
20
112.3951358000
30
0.0000000000
10
159.8513063797
20
112.5760692587
30
0.0000000000
10
159.7997905631
20
112.7635822326
30
0.0000000000
11
160.0286403443
21
112.2296702586
31
0.0000000000
11
159.7997905631
21
112.7635822326
31
0.0000000000
0
SPLINE
5
25F
100
AcDbEntity
8
0
100
AcDbSpline
62
7
6
CONTINUOUS
70
0
71
3
72
13
73
9
74
7
42
0.0000001000
43
0.0000001000
44
0.0000000001
12
-1.5911464194
22
5.7916309320
32
0.0000000000
13
5.3330235609
23
2.6665117805
33
0.0000000000
40
0.0000000000
40
0.0000000000
40
0.0000000000
40
0.0000000000
40
0.0524797685
40
0.2290308543
40
0.4258612175
40
0.6297133911
40
0.8254028400
40
1.0000000000
40
1.0000000000
40
1.0000000000
40
1.0000000000
10
159.7997905631
20
112.7635822326
30
0.0000000000
10
159.7719562312
20
112.8648967161
30
0.0000000000
10
159.6789112189
20
113.3154333308
30
0.0000000000
10
159.6954814632
20
114.1715356816
30
0.0000000000
10
159.9943617923
20
115.2890941637
30
0.0000000000
10
160.5370011776
20
116.3527894463
30
0.0000000000
10
161.2619836343
20
117.2446647657
30
0.0000000000
10
161.8615669466
20
117.6927669296
30
0.0000000000
10
162.1719438693
20
117.8479553909
30
0.0000000000
11
159.7997905631
21
112.7635822326
31
0.0000000000
11
159.7346690282
21
113.0718859910
31
0.0000000000
11
159.7346690282
21
114.1245721232
31
0.0000000000
11
160.0286403443
21
115.2607591718
31
0.0000000000
11
160.5811256974
21
116.3434062103
31
0.0000000000
11
161.3254872000
21
117.2419300277
31
0.0000000000
11
162.1719438693
21
117.8479553909
31
0.0000000000
0
SPLINE
5
260
100
AcDbEntity
8
0
100
AcDbSpline
62
7
6
CONTINUOUS
70
0
71
3
72
9
73
5
74
3
42
0.0000001000
43
0.0000001000
44
0.0000000001
12
1.2458637437
22
0.6229318719
32
0.0000000000
13
1.3471239385
23
-0.4053960296
33
0.0000000000
40
0.0000000000
40
0.0000000000
40
0.0000000000
40
0.0000000000
40
0.6317248829
40
1.0000000000
40
1.0000000000
40
1.0000000000
40
1.0000000000
10
-164.1578356483
20
-45.3169343679
30
0.0000000000
10
-163.8954879391
20
-45.1857605133
30
0.0000000000
10
-163.4403013538
20
-45.0355017975
30
0.0000000000
10
-162.9625537324
20
-45.0871766022
30
0.0000000000
10
-162.7971829903
20
-45.1369423589
30
0.0000000000
11
-164.1578356483
21
-45.3169343679
31
0.0000000000
11
-163.3113789790
21
-45.0765030618
31
0.0000000000
11
-162.7971829903
21
-45.1369423589
31
0.0000000000
0
SPLINE
5
261
100
AcDbEntity
8
0
100
AcDbSpline
62
7
6
CONTINUOUS
70
0
71
3
72
8
73
4
74
2
42
0.0000001000
43
0.0000001000
44
0.0000000001
12
0.2118898980
22
-0.0637649743
32
0.0000000000
13
0.1971330254
23
-0.0981868092
33
0.0000000000
40
0.0000000000
40
0.0000000000
40
0.0000000000
40
0.0000000000
40
1.0000000000
40
1.0000000000
40
1.0000000000
40
1.0000000000
10
-162.7971829903
20
-45.1369423589
30
0.0000000000
10
-162.7265530243
20
-45.1581973504
30
0.0000000000
10
-162.6578515171
20
-45.1850589068
30
0.0000000000
10
-162.5921405086
20
-45.2177878432
30
0.0000000000
11
-162.7971829903
21
-45.1369423589
31
0.0000000000
11
-162.5921405086
21
-45.2177878432
31
0.0000000000
0
SPLINE
5
262
100
AcDbEntity
8
0
100
AcDbSpline
62
7
6
CONTINUOUS
70
0
71
3
72
9
73
5
74
3
42
0.0000001000
43
0.0000001000
44
0.0000000001
12
1.2458637437
22
0.6229318719
32
0.0000000000
13
1.3471239385
23
-0.4053960296
33
0.0000000000
40
0.0000000000
40
0.0000000000
40
0.0000000000
40
0.0000000000
40
0.6317248829
40
1.0000000000
40
1.0000000000
40
1.0000000000
40
1.0000000000
10
-164.1578356483
20
-111.3080701363
30
0.0000000000
10
-163.8954879391
20
-111.1768962817
30
0.0000000000
10
-163.4403013538
20
-111.0266375658
30
0.0000000000
10
-162.9625537324
20
-111.0783123706
30
0.0000000000
10
-162.7971829903
20
-111.1280781273
30
0.0000000000
11
-164.1578356483
21
-111.3080701363
31
0.0000000000
11
-163.3113789790
21
-111.0676388302
31
0.0000000000
11
-162.7971829903
21
-111.1280781273
31
0.0000000000
0
SPLINE
5
263
100
AcDbEntity
8
0
100
AcDbSpline
62
7
6
CONTINUOUS
70
0
71
3
72
8
73
4
74
2
42
0.0000001000
43
0.0000001000
44
0.0000000001
12
0.2118898980
22
-0.0637649743
32
0.0000000000
13
0.1971330254
23
-0.0981868092
33
0.0000000000
40
0.0000000000
40
0.0000000000
40
0.0000000000
40
0.0000000000
40
1.0000000000
40
1.0000000000
40
1.0000000000
40
1.0000000000
10
-162.7971829903
20
-111.1280781273
30
0.0000000000
10
-162.7265530243
20
-111.1493331188
30
0.0000000000
10
-162.6578515171
20
-111.1761946751
30
0.0000000000
10
-162.5921405086
20
-111.2089236115
30
0.0000000000
11
-162.7971829903
21
-111.1280781273
31
0.0000000000
11
-162.5921405086
21
-111.2089236115
31
0.0000000000
0
SPLINE
5
264
100
AcDbEntity
8
0
100
AcDbSpline
62
7
6
CONTINUOUS
70
0
71
3
72
9
73
5
74
3
42
0.0000001000
43
0.0000001000
44
0.0000000001
12
1.2458637437
22
0.6229318719
32
0.0000000000
13
1.3471239385
23
-0.4053960296
33
0.0000000000
40
0.0000000000
40
0.0000000000
40
0.0000000000
40
0.0000000000
40
0.6317248829
40
1.0000000000
40
1.0000000000
40
1.0000000000
40
1.0000000000
10
164.6468176034
20
119.0853922580
30
0.0000000000
10
164.9091653126
20
119.2165661126
30
0.0000000000
10
165.3643518979
20
119.3668248284
30
0.0000000000
10
165.8420995194
20
119.3151500237
30
0.0000000000
10
166.0074702615
20
119.2653842669
30
0.0000000000
11
164.6468176034
21
119.0853922580
31
0.0000000000
11
165.4932742727
21
119.3258235641
31
0.0000000000
11
166.0074702615
21
119.2653842669
31
0.0000000000
0
SPLINE
5
265
100
AcDbEntity
8
0
100
AcDbSpline
62
7
6
CONTINUOUS
70
0
71
3
72
8
73
4
74
2
42
0.0000001000
43
0.0000001000
44
0.0000000001
12
0.2118898980
22
-0.0637649743
32
0.0000000000
13
0.1971330254
23
-0.0981868092
33
0.0000000000
40
0.0000000000
40
0.0000000000
40
0.0000000000
40
0.0000000000
40
1.0000000000
40
1.0000000000
40
1.0000000000
40
1.0000000000
10
166.0074702615
20
119.2653842669
30
0.0000000000
10
166.0781002275
20
119.2441292755
30
0.0000000000
10
166.1468017346
20
119.2172677191
30
0.0000000000
10
166.2125127431
20
119.1845387827
30
0.0000000000
11
166.0074702615
21
119.2653842669
31
0.0000000000
11
166.2125127431
21
119.1845387827
31
0.0000000000
0
SPLINE
5
266
100
AcDbEntity
8
0
100
AcDbSpline
62
7
6
CONTINUOUS
70
0
71
3
72
9
73
5
74
3
42
0.0000001000
43
0.0000001000
44
0.0000000001
12
1.2458637437
22
0.6229318719
32
0.0000000000
13
1.3471239385
23
-0.4053960296
33
0.0000000000
40
0.0000000000
40
0.0000000000
40
0.0000000000
40
0.0000000000
40
0.6317248829
40
1.0000000000
40
1.0000000000
40
1.0000000000
40
1.0000000000
10
164.6468176034
20
53.0942564896
30
0.0000000000
10
164.9091653126
20
53.2254303442
30
0.0000000000
10
165.3643518979
20
53.3756890600
30
0.0000000000
10
165.8420995194
20
53.3240142553
30
0.0000000000
10
166.0074702615
20
53.2742484986
30
0.0000000000
11
164.6468176034
21
53.0942564896
31
0.0000000000
11
165.4932742727
21
53.3346877957
31
0.0000000000
11
166.0074702615
21
53.2742484986
31
0.0000000000
0
SPLINE
5
267
100
AcDbEntity
8
0
100
AcDbSpline
62
7
6
CONTINUOUS
70
0
71
3
72
8
73
4
74
2
42
0.0000001000
43
0.0000001000
44
0.0000000001
12
0.2118898980
22
-0.0637649743
32
0.0000000000
13
0.1971330254
23
-0.0981868092
33
0.0000000000
40
0.0000000000
40
0.0000000000
40
0.0000000000
40
0.0000000000
40
1.0000000000
40
1.0000000000
40
1.0000000000
40
1.0000000000
10
166.0074702615
20
53.2742484986
30
0.0000000000
10
166.0781002275
20
53.2529935071
30
0.0000000000
10
166.1468017346
20
53.2261319507
30
0.0000000000
10
166.2125127431
20
53.1934030143
30
0.0000000000
11
166.0074702615
21
53.2742484986
31
0.0000000000
11
166.2125127431
21
53.1934030143
31
0.0000000000
0
SPLINE
5
268
100
AcDbEntity
8
0
100
AcDbSpline
62
7
6
CONTINUOUS
70
0
71
3
72
9
73
5
74
3
42
0.0000001000
43
0.0000001000
44
0.0000000001
12
0.0000000000
22
0.3100988845
32
0.0000000000
13
-0.2801103567
23
0.1474325856
33
0.0000000000
40
0.0000000000
40
0.0000000000
40
0.0000000000
40
0.0000000000
40
0.6433461140
40
1.0000000000
40
1.0000000000
40
1.0000000000
40
1.0000000000
10
-157.9706513129
20
-40.5778939330
30
0.0000000000
10
-157.9706513129
20
-40.5113936289
30
0.0000000000
10
-157.9867635367
20
-40.4015260418
30
0.0000000000
10
-158.0684941245
20
-40.3259632303
30
0.0000000000
10
-158.1017949403
20
-40.3084357621
30
0.0000000000
11
-157.9706513129
21
-40.5778939330
31
0.0000000000
11
-158.0185418478
21
-40.3842264069
31
0.0000000000
11
-158.1017949403
21
-40.3084357621
31
0.0000000000
0
SPLINE
5
269
100
AcDbEntity
8
0
100
AcDbSpline
62
7
6
CONTINUOUS
70
0
71
3
72
10
73
6
74
4
42
0.0000001000
43
0.0000001000
44
0.0000000001
12
0.0000000000
22
2.5111347048
32
0.0000000000
13
-2.2579880830
23
1.1422671662
33
0.0000000000
40
0.0000000000
40
0.0000000000
40
0.0000000000
40
0.0000000000
40
0.4009827755
40
0.7471197176
40
1.0000000000
40
1.0000000000
40
1.0000000000
40
1.0000000000
10
169.4197883764
20
120.0862369984
30
0.0000000000
10
169.4197883764
20
120.4218775863
30
0.0000000000
10
169.3473243250
20
121.0522733170
30
0.0000000000
10
168.9738076127
20
121.8272909509
30
0.0000000000
10
168.5693795917
20
122.1533804485
30
0.0000000000
10
168.3790460371
20
122.2496660630
30
0.0000000000
11
169.4197883764
21
120.0862369984
31
0.0000000000
11
169.2824938751
21
121.0837547467
31
0.0000000000
11
168.8786438245
21
121.8534349863
31
0.0000000000
11
168.3790460371
21
122.2496660630
31
0.0000000000
0
SPLINE
5
26A
100
AcDbEntity
8
0
100
AcDbSpline
62
7
6
CONTINUOUS
70
0
71
3
72
12
73
8
74
6
42
0.0000001000
43
0.0000001000
44
0.0000000001
12
5.2587970118
22
2.6293985059
32
0.0000000000
13
0.0000000000
23
5.8795137991
33
0.0000000000
40
0.0000000000
40
0.0000000000
40
0.0000000000
40
0.0000000000
40
0.1801513622
40
0.3830918554
40
0.5948186560
40
0.8053890176
40
1.0000000000
40
1.0000000000
40
1.0000000000
40
1.0000000000
10
166.5913612517
20
45.9258895182
30
0.0000000000
10
166.9071544000
20
46.0837860923
30
0.0000000000
10
167.5253901949
20
46.5282322521
30
0.0000000000
10
168.2976232556
20
47.4114469116
30
0.0000000000
10
168.9140558347
20
48.4793878270
30
0.0000000000
10
169.3144540576
20
49.6274115985
30
0.0000000000
10
169.4197883764
20
50.4227987102
30
0.0000000000
10
169.4197883764
20
50.8042046957
30
0.0000000000
11
166.5913612517
21
45.9258895182
31
0.0000000000
11
167.4618813280
21
46.5293002927
31
0.0000000000
11
168.2551937049
21
47.4205697594
31
0.0000000000
11
168.8794353850
21
48.4975913262
31
0.0000000000
11
169.2822353487
21
49.6682848498
31
0.0000000000
11
169.4197883764
21
50.8042046957
31
0.0000000000
0
SPLINE
5
26B
100
AcDbEntity
8
0
100
AcDbSpline
62
7
6
CONTINUOUS
70
0
71
3
72
10
73
6
74
4
42
0.0000001000
43
0.0000001000
44
0.0000000001
12
0.6550251189
22
0.3275125595
32
0.0000000000
13
0.0000000000
23
0.7323403464
33
0.0000000000
40
0.0000000000
40
0.0000000000
40
0.0000000000
40
0.0000000000
40
0.3153195724
40
0.6663864895
40
1.0000000000
40
1.0000000000
40
1.0000000000
40
1.0000000000
10
-158.3242047035
20
-116.5318934595
30
0.0000000000
10
-158.2553572901
20
-116.4974697527
30
0.0000000000
10
-158.1299633929
20
-116.3851846814
30
0.0000000000
10
-158.0077081997
20
-116.1710547351
30
0.0000000000
10
-157.9706513129
20
-116.0035436069
30
0.0000000000
10
-157.9706513129
20
-115.9221040623
30
0.0000000000
11
-158.3242047035
21
-116.5318934595
31
0.0000000000
11
-158.1465246016
21
-116.3843997216
31
0.0000000000
11
-158.0178387915
21
-116.1618225153
31
0.0000000000
11
-157.9706513129
21
-115.9221040623
31
0.0000000000
0
SPLINE
5
26C
100
AcDbEntity
8
0
100
AcDbSpline
62
7
6
CONTINUOUS
70
0
71
3
72
9
73
5
74
3
42
0.0000001000
43
0.0000001000
44
0.0000000001
12
-0.7142348237
22
0.3557417039
32
0.0000000000
13
-0.4256070256
23
0.6803909048
33
0.0000000000
40
0.0000000000
40
0.0000000000
40
0.0000000000
40
0.0000000000
40
0.0353843315
40
1.0000000000
40
1.0000000000
40
1.0000000000
40
1.0000000000
10
160.6062487296
20
45.6954952713
30
0.0000000000
10
160.5978244890
20
45.6996911654
30
0.0000000000
10
160.3611352644
20
45.8209970595
30
0.0000000000
10
160.1654894128
20
46.0197625810
30
0.0000000000
10
160.0286403443
20
46.2385344902
30
0.0000000000
11
160.6062487296
21
45.6954952713
31
0.0000000000
11
160.5811256974
21
45.7083728048
31
0.0000000000
11
160.0286403443
21
46.2385344902
31
0.0000000000
0
SPLINE
5
26D
100
AcDbEntity
8
0
100
AcDbSpline
62
7
6
CONTINUOUS
70
0
71
3
72
8
73
4
74
2
42
0.0000001000
43
0.0000001000
44
0.0000000001
12
-0.3105125147
22
0.4963966244
32
0.0000000000
13
-0.1545474498
23
0.5625389216
33
0.0000000000
40
0.0000000000
40
0.0000000000
40
0.0000000000
40
0.0000000000
40
1.0000000000
40
1.0000000000
40
1.0000000000
40
1.0000000000
10
160.0286403443
20
46.2385344902
30
0.0000000000
10
159.9251361728
20
46.4040000316
30
0.0000000000
10
159.8513063797
20
46.5849334904
30
0.0000000000
10
159.7997905631
20
46.7724464642
30
0.0000000000
11
160.0286403443
21
46.2385344902
31
0.0000000000
11
159.7997905631
21
46.7724464642
31
0.0000000000
0
SPLINE
5
26E
100
AcDbEntity
8
0
100
AcDbSpline
62
7
6
CONTINUOUS
70
0
71
3
72
13
73
9
74
7
42
0.0000001000
43
0.0000001000
44
0.0000000001
12
-1.5911464194
22
5.7916309320
32
0.0000000000
13
5.3330235609
23
2.6665117805
33
0.0000000000
40
0.0000000000
40
0.0000000000
40
0.0000000000
40
0.0000000000
40
0.0524797685
40
0.2290308543
40
0.4258612175
40
0.6297133911
40
0.8254028400
40
1.0000000000
40
1.0000000000
40
1.0000000000
40
1.0000000000
10
159.7997905631
20
46.7724464642
30
0.0000000000
10
159.7719562312
20
46.8737609477
30
0.0000000000
10
159.6789112189
20
47.3242975624
30
0.0000000000
10
159.6954814632
20
48.1803999132
30
0.0000000000
10
159.9943617923
20
49.2979583954
30
0.0000000000
10
160.5370011776
20
50.3616536779
30
0.0000000000
10
161.2619836343
20
51.2535289973
30
0.0000000000
10
161.8615669466
20
51.7016311612
30
0.0000000000
10
162.1719438693
20
51.8568196225
30
0.0000000000
11
159.7997905631
21
46.7724464642
31
0.0000000000
11
159.7346690282
21
47.0807502226
31
0.0000000000
11
159.7346690282
21
48.1334363549
31
0.0000000000
11
160.0286403443
21
49.2696234034
31
0.0000000000
11
160.5811256974
21
50.3522704419
31
0.0000000000
11
161.3254872000
21
51.2507942594
31
0.0000000000
11
162.1719438693
21
51.8568196225
31
0.0000000000
0
SPLINE
5
26F
100
AcDbEntity
8
0
100
AcDbSpline
62
7
6
CONTINUOUS
70
0
71
3
72
9
73
5
74
3
42
0.0000001000
43
0.0000001000
44
0.0000000001
12
0.1614762275
22
0.0807381146
32
0.0000000000
13
0.1644150472
23
-0.0874350129
33
0.0000000000
40
0.0000000000
40
0.0000000000
40
0.0000000000
40
0.0000000000
40
0.7952703563
40
1.0000000000
40
1.0000000000
40
1.0000000000
40
1.0000000000
10
-156.8392804320
20
-114.0573805483
30
0.0000000000
10
-156.7964746797
20
-114.0359776719
30
0.0000000000
10
-156.7318152650
20
-114.0180823406
30
0.0000000000
10
-156.6737484763
20
-114.0403913447
30
0.0000000000
10
-156.6625282650
20
-114.0463581911
30
0.0000000000
11
-156.8392804320
21
-114.0573805483
31
0.0000000000
11
-156.6978007871
21
-114.0329418494
31
0.0000000000
11
-156.6625282650
21
-114.0463581911
31
0.0000000000
0
SPLINE
5
270
100
AcDbEntity
8
0
100
AcDbSpline
62
7
6
CONTINUOUS
70
0
71
3
72
10
73
6
74
4
42
0.0000001000
43
0.0000001000
44
0.0000000001
12
0.0937577838
22
0.5156678109
32
0.0000000000
13
0.4280865174
23
0.3056875412
33
0.0000000000
40
0.0000000000
40
0.0000000000
40
0.0000000000
40
0.0000000000
40
0.3630503203
40
0.7573993150
40
1.0000000000
40
1.0000000000
40
1.0000000000
40
1.0000000000
10
154.5419730552
20
41.3154089823
30
0.0000000000
10
154.5533193197
20
41.3778134369
30
0.0000000000
10
154.5971700741
20
41.5044436952
30
0.0000000000
10
154.6880511776
20
41.6547514515
30
0.0000000000
10
154.7695050582
20
41.7344095502
30
0.0000000000
10
154.8041230856
20
41.7591295525
30
0.0000000000
11
154.5419730552
21
41.3154089823
31
0.0000000000
11
154.6010981017
21
41.4962727762
31
0.0000000000
11
154.7108757938
21
41.6713966142
31
0.0000000000
11
154.8041230856
21
41.7591295525
31
0.0000000000
0
SPLINE
5
271
100
AcDbEntity
8
0
100
AcDbSpline
62
7
6
CONTINUOUS
70
0
71
3
72
8
73
4
74
2
42
0.0000001000
43
0.0000001000
44
0.0000000001
12
0.0470376000
22
0.0335885567
32
0.0000000000
13
0.0515099279
23
0.0257549639
33
0.0000000000
40
0.0000000000
40
0.0000000000
40
0.0000000000
40
0.0000000000
40
1.0000000000
40
1.0000000000
40
1.0000000000
40
1.0000000000
10
154.8041230856
20
41.7591295525
30
0.0000000000
10
154.8198022856
20
41.7703257380
30
0.0000000000
10
154.8362187392
20
41.7803690383
30
0.0000000000
10
154.8533887151
20
41.7889540263
30
0.0000000000
11
154.8041230856
21
41.7591295525
31
0.0000000000
11
154.8533887151
21
41.7889540263
31
0.0000000000
0
SPLINE
5
272
100
AcDbEntity
8
0
100
AcDbSpline
62
7
6
CONTINUOUS
70
0
71
3
72
9
73
5
74
3
42
0.0000001000
43
0.0000001000
44
0.0000000001
12
0.3286990625
22
0.1643495313
32
0.0000000000
13
0.3342579566
23
-0.1630323862
33
0.0000000000
40
0.0000000000
40
0.0000000000
40
0.0000000000
40
0.0000000000
40
0.6061991326
40
1.0000000000
40
1.0000000000
40
1.0000000000
40
1.0000000000
10
155.4190741089
20
42.0717967544
30
0.0000000000
10
155.4854931378
20
42.1050062688
30
0.0000000000
10
155.6076433706
20
42.1438681363
30
0.0000000000
10
155.7331593341
20
42.1151895999
30
0.0000000000
10
155.7770363585
20
42.0937888349
30
0.0000000000
11
155.4190741089
21
42.0717967544
31
0.0000000000
11
155.6348246981
21
42.1273027583
31
0.0000000000
11
155.7770363585
21
42.0937888349
31
0.0000000000
0
SPLINE
5
273
100
AcDbEntity
8
0
100
AcDbSpline
62
7
6
CONTINUOUS
70
0
71
3
72
11
73
7
74
5
42
0.0000001000
43
0.0000001000
44
0.0000000001
12
0.0000000000
22
1.1745825309
32
0.0000000000
13
1.0505785537
23
0.5252892768
33
0.0000000000
40
0.0000000000
40
0.0000000000
40
0.0000000000
40
0.0000000000
40
0.2458763493
40
0.5132100427
40
0.7724571074
40
1.0000000000
40
1.0000000000
40
1.0000000000
40
1.0000000000
10
-157.9706513129
20
-115.3158862796
30
0.0000000000
10
-157.9706513129
20
-115.2196189247
30
0.0000000000
10
-157.9373309098
20
-115.0183443246
30
0.0000000000
10
-157.8161478338
20
-114.7383968886
30
0.0000000000
10
-157.6380463466
20
-114.4996505688
30
0.0000000000
10
-157.4846497823
20
-114.3800651913
30
0.0000000000
10
-157.4049658880
20
-114.3402232441
30
0.0000000000
11
-157.9706513129
21
-115.3158862796
31
0.0000000000
11
-157.9278919662
21
-115.0302671787
31
0.0000000000
11
-157.8041179824
21
-114.7416853944
31
0.0000000000
11
-157.6196586877
21
-114.4994059557
31
0.0000000000
11
-157.4049658880
21
-114.3402232441
31
0.0000000000
0
SPLINE
5
274
100
AcDbEntity
8
0
100
AcDbSpline
62
7
6
CONTINUOUS
70
0
71
3
72
8
73
4
74
2
42
0.0000001000
43
0.0000001000
44
0.0000000001
12
-0.4167222475
22
0.2083611238
32
0.0000000000
13
-0.3700902457
23
0.2866127749
33
0.0000000000
40
0.0000000000
40
0.0000000000
40
0.0000000000
40
0.0000000000
40
1.0000000000
40
1.0000000000
40
1.0000000000
40
1.0000000000
10
-163.2739521718
20
-112.2892527723
30
0.0000000000
10
-163.4128595877
20
-112.2197990644
30
0.0000000000
10
-163.5473206029
20
-112.1399256544
30
0.0000000000
10
-163.6706840181
20
-112.0443880628
30
0.0000000000
11
-163.2739521718
21
-112.2892527723
31
0.0000000000
11
-163.6706840181
21
-112.0443880628
31
0.0000000000
0
SPLINE
5
275
100
AcDbEntity
8
0
100
AcDbSpline
62
7
6
CONTINUOUS
70
0
71
3
72
10
73
6
74
4
42
0.0000001000
43
0.0000001000
44
0.0000000001
12
-0.7100151128
22
0.5498642671
32
0.0000000000
13
-0.0851452947
23
0.9046451734
33
0.0000000000
40
0.0000000000
40
0.0000000000
40
0.0000000000
40
0.0000000000
40
0.2273465096
40
0.8246145670
40
1.0000000000
40
1.0000000000
40
1.0000000000
40
1.0000000000
10
-163.6706840181
20
-112.0443880628
30
0.0000000000
10
-163.7244905040
20
-112.0027181555
30
0.0000000000
10
-163.9119959167
20
-111.8407675904
30
0.0000000000
10
-164.0968944814
20
-111.5898874017
30
0.0000000000
10
-164.1411893892
20
-111.3596194326
30
0.0000000000
10
-164.1461671373
20
-111.3067322374
30
0.0000000000
11
-163.6706840181
21
-112.0443880628
31
0.0000000000
11
-163.8252180514
21
-111.9100034311
31
0.0000000000
11
-164.1160016029
21
-111.4622802013
31
0.0000000000
11
-164.1461671373
21
-111.3067322374
31
0.0000000000
0
SPLINE
5
276
100
AcDbEntity
8
0
100
AcDbSpline
62
7
6
CONTINUOUS
70
0
71
3
72
10
73
6
74
4
42
0.0000001000
43
0.0000001000
44
0.0000000001
12
1.5113596921
22
-0.7556798461
32
0.0000000000
13
0.7316796808
23
-1.5268133677
33
0.0000000000
40
0.0000000000
40
0.0000000000
40
0.0000000000
40
0.0000000000
40
0.3452685835
40
0.7310519489
40
1.0000000000
40
1.0000000000
40
1.0000000000
40
1.0000000000
10
153.1563324091
20
116.8328241923
30
0.0000000000
10
153.3302740825
20
116.7458533556
30
0.0000000000
10
153.6663762477
20
116.4963689561
30
0.0000000000
10
154.0270986810
20
116.0585509708
30
0.0000000000
10
154.2100347489
20
115.7367643447
30
0.0000000000
10
154.2756293569
20
115.5998865182
30
0.0000000000
11
153.1563324091
21
116.8328241923
31
0.0000000000
11
153.6316011684
21
116.4944511793
31
0.0000000000
11
154.0507596001
21
115.9952005757
31
0.0000000000
11
154.2756293569
21
115.5998865182
31
0.0000000000
0
SPLINE
5
277
100
AcDbEntity
8
0
100
AcDbSpline
62
7
6
CONTINUOUS
70
0
71
3
72
8
73
4
74
2
42
0.0000001000
43
0.0000001000
44
0.0000000001
12
0.0978541074
22
-0.2041944900
32
0.0000000000
13
0.0834741835
23
-0.2107062909
33
0.0000000000
40
0.0000000000
40
0.0000000000
40
0.0000000000
40
0.0000000000
40
1.0000000000
40
1.0000000000
40
1.0000000000
40
1.0000000000
10
154.2756293569
20
115.5998865182
30
0.0000000000
10
154.3082473927
20
115.5318216882
30
0.0000000000
10
154.3385036688
20
115.4625957672
30
0.0000000000
10
154.3663283967
20
115.3923603369
30
0.0000000000
11
154.2756293569
21
115.5998865182
31
0.0000000000
11
154.3663283967
21
115.3923603369
31
0.0000000000
0
SPLINE
5
278
100
AcDbEntity
8
0
100
AcDbSpline
62
7
6
CONTINUOUS
70
0
71
3
72
8
73
4
74
2
42
0.0000001000
43
0.0000001000
44
0.0000000001
12
0.1629063811
22
-0.4112097645
32
0.0000000000
13
0.1018006908
23
-0.4298711747
33
0.0000000000
40
0.0000000000
40
0.0000000000
40
0.0000000000
40
0.0000000000
40
1.0000000000
40
1.0000000000
40
1.0000000000
40
1.0000000000
10
154.3663283967
20
115.3923603369
30
0.0000000000
10
154.4206305237
20
115.2552904154
30
0.0000000000
10
154.4656717180
20
115.1143756194
30
0.0000000000
10
154.4996052816
20
114.9710852279
30
0.0000000000
11
154.3663283967
21
115.3923603369
31
0.0000000000
11
154.4996052816
21
114.9710852279
31
0.0000000000
0
SPLINE
5
279
100
AcDbEntity
8
0
100
AcDbSpline
62
7
6
CONTINUOUS
70
0
71
3
72
8
73
4
74
2
42
0.0000001000
43
0.0000001000
44
0.0000000001
12
0.0509443402
22
-0.2151213632
32
0.0000000000
13
0.0335597707
23
-0.2181385096
33
0.0000000000
40
0.0000000000
40
0.0000000000
40
0.0000000000
40
0.0000000000
40
1.0000000000
40
1.0000000000
40
1.0000000000
40
1.0000000000
10
154.4996052816
20
114.9710852279
30
0.0000000000
10
154.5165867283
20
114.8993781068
30
0.0000000000
10
154.5307864650
20
114.8270760597
30
0.0000000000
10
154.5419730552
20
114.7543632232
30
0.0000000000
11
154.4996052816
21
114.9710852279
31
0.0000000000
11
154.5419730552
21
114.7543632232
31
0.0000000000
0
SPLINE
5
27A
100
AcDbEntity
8
0
100
AcDbSpline
62
7
6
CONTINUOUS
70
0
71
3
72
8
73
4
74
2
42
0.0000001000
43
0.0000001000
44
0.0000000001
12
0.3900633285
22
-0.1745115927
32
0.0000000000
13
0.4297540005
23
-0.0247765669
33
0.0000000000
40
0.0000000000
40
0.0000000000
40
0.0000000000
40
0.0000000000
40
1.0000000000
40
1.0000000000
40
1.0000000000
40
1.0000000000
10
-157.9080136770
20
-114.9705810266
30
0.0000000000
10
-157.7779925675
20
-115.0287515575
30
0.0000000000
10
-157.6386338871
20
-115.0695400924
30
0.0000000000
10
-157.4953825537
20
-115.0777989480
30
0.0000000000
11
-157.9080136770
21
-114.9705810266
31
0.0000000000
11
-157.4953825537
21
-115.0777989480
31
0.0000000000
0
SPLINE
5
27B
100
AcDbEntity
8
0
100
AcDbSpline
62
7
6
CONTINUOUS
70
0
71
3
72
8
73
4
74
2
42
0.0000001000
43
0.0000001000
44
0.0000000001
12
0.2911007308
22
-0.0167828030
32
0.0000000000
13
0.2799584122
23
0.0790127773
33
0.0000000000
40
0.0000000000
40
0.0000000000
40
0.0000000000
40
0.0000000000
40
1.0000000000
40
1.0000000000
40
1.0000000000
40
1.0000000000
10
-157.4953825537
20
-115.0777989480
30
0.0000000000
10
-157.3983489767
20
-115.0833932157
30
0.0000000000
10
-157.2995293546
20
-115.0740620649
30
0.0000000000
10
-157.2062098839
20
-115.0477244725
30
0.0000000000
11
-157.4953825537
21
-115.0777989480
31
0.0000000000
11
-157.2062098839
21
-115.0477244725
31
0.0000000000
0
SPLINE
5
27C
100
AcDbEntity
8
0
100
AcDbSpline
62
7
6
CONTINUOUS
70
0
71
3
72
8
73
4
74
2
42
0.0000001000
43
0.0000001000
44
0.0000000001
12
0.1346104629
22
0.0379911661
32
0.0000000000
13
0.1245511137
23
0.0622755569
33
0.0000000000
40
0.0000000000
40
0.0000000000
40
0.0000000000
40
0.0000000000
40
1.0000000000
40
1.0000000000
40
1.0000000000
40
1.0000000000
10
-157.2062098839
20
-115.0477244725
30
0.0000000000
10
-157.1613397296
20
-115.0350607504
30
0.0000000000
10
-157.1177411598
20
-115.0184652952
30
0.0000000000
10
-157.0762241219
20
-114.9977067762
30
0.0000000000
11
-157.2062098839
21
-115.0477244725
31
0.0000000000
11
-157.0762241219
21
-114.9977067762
31
0.0000000000
0
SPLINE
5
27D
100
AcDbEntity
8
0
100
AcDbSpline
62
7
6
CONTINUOUS
70
0
71
3
72
12
73
8
74
6
42
0.0000001000
43
0.0000001000
44
0.0000000001
12
-3.9025217757
22
1.9512608879
32
0.0000000000
13
-3.9025217757
23
-1.9512608879
33
0.0000000000
40
0.0000000000
40
0.0000000000
40
0.0000000000
40
0.0000000000
40
0.1849643881
40
0.3928813151
40
0.6075033009
40
0.8148813365
40
1.0000000000
40
1.0000000000
40
1.0000000000
40
1.0000000000
10
147.8530315502
20
119.4844746217
30
0.0000000000
10
147.6124223662
20
119.6047792138
30
0.0000000000
10
147.0675312199
20
119.7933040433
30
0.0000000000
10
146.1912722091
20
119.9300596435
30
0.0000000000
10
145.2712494735
20
119.9299358794
30
0.0000000000
10
144.3955861025
20
119.7931690497
30
0.0000000000
10
143.8512007349
20
119.6048795576
30
0.0000000000
10
143.6103908631
20
119.4844746217
30
0.0000000000
11
147.8530315502
21
119.4844746217
31
0.0000000000
11
147.0945328677
21
119.7601075615
31
0.0000000000
11
146.1990864082
21
119.9054993373
31
0.0000000000
11
145.2626580739
21
119.9053667743
31
0.0000000000
11
144.3695450239
21
119.7602746337
31
0.0000000000
11
143.6103908631
21
119.4844746217
31
0.0000000000
0
SPLINE
5
27E
100
AcDbEntity
8
0
100
AcDbSpline
62
7
6
CONTINUOUS
70
0
71
3
72
10
73
6
74
4
42
0.0000001000
43
0.0000001000
44
0.0000000001
12
-1.2850494386
22
-0.6425247193
32
0.0000000000
13
0.0002033027
23
-1.4624469166
33
0.0000000000
40
0.0000000000
40
0.0000000000
40
0.0000000000
40
0.0000000000
40
0.4657259200
40
0.8373091395
40
1.0000000000
40
1.0000000000
40
1.0000000000
40
1.0000000000
10
-163.2739521718
20
-33.9576968957
30
0.0000000000
10
-163.4734457825
20
-34.0574437011
30
0.0000000000
10
-163.8156188762
20
-34.2754125927
30
0.0000000000
10
-164.1128174599
20
-34.6786674089
30
0.0000000000
10
-164.1498388489
20
-34.9391125164
30
0.0000000000
10
-164.1498278238
20
-35.0184214321
30
0.0000000000
11
-163.2739521718
21
-33.9576968957
31
0.0000000000
11
-163.8252180514
21
-34.3369462370
31
0.0000000000
11
-164.1160016029
21
-34.7846694668
31
0.0000000000
11
-164.1498278238
21
-35.0184214321
31
0.0000000000
0
SPLINE
5
27F
100
AcDbEntity
8
0
100
AcDbSpline
62
7
6
CONTINUOUS
70
0
71
3
72
10
73
6
74
4
42
0.0000001000
43
0.0000001000
44
0.0000000001
12
-0.6550251189
22
-0.3275125595
32
0.0000000000
13
-0.0000000000
23
-0.7323403464
33
0.0000000000
40
0.0000000000
40
0.0000000000
40
0.0000000000
40
0.0000000000
40
0.3153195724
40
0.6663864895
40
1.0000000000
40
1.0000000000
40
1.0000000000
40
1.0000000000
10
156.3383129245
20
117.0096008876
30
0.0000000000
10
156.2694655110
20
116.9751771809
30
0.0000000000
10
156.1440716139
20
116.8628921095
30
0.0000000000
10
156.0218164207
20
116.6487621633
30
0.0000000000
10
155.9847595339
20
116.4812510350
30
0.0000000000
10
155.9847595339
20
116.3998114904
30
0.0000000000
11
156.3383129245
21
117.0096008876
31
0.0000000000
11
156.1606328226
21
116.8621071497
31
0.0000000000
11
156.0319470124
21
116.6395299434
31
0.0000000000
11
155.9847595339
21
116.3998114904
31
0.0000000000
0
SPLINE
5
280
100
AcDbEntity
8
0
100
AcDbSpline
62
7
6
CONTINUOUS
70
0
71
3
72
15
73
11
74
9
42
0.0000001000
43
0.0000001000
44
0.0000000001
12
6.6001985956
22
-3.2873864677
32
0.0000000000
13
-6.5610124507
23
-3.2805062254
33
0.0000000000
40
0.0000000000
40
0.0000000000
40
0.0000000000
40
0.0000000000
40
0.0038290851
40
0.1082141413
40
0.2298219586
40
0.3733289413
40
0.5333196397
40
0.6990179146
40
0.8580812375
40
1.0000000000
40
1.0000000000
40
1.0000000000
40
1.0000000000
10
166.2125127431
20
119.1845387827
30
0.0000000000
10
166.2209369837
20
119.1803428886
30
0.0000000000
10
166.4576262083
20
119.0590369945
30
0.0000000000
10
166.8731330195
20
118.6369047215
30
0.0000000000
10
167.1436295638
20
117.7509946979
30
0.0000000000
10
167.1232800095
20
116.6996341408
30
0.0000000000
10
166.8243996804
20
115.5820756586
30
0.0000000000
10
166.2817602951
20
114.5183803761
30
0.0000000000
10
165.5567778384
20
113.6265050567
30
0.0000000000
10
164.9571945261
20
113.1784028928
30
0.0000000000
10
164.6468176034
20
113.0232144315
30
0.0000000000
11
166.2125127431
21
119.1845387827
31
0.0000000000
11
166.2376357753
21
119.1716612492
31
0.0000000000
11
166.7901211284
21
118.6414995638
31
0.0000000000
11
167.0840924446
21
117.7992838314
31
0.0000000000
11
167.0840924446
21
116.7465976992
31
0.0000000000
11
166.7901211284
21
115.6104106506
31
0.0000000000
11
166.2376357753
21
114.5277636121
31
0.0000000000
11
165.4932742727
21
113.6292397946
31
0.0000000000
11
164.6468176034
21
113.0232144315
31
0.0000000000
0
SPLINE
5
281
100
AcDbEntity
8
0
100
AcDbSpline
62
7
6
CONTINUOUS
70
0
71
3
72
9
73
5
74
3
42
0.0000001000
43
0.0000001000
44
0.0000000001
12
0.0000000000
22
-0.3100988845
32
0.0000000000
13
0.2801103567
23
-0.1474325856
33
0.0000000000
40
0.0000000000
40
0.0000000000
40
0.0000000000
40
0.0000000000
40
0.6433461140
40
1.0000000000
40
1.0000000000
40
1.0000000000
40
1.0000000000
10
155.9847595339
20
41.0556013612
30
0.0000000000
10
155.9847595339
20
40.9891010571
30
0.0000000000
10
156.0008717576
20
40.8792334699
30
0.0000000000
10
156.0826023455
20
40.8036706584
30
0.0000000000
10
156.1159031612
20
40.7861431902
30
0.0000000000
11
155.9847595339
21
41.0556013612
31
0.0000000000
11
156.0326500687
21
40.8619338350
31
0.0000000000
11
156.1159031612
21
40.7861431902
31
0.0000000000
0
SPLINE
5
282
100
AcDbEntity
8
0
100
AcDbSpline
62
7
6
CONTINUOUS
70
0
71
3
72
9
73
5
74
3
42
0.0000001000
43
0.0000001000
44
0.0000000001
12
0.1593678324
22
-0.0847509319
32
0.0000000000
13
0.0001497824
23
-0.1806030365
33
0.0000000000
40
0.0000000000
40
0.0000000000
40
0.0000000000
40
0.0000000000
40
0.4769284621
40
1.0000000000
40
1.0000000000
40
1.0000000000
40
1.0000000000
10
-156.6625282650
20
-114.0463581911
30
0.0000000000
10
-156.6371925799
20
-114.0598315683
30
0.0000000000
10
-156.5912090851
20
-114.1030439870
30
0.0000000000
10
-156.5800085363
20
-114.1631721772
30
0.0000000000
10
-156.5799824207
20
-114.1946616133
30
0.0000000000
11
-156.6625282650
21
-114.0463581911
31
0.0000000000
11
-156.6012426603
21
-114.1048977073
31
0.0000000000
11
-156.5799824207
21
-114.1946616133
31
0.0000000000
0
SPLINE
5
283
100
AcDbEntity
8
0
100
AcDbSpline
62
7
6
CONTINUOUS
70
0
71
3
72
8
73
4
74
2
42
0.0000001000
43
0.0000001000
44
0.0000000001
12
0.0000449945
22
-0.0542530116
32
0.0000000000
13
-0.0094036507
23
-0.0517200800
33
0.0000000000
40
0.0000000000
40
0.0000000000
40
0.0000000000
40
0.0000000000
40
1.0000000000
40
1.0000000000
40
1.0000000000
40
1.0000000000
10
-156.5799824207
20
-114.1946616133
30
0.0000000000
10
-156.5799674225
20
-114.2127459504
30
0.0000000000
10
-156.5818761165
20
-114.2308428508
30
0.0000000000
10
-156.5850106668
20
-114.2480828774
30
0.0000000000
11
-156.5799824207
21
-114.1946616133
31
0.0000000000
11
-156.5850106668
21
-114.2480828774
31
0.0000000000
0
SPLINE
5
284
100
AcDbEntity
8
0
100
AcDbSpline
62
7
6
CONTINUOUS
70
0
71
3
72
8
73
4
74
2
42
0.0000001000
43
0.0000001000
44
0.0000000001
12
0.1800004932
22
0.0900002466
32
0.0000000000
13
0.1511910005
23
0.1350454636
33
0.0000000000
40
0.0000000000
40
0.0000000000
40
0.0000000000
40
0.0000000000
40
1.0000000000
40
1.0000000000
40
1.0000000000
40
1.0000000000
10
-157.0762241219
20
-114.9977067762
30
0.0000000000
10
-157.0162239575
20
-114.9677066940
30
0.0000000000
10
-156.9605712494
20
-114.9290116993
30
0.0000000000
10
-156.9101742492
20
-114.8839965448
30
0.0000000000
11
-157.0762241219
21
-114.9977067762
31
0.0000000000
11
-156.9101742492
21
-114.8839965448
31
0.0000000000
0
SPLINE
5
285
100
AcDbEntity
8
0
100
AcDbSpline
62
7
6
CONTINUOUS
70
0
71
3
72
9
73
5
74
3
42
0.0000001000
43
0.0000001000
44
0.0000000001
12
0.4099269662
22
0.3661512725
32
0.0000000000
13
0.1610001509
23
0.5226790986
33
0.0000000000
40
0.0000000000
40
0.0000000000
40
0.0000000000
40
0.0000000000
40
0.4171553165
40
1.0000000000
40
1.0000000000
40
1.0000000000
40
1.0000000000
10
-156.9101742492
20
-114.8839965448
30
0.0000000000
10
-156.8531731781
20
-114.8330825615
30
0.0000000000
10
-156.7326480750
20
-114.6916506571
30
0.0000000000
10
-156.6583107030
20
-114.5235027177
30
0.0000000000
10
-156.6270313424
20
-114.4219558064
30
0.0000000000
11
-156.9101742492
21
-114.8839965448
31
0.0000000000
11
-156.7606553254
21
-114.7104353339
31
0.0000000000
11
-156.6270313424
21
-114.4219558064
31
0.0000000000
0
SPLINE
5
286
100
AcDbEntity
8
0
100
AcDbSpline
62
7
6
CONTINUOUS
70
0
71
3
72
8
73
4
74
2
42
0.0000001000
43
0.0000001000
44
0.0000000001
12
0.0528244210
22
0.1714918936
32
0.0000000000
13
0.0318667202
23
0.1752669613
33
0.0000000000
40
0.0000000000
40
0.0000000000
40
0.0000000000
40
0.0000000000
40
1.0000000000
40
1.0000000000
40
1.0000000000
40
1.0000000000
10
-156.6270313424
20
-114.4219558064
30
0.0000000000
10
-156.6094232020
20
-114.3647918419
30
0.0000000000
10
-156.5956329070
20
-114.3065051992
30
0.0000000000
10
-156.5850106669
20
-114.2480828788
30
0.0000000000
11
-156.6270313424
21
-114.4219558064
31
0.0000000000
11
-156.5850106669
21
-114.2480828788
31
0.0000000000
0
SPLINE
5
287
100
AcDbEntity
8
0
100
AcDbSpline
62
7
6
CONTINUOUS
70
0
71
3
72
15
73
11
74
9
42
0.0000001000
43
0.0000001000
44
0.0000000001
12
6.6001985956
22
-3.2873864677
32
0.0000000000
13
-6.5610124507
23
-3.2805062254
33
0.0000000000
40
0.0000000000
40
0.0000000000
40
0.0000000000
40
0.0000000000
40
0.0038290851
40
0.1082141413
40
0.2298219586
40
0.3733289413
40
0.5333196397
40
0.6990179146
40
0.8580812375
40
1.0000000000
40
1.0000000000
40
1.0000000000
40
1.0000000000
10
166.2125127431
20
53.1934030143
30
0.0000000000
10
166.2209369837
20
53.1892071202
30
0.0000000000
10
166.4576262083
20
53.0679012261
30
0.0000000000
10
166.8731330195
20
52.6457689532
30
0.0000000000
10
167.1436295638
20
51.7598589295
30
0.0000000000
10
167.1232800095
20
50.7084983724
30
0.0000000000
10
166.8243996804
20
49.5909398903
30
0.0000000000
10
166.2817602951
20
48.5272446077
30
0.0000000000
10
165.5567778384
20
47.6353692883
30
0.0000000000
10
164.9571945261
20
47.1872671244
30
0.0000000000
10
164.6468176034
20
47.0320786631
30
0.0000000000
11
166.2125127431
21
53.1934030143
31
0.0000000000
11
166.2376357753
21
53.1805254809
31
0.0000000000
11
166.7901211284
21
52.6503637954
31
0.0000000000
11
167.0840924446
21
51.8081480630
31
0.0000000000
11
167.0840924446
21
50.7554619308
31
0.0000000000
11
166.7901211284
21
49.6192748822
31
0.0000000000
11
166.2376357753
21
48.5366278437
31
0.0000000000
11
165.4932742727
21
47.6381040263
31
0.0000000000
11
164.6468176034
21
47.0320786631
31
0.0000000000
0
SPLINE
5
288
100
AcDbEntity
8
0
100
AcDbSpline
62
7
6
CONTINUOUS
70
0
71
3
72
10
73
6
74
4
42
0.0000001000
43
0.0000001000
44
0.0000000001
12
0.0901744386
22
-0.5861338507
32
0.0000000000
13
-0.5304219606
23
-0.2652109803
33
0.0000000000
40
0.0000000000
40
0.0000000000
40
0.0000000000
40
0.0000000000
40
0.3422432338
40
0.6892621857
40
1.0000000000
40
1.0000000000
40
1.0000000000
40
1.0000000000
10
-156.5850106669
20
-40.8091286378
30
0.0000000000
10
-156.5747234697
20
-40.8759954193
30
0.0000000000
10
-156.5885709673
20
-41.0170976691
30
0.0000000000
10
-156.6837936012
20
-41.1942664918
30
0.0000000000
10
-156.7843397117
20
-41.2837762692
30
0.0000000000
10
-156.8392804319
20
-41.3112466293
30
0.0000000000
11
-156.5850106669
21
-40.8091286378
31
0.0000000000
11
-156.6012427035
21
-41.0114389367
31
0.0000000000
11
-156.6978010324
21
-41.1931724564
31
0.0000000000
11
-156.8392804319
21
-41.3112466293
31
0.0000000000
0
SPLINE
5
289
100
AcDbEntity
8
0
100
AcDbSpline
62
7
6
CONTINUOUS
70
0
71
3
72
8
73
4
74
2
42
0.0000001000
43
0.0000001000
44
0.0000000001
12
-0.2838170012
22
-0.1419085006
32
0.0000000000
13
-0.3012038049
23
-0.1073861054
33
0.0000000000
40
0.0000000000
40
0.0000000000
40
0.0000000000
40
0.0000000000
40
1.0000000000
40
1.0000000000
40
1.0000000000
40
1.0000000000
10
-166.6327093825
20
-52.6165490615
30
0.0000000000
10
-166.7273150495
20
-52.6638518950
30
0.0000000000
10
-166.8251983937
20
-52.7064405291
30
0.0000000000
10
-166.9255996620
20
-52.7422358976
30
0.0000000000
11
-166.6327093825
21
-52.6165490615
31
0.0000000000
11
-166.9255996620
21
-52.7422358976
31
0.0000000000
0
SPLINE
5
28A
100
AcDbEntity
8
0
100
AcDbSpline
62
7
6
CONTINUOUS
70
0
71
3
72
9
73
5
74
3
42
0.0000001000
43
0.0000001000
44
0.0000000001
12
-1.0209823162
22
-0.3640037505
32
0.0000000000
13
-1.0402391139
23
0.3130438073
33
0.0000000000
40
0.0000000000
40
0.0000000000
40
0.0000000000
40
0.0000000000
40
0.5230786657
40
1.0000000000
40
1.0000000000
40
1.0000000000
40
1.0000000000
10
-166.9255996620
20
-52.7422358976
30
0.0000000000
10
-167.1036176845
20
-52.8057034297
30
0.0000000000
10
-167.4590781285
20
-52.8862097281
30
0.0000000000
10
-167.8279912984
20
-52.8463068272
30
0.0000000000
10
-167.9933620405
20
-52.7965410704
30
0.0000000000
11
-166.9255996620
21
-52.7422358976
31
0.0000000000
11
-167.4791660517
21
-52.8569803676
31
0.0000000000
11
-167.9933620405
21
-52.7965410704
31
0.0000000000
0
SPLINE
5
28B
100
AcDbEntity
8
0
100
AcDbSpline
62
7
6
CONTINUOUS
70
0
71
3
72
8
73
4
74
2
42
0.0000001000
43
0.0000001000
44
0.0000000001
12
-0.2118898980
22
0.0637649743
32
0.0000000000
13
-0.1971330254
23
0.0981868092
33
0.0000000000
40
0.0000000000
40
0.0000000000
40
0.0000000000
40
0.0000000000
40
1.0000000000
40
1.0000000000
40
1.0000000000
40
1.0000000000
10
-167.9933620405
20
-52.7965410704
30
0.0000000000
10
-168.0639920065
20
-52.7752860790
30
0.0000000000
10
-168.1326935137
20
-52.7484245226
30
0.0000000000
10
-168.1984045221
20
-52.7156955862
30
0.0000000000
11
-167.9933620405
21
-52.7965410704
31
0.0000000000
11
-168.1984045221
21
-52.7156955862
31
0.0000000000
0
SPLINE
5
28C
100
AcDbEntity
8
0
100
AcDbSpline
62
7
6
CONTINUOUS
70
0
71
3
72
9
73
5
74
3
42
0.0000001000
43
0.0000001000
44
0.0000000001
12
-0.1651458736
22
-0.0825729376
32
0.0000000000
13
-0.1652809096
23
0.0874347201
33
0.0000000000
40
0.0000000000
40
0.0000000000
40
0.0000000000
40
0.0000000000
40
0.7826472451
40
1.0000000000
40
1.0000000000
40
1.0000000000
40
1.0000000000
10
154.8533887173
20
114.5350879443
30
0.0000000000
10
154.8103050629
20
114.5135461169
30
0.0000000000
10
154.7431878848
20
114.4966479092
30
0.0000000000
10
154.6852597508
20
114.5190462291
30
0.0000000000
10
154.6732849972
20
114.5253809549
30
0.0000000000
11
154.8533887173
21
114.5350879443
31
0.0000000000
11
154.7108755407
21
114.5111660112
31
0.0000000000
11
154.6732849972
21
114.5253809549
31
0.0000000000
0
SPLINE
5
28D
100
AcDbEntity
8
0
100
AcDbSpline
62
7
6
CONTINUOUS
70
0
71
3
72
10
73
6
74
4
42
0.0000001000
43
0.0000001000
44
0.0000000001
12
0.0001687988
22
-1.2142450742
32
0.0000000000
13
1.0172710694
23
-0.6282692712
33
0.0000000000
40
0.0000000000
40
0.0000000000
40
0.0000000000
40
0.0000000000
40
0.1965572717
40
0.6430013576
40
1.0000000000
40
1.0000000000
40
1.0000000000
40
1.0000000000
10
-164.1498278238
20
-35.0184214321
30
0.0000000000
10
-164.1498167642
20
-35.0979776651
30
0.0000000000
10
-164.1126353201
20
-35.3582354712
30
0.0000000000
10
-163.8659364192
20
-35.6929397492
30
0.0000000000
10
-163.6084003704
20
-35.8859480099
30
0.0000000000
10
-163.4873455735
20
-35.9607117689
30
0.0000000000
11
-164.1498278238
21
-35.0184214321
31
0.0000000000
11
-164.1157364769
21
-35.2528836339
31
0.0000000000
11
-163.8255521957
21
-35.6994401589
31
0.0000000000
11
-163.4873455735
21
-35.9607117689
31
0.0000000000
0
SPLINE
5
28E
100
AcDbEntity
8
0
100
AcDbSpline
62
7
6
CONTINUOUS
70
0
71
3
72
8
73
4
74
2
42
0.0000001000
43
0.0000001000
44
0.0000000001
12
0.2078407359
22
-0.1283629817
32
0.0000000000
13
0.2179917477
23
-0.1089958738
33
0.0000000000
40
0.0000000000
40
0.0000000000
40
0.0000000000
40
0.0000000000
40
1.0000000000
40
1.0000000000
40
1.0000000000
40
1.0000000000
10
-163.4873455735
20
-35.9607117689
30
0.0000000000
10
-163.4180653282
20
-36.0034994295
30
0.0000000000
10
-163.3466160877
20
-36.0426852814
30
0.0000000000
10
-163.2739521718
20
-36.0790172393
30
0.0000000000
11
-163.4873455735
21
-35.9607117689
31
0.0000000000
11
-163.2739521718
21
-36.0790172393
31
0.0000000000
0
SPLINE
5
28F
100
AcDbEntity
8
0
100
AcDbSpline
62
7
6
CONTINUOUS
70
0
71
3
72
8
73
4
74
2
42
0.0000001000
43
0.0000001000
44
0.0000000001
12
-0.2838170012
22
-0.1419085006
32
0.0000000000
13
-0.3012038049
23
-0.1073861054
33
0.0000000000
40
0.0000000000
40
0.0000000000
40
0.0000000000
40
0.0000000000
40
1.0000000000
40
1.0000000000
40
1.0000000000
40
1.0000000000
10
-166.6327093825
20
-118.6076848298
30
0.0000000000
10
-166.7273150495
20
-118.6549876634
30
0.0000000000
10
-166.8251983937
20
-118.6975762975
30
0.0000000000
10
-166.9255996620
20
-118.7333716660
30
0.0000000000
11
-166.6327093825
21
-118.6076848298
31
0.0000000000
11
-166.9255996620
21
-118.7333716660
31
0.0000000000
0
SPLINE
5
290
100
AcDbEntity
8
0
100
AcDbSpline
62
7
6
CONTINUOUS
70
0
71
3
72
9
73
5
74
3
42
0.0000001000
43
0.0000001000
44
0.0000000001
12
-1.0209823162
22
-0.3640037505
32
0.0000000000
13
-1.0402391139
23
0.3130438073
33
0.0000000000
40
0.0000000000
40
0.0000000000
40
0.0000000000
40
0.0000000000
40
0.5230786657
40
1.0000000000
40
1.0000000000
40
1.0000000000
40
1.0000000000
10
-166.9255996620
20
-118.7333716660
30
0.0000000000
10
-167.1036176845
20
-118.7968391980
30
0.0000000000
10
-167.4590781285
20
-118.8773454965
30
0.0000000000
10
-167.8279912984
20
-118.8374425956
30
0.0000000000
10
-167.9933620405
20
-118.7876768388
30
0.0000000000
11
-166.9255996620
21
-118.7333716660
31
0.0000000000
11
-167.4791660517
21
-118.8481161359
31
0.0000000000
11
-167.9933620405
21
-118.7876768388
31
0.0000000000
0
SPLINE
5
291
100
AcDbEntity
8
0
100
AcDbSpline
62
7
6
CONTINUOUS
70
0
71
3
72
8
73
4
74
2
42
0.0000001000
43
0.0000001000
44
0.0000000001
12
-0.2118898980
22
0.0637649743
32
0.0000000000
13
-0.1971330254
23
0.0981868092
33
0.0000000000
40
0.0000000000
40
0.0000000000
40
0.0000000000
40
0.0000000000
40
1.0000000000
40
1.0000000000
40
1.0000000000
40
1.0000000000
10
-167.9933620405
20
-118.7876768388
30
0.0000000000
10
-168.0639920065
20
-118.7664218474
30
0.0000000000
10
-168.1326935137
20
-118.7395602910
30
0.0000000000
10
-168.1984045221
20
-118.7068313546
30
0.0000000000
11
-167.9933620405
21
-118.7876768388
31
0.0000000000
11
-168.1984045221
21
-118.7068313546
31
0.0000000000
0
SPLINE
5
292
100
AcDbEntity
8
0
100
AcDbSpline
62
7
6
CONTINUOUS
70
0
71
3
72
9
73
5
74
3
42
0.0000001000
43
0.0000001000
44
0.0000000001
12
-0.3286990625
22
-0.1643495313
32
0.0000000000
13
-0.3342579566
23
0.1630323862
33
0.0000000000
40
0.0000000000
40
0.0000000000
40
0.0000000000
40
0.0000000000
40
0.6061991326
40
1.0000000000
40
1.0000000000
40
1.0000000000
40
1.0000000000
10
-157.4049658880
20
-41.5940893262
30
0.0000000000
10
-157.4713849168
20
-41.6272988406
30
0.0000000000
10
-157.5935351497
20
-41.6661607082
30
0.0000000000
10
-157.7190511131
20
-41.6374821718
30
0.0000000000
10
-157.7629281375
20
-41.6160814067
30
0.0000000000
11
-157.4049658880
21
-41.5940893262
31
0.0000000000
11
-157.6207164771
21
-41.6495953302
31
0.0000000000
11
-157.7629281375
21
-41.6160814067
31
0.0000000000
0
SPLINE
5
293
100
AcDbEntity
8
0
100
AcDbSpline
62
7
6
CONTINUOUS
70
0
71
3
72
11
73
7
74
5
42
0.0000001000
43
0.0000001000
44
0.0000000001
12
0.0000000000
22
-1.1745825309
32
0.0000000000
13
-1.0505785537
23
-0.5252892768
33
0.0000000000
40
0.0000000000
40
0.0000000000
40
0.0000000000
40
0.0000000000
40
0.2458763493
40
0.5132100427
40
0.7724571074
40
1.0000000000
40
1.0000000000
40
1.0000000000
40
1.0000000000
10
155.9847595339
20
115.7935937077
30
0.0000000000
10
155.9847595339
20
115.6973263529
30
0.0000000000
10
155.9514391307
20
115.4960517527
30
0.0000000000
10
155.8302560548
20
115.2161043167
30
0.0000000000
10
155.6521545676
20
114.9773579970
30
0.0000000000
10
155.4987580033
20
114.8577726194
30
0.0000000000
10
155.4190741089
20
114.8179306722
30
0.0000000000
11
155.9847595339
21
115.7935937077
31
0.0000000000
11
155.9420001872
21
115.5079746069
31
0.0000000000
11
155.8182262033
21
115.2193928225
31
0.0000000000
11
155.6337669086
21
114.9771133839
31
0.0000000000
11
155.4190741089
21
114.8179306722
31
0.0000000000
0
SPLINE
5
294
100
AcDbEntity
8
0
100
AcDbSpline
62
7
6
CONTINUOUS
70
0
71
3
72
9
73
5
74
3
42
0.0000001000
43
0.0000001000
44
0.0000000001
12
-0.2056501249
22
0.1082413731
32
0.0000000000
13
-0.2036315225
23
-0.1018157613
33
0.0000000000
40
0.0000000000
40
0.0000000000
40
0.0000000000
40
0.0000000000
40
0.2134508267
40
1.0000000000
40
1.0000000000
40
1.0000000000
40
1.0000000000
10
-158.1017949403
20
-40.3084357621
30
0.0000000000
10
-158.1164270033
20
-40.3007343586
30
0.0000000000
10
-158.1887318378
20
-40.2731762745
30
0.0000000000
10
-158.2708159683
20
-40.2949635588
30
0.0000000000
10
-158.3242047035
20
-40.3216579264
30
0.0000000000
11
-158.1017949403
21
-40.3084357621
31
0.0000000000
11
-158.1477396137
21
-40.2912180038
31
0.0000000000
11
-158.3242047035
21
-40.3216579264
31
0.0000000000
0
SPLINE
5
295
100
AcDbEntity
8
0
100
AcDbSpline
62
7
6
CONTINUOUS
70
0
71
3
72
8
73
4
74
2
42
0.0000001000
43
0.0000001000
44
0.0000000001
12
-0.2838170012
22
-0.1419085006
32
0.0000000000
13
-0.3012038049
23
-0.1073861054
33
0.0000000000
40
0.0000000000
40
0.0000000000
40
0.0000000000
40
0.0000000000
40
1.0000000000
40
1.0000000000
40
1.0000000000
40
1.0000000000
10
162.1719438693
20
111.7857775644
30
0.0000000000
10
162.0773382022
20
111.7384747309
30
0.0000000000
10
161.9794548581
20
111.6958860967
30
0.0000000000
10
161.8790535898
20
111.6600907283
30
0.0000000000
11
162.1719438693
21
111.7857775644
31
0.0000000000
11
161.8790535898
21
111.6600907283
31
0.0000000000
0
SPLINE
5
296
100
AcDbEntity
8
0
100
AcDbSpline
62
7
6
CONTINUOUS
70
0
71
3
72
9
73
5
74
3
42
0.0000001000
43
0.0000001000
44
0.0000000001
12
-1.0209823162
22
-0.3640037505
32
0.0000000000
13
-1.0402391139
23
0.3130438073
33
0.0000000000
40
0.0000000000
40
0.0000000000
40
0.0000000000
40
0.0000000000
40
0.5230786657
40
1.0000000000
40
1.0000000000
40
1.0000000000
40
1.0000000000
10
161.8790535898
20
111.6600907283
30
0.0000000000
10
161.7010355672
20
111.5966231962
30
0.0000000000
10
161.3455751232
20
111.5161168978
30
0.0000000000
10
160.9766619533
20
111.5560197987
30
0.0000000000
10
160.8112912112
20
111.6057855554
30
0.0000000000
11
161.8790535898
21
111.6600907283
31
0.0000000000
11
161.3254872000
21
111.5453462583
31
0.0000000000
11
160.8112912112
21
111.6057855554
31
0.0000000000
0
SPLINE
5
297
100
AcDbEntity
8
0
100
AcDbSpline
62
7
6
CONTINUOUS
70
0
71
3
72
8
73
4
74
2
42
0.0000001000
43
0.0000001000
44
0.0000000001
12
-0.2118898980
22
0.0637649743
32
0.0000000000
13
-0.1971330254
23
0.0981868092
33
0.0000000000
40
0.0000000000
40
0.0000000000
40
0.0000000000
40
0.0000000000
40
1.0000000000
40
1.0000000000
40
1.0000000000
40
1.0000000000
10
160.8112912112
20
111.6057855554
30
0.0000000000
10
160.7406612453
20
111.6270405469
30
0.0000000000
10
160.6719597381
20
111.6539021033
30
0.0000000000
10
160.6062487296
20
111.6866310397
30
0.0000000000
11
160.8112912112
21
111.6057855554
31
0.0000000000
11
160.6062487296
21
111.6866310397
31
0.0000000000
0
SPLINE
5
298
100
AcDbEntity
8
0
100
AcDbSpline
62
7
6
CONTINUOUS
70
0
71
3
72
15
73
11
74
9
42
0.0000001000
43
0.0000001000
44
0.0000000001
12
6.6001985956
22
-3.2873864677
32
0.0000000000
13
-6.5610124507
23
-3.2805062254
33
0.0000000000
40
0.0000000000
40
0.0000000000
40
0.0000000000
40
0.0000000000
40
0.0038290851
40
0.1082141413
40
0.2298219586
40
0.3733289413
40
0.5333196397
40
0.6990179146
40
0.8580812375
40
1.0000000000
40
1.0000000000
40
1.0000000000
40
1.0000000000
10
-162.5921405086
20
-45.2177878432
30
0.0000000000
10
-162.5837162680
20
-45.2219837373
30
0.0000000000
10
-162.3470270435
20
-45.3432896314
30
0.0000000000
10
-161.9315202323
20
-45.7654219043
30
0.0000000000
10
-161.6610236879
20
-46.6513319280
30
0.0000000000
10
-161.6813732422
20
-47.7026924851
30
0.0000000000
10
-161.9802535714
20
-48.8202509672
30
0.0000000000
10
-162.5228929566
20
-49.8839462498
30
0.0000000000
10
-163.2478754134
20
-50.7758215692
30
0.0000000000
10
-163.8474587257
20
-51.2239237331
30
0.0000000000
10
-164.1578356483
20
-51.3791121944
30
0.0000000000
11
-162.5921405086
21
-45.2177878432
31
0.0000000000
11
-162.5670174765
21
-45.2306653766
31
0.0000000000
11
-162.0145321234
21
-45.7608270621
31
0.0000000000
11
-161.7205608072
21
-46.6030427945
31
0.0000000000
11
-161.7205608072
21
-47.6557289267
31
0.0000000000
11
-162.0145321234
21
-48.7919159753
31
0.0000000000
11
-162.5670174765
21
-49.8745630138
31
0.0000000000
11
-163.3113789790
21
-50.7730868312
31
0.0000000000
11
-164.1578356483
21
-51.3791121944
31
0.0000000000
0
SPLINE
5
299
100
AcDbEntity
8
0
100
AcDbSpline
62
7
6
CONTINUOUS
70
0
71
3
72
10
73
6
74
4
42
0.0000001000
43
0.0000001000
44
0.0000000001
12
-1.3664401782
22
0.6912524304
32
0.0000000000
13
-1.4325006441
23
-0.5317881739
33
0.0000000000
40
0.0000000000
40
0.0000000000
40
0.0000000000
40
0.0000000000
40
0.0895499258
40
0.6142960774
40
1.0000000000
40
1.0000000000
40
1.0000000000
40
1.0000000000
10
168.3790460371
20
122.2496660630
30
0.0000000000
10
168.3382578315
20
122.2702999309
30
0.0000000000
10
168.0522833967
20
122.3988098684
30
0.0000000000
10
167.5272968750
20
122.4498214745
30
0.0000000000
10
167.0745450511
20
122.3349201255
30
0.0000000000
10
166.8903713453
20
122.2665491972
30
0.0000000000
11
168.3790460371
21
122.2496660630
31
0.0000000000
11
168.2541049964
21
122.3057023685
31
0.0000000000
11
167.4626801336
21
122.4033171269
31
0.0000000000
11
166.8903713453
21
122.2665491972
31
0.0000000000
0
SPLINE
5
29A
100
AcDbEntity
8
0
100
AcDbSpline
62
7
6
CONTINUOUS
70
0
71
3
72
8
73
4
74
2
42
0.0000001000
43
0.0000001000
44
0.0000000001
12
-0.3065887675
22
-0.1138151536
32
0.0000000000
13
-0.2909011212
23
-0.1454505606
33
0.0000000000
40
0.0000000000
40
0.0000000000
40
0.0000000000
40
0.0000000000
40
1.0000000000
40
1.0000000000
40
1.0000000000
40
1.0000000000
10
166.8903713453
20
122.2665491972
30
0.0000000000
10
166.7881750894
20
122.2286108127
30
0.0000000000
10
166.6883282921
20
122.1846085714
30
0.0000000000
10
166.5913612517
20
122.1361250512
30
0.0000000000
11
166.8903713453
21
122.2665491972
31
0.0000000000
11
166.5913612517
21
122.1361250512
31
0.0000000000
0
SPLINE
5
29B
100
AcDbEntity
8
0
100
AcDbSpline
62
7
6
CONTINUOUS
70
0
71
3
72
8
73
4
74
2
42
0.0000001000
43
0.0000001000
44
0.0000000001
12
0.3433150516
22
-0.1716575258
32
0.0000000000
13
0.3030221746
23
-0.2388866638
33
0.0000000000
40
0.0000000000
40
0.0000000000
40
0.0000000000
40
0.0000000000
40
1.0000000000
40
1.0000000000
40
1.0000000000
40
1.0000000000
10
-157.9706513129
20
-38.7306676688
30
0.0000000000
10
-157.8562129624
20
-38.7878868440
30
0.0000000000
10
-157.7483556205
20
-38.8584629312
30
0.0000000000
10
-157.6473482290
20
-38.9380918192
30
0.0000000000
11
-157.9706513129
21
-38.7306676688
31
0.0000000000
11
-157.6473482290
21
-38.9380918192
31
0.0000000000
0
SPLINE
5
29C
100
AcDbEntity
8
0
100
AcDbSpline
62
7
6
CONTINUOUS
70
0
71
3
72
11
73
7
74
5
42
0.0000001000
43
0.0000001000
44
0.0000000001
12
1.7317711812
22
-1.3652368530
32
0.0000000000
13
0.3335576400
23
-2.1681246597
33
0.0000000000
40
0.0000000000
40
0.0000000000
40
0.0000000000
40
0.0000000000
40
0.0909815919
40
0.3881498312
40
0.6983389479
40
1.0000000000
40
1.0000000000
40
1.0000000000
40
1.0000000000
10
-157.6473482290
20
-38.9380918192
30
0.0000000000
10
-157.5948284627
20
-38.9794956266
30
0.0000000000
10
-157.3786670591
20
-39.1665760695
30
0.0000000000
10
-157.0516423843
20
-39.5634942289
30
0.0000000000
10
-156.7415201806
20
-40.1564166667
30
0.0000000000
10
-156.6185511164
20
-40.5911157158
30
0.0000000000
10
-156.5850106669
20
-40.8091286378
30
0.0000000000
11
-157.6473482290
21
-38.9380918192
31
0.0000000000
11
-157.4953825537
21
-39.0690406818
31
0.0000000000
11
-157.0762241219
21
-39.5682912853
31
0.0000000000
11
-156.7606553254
21
-40.1711315241
31
0.0000000000
11
-156.5850106669
21
-40.8091286378
31
0.0000000000
0
SPLINE
5
29D
100
AcDbEntity
8
0
100
AcDbSpline
62
7
6
CONTINUOUS
70
0
71
3
72
8
73
4
74
2
42
0.0000001000
43
0.0000001000
44
0.0000000001
12
-0.2838170012
22
-0.1419085006
32
0.0000000000
13
-0.3012038049
23
-0.1073861054
33
0.0000000000
40
0.0000000000
40
0.0000000000
40
0.0000000000
40
0.0000000000
40
1.0000000000
40
1.0000000000
40
1.0000000000
40
1.0000000000
10
162.1719438693
20
45.7946417960
30
0.0000000000
10
162.0773382022
20
45.7473389625
30
0.0000000000
10
161.9794548581
20
45.7047503284
30
0.0000000000
10
161.8790535898
20
45.6689549599
30
0.0000000000
11
162.1719438693
21
45.7946417960
31
0.0000000000
11
161.8790535898
21
45.6689549599
31
0.0000000000
0
SPLINE
5
29E
100
AcDbEntity
8
0
100
AcDbSpline
62
7
6
CONTINUOUS
70
0
71
3
72
9
73
5
74
3
42
0.0000001000
43
0.0000001000
44
0.0000000001
12
-1.0209823162
22
-0.3640037505
32
0.0000000000
13
-1.0402391139
23
0.3130438073
33
0.0000000000
40
0.0000000000
40
0.0000000000
40
0.0000000000
40
0.0000000000
40
0.5230786657
40
1.0000000000
40
1.0000000000
40
1.0000000000
40
1.0000000000
10
161.8790535898
20
45.6689549599
30
0.0000000000
10
161.7010355672
20
45.6054874278
30
0.0000000000
10
161.3455751232
20
45.5249811294
30
0.0000000000
10
160.9766619533
20
45.5648840303
30
0.0000000000
10
160.8112912112
20
45.6146497871
30
0.0000000000
11
161.8790535898
21
45.6689549599
31
0.0000000000
11
161.3254872000
21
45.5542104899
31
0.0000000000
11
160.8112912112
21
45.6146497871
31
0.0000000000
0
SPLINE
5
29F
100
AcDbEntity
8
0
100
AcDbSpline
62
7
6
CONTINUOUS
70
0
71
3
72
8
73
4
74
2
42
0.0000001000
43
0.0000001000
44
0.0000000001
12
-0.2118898980
22
0.0637649743
32
0.0000000000
13
-0.1971330254
23
0.0981868092
33
0.0000000000
40
0.0000000000
40
0.0000000000
40
0.0000000000
40
0.0000000000
40
1.0000000000
40
1.0000000000
40
1.0000000000
40
1.0000000000
10
160.8112912112
20
45.6146497871
30
0.0000000000
10
160.7406612453
20
45.6359047785
30
0.0000000000
10
160.6719597381
20
45.6627663349
30
0.0000000000
10
160.6062487296
20
45.6954952713
30
0.0000000000
11
160.8112912112
21
45.6146497871
31
0.0000000000
11
160.6062487296
21
45.6954952713
31
0.0000000000
0
SPLINE
5
2A0
100
AcDbEntity
8
0
100
AcDbSpline
62
7
6
CONTINUOUS
70
0
71
3
72
8
73
4
74
2
42
0.0000001000
43
0.0000001000
44
0.0000000001
12
0.0000000000
22
-0.6922020267
32
0.0000000000
13
0.1303723171
23
-0.6827985105
33
0.0000000000
40
0.0000000000
40
0.0000000000
40
0.0000000000
40
0.0000000000
40
1.0000000000
40
1.0000000000
40
1.0000000000
40
1.0000000000
10
-171.4056801555
20
-119.6085295703
30
0.0000000000
10
-171.4056801555
20
-119.8392635792
30
0.0000000000
10
-171.3873007098
20
-120.0712715934
30
0.0000000000
10
-171.3438432708
20
-120.2988710970
30
0.0000000000
11
-171.4056801555
21
-119.6085295703
31
0.0000000000
11
-171.3438432708
21
-120.2988710970
31
0.0000000000
0
SPLINE
5
2A1
100
AcDbEntity
8
0
100
AcDbSpline
62
7
6
CONTINUOUS
70
0
71
3
72
10
73
6
74
4
42
0.0000001000
43
0.0000001000
44
0.0000000001
12
0.3425856307
22
-1.7942226049
32
0.0000000000
13
1.6355667034
23
-0.8273976987
33
0.0000000000
40
0.0000000000
40
0.0000000000
40
0.0000000000
40
0.0000000000
40
0.1730244009
40
0.6508851257
40
1.0000000000
40
1.0000000000
40
1.0000000000
40
1.0000000000
10
-171.3438432708
20
-120.2988710970
30
0.0000000000
10
-171.3240847130
20
-120.4023525274
30
0.0000000000
10
-171.2302550703
20
-120.7882018901
30
0.0000000000
10
-170.9596993918
20
-121.3495835228
30
0.0000000000
10
-170.5552713708
20
-121.6756730203
30
0.0000000000
10
-170.3649378161
20
-121.7719586348
30
0.0000000000
11
-171.3438432708
21
-120.2988710970
31
0.0000000000
11
-171.2683856541
21
-120.6060473185
31
0.0000000000
11
-170.8645356035
21
-121.3757275582
31
0.0000000000
11
-170.3649378161
21
-121.7719586348
31
0.0000000000
0
SPLINE
5
2A2
100
AcDbEntity
8
0
100
AcDbSpline
62
7
6
CONTINUOUS
70
0
71
3
72
8
73
4
74
2
42
0.0000001000
43
0.0000001000
44
0.0000000001
12
-0.3069459760
22
-0.1534729880
32
0.0000000000
13
-0.2909896950
23
-0.1832540660
33
0.0000000000
40
0.0000000000
40
0.0000000000
40
0.0000000000
40
0.0000000000
40
1.0000000000
40
1.0000000000
40
1.0000000000
40
1.0000000000
10
-168.5772530307
20
-45.4481820900
30
0.0000000000
10
-168.6795683561
20
-45.4993397527
30
0.0000000000
10
-168.7792526622
20
-45.5558622541
30
0.0000000000
10
-168.8762492272
20
-45.6169469428
30
0.0000000000
11
-168.5772530307
21
-45.4481820900
31
0.0000000000
11
-168.8762492272
21
-45.6169469428
31
0.0000000000
0
SPLINE
5
2A3
100
AcDbEntity
8
0
100
AcDbSpline
62
7
6
CONTINUOUS
70
0
71
3
72
8
73
4
74
2
42
0.0000001000
43
0.0000001000
44
0.0000000001
12
-0.6071411728
22
-0.3823540505
32
0.0000000000
13
-0.5353913733
23
-0.4796471933
33
0.0000000000
40
0.0000000000
40
0.0000000000
40
0.0000000000
40
0.0000000000
40
1.0000000000
40
1.0000000000
40
1.0000000000
40
1.0000000000
10
-168.8762492272
20
-45.6169469428
30
0.0000000000
10
-169.0786296182
20
-45.7443982929
30
0.0000000000
10
-169.2693093160
20
-45.8917104668
30
0.0000000000
10
-169.4477731071
20
-46.0515928646
30
0.0000000000
11
-168.8762492272
21
-45.6169469428
31
0.0000000000
11
-169.4477731071
21
-46.0515928646
31
0.0000000000
0
SPLINE
5
2A4
100
AcDbEntity
8
0
100
AcDbSpline
62
7
6
CONTINUOUS
70
0
71
3
72
11
73
7
74
5
42
0.0000001000
43
0.0000001000
44
0.0000000001
12
-3.6042709874
22
-3.2289994747
32
0.0000000000
13
-0.0000000000
23
-4.8203113793
33
0.0000000000
40
0.0000000000
40
0.0000000000
40
0.0000000000
40
0.0000000000
40
0.2475340982
40
0.5057851837
40
0.7626257172
40
1.0000000000
40
1.0000000000
40
1.0000000000
40
1.0000000000
10
-169.4477731071
20
-46.0515928646
30
0.0000000000
10
-169.7451664299
20
-46.3180220223
30
0.0000000000
10
-170.2835150346
20
-46.9337394834
30
0.0000000000
10
-170.8999476138
20
-48.0016803988
30
0.0000000000
10
-171.3003458367
20
-49.1497041703
30
0.0000000000
10
-171.4056801555
20
-49.9450912821
30
0.0000000000
10
-171.4056801555
20
-50.3264972675
30
0.0000000000
11
-169.4477731071
21
-46.0515928646
31
0.0000000000
11
-170.2410854839
21
-46.9428623313
31
0.0000000000
11
-170.8653271640
21
-48.0198838981
31
0.0000000000
11
-171.2681271277
21
-49.1905774217
31
0.0000000000
11
-171.4056801555
21
-50.3264972675
31
0.0000000000
0
SPLINE
5
2A5
100
AcDbEntity
8
0
100
AcDbSpline
62
7
6
CONTINUOUS
70
0
71
3
72
10
73
6
74
4
42
0.0000001000
43
0.0000001000
44
0.0000000001
12
0.4550127288
22
-0.2219298284
32
0.0000000000
13
0.0000000000
23
-0.5002594072
33
0.0000000000
40
0.0000000000
40
0.0000000000
40
0.0000000000
40
0.0000000000
40
0.0990768225
40
0.5093379350
40
1.0000000000
40
1.0000000000
40
1.0000000000
40
1.0000000000
10
155.7770363585
20
42.0937888349
30
0.0000000000
10
155.7920634303
20
42.0864594674
30
0.0000000000
10
155.8659678310
20
42.0426858990
30
0.0000000000
10
155.9646226030
20
41.8959960921
30
0.0000000000
10
155.9847595339
20
41.7436385817
30
0.0000000000
10
155.9847595339
20
41.6618191438
30
0.0000000000
11
155.7770363585
21
42.0937888349
31
0.0000000000
11
155.8199202210
21
42.0682589679
31
0.0000000000
11
155.9424353625
21
41.9036009634
31
0.0000000000
11
155.9847595339
21
41.6618191438
31
0.0000000000
0
SPLINE
5
2A6
100
AcDbEntity
8
0
100
AcDbSpline
62
7
6
CONTINUOUS
70
0
71
3
72
15
73
11
74
9
42
0.0000001000
43
0.0000001000
44
0.0000000001
12
6.6001985956
22
-3.2873864677
32
0.0000000000
13
-6.5610124507
23
-3.2805062254
33
0.0000000000
40
0.0000000000
40
0.0000000000
40
0.0000000000
40
0.0000000000
40
0.0038290851
40
0.1082141413
40
0.2298219586
40
0.3733289413
40
0.5333196397
40
0.6990179146
40
0.8580812375
40
1.0000000000
40
1.0000000000
40
1.0000000000
40
1.0000000000
10
-162.5921405086
20
-111.2089236115
30
0.0000000000
10
-162.5837162680
20
-111.2131195057
30
0.0000000000
10
-162.3470270435
20
-111.3344253997
30
0.0000000000
10
-161.9315202323
20
-111.7565576727
30
0.0000000000
10
-161.6610236879
20
-112.6424676963
30
0.0000000000
10
-161.6813732422
20
-113.6938282535
30
0.0000000000
10
-161.9802535714
20
-114.8113867356
30
0.0000000000
10
-162.5228929566
20
-115.8750820181
30
0.0000000000
10
-163.2478754134
20
-116.7669573376
30
0.0000000000
10
-163.8474587257
20
-117.2150595014
30
0.0000000000
10
-164.1578356483
20
-117.3702479628
30
0.0000000000
11
-162.5921405086
21
-111.2089236115
31
0.0000000000
11
-162.5670174765
21
-111.2218011450
31
0.0000000000
11
-162.0145321234
21
-111.7519628304
31
0.0000000000
11
-161.7205608072
21
-112.5941785628
31
0.0000000000
11
-161.7205608072
21
-113.6468646951
31
0.0000000000
11
-162.0145321234
21
-114.7830517437
31
0.0000000000
11
-162.5670174765
21
-115.8656987822
31
0.0000000000
11
-163.3113789790
21
-116.7642225996
31
0.0000000000
11
-164.1578356483
21
-117.3702479628
31
0.0000000000
0
SPLINE
5
2A7
100
AcDbEntity
8
0
100
AcDbSpline
62
7
6
CONTINUOUS
70
0
71
3
72
8
73
4
74
2
42
0.0000001000
43
0.0000001000
44
0.0000000001
12
-0.7870431276
22
-0.3935215638
32
0.0000000000
13
-0.8896688033
23
-0.0430058456
33
0.0000000000
40
0.0000000000
40
0.0000000000
40
0.0000000000
40
0.0000000000
40
1.0000000000
40
1.0000000000
40
1.0000000000
40
1.0000000000
10
161.1112836975
20
46.3249718819
30
0.0000000000
10
160.8489359883
20
46.1937980273
30
0.0000000000
10
160.5613832960
20
46.0988758577
30
0.0000000000
10
160.2648270282
20
46.0845405758
30
0.0000000000
11
161.1112836975
21
46.3249718819
31
0.0000000000
11
160.2648270282
21
46.0845405758
31
0.0000000000
0
SPLINE
5
2A8
100
AcDbEntity
8
0
100
AcDbSpline
62
7
6
CONTINUOUS
70
0
71
3
72
8
73
4
74
2
42
0.0000001000
43
0.0000001000
44
0.0000000001
12
-0.7870431276
22
-0.3935215638
32
0.0000000000
13
-0.8896688033
23
-0.0430058456
33
0.0000000000
40
0.0000000000
40
0.0000000000
40
0.0000000000
40
0.0000000000
40
1.0000000000
40
1.0000000000
40
1.0000000000
40
1.0000000000
10
161.1112836975
20
112.3161076503
30
0.0000000000
10
160.8489359883
20
112.1849337957
30
0.0000000000
10
160.5613832960
20
112.0900116260
30
0.0000000000
10
160.2648270282
20
112.0756763442
30
0.0000000000
11
161.1112836975
21
112.3161076503
31
0.0000000000
11
160.2648270282
21
112.0756763442
31
0.0000000000
0
SPLINE
5
2A9
100
AcDbEntity
8
0
100
AcDbSpline
62
7
6
CONTINUOUS
70
0
71
3
72
9
73
5
74
3
42
0.0000001000
43
0.0000001000
44
0.0000000001
12
-0.8183446797
22
0.4139828130
32
0.0000000000
13
-0.4807022753
23
0.7784168699
33
0.0000000000
40
0.0000000000
40
0.0000000000
40
0.0000000000
40
0.0000000000
40
0.6977508111
40
1.0000000000
40
1.0000000000
40
1.0000000000
40
1.0000000000
10
-171.4255979879
20
-121.2416285489
30
0.0000000000
10
-171.6159315425
20
-121.1453429344
30
0.0000000000
10
-171.8606217254
20
-120.9480497336
30
0.0000000000
10
-172.0391705821
20
-120.7001820908
30
0.0000000000
10
-172.0876012063
20
-120.6217568016
30
0.0000000000
11
-171.4255979879
21
-121.2416285489
31
0.0000000000
11
-171.9251957753
21
-120.8453974723
31
0.0000000000
11
-172.0876012063
21
-120.6217568016
31
0.0000000000
0
SPLINE
5
2AA
100
AcDbEntity
8
0
100
AcDbSpline
62
7
6
CONTINUOUS
70
0
71
3
72
9
73
5
74
3
42
0.0000001000
43
0.0000001000
44
0.0000000001
12
-0.8456581642
22
1.3694018419
32
0.0000000000
13
-0.0000000000
23
1.6010441064
33
0.0000000000
40
0.0000000000
40
0.0000000000
40
0.0000000000
40
0.0000000000
40
0.3710843070
40
1.0000000000
40
1.0000000000
40
1.0000000000
40
1.0000000000
10
-172.0876012063
20
-120.6217568016
30
0.0000000000
10
-172.1922046976
20
-120.4523689571
30
0.0000000000
10
-172.4045008657
20
-119.9518079581
30
0.0000000000
10
-172.4663403273
20
-119.4138400723
30
0.0000000000
10
-172.4663403273
20
-119.0781994844
30
0.0000000000
11
-172.0876012063
21
-120.6217568016
31
0.0000000000
11
-172.3290458259
21
-120.0757172327
31
0.0000000000
11
-172.4663403273
21
-119.0781994844
31
0.0000000000
0
SPLINE
5
2AB
100
AcDbEntity
8
0
100
AcDbSpline
62
7
6
CONTINUOUS
70
0
71
3
72
8
73
4
74
2
42
0.0000001000
43
0.0000001000
44
0.0000000001
12
-0.7870431276
22
-0.3935215638
32
0.0000000000
13
-0.8896688033
23
-0.0430058456
33
0.0000000000
40
0.0000000000
40
0.0000000000
40
0.0000000000
40
0.0000000000
40
1.0000000000
40
1.0000000000
40
1.0000000000
40
1.0000000000
10
-167.6933695542
20
-118.0773547439
30
0.0000000000
10
-167.9557172635
20
-118.2085285986
30
0.0000000000
10
-168.2432699558
20
-118.3034507682
30
0.0000000000
10
-168.5398262235
20
-118.3177860501
30
0.0000000000
11
-167.6933695542
21
-118.0773547439
31
0.0000000000
11
-168.5398262235
21
-118.3177860501
31
0.0000000000
0
SPLINE
5
2AC
100
AcDbEntity
8
0
100
AcDbSpline
62
7
6
CONTINUOUS
70
0
71
3
72
8
73
4
74
2
42
0.0000001000
43
0.0000001000
44
0.0000000001
12
-0.7870431276
22
-0.3935215638
32
0.0000000000
13
-0.8896688033
23
-0.0430058456
33
0.0000000000
40
0.0000000000
40
0.0000000000
40
0.0000000000
40
0.0000000000
40
1.0000000000
40
1.0000000000
40
1.0000000000
40
1.0000000000
10
-167.6933695542
20
-52.0862189756
30
0.0000000000
10
-167.9557172635
20
-52.2173928302
30
0.0000000000
10
-168.2432699558
20
-52.3123149998
30
0.0000000000
10
-168.5398262235
20
-52.3266502817
30
0.0000000000
11
-167.6933695542
21
-52.0862189756
31
0.0000000000
11
-168.5398262235
21
-52.3266502817
31
0.0000000000
0
SPLINE
5
2AD
100
AcDbEntity
8
0
100
AcDbSpline
62
7
6
CONTINUOUS
70
0
71
3
72
9
73
5
74
3
42
0.0000001000
43
0.0000001000
44
0.0000000001
12
-0.2121941054
22
0.1116857155
32
0.0000000000
13
-0.0360260216
23
0.2368256159
33
0.0000000000
40
0.0000000000
40
0.0000000000
40
0.0000000000
40
0.0000000000
40
0.4708068918
40
1.0000000000
40
1.0000000000
40
1.0000000000
40
1.0000000000
10
155.0552429894
20
41.3164732761
30
0.0000000000
10
155.0219421737
20
41.3340007443
30
0.0000000000
10
154.9600281867
20
41.3912424093
30
0.0000000000
10
154.9357701574
20
41.4681703190
30
0.0000000000
10
154.9294152499
20
41.5099458136
30
0.0000000000
11
155.0552429894
21
41.3164732761
31
0.0000000000
11
154.9719898970
21
41.3922639209
31
0.0000000000
11
154.9294152499
21
41.5099458136
31
0.0000000000
0
SPLINE
5
2AE
100
AcDbEntity
8
0
100
AcDbSpline
62
7
6
CONTINUOUS
70
0
71
3
72
8
73
4
74
2
42
0.0000001000
43
0.0000001000
44
0.0000000001
12
-0.0115307272
22
0.0757999757
32
0.0000000000
13
0.0000000000
23
0.0751873440
33
0.0000000000
40
0.0000000000
40
0.0000000000
40
0.0000000000
40
0.0000000000
40
1.0000000000
40
1.0000000000
40
1.0000000000
40
1.0000000000
10
154.9294152499
20
41.5099458136
30
0.0000000000
10
154.9255716742
20
41.5352124722
30
0.0000000000
10
154.9240993621
20
41.5608689990
30
0.0000000000
10
154.9240993621
20
41.5859314470
30
0.0000000000
11
154.9294152499
21
41.5099458136
31
0.0000000000
11
154.9240993621
21
41.5859314470
31
0.0000000000
0
SPLINE
5
2AF
100
AcDbEntity
8
0
100
AcDbSpline
62
7
6
CONTINUOUS
70
0
71
3
72
8
73
4
74
2
42
0.0000001000
43
0.0000001000
44
0.0000000001
12
0.2909011212
22
0.1454505606
32
0.0000000000
13
0.3065887675
23
0.1138151536
33
0.0000000000
40
0.0000000000
40
0.0000000000
40
0.0000000000
40
0.0000000000
40
1.0000000000
40
1.0000000000
40
1.0000000000
40
1.0000000000
10
165.5307010799
20
122.6664551371
30
0.0000000000
10
165.6276681203
20
122.7149386573
30
0.0000000000
10
165.7275149177
20
122.7589408986
30
0.0000000000
10
165.8297111735
20
122.7968792831
30
0.0000000000
11
165.5307010799
21
122.6664551371
31
0.0000000000
11
165.8297111735
21
122.7968792831
31
0.0000000000
0
SPLINE
5
2B0
100
AcDbEntity
8
0
100
AcDbSpline
62
7
6
CONTINUOUS
70
0
71
3
72
9
73
5
74
3
42
0.0000001000
43
0.0000001000
44
0.0000000001
12
1.3042203176
22
0.4841665824
32
0.0000000000
13
1.2952035620
23
-0.5084100781
33
0.0000000000
40
0.0000000000
40
0.0000000000
40
0.0000000000
40
0.0000000000
40
0.4236409371
40
1.0000000000
40
1.0000000000
40
1.0000000000
40
1.0000000000
10
165.8297111735
20
122.7968792831
30
0.0000000000
10
166.0138848794
20
122.8652502114
30
0.0000000000
10
166.4666367033
20
122.9801515604
30
0.0000000000
10
166.9446107209
20
122.9337080398
30
0.0000000000
10
167.1934448246
20
122.8360324544
30
0.0000000000
11
165.8297111735
21
122.7968792831
31
0.0000000000
11
166.4020199619
21
122.9336472128
31
0.0000000000
11
167.1934448246
21
122.8360324544
31
0.0000000000
0
SPLINE
5
2B1
100
AcDbEntity
8
0
100
AcDbSpline
62
7
6
CONTINUOUS
70
0
71
3
72
8
73
4
74
2
42
0.0000001000
43
0.0000001000
44
0.0000000001
12
0.1273934576
22
-0.0500061300
32
0.0000000000
13
0.1223646166
23
-0.0619016039
33
0.0000000000
40
0.0000000000
40
0.0000000000
40
0.0000000000
40
0.0000000000
40
1.0000000000
40
1.0000000000
40
1.0000000000
40
1.0000000000
10
167.1934448246
20
122.8360324544
30
0.0000000000
10
167.2359093105
20
122.8193637444
30
0.0000000000
10
167.2775976597
20
122.8006300168
30
0.0000000000
10
167.3183858653
20
122.7799961489
30
0.0000000000
11
167.1934448246
21
122.8360324544
31
0.0000000000
11
167.3183858653
21
122.7799961489
31
0.0000000000
0
SPLINE
5
2B2
100
AcDbEntity
8
0
100
AcDbSpline
62
7
6
CONTINUOUS
70
0
71
3
72
10
73
6
74
4
42
0.0000001000
43
0.0000001000
44
0.0000000001
12
0.0000000000
22
0.7323403464
32
0.0000000000
13
0.6550251189
23
0.3275125595
33
0.0000000000
40
0.0000000000
40
0.0000000000
40
0.0000000000
40
0.0000000000
40
0.3336135105
40
0.6846804276
40
1.0000000000
40
1.0000000000
40
1.0000000000
40
1.0000000000
10
154.9240993621
20
116.9301415763
30
0.0000000000
10
154.9240993621
20
117.0115811209
30
0.0000000000
10
154.9611562489
20
117.1790922492
30
0.0000000000
10
155.0834114421
20
117.3932221954
30
0.0000000000
10
155.2088053392
20
117.5055072667
30
0.0000000000
10
155.2776527527
20
117.5399309735
30
0.0000000000
11
154.9240993621
21
116.9301415763
31
0.0000000000
11
154.9712868406
21
117.1698600293
31
0.0000000000
11
155.0999726508
21
117.3924372356
31
0.0000000000
11
155.2776527527
21
117.5399309735
31
0.0000000000
0
SPLINE
5
2B3
100
AcDbEntity
8
0
100
AcDbSpline
62
7
6
CONTINUOUS
70
0
71
3
72
9
73
5
74
3
42
0.0000001000
43
0.0000001000
44
0.0000000001
12
0.2036315225
22
0.1018157613
32
0.0000000000
13
0.2056501249
23
-0.1082413731
33
0.0000000000
40
0.0000000000
40
0.0000000000
40
0.0000000000
40
0.0000000000
40
0.7865491733
40
1.0000000000
40
1.0000000000
40
1.0000000000
40
1.0000000000
10
-159.3848648753
20
-39.7913278405
30
0.0000000000
10
-159.3314761401
20
-39.7646334729
30
0.0000000000
10
-159.2493920096
20
-39.7428461886
30
0.0000000000
10
-159.1770871751
20
-39.7704042727
30
0.0000000000
10
-159.1624551120
20
-39.7781056762
30
0.0000000000
11
-159.3848648753
21
-39.7913278405
31
0.0000000000
11
-159.2083997855
21
-39.7608879179
31
0.0000000000
11
-159.1624551120
21
-39.7781056762
31
0.0000000000
0
SPLINE
5
2B4
100
AcDbEntity
8
0
100
AcDbSpline
62
7
6
CONTINUOUS
70
0
71
3
72
12
73
8
74
6
42
0.0000001000
43
0.0000001000
44
0.0000000001
12
0.0000000000
22
5.8795137991
32
0.0000000000
13
5.2587970118
23
2.6293985059
33
0.0000000000
40
0.0000000000
40
0.0000000000
40
0.0000000000
40
0.0000000000
40
0.1946109824
40
0.4051813440
40
0.6169081446
40
0.8198486378
40
1.0000000000
40
1.0000000000
40
1.0000000000
40
1.0000000000
10
-172.4663403273
20
-49.7961671816
30
0.0000000000
10
-172.4663403273
20
-49.4147611962
30
0.0000000000
10
-172.3610060085
20
-48.6193740845
30
0.0000000000
10
-171.9606077856
20
-47.4713503129
30
0.0000000000
10
-171.3441752064
20
-46.4034093975
30
0.0000000000
10
-170.5719421457
20
-45.5201947381
30
0.0000000000
10
-169.9537063509
20
-45.0757485783
30
0.0000000000
10
-169.6379132025
20
-44.9178520041
30
0.0000000000
11
-172.4663403273
21
-49.7961671816
31
0.0000000000
11
-172.3287872995
21
-48.6602473358
31
0.0000000000
11
-171.9259873358
21
-47.4895538122
31
0.0000000000
11
-171.3017456557
21
-46.4125322454
31
0.0000000000
11
-170.5084332788
21
-45.5212627787
31
0.0000000000
11
-169.6379132025
21
-44.9178520041
31
0.0000000000
0
SPLINE
5
2B5
100
AcDbEntity
8
0
100
AcDbSpline
62
7
6
CONTINUOUS
70
0
71
3
72
8
73
4
74
2
42
0.0000001000
43
0.0000001000
44
0.0000000001
12
0.1162594289
22
-0.1466723924
32
0.0000000000
13
0.0988044731
23
-0.1579524321
33
0.0000000000
40
0.0000000000
40
0.0000000000
40
0.0000000000
40
0.0000000000
40
1.0000000000
40
1.0000000000
40
1.0000000000
40
1.0000000000
10
-163.1828196174
20
-45.0778706838
30
0.0000000000
10
-163.1440664744
20
-45.1267614812
30
0.0000000000
10
-163.1081271195
20
-45.1778461655
30
0.0000000000
10
-163.0751922952
20
-45.2304969762
30
0.0000000000
11
-163.1828196174
21
-45.0778706838
31
0.0000000000
11
-163.0751922952
21
-45.2304969762
31
0.0000000000
0
SPLINE
5
2B6
100
AcDbEntity
8
0
100
AcDbSpline
62
7
6
CONTINUOUS
70
0
71
3
72
8
73
4
74
2
42
0.0000001000
43
0.0000001000
44
0.0000000001
12
0.3105125147
22
-0.4963966244
32
0.0000000000
13
0.1545474498
23
-0.5625389216
33
0.0000000000
40
0.0000000000
40
0.0000000000
40
0.0000000000
40
0.0000000000
40
1.0000000000
40
1.0000000000
40
1.0000000000
40
1.0000000000
10
-163.0751922952
20
-45.2304969762
30
0.0000000000
10
-162.9716881236
20
-45.3959625176
30
0.0000000000
10
-162.8978583305
20
-45.5768959763
30
0.0000000000
10
-162.8463425139
20
-45.7644089502
30
0.0000000000
11
-163.0751922952
21
-45.2304969762
31
0.0000000000
11
-162.8463425139
21
-45.7644089502
31
0.0000000000
0
SPLINE
5
2B7
100
AcDbEntity
8
0
100
AcDbSpline
62
7
6
CONTINUOUS
70
0
71
3
72
8
73
4
74
2
42
0.0000001000
43
0.0000001000
44
0.0000000001
12
0.0835029957
22
-0.3039434504
32
0.0000000000
13
0.0479010474
23
-0.3112620782
33
0.0000000000
40
0.0000000000
40
0.0000000000
40
0.0000000000
40
0.0000000000
40
1.0000000000
40
1.0000000000
40
1.0000000000
40
1.0000000000
10
-162.8463425139
20
-45.7644089502
30
0.0000000000
10
-162.8185081820
20
-45.8657234336
30
0.0000000000
10
-162.7971879948
20
-45.9689586825
30
0.0000000000
10
-162.7812209790
20
-46.0727127086
30
0.0000000000
11
-162.8463425139
21
-45.7644089502
31
0.0000000000
11
-162.7812209790
21
-46.0727127086
31
0.0000000000
0
SPLINE
5
2B8
100
AcDbEntity
8
0
100
AcDbSpline
62
7
6
CONTINUOUS
70
0
71
3
72
11
73
7
74
5
42
0.0000001000
43
0.0000001000
44
0.0000000001
12
0.7054875763
22
-4.5842740651
32
0.0000000000
13
-3.3648576791
23
-3.1813636883
33
0.0000000000
40
0.0000000000
40
0.0000000000
40
0.0000000000
40
0.0000000000
40
0.2284199972
40
0.4830771170
40
0.7468189835
40
1.0000000000
40
1.0000000000
40
1.0000000000
40
1.0000000000
10
-162.7812209790
20
-46.0727127086
30
0.0000000000
10
-162.7275051556
20
-46.4217593315
30
0.0000000000
10
-162.7420334140
20
-47.1723623992
30
0.0000000000
10
-163.0409137432
20
-48.2899208813
30
0.0000000000
10
-163.5835531284
20
-49.3536161639
30
0.0000000000
10
-164.0880664550
20
-49.9742697812
30
0.0000000000
10
-164.3720391508
20
-50.2427567453
30
0.0000000000
11
-162.7812209790
21
-46.0727127086
31
0.0000000000
11
-162.7812209790
21
-47.1253988408
31
0.0000000000
11
-163.0751922952
21
-48.2615858894
31
0.0000000000
11
-163.6276776482
21
-49.3442329279
31
0.0000000000
11
-164.3720391508
21
-50.2427567453
31
0.0000000000
0
SPLINE
5
2B9
100
AcDbEntity
8
0
100
AcDbSpline
62
7
6
CONTINUOUS
70
0
71
3
72
8
73
4
74
2
42
0.0000001000
43
0.0000001000
44
0.0000000001
12
-0.5127011766
22
-0.4847423165
32
0.0000000000
13
-0.5912693738
23
-0.3819644219
33
0.0000000000
40
0.0000000000
40
0.0000000000
40
0.0000000000
40
0.0000000000
40
1.0000000000
40
1.0000000000
40
1.0000000000
40
1.0000000000
10
-164.3720391508
20
-50.2427567453
30
0.0000000000
10
-164.5429395430
20
-50.4043375175
30
0.0000000000
10
-164.7271936614
20
-50.5530607215
30
0.0000000000
10
-164.9242834527
20
-50.6803821954
30
0.0000000000
11
-164.3720391508
21
-50.2427567453
31
0.0000000000
11
-164.9242834527
21
-50.6803821954
31
0.0000000000
0
SPLINE
5
2BA
100
AcDbEntity
8
0
100
AcDbSpline
62
7
6
CONTINUOUS
70
0
71
3
72
8
73
4
74
2
42
0.0000001000
43
0.0000001000
44
0.0000000001
12
-0.2853048064
22
-0.1843090312
32
0.0000000000
13
-0.3030617254
23
-0.1515308627
33
0.0000000000
40
0.0000000000
40
0.0000000000
40
0.0000000000
40
0.0000000000
40
1.0000000000
40
1.0000000000
40
1.0000000000
40
1.0000000000
10
-164.9242834527
20
-50.6803821954
30
0.0000000000
10
-165.0193850548
20
-50.7418185392
30
0.0000000000
10
-165.1174752450
20
-50.7982718209
30
0.0000000000
10
-165.2184958201
20
-50.8487821085
30
0.0000000000
11
-164.9242834527
21
-50.6803821954
31
0.0000000000
11
-165.2184958201
21
-50.8487821085
31
0.0000000000
0
SPLINE
5
2BB
100
AcDbEntity
8
0
100
AcDbSpline
62
7
6
CONTINUOUS
70
0
71
3
72
8
73
4
74
2
42
0.0000001000
43
0.0000001000
44
0.0000000001
12
0.1162594289
22
-0.1466723924
32
0.0000000000
13
0.0988044731
23
-0.1579524321
33
0.0000000000
40
0.0000000000
40
0.0000000000
40
0.0000000000
40
0.0000000000
40
1.0000000000
40
1.0000000000
40
1.0000000000
40
1.0000000000
10
-163.1828196174
20
-111.0690064521
30
0.0000000000
10
-163.1440664744
20
-111.1178972496
30
0.0000000000
10
-163.1081271195
20
-111.1689819338
30
0.0000000000
10
-163.0751922952
20
-111.2216327445
30
0.0000000000
11
-163.1828196174
21
-111.0690064521
31
0.0000000000
11
-163.0751922952
21
-111.2216327445
31
0.0000000000
0
SPLINE
5
2BC
100
AcDbEntity
8
0
100
AcDbSpline
62
7
6
CONTINUOUS
70
0
71
3
72
8
73
4
74
2
42
0.0000001000
43
0.0000001000
44
0.0000000001
12
0.3105125147
22
-0.4963966244
32
0.0000000000
13
0.1545474498
23
-0.5625389216
33
0.0000000000
40
0.0000000000
40
0.0000000000
40
0.0000000000
40
0.0000000000
40
1.0000000000
40
1.0000000000
40
1.0000000000
40
1.0000000000
10
-163.0751922952
20
-111.2216327445
30
0.0000000000
10
-162.9716881236
20
-111.3870982860
30
0.0000000000
10
-162.8978583305
20
-111.5680317447
30
0.0000000000
10
-162.8463425139
20
-111.7555447186
30
0.0000000000
11
-163.0751922952
21
-111.2216327445
31
0.0000000000
11
-162.8463425139
21
-111.7555447186
31
0.0000000000
0
SPLINE
5
2BD
100
AcDbEntity
8
0
100
AcDbSpline
62
7
6
CONTINUOUS
70
0
71
3
72
8
73
4
74
2
42
0.0000001000
43
0.0000001000
44
0.0000000001
12
0.0835029957
22
-0.3039434504
32
0.0000000000
13
0.0479010474
23
-0.3112620782
33
0.0000000000
40
0.0000000000
40
0.0000000000
40
0.0000000000
40
0.0000000000
40
1.0000000000
40
1.0000000000
40
1.0000000000
40
1.0000000000
10
-162.8463425139
20
-111.7555447186
30
0.0000000000
10
-162.8185081820
20
-111.8568592020
30
0.0000000000
10
-162.7971879948
20
-111.9600944509
30
0.0000000000
10
-162.7812209790
20
-112.0638484769
30
0.0000000000
11
-162.8463425139
21
-111.7555447186
31
0.0000000000
11
-162.7812209790
21
-112.0638484769
31
0.0000000000
0
SPLINE
5
2BE
100
AcDbEntity
8
0
100
AcDbSpline
62
7
6
CONTINUOUS
70
0
71
3
72
11
73
7
74
5
42
0.0000001000
43
0.0000001000
44
0.0000000001
12
0.7054875763
22
-4.5842740651
32
0.0000000000
13
-3.3648576791
23
-3.1813636883
33
0.0000000000
40
0.0000000000
40
0.0000000000
40
0.0000000000
40
0.0000000000
40
0.2284199972
40
0.4830771170
40
0.7468189835
40
1.0000000000
40
1.0000000000
40
1.0000000000
40
1.0000000000
10
-162.7812209790
20
-112.0638484769
30
0.0000000000
10
-162.7275051556
20
-112.4128950999
30
0.0000000000
10
-162.7420334140
20
-113.1634981676
30
0.0000000000
10
-163.0409137432
20
-114.2810566497
30
0.0000000000
10
-163.5835531284
20
-115.3447519322
30
0.0000000000
10
-164.0880664550
20
-115.9654055495
30
0.0000000000
10
-164.3720391508
20
-116.2338925137
30
0.0000000000
11
-162.7812209790
21
-112.0638484769
31
0.0000000000
11
-162.7812209790
21
-113.1165346092
31
0.0000000000
11
-163.0751922952
21
-114.2527216578
31
0.0000000000
11
-163.6276776482
21
-115.3353686963
31
0.0000000000
11
-164.3720391508
21
-116.2338925137
31
0.0000000000
0
SPLINE
5
2BF
100
AcDbEntity
8
0
100
AcDbSpline
62
7
6
CONTINUOUS
70
0
71
3
72
8
73
4
74
2
42
0.0000001000
43
0.0000001000
44
0.0000000001
12
-0.5127011766
22
-0.4847423165
32
0.0000000000
13
-0.5912693738
23
-0.3819644219
33
0.0000000000
40
0.0000000000
40
0.0000000000
40
0.0000000000
40
0.0000000000
40
1.0000000000
40
1.0000000000
40
1.0000000000
40
1.0000000000
10
-164.3720391508
20
-116.2338925137
30
0.0000000000
10
-164.5429395430
20
-116.3954732859
30
0.0000000000
10
-164.7271936614
20
-116.5441964898
30
0.0000000000
10
-164.9242834527
20
-116.6715179638
30
0.0000000000
11
-164.3720391508
21
-116.2338925137
31
0.0000000000
11
-164.9242834527
21
-116.6715179638
31
0.0000000000
0
SPLINE
5
2C0
100
AcDbEntity
8
0
100
AcDbSpline
62
7
6
CONTINUOUS
70
0
71
3
72
8
73
4
74
2
42
0.0000001000
43
0.0000001000
44
0.0000000001
12
-0.2853048064
22
-0.1843090312
32
0.0000000000
13
-0.3030617254
23
-0.1515308627
33
0.0000000000
40
0.0000000000
40
0.0000000000
40
0.0000000000
40
0.0000000000
40
1.0000000000
40
1.0000000000
40
1.0000000000
40
1.0000000000
10
-164.9242834527
20
-116.6715179638
30
0.0000000000
10
-165.0193850548
20
-116.7329543075
30
0.0000000000
10
-165.1174752450
20
-116.7894075893
30
0.0000000000
10
-165.2184958201
20
-116.8399178769
30
0.0000000000
11
-164.9242834527
21
-116.6715179638
31
0.0000000000
11
-165.2184958201
21
-116.8399178769
31
0.0000000000
0
SPLINE
5
2C1
100
AcDbEntity
8
0
100
AcDbSpline
62
7
6
CONTINUOUS
70
0
71
3
72
8
73
4
74
2
42
0.0000001000
43
0.0000001000
44
0.0000000001
12
0.1162594289
22
-0.1466723924
32
0.0000000000
13
0.0988044731
23
-0.1579524321
33
0.0000000000
40
0.0000000000
40
0.0000000000
40
0.0000000000
40
0.0000000000
40
1.0000000000
40
1.0000000000
40
1.0000000000
40
1.0000000000
10
165.6218336343
20
119.3244559421
30
0.0000000000
10
165.6605867773
20
119.2755651446
30
0.0000000000
10
165.6965261322
20
119.2244804604
30
0.0000000000
10
165.7294609566
20
119.1718296497
30
0.0000000000
11
165.6218336343
21
119.3244559421
31
0.0000000000
11
165.7294609566
21
119.1718296497
31
0.0000000000
0
SPLINE
5
2C2
100
AcDbEntity
8
0
100
AcDbSpline
62
7
6
CONTINUOUS
70
0
71
3
72
8
73
4
74
2
42
0.0000001000
43
0.0000001000
44
0.0000000001
12
0.3105125147
22
-0.4963966244
32
0.0000000000
13
0.1545474498
23
-0.5625389216
33
0.0000000000
40
0.0000000000
40
0.0000000000
40
0.0000000000
40
0.0000000000
40
1.0000000000
40
1.0000000000
40
1.0000000000
40
1.0000000000
10
165.7294609566
20
119.1718296497
30
0.0000000000
10
165.8329651281
20
119.0063641083
30
0.0000000000
10
165.9067949212
20
118.8254306495
30
0.0000000000
10
165.9583107378
20
118.6379176757
30
0.0000000000
11
165.7294609566
21
119.1718296497
31
0.0000000000
11
165.9583107378
21
118.6379176757
31
0.0000000000
0
SPLINE
5
2C3
100
AcDbEntity
8
0
100
AcDbSpline
62
7
6
CONTINUOUS
70
0
71
3
72
8
73
4
74
2
42
0.0000001000
43
0.0000001000
44
0.0000000001
12
0.0835029957
22
-0.3039434504
32
0.0000000000
13
0.0479010474
23
-0.3112620782
33
0.0000000000
40
0.0000000000
40
0.0000000000
40
0.0000000000
40
0.0000000000
40
1.0000000000
40
1.0000000000
40
1.0000000000
40
1.0000000000
10
165.9583107378
20
118.6379176757
30
0.0000000000
10
165.9861450697
20
118.5366031922
30
0.0000000000
10
166.0074652570
20
118.4333679434
30
0.0000000000
10
166.0234322728
20
118.3296139173
30
0.0000000000
11
165.9583107378
21
118.6379176757
31
0.0000000000
11
166.0234322728
21
118.3296139173
31
0.0000000000
0
SPLINE
5
2C4
100
AcDbEntity
8
0
100
AcDbSpline
62
7
6
CONTINUOUS
70
0
71
3
72
11
73
7
74
5
42
0.0000001000
43
0.0000001000
44
0.0000000001
12
0.7054875763
22
-4.5842740651
32
0.0000000000
13
-3.3648576791
23
-3.1813636883
33
0.0000000000
40
0.0000000000
40
0.0000000000
40
0.0000000000
40
0.0000000000
40
0.2284199972
40
0.4830771170
40
0.7468189835
40
1.0000000000
40
1.0000000000
40
1.0000000000
40
1.0000000000
10
166.0234322728
20
118.3296139173
30
0.0000000000
10
166.0771480962
20
117.9805672943
30
0.0000000000
10
166.0626198377
20
117.2299642267
30
0.0000000000
10
165.7637395086
20
116.1124057445
30
0.0000000000
10
165.2211001233
20
115.0487104620
30
0.0000000000
10
164.7165867968
20
114.4280568447
30
0.0000000000
10
164.4326141009
20
114.1595698805
30
0.0000000000
11
166.0234322728
21
118.3296139173
31
0.0000000000
11
166.0234322728
21
117.2769277850
31
0.0000000000
11
165.7294609566
21
116.1407407365
31
0.0000000000
11
165.1769756035
21
115.0580936980
31
0.0000000000
11
164.4326141009
21
114.1595698805
31
0.0000000000
0
SPLINE
5
2C5
100
AcDbEntity
8
0
100
AcDbSpline
62
7
6
CONTINUOUS
70
0
71
3
72
8
73
4
74
2
42
0.0000001000
43
0.0000001000
44
0.0000000001
12
-0.5127011766
22
-0.4847423165
32
0.0000000000
13
-0.5912693738
23
-0.3819644219
33
0.0000000000
40
0.0000000000
40
0.0000000000
40
0.0000000000
40
0.0000000000
40
1.0000000000
40
1.0000000000
40
1.0000000000
40
1.0000000000
10
164.4326141009
20
114.1595698805
30
0.0000000000
10
164.2617137087
20
113.9979891084
30
0.0000000000
10
164.0774595903
20
113.8492659044
30
0.0000000000
10
163.8803697991
20
113.7219444304
30
0.0000000000
11
164.4326141009
21
114.1595698805
31
0.0000000000
11
163.8803697991
21
113.7219444304
31
0.0000000000
0
SPLINE
5
2C6
100
AcDbEntity
8
0
100
AcDbSpline
62
7
6
CONTINUOUS
70
0
71
3
72
8
73
4
74
2
42
0.0000001000
43
0.0000001000
44
0.0000000001
12
-0.2853048064
22
-0.1843090312
32
0.0000000000
13
-0.3030617254
23
-0.1515308627
33
0.0000000000
40
0.0000000000
40
0.0000000000
40
0.0000000000
40
0.0000000000
40
1.0000000000
40
1.0000000000
40
1.0000000000
40
1.0000000000
10
163.8803697991
20
113.7219444304
30
0.0000000000
10
163.7852681969
20
113.6605080867
30
0.0000000000
10
163.6871780068
20
113.6040548049
30
0.0000000000
10
163.5861574317
20
113.5535445174
30
0.0000000000
11
163.8803697991
21
113.7219444304
31
0.0000000000
11
163.5861574317
21
113.5535445174
31
0.0000000000
0
SPLINE
5
2C7
100
AcDbEntity
8
0
100
AcDbSpline
62
7
6
CONTINUOUS
70
0
71
3
72
8
73
4
74
2
42
0.0000001000
43
0.0000001000
44
0.0000000001
12
0.1162594289
22
-0.1466723924
32
0.0000000000
13
0.0988044731
23
-0.1579524321
33
0.0000000000
40
0.0000000000
40
0.0000000000
40
0.0000000000
40
0.0000000000
40
1.0000000000
40
1.0000000000
40
1.0000000000
40
1.0000000000
10
165.6218336343
20
53.3333201737
30
0.0000000000
10
165.6605867773
20
53.2844293763
30
0.0000000000
10
165.6965261322
20
53.2333446920
30
0.0000000000
10
165.7294609566
20
53.1806938813
30
0.0000000000
11
165.6218336343
21
53.3333201737
31
0.0000000000
11
165.7294609566
21
53.1806938813
31
0.0000000000
0
SPLINE
5
2C8
100
AcDbEntity
8
0
100
AcDbSpline
62
7
6
CONTINUOUS
70
0
71
3
72
8
73
4
74
2
42
0.0000001000
43
0.0000001000
44
0.0000000001
12
0.3105125147
22
-0.4963966244
32
0.0000000000
13
0.1545474498
23
-0.5625389216
33
0.0000000000
40
0.0000000000
40
0.0000000000
40
0.0000000000
40
0.0000000000
40
1.0000000000
40
1.0000000000
40
1.0000000000
40
1.0000000000
10
165.7294609566
20
53.1806938813
30
0.0000000000
10
165.8329651281
20
53.0152283399
30
0.0000000000
10
165.9067949212
20
52.8342948812
30
0.0000000000
10
165.9583107378
20
52.6467819073
30
0.0000000000
11
165.7294609566
21
53.1806938813
31
0.0000000000
11
165.9583107378
21
52.6467819073
31
0.0000000000
0
SPLINE
5
2C9
100
AcDbEntity
8
0
100
AcDbSpline
62
7
6
CONTINUOUS
70
0
71
3
72
8
73
4
74
2
42
0.0000001000
43
0.0000001000
44
0.0000000001
12
0.0835029957
22
-0.3039434504
32
0.0000000000
13
0.0479010474
23
-0.3112620782
33
0.0000000000
40
0.0000000000
40
0.0000000000
40
0.0000000000
40
0.0000000000
40
1.0000000000
40
1.0000000000
40
1.0000000000
40
1.0000000000
10
165.9583107378
20
52.6467819073
30
0.0000000000
10
165.9861450697
20
52.5454674238
30
0.0000000000
10
166.0074652570
20
52.4422321750
30
0.0000000000
10
166.0234322728
20
52.3384781489
30
0.0000000000
11
165.9583107378
21
52.6467819073
31
0.0000000000
11
166.0234322728
21
52.3384781489
31
0.0000000000
0
SPLINE
5
2CA
100
AcDbEntity
8
0
100
AcDbSpline
62
7
6
CONTINUOUS
70
0
71
3
72
11
73
7
74
5
42
0.0000001000
43
0.0000001000
44
0.0000000001
12
0.7054875763
22
-4.5842740651
32
0.0000000000
13
-3.3648576791
23
-3.1813636883
33
0.0000000000
40
0.0000000000
40
0.0000000000
40
0.0000000000
40
0.0000000000
40
0.2284199972
40
0.4830771170
40
0.7468189835
40
1.0000000000
40
1.0000000000
40
1.0000000000
40
1.0000000000
10
166.0234322728
20
52.3384781489
30
0.0000000000
10
166.0771480962
20
51.9894315260
30
0.0000000000
10
166.0626198377
20
51.2388284583
30
0.0000000000
10
165.7637395086
20
50.1212699762
30
0.0000000000
10
165.2211001233
20
49.0575746936
30
0.0000000000
10
164.7165867968
20
48.4369210763
30
0.0000000000
10
164.4326141009
20
48.1684341122
30
0.0000000000
11
166.0234322728
21
52.3384781489
31
0.0000000000
11
166.0234322728
21
51.2857920167
31
0.0000000000
11
165.7294609566
21
50.1496049681
31
0.0000000000
11
165.1769756035
21
49.0669579296
31
0.0000000000
11
164.4326141009
21
48.1684341122
31
0.0000000000
0
SPLINE
5
2CB
100
AcDbEntity
8
0
100
AcDbSpline
62
7
6
CONTINUOUS
70
0
71
3
72
8
73
4
74
2
42
0.0000001000
43
0.0000001000
44
0.0000000001
12
-0.5127011766
22
-0.4847423165
32
0.0000000000
13
-0.5912693738
23
-0.3819644219
33
0.0000000000
40
0.0000000000
40
0.0000000000
40
0.0000000000
40
0.0000000000
40
1.0000000000
40
1.0000000000
40
1.0000000000
40
1.0000000000
10
164.4326141009
20
48.1684341122
30
0.0000000000
10
164.2617137087
20
48.0068533400
30
0.0000000000
10
164.0774595903
20
47.8581301360
30
0.0000000000
10
163.8803697991
20
47.7308086621
30
0.0000000000
11
164.4326141009
21
48.1684341122
31
0.0000000000
11
163.8803697991
21
47.7308086621
31
0.0000000000
0
SPLINE
5
2CC
100
AcDbEntity
8
0
100
AcDbSpline
62
7
6
CONTINUOUS
70
0
71
3
72
8
73
4
74
2
42
0.0000001000
43
0.0000001000
44
0.0000000001
12
-0.2853048064
22
-0.1843090312
32
0.0000000000
13
-0.3030617254
23
-0.1515308627
33
0.0000000000
40
0.0000000000
40
0.0000000000
40
0.0000000000
40
0.0000000000
40
1.0000000000
40
1.0000000000
40
1.0000000000
40
1.0000000000
10
163.8803697991
20
47.7308086621
30
0.0000000000
10
163.7852681969
20
47.6693723183
30
0.0000000000
10
163.6871780068
20
47.6129190366
30
0.0000000000
10
163.5861574317
20
47.5624087490
30
0.0000000000
11
163.8803697991
21
47.7308086621
31
0.0000000000
11
163.5861574317
21
47.5624087490
31
0.0000000000
0
SPLINE
5
2CD
100
AcDbEntity
8
0
100
AcDbSpline
62
7
6
CONTINUOUS
70
0
71
3
72
8
73
4
74
2
42
0.0000001000
43
0.0000001000
44
0.0000000001
12
0.1256972269
22
0.0628486135
32
0.0000000000
13
0.0967927193
23
0.1050610262
33
0.0000000000
40
0.0000000000
40
0.0000000000
40
0.0000000000
40
0.0000000000
40
1.0000000000
40
1.0000000000
40
1.0000000000
40
1.0000000000
10
-157.8999404747
20
-40.7809166079
30
0.0000000000
10
-157.8580413990
20
-40.7599670701
30
0.0000000000
10
-157.8198701834
20
-40.7307935818
30
0.0000000000
10
-157.7876059436
20
-40.6957732397
30
0.0000000000
11
-157.8999404747
21
-40.7809166079
31
0.0000000000
11
-157.7876059436
21
-40.6957732397
31
0.0000000000
0
SPLINE
5
2CE
100
AcDbEntity
8
0
100
AcDbSpline
62
7
6
CONTINUOUS
70
0
71
3
72
10
73
6
74
4
42
0.0000001000
43
0.0000001000
44
0.0000000001
12
0.2965750093
22
0.3219092825
32
0.0000000000
13
-0.1847313090
23
0.3980806883
33
0.0000000000
40
0.0000000000
40
0.0000000000
40
0.0000000000
40
0.0000000000
40
0.1648718111
40
0.6609426173
40
1.0000000000
40
1.0000000000
40
1.0000000000
40
1.0000000000
10
-157.7876059436
20
-40.6957732397
30
0.0000000000
10
-157.7713069907
20
-40.6780819842
30
0.0000000000
10
-157.7120103933
20
-40.6011792135
30
0.0000000000
10
-157.6657791752
20
-40.4559971471
30
0.0000000000
10
-157.6981112173
20
-40.3356273456
30
0.0000000000
10
-157.7189893887
20
-40.2906366135
30
0.0000000000
11
-157.7876059436
21
-40.6957732397
31
0.0000000000
11
-157.7435123505
21
-40.6385296161
31
0.0000000000
11
-157.6835512751
21
-40.4335106457
31
0.0000000000
11
-157.7189893887
21
-40.2906366135
31
0.0000000000
0
SPLINE
5
2CF
100
AcDbEntity
8
0
100
AcDbSpline
62
7
6
CONTINUOUS
70
0
71
3
72
8
73
4
74
2
42
0.0000001000
43
0.0000001000
44
0.0000000001
12
-0.0334856206
22
0.0721587420
32
0.0000000000
13
-0.0449718418
23
0.0637951953
33
0.0000000000
40
0.0000000000
40
0.0000000000
40
0.0000000000
40
0.0000000000
40
1.0000000000
40
1.0000000000
40
1.0000000000
40
1.0000000000
10
-157.7189893887
20
-40.2906366135
30
0.0000000000
10
-157.7301512622
20
-40.2665836995
30
0.0000000000
10
-157.7435286647
20
-40.2436393971
30
0.0000000000
10
-157.7585192786
20
-40.2223743320
30
0.0000000000
11
-157.7189893887
21
-40.2906366135
31
0.0000000000
11
-157.7585192786
21
-40.2223743320
31
0.0000000000
0
SPLINE
5
2D0
100
AcDbEntity
8
0
100
AcDbSpline
62
7
6
CONTINUOUS
70
0
71
3
72
8
73
4
74
2
42
0.0000001000
43
0.0000001000
44
0.0000000001
12
-0.4171520169
22
0.2085760085
32
0.0000000000
13
-0.3704015901
23
0.2870033878
33
0.0000000000
40
0.0000000000
40
0.0000000000
40
0.0000000000
40
0.0000000000
40
1.0000000000
40
1.0000000000
40
1.0000000000
40
1.0000000000
10
-163.2739521718
20
-37.3780553450
30
0.0000000000
10
-163.4130028441
20
-37.3085300088
30
0.0000000000
10
-163.5476054751
20
-37.2285539477
30
0.0000000000
10
-163.6710726717
20
-37.1328861518
30
0.0000000000
11
-163.2739521718
21
-37.3780553450
31
0.0000000000
11
-163.6710726717
21
-37.1328861518
31
0.0000000000
0
SPLINE
5
2D1
100
AcDbEntity
8
0
100
AcDbSpline
62
7
6
CONTINUOUS
70
0
71
3
72
10
73
6
74
4
42
0.0000001000
43
0.0000001000
44
0.0000000001
12
-0.7705404986
22
0.5970485533
32
0.0000000000
13
-0.0001372904
23
0.9875912873
33
0.0000000000
40
0.0000000000
40
0.0000000000
40
0.0000000000
40
0.0000000000
40
0.2094287979
40
0.7583325187
40
1.0000000000
40
1.0000000000
40
1.0000000000
40
1.0000000000
10
-163.6710726717
20
-37.1328861518
30
0.0000000000
10
-163.7248637952
20
-37.0912064315
30
0.0000000000
10
-163.9119858052
20
-36.9295011822
30
0.0000000000
10
-164.1126353201
20
-36.6572735769
30
0.0000000000
10
-164.1498167642
20
-36.3970157708
30
0.0000000000
10
-164.1498278238
20
-36.3174595378
30
0.0000000000
11
-163.6710726717
21
-37.1328861518
31
0.0000000000
11
-163.8255521957
21
-36.9984782646
31
0.0000000000
11
-164.1157364769
21
-36.5519217396
31
0.0000000000
11
-164.1498278238
21
-36.3174595378
31
0.0000000000
0
SPLINE
5
2D2
100
AcDbEntity
8
0
100
AcDbSpline
62
7
6
CONTINUOUS
70
0
71
3
72
10
73
6
74
4
42
0.0000001000
43
0.0000001000
44
0.0000000001
12
0.5818594770
22
0.3858184428
32
0.0000000000
13
0.2480974925
23
0.6524730885
33
0.0000000000
40
0.0000000000
40
0.0000000000
40
0.0000000000
40
0.0000000000
40
0.2592496159
40
0.6966327143
40
1.0000000000
40
1.0000000000
40
1.0000000000
40
1.0000000000
10
154.4334920351
20
115.3918556082
30
0.0000000000
10
154.4837743171
20
115.4251967026
30
0.0000000000
10
154.6089425647
20
115.5310774783
30
0.0000000000
10
154.7489260608
20
115.7187263579
30
0.0000000000
10
154.8235919242
20
115.8745027875
30
0.0000000000
10
154.8486801452
20
115.9404824508
30
0.0000000000
11
154.4334920351
21
115.3918556082
31
0.0000000000
11
154.5731067368
21
115.5074434698
31
0.0000000000
11
154.7575660316
21
115.7497229084
31
0.0000000000
11
154.8486801452
21
115.9404824508
31
0.0000000000
0
SPLINE
5
2D3
100
AcDbEntity
8
0
100
AcDbSpline
62
7
6
CONTINUOUS
70
0
71
3
72
9
73
5
74
3
42
0.0000001000
43
0.0000001000
44
0.0000000001
12
0.1395508644
22
0.3670056582
32
0.0000000000
13
0.0000000000
23
0.3916025803
33
0.0000000000
40
0.0000000000
40
0.0000000000
40
0.0000000000
40
0.0000000000
40
0.2625123554
40
1.0000000000
40
1.0000000000
40
1.0000000000
40
1.0000000000
10
154.8486801452
20
115.9404824508
30
0.0000000000
10
154.8608914206
20
115.9725969574
30
0.0000000000
10
154.9024533893
20
116.0969021828
30
0.0000000000
10
154.9240993621
20
116.2276564388
30
0.0000000000
10
154.9240993621
20
116.3239237936
30
0.0000000000
11
154.8486801452
21
115.9404824508
31
0.0000000000
11
154.8813400154
21
116.0383046928
31
0.0000000000
11
154.9240993621
21
116.3239237936
31
0.0000000000
0
SPLINE
5
2D4
100
AcDbEntity
8
0
100
AcDbSpline
62
7
6
CONTINUOUS
70
0
71
3
72
10
73
6
74
4
42
0.0000001000
43
0.0000001000
44
0.0000000001
12
0.2585489542
22
-0.1292744771
32
0.0000000000
13
0.1665513116
23
-0.2362628044
33
0.0000000000
40
0.0000000000
40
0.0000000000
40
0.0000000000
40
0.0000000000
40
0.3079619135
40
0.6435410281
40
1.0000000000
40
1.0000000000
40
1.0000000000
40
1.0000000000
10
-157.9706513129
20
-40.0297057744
30
0.0000000000
10
-157.9441102360
20
-40.0429763129
30
0.0000000000
10
-157.8916110440
20
-40.0768155028
30
0.0000000000
10
-157.8204154469
20
-40.1422529706
30
0.0000000000
10
-157.7783088483
20
-40.1943016665
30
0.0000000000
10
-157.7585192786
20
-40.2223743320
30
0.0000000000
11
-157.9706513129
21
-40.0297057744
31
0.0000000000
11
-157.8953941947
21
-40.0772577432
31
0.0000000000
11
-157.8235864312
21
-40.1424770216
31
0.0000000000
11
-157.7585192786
21
-40.2223743320
31
0.0000000000
0
ENDSEC
0
SECTION
2
OBJECTS
0
DICTIONARY
5
2D5
100
AcDbDictionary
3
ACAD_GROUP
350
2D6
3
ACAD_MLINESTYLE
350
2D7
0
DICTIONARY
5
2D6
102
{ACAD_REACTORS
330
2D5
102
}
100
AcDbDictionary
0
DICTIONARY
5
2D7
102
{ACAD_REACTORS
330
2D5
102
}
100
AcDbDictionary
3
STANDARD
350
2D8
0
MLINESTYLE
5
2D8
102
{ACAD_REACTORS
330
2D7
102
}
100
AcDbMlineStyle
2
STANDARD
70
0
3

62
256
51
90.0
52
90.0
71
2
49
0.5
62
256
6
BYLAYER
49
-0.5
62
256
6
BYLAYER
0
ENDSEC
0
EOF
