0
SECTION
2
HEADER
9
$ACADVER
1
AC1014
9
$HANDSEED
5
       2B8
9
$EXTMAX
10
297.0000000000
20
210.0000000000
9
$EXTMIN
10
0.0000000000
20
0.0000000000
9
$LIMMIN
10
0.0000000000
20
0.0000000000
9
$LIMMAX
10
297.0000000000
20
210.0000000000
9
$VIEWCTR
10
148.5000000000
20
105.0000000000
9
$VIEWSIZE
40
210.0000000000
9
$CLAYER
8
0
9
$LTSCALE
40
16.3350000000
9
$CELTYPE
6
BYLAYER
9
$DIMSCALE
40
1
9
$DIMASZ
40
3.0000000000
9
$DIMEXO
40
1.8562500000
9
$DIMDLI
40
11.2860000000
9
$DIMEXE
40
5.3460000000
9
$DIMCEN
40
2.6730000000
9
$DIMLFAC
40
1.0000000000
9
$DIMTXT
40
3.0000000000
9
$DIMTOL
70
1
9
$DIMLIM
70
0
9
$DIMTFAC
40
1.0000000000
9
$DIMTP
40
0.0100000000
9
$DIMTM
40
0.0100000000
9
$MEASUREMENT
70
1
0
ENDSEC
0
SECTION
2
CLASSES
0
ENDSEC
0
SECTION
2
TABLES
0
TABLE
2
VPORT
5
8
100
AcDbSymbolTable
70
2
0
VPORT
5
1F4
100
AcDbSymbolTableRecord
100
AcDbViewportTableRecord
2
*ACTIVE
70
0
10
0.0
20
0.0
11
1.0
21
1.0
12
148.5000000000
22
105.0000000000
13
0.0
23
0.0
14
1.0
24
1.0
15
0.0
25
0.0
16
0.0
26
0.0
36
1.0
17
0.0
27
0.0
37
0.0
40
210.0000000000
41
1.4142857143
42
50.0
43
0.0
44
0.0
50
0.0
51
0.0
71
0
72
100
73
1
74
1
75
0
76
0
77
0
78
0
0
ENDTAB
0
TABLE
2
LTYPE
5
5
100
AcDbSymbolTable
70
6
0
LTYPE
5
14
100
AcDbSymbolTableRecord
100
AcDbLinetypeTableRecord
2
BYBLOCK
70
0
3

72
65
73
0
40
0.0
0
LTYPE
5
15
100
AcDbSymbolTableRecord
100
AcDbLinetypeTableRecord
2
BYLAYER
70
0
3

72
65
73
0
40
0.0
0
LTYPE
5
16
100
AcDbSymbolTableRecord
100
AcDbLinetypeTableRecord
2
CONTINUOUS
70
64
3
Solid line
72
65
73
0
40
0
0
LTYPE
5
1F5
100
AcDbSymbolTableRecord
100
AcDbLinetypeTableRecord
2
CENTER
70
64
3
____ _ ____ _ ____ _ ____ _ ____ _ ____ _ ____
72
65
73
4
40
0.6
49
0.375
74
0
49
-0.075
74
0
49
0.075
74
0
49
-0.075
74
0
0
LTYPE
5
1F6
100
AcDbSymbolTableRecord
100
AcDbLinetypeTableRecord
2
HIDDEN
70
64
3
- - - - - - - - - - - - - - - - - - - -
72
65
73
2
40
0.2
49
0.1
74
0
49
-0.1
74
0
0
LTYPE
5
1F7
100
AcDbSymbolTableRecord
100
AcDbLinetypeTableRecord
2
PHANTOM
70
64
3
_____ _ _ _____ _ _ _____ _ _ _____
72
65
73
6
40
0.8
49
0.45
74
0
49
-0.05
74
0
49
0.1
74
0
49
-0.05
74
0
49
0.1
74
0
49
-0.05
74
0
0
LTYPE
5
1F8
100
AcDbSymbolTableRecord
100
AcDbLinetypeTableRecord
2
DOT
70
64
3
. . . . . . . . . . . . . . . . . . . .
72
65
73
2
40
0.2
49
0.1
74
0
49
-0.1
74
0
0
LTYPE
5
1F9
100
AcDbSymbolTableRecord
100
AcDbLinetypeTableRecord
2
DASHED
70
64
3
- - - - - - - - - - - - - - - - - - - -
72
65
73
2
40
0.2
49
0.1
74
0
49
-0.1
74
0
0
ENDTAB
0
TABLE
2
LAYER
5
2
100
AcDbSymbolTable
70
36
0
LAYER
5
10
100
AcDbSymbolTableRecord
100
AcDbLayerTableRecord
2
0
70
0
62
7
6
CONTINUOUS
0
LAYER
5
1FA
100
AcDbSymbolTableRecord
100
AcDbLayerTableRecord
2
DEFAULT_1
70
0
62
7
6
CENTER
0
LAYER
5
1FB
100
AcDbSymbolTableRecord
100
AcDbLayerTableRecord
2
DEFAULT_2
70
0
62
8
6
HIDDEN
0
LAYER
5
1FC
100
AcDbSymbolTableRecord
100
AcDbLayerTableRecord
2
DEFAULT_3
70
0
62
7
6
PHANTOM
0
LAYER
5
1FD
100
AcDbSymbolTableRecord
100
AcDbLayerTableRecord
2
ASSI
70
0
62
7
6
CONTINUOUS
0
LAYER
5
1FE
100
AcDbSymbolTableRecord
100
AcDbLayerTableRecord
2
COORDINATE
70
0
62
7
6
CONTINUOUS
0
LAYER
5
1FF
100
AcDbSymbolTableRecord
100
AcDbLayerTableRecord
2
COORD_ORIGINE
70
0
62
7
6
CONTINUOUS
0
LAYER
5
200
100
AcDbSymbolTableRecord
100
AcDbLayerTableRecord
2
PIANI
70
0
62
7
6
CONTINUOUS
0
LAYER
5
201
100
AcDbSymbolTableRecord
100
AcDbLayerTableRecord
2
PIANI_ORIGINE
70
0
62
7
6
CONTINUOUS
0
LAYER
5
202
100
AcDbSymbolTableRecord
100
AcDbLayerTableRecord
2
RACCORDO
70
0
62
7
6
CONTINUOUS
0
LAYER
5
203
100
AcDbSymbolTableRecord
100
AcDbLayerTableRecord
2
TRASH
70
0
62
7
6
CONTINUOUS
0
ENDTAB
0
TABLE
2
STYLE
5
3
100
AcDbSymbolTable
70
1
0
STYLE
5
11
100
AcDbSymbolTableRecord
100
AcDbTextStyleTableRecord
2
STANDARD
70
0
40
0.0
41
0.8000000000
50
0.0
71
0
42
0.2
3
txt
4

0
ENDTAB
0
TABLE
2
VIEW
5
6
100
AcDbSymbolTable
70
0
0
ENDTAB
0
TABLE
2
UCS
5
7
100
AcDbSymbolTable
70
0
0
ENDTAB
0
TABLE
2
APPID
5
9
100
AcDbSymbolTable
70
1
0
APPID
5
204
100
AcDbSymbolTableRecord
100
AcDbRegAppTableRecord
2
ACAD
70
0
0
ENDTAB
0
TABLE
2
DIMSTYLE
5
A
100
AcDbSymbolTable
70
1
0
DIMSTYLE
105
205
100
AcDbSymbolTableRecord
100
AcDbDimStyleTableRecord
2
STANDARD
70
0
3

4

5

6

7

40
1.0
41
3.0000000000
42
0.0625
43
0.38
44
0.18
45
0.0
46
0.0
47
0.0100000000
48
0.0100000000
140
3.0000000000
141
0.09
142
0.0
143
25.4
144
1.0000000000
145
0.0
146
1.0000000000
147
0.09
71
1
72
0
73
0
74
0
75
0
76
0
77
1
78
8
170
0
171
2
172
0
173
0
174
0
175
0
176
0
177
0
178
0
270
2
271
2
272
2
273
2
274
2
340
11
275
0
280
0
281
0
282
0
283
1
284
8
285
0
286
0
287
3
288
0
0
ENDTAB
0
TABLE
2
BLOCK_RECORD
5
1
100
AcDbSymbolTable
70
0
0
BLOCK_RECORD
5
1B
100
AcDbSymbolTableRecord
100
AcDbBlockTableRecord
2
*MODEL_SPACE
0
BLOCK_RECORD
5
1C
100
AcDbSymbolTableRecord
100
AcDbBlockTableRecord
2
*PAPER_SPACE
0
ENDTAB
0
ENDSEC
0
SECTION
2
BLOCKS
0
BLOCK
5
1E
100
AcDbEntity
8
0
100
AcDbBlockBegin
2
*MODEL_SPACE
70
0
10
0.0
20
0.0
30
0.0
3
*MODEL_SPACE
1

0
ENDBLK
5
1F
100
AcDbEntity
8
0
100
AcDbBlockEnd
0
BLOCK
5
20
100
AcDbEntity
8
0
100
AcDbBlockBegin
2
*PAPER_SPACE
70
0
10
0.0
20
0.0
30
0.0
3
*PAPER_SPACE
1

0
ENDBLK
5
21
100
AcDbEntity
8
0
100
AcDbBlockEnd
0
ENDSEC
0
SECTION
2
ENTITIES
0
LINE
5
206
100
AcDbEntity
8
0
100
AcDbLine
62
7
6
CONTINUOUS
10
-207.9352426109
20
-116.0549645583
11
-208.6852426109
21
-115.4054455055
0
LINE
5
207
100
AcDbEntity
8
0
100
AcDbLine
62
9
6
CONTINUOUS
10
-208.7807295432
20
-114.0312487742
11
-209.5307295432
21
-113.3817297214
0
LINE
5
208
100
AcDbEntity
8
0
100
AcDbLine
62
7
6
CONTINUOUS
10
-209.5307295432
20
-113.3817297214
11
-209.5307295432
21
-5.9945796521
0
LINE
5
209
100
AcDbEntity
8
0
100
AcDbLine
62
7
6
CONTINUOUS
10
-208.7807295432
20
-114.0312487742
11
-208.7807295432
21
-6.6440987050
0
LINE
5
20A
100
AcDbEntity
8
0
100
AcDbLine
62
7
6
CONTINUOUS
10
-192.0628008096
20
-110.9735013714
11
-191.5941960637
21
-111.3793249856
0
LINE
5
20B
100
AcDbEntity
8
0
100
AcDbLine
62
9
6
CONTINUOUS
10
-190.9140837203
20
-110.5826789064
11
-190.6144001666
21
-110.8422124770
0
LINE
5
20C
100
AcDbEntity
8
0
100
AcDbLine
62
7
6
CONTINUOUS
10
-195.7461198524
20
6.9336235781
11
-195.7461198524
21
5.6345854725
0
LINE
5
20D
100
AcDbEntity
8
0
100
AcDbLine
62
9
6
CONTINUOUS
10
-195.3441960637
20
6.1836235781
11
-195.3441960637
21
4.8845854725
0
LINE
5
20E
100
AcDbEntity
8
0
100
AcDbLine
62
7
6
CONTINUOUS
10
-192.3262468713
20
-112.3123376875
11
-192.3262468713
21
-111.4463122837
0
LINE
5
20F
100
AcDbEntity
8
0
100
AcDbLine
62
7
6
CONTINUOUS
10
-192.3262468713
20
1.1369902083
11
-192.3262468713
21
0.2709648045
0
LINE
5
210
100
AcDbEntity
8
0
100
AcDbLine
62
9
6
CONTINUOUS
10
-191.5941960637
20
1.6369902083
11
-191.5941960637
21
2.9360283139
0
LINE
5
211
100
AcDbEntity
8
0
100
AcDbLine
62
9
6
CONTINUOUS
10
-191.5941960637
20
-110.8019747164
11
-191.5941960637
21
-111.3793249856
0
LINE
5
212
100
AcDbEntity
8
0
100
AcDbLine
62
9
6
CONTINUOUS
10
-203.6850580677
20
-85.7784195132
11
-202.9350580677
21
-86.4279385660
0
LINE
5
213
100
AcDbEntity
8
0
100
AcDbLine
62
9
6
CONTINUOUS
10
-200.6539691544
20
-84.9034195132
11
-199.9039691544
21
-85.5529385660
0
LINE
5
214
100
AcDbEntity
8
0
100
AcDbLine
62
9
6
CONTINUOUS
10
-203.6850580677
20
-36.2850676869
11
-202.9350580677
21
-36.9345867397
0
LINE
5
215
100
AcDbEntity
8
0
100
AcDbLine
62
9
6
CONTINUOUS
10
-200.6539691544
20
-35.4100676869
11
-199.9039691544
21
-36.0595867397
0
LINE
5
216
100
AcDbEntity
8
0
100
AcDbLine
62
9
6
CONTINUOUS
10
-208.7807295432
20
-6.6440987050
11
-209.5307295432
21
-5.9945796521
0
LINE
5
217
100
AcDbEntity
8
0
100
AcDbLine
62
9
6
CONTINUOUS
10
-205.3166279281
20
-2.1799970898
11
-206.0666279281
21
-1.5304780370
0
LINE
5
218
100
AcDbEntity
8
0
100
AcDbLine
62
9
6
CONTINUOUS
10
-192.2930967559
20
0.3092432605
11
-191.8932341694
21
-0.0370478974
0
LINE
5
219
100
AcDbEntity
8
0
100
AcDbLine
62
9
6
CONTINUOUS
10
-192.7592595732
20
1.4450029102
11
-193.5092595732
21
2.0945219630
0
LINE
5
21A
100
AcDbEntity
8
0
100
AcDbLine
62
7
6
CONTINUOUS
10
-192.6462184521
20
1.5755315535
11
-193.1819327379
21
2.0394737341
0
LINE
5
21B
100
AcDbEntity
8
0
100
AcDbLine
62
9
6
CONTINUOUS
10
-191.6906062253
20
0.8874711554
11
-190.9406062253
21
0.2379521026
0
LINE
5
21C
100
AcDbEntity
8
0
100
AcDbLine
62
9
6
CONTINUOUS
10
-191.4441960637
20
1.4204838573
11
-190.6144001666
21
0.7018595305
0
LINE
5
21D
100
AcDbEntity
8
0
100
AcDbLine
62
7
6
CONTINUOUS
10
-195.3441960637
20
4.8845854725
11
-191.5941960637
21
1.6369902083
0
LINE
5
21E
100
AcDbEntity
8
0
100
AcDbLine
62
7
6
CONTINUOUS
10
-195.3441960637
20
6.1836235781
11
-191.5941960637
21
2.9360283139
0
LINE
5
21F
100
AcDbEntity
8
0
100
AcDbLine
62
7
6
CONTINUOUS
10
181.6089053901
20
116.7326616838
11
-194.2461198524
21
8.2326616838
0
LINE
5
220
100
AcDbEntity
8
0
100
AcDbLine
62
9
6
CONTINUOUS
10
189.4569816014
20
112.9360283139
11
-191.5941960637
21
2.9360283139
0
LINE
5
221
100
AcDbEntity
8
0
100
AcDbLine
62
7
6
CONTINUOUS
10
-206.0666279281
20
-1.5304780370
11
-193.5092595732
21
2.0945219630
0
LINE
5
222
100
AcDbEntity
8
0
100
AcDbLine
62
7
6
CONTINUOUS
10
191.8720451109
20
113.3445219630
11
204.4294134657
21
116.9695219630
0
LINE
5
223
100
AcDbEntity
8
0
100
AcDbLine
62
7
6
CONTINUOUS
10
-205.3166279281
20
-2.1799970898
11
-192.7592595732
21
1.4450029102
0
LINE
5
224
100
AcDbEntity
8
0
100
AcDbLine
62
7
6
CONTINUOUS
10
192.6220451109
20
112.6950029102
11
205.1794134657
21
116.3200029102
0
LINE
5
225
100
AcDbEntity
8
0
100
AcDbLine
62
7
6
CONTINUOUS
10
-192.3262468713
20
0.7039775064
11
-191.6906005957
21
0.8874727806
0
LINE
5
226
100
AcDbEntity
8
0
100
AcDbLine
62
7
6
CONTINUOUS
10
190.3571714152
20
111.1751647874
11
191.0060197071
21
111.3624711554
0
LINE
5
227
100
AcDbEntity
8
0
100
AcDbLine
62
7
6
CONTINUOUS
10
-191.8932341694
20
-0.0370478974
11
-190.9406005957
21
0.2379537277
0
LINE
5
228
100
AcDbEntity
8
0
100
AcDbLine
62
9
6
CONTINUOUS
10
190.8033861333
20
110.4379504775
11
-190.9406005957
21
0.2379537277
0
LINE
5
229
100
AcDbEntity
8
0
100
AcDbLine
62
7
6
CONTINUOUS
10
190.8033861333
20
110.4379504775
11
191.7560197071
21
110.7129521026
0
LINE
5
22A
100
AcDbEntity
8
0
100
AcDbLine
62
7
6
CONTINUOUS
10
202.7978436053
20
86.2525910868
11
199.7667546921
21
85.3775910868
0
LINE
5
22B
100
AcDbEntity
8
0
100
AcDbLine
62
7
6
CONTINUOUS
10
-199.9039691544
20
-29.9974089132
11
-202.9350580677
21
-30.8724089132
0
LINE
5
22C
100
AcDbEntity
8
0
100
AcDbLine
62
7
6
CONTINUOUS
10
-203.6850580677
20
-36.2850676869
11
-200.6539691544
21
-35.4100676869
0
LINE
5
22D
100
AcDbEntity
8
0
100
AcDbLine
62
7
6
CONTINUOUS
10
199.0167546921
20
79.9649323131
11
202.0478436053
21
80.8399323131
0
LINE
5
22E
100
AcDbEntity
8
0
100
AcDbLine
62
7
6
CONTINUOUS
10
-202.9350580677
20
-36.9345867397
11
-199.9039691544
21
-36.0595867397
0
LINE
5
22F
100
AcDbEntity
8
0
100
AcDbLine
62
7
6
CONTINUOUS
10
199.7667546921
20
79.3154132603
11
202.7978436053
21
80.1904132603
0
LINE
5
230
100
AcDbEntity
8
0
100
AcDbLine
62
7
6
CONTINUOUS
10
202.7978436053
20
36.7592392605
11
199.7667546921
21
35.8842392605
0
LINE
5
231
100
AcDbEntity
8
0
100
AcDbLine
62
7
6
CONTINUOUS
10
-199.9039691544
20
-79.4907607395
11
-202.9350580677
21
-80.3657607395
0
LINE
5
232
100
AcDbEntity
8
0
100
AcDbLine
62
7
6
CONTINUOUS
10
-203.6850580677
20
-85.7784195132
11
-200.6539691544
21
-84.9034195132
0
LINE
5
233
100
AcDbEntity
8
0
100
AcDbLine
62
7
6
CONTINUOUS
10
199.0167546921
20
30.4715804868
11
202.0478436053
21
31.3465804868
0
LINE
5
234
100
AcDbEntity
8
0
100
AcDbLine
62
7
6
CONTINUOUS
10
-202.9350580677
20
-86.4279385660
11
-199.9039691544
21
-85.5529385660
0
LINE
5
235
100
AcDbEntity
8
0
100
AcDbLine
62
7
6
CONTINUOUS
10
199.7667546921
20
29.8220614340
11
202.7978436053
21
30.6970614340
0
LINE
5
236
100
AcDbEntity
8
0
100
AcDbLine
62
7
6
CONTINUOUS
10
191.7560197071
20
-0.1382995818
11
190.8033861333
21
-0.4133012069
0
LINE
5
237
100
AcDbEntity
8
0
100
AcDbLine
62
9
6
CONTINUOUS
10
-190.9406005957
20
-110.6132979567
11
190.8033861333
21
-0.4133012069
0
LINE
5
238
100
AcDbEntity
8
0
100
AcDbLine
62
7
6
CONTINUOUS
10
-190.9406005957
20
-110.6132979567
11
-191.8932341694
21
-110.8882995818
0
LINE
5
239
100
AcDbEntity
8
0
100
AcDbLine
62
7
6
CONTINUOUS
10
190.0116817976
20
-1.5688120237
11
-190.6935927071
21
-111.4689583823
0
LINE
5
23A
100
AcDbEntity
8
0
100
AcDbLine
62
7
6
CONTINUOUS
10
205.1794134657
20
2.0046496106
11
192.6220451109
21
-1.6203503894
0
LINE
5
23B
100
AcDbEntity
8
0
100
AcDbLine
62
7
6
CONTINUOUS
10
-192.7592595732
20
-112.8703503894
11
-205.3166279281
21
-116.4953503894
0
LINE
5
23C
100
AcDbEntity
8
0
100
AcDbLine
62
7
6
CONTINUOUS
10
192.1091414033
20
-1.4045878748
11
191.5447182755
21
-0.9157831077
0
LINE
5
23D
100
AcDbEntity
8
0
100
AcDbLine
62
9
6
CONTINUOUS
10
192.1890324090
20
-1.3123376875
11
191.4390324090
21
-0.6628186347
0
LINE
5
23E
100
AcDbEntity
8
0
100
AcDbLine
62
9
6
CONTINUOUS
10
191.8676038375
20
-0.1679469753
11
192.1890324090
21
-0.4463122837
0
LINE
5
23F
100
AcDbEntity
8
0
100
AcDbLine
62
9
6
CONTINUOUS
10
199.0167546921
20
30.4715804868
11
199.7667546921
21
29.8220614340
0
LINE
5
240
100
AcDbEntity
8
0
100
AcDbLine
62
9
6
CONTINUOUS
10
202.0478436053
20
31.3465804868
11
202.7978436053
21
30.6970614340
0
LINE
5
241
100
AcDbEntity
8
0
100
AcDbLine
62
7
6
CONTINUOUS
10
191.4390324090
20
112.7865092611
11
191.4390324090
21
111.9204838573
0
LINE
5
242
100
AcDbEntity
8
0
100
AcDbLine
62
7
6
CONTINUOUS
10
191.4390324090
20
-0.6628186347
11
191.4390324090
21
-0.2298059328
0
LINE
5
243
100
AcDbEntity
8
0
100
AcDbLine
62
7
6
CONTINUOUS
10
192.1890324090
20
112.1369902083
11
192.1890324090
21
111.2709648045
0
LINE
5
244
100
AcDbEntity
8
0
100
AcDbLine
62
7
6
CONTINUOUS
10
192.1890324090
20
-1.3123376875
11
192.1890324090
21
-0.4463122837
0
LINE
5
245
100
AcDbEntity
8
0
100
AcDbLine
62
9
6
CONTINUOUS
10
199.0167546921
20
79.9649323131
11
199.7667546921
21
79.3154132603
0
LINE
5
246
100
AcDbEntity
8
0
100
AcDbLine
62
9
6
CONTINUOUS
10
202.0478436053
20
80.8399323131
11
202.7978436053
21
80.1904132603
0
LINE
5
247
100
AcDbEntity
8
0
100
AcDbLine
62
7
6
CONTINUOUS
10
208.6435150809
20
113.8559012950
11
208.6435150809
21
6.4687512258
0
LINE
5
248
100
AcDbEntity
8
0
100
AcDbLine
62
9
6
CONTINUOUS
10
190.4632975908
20
110.7324822953
11
190.8033917629
21
110.4379521026
0
LINE
5
249
100
AcDbEntity
8
0
100
AcDbLine
62
9
6
CONTINUOUS
10
191.0060197071
20
111.3624711554
11
191.7560197071
21
110.7129521026
0
LINE
5
24A
100
AcDbEntity
8
0
100
AcDbLine
62
7
6
CONTINUOUS
10
185.7069816014
20
116.1836235781
11
189.4569816014
21
112.9360283139
0
LINE
5
24B
100
AcDbEntity
8
0
100
AcDbLine
62
9
6
CONTINUOUS
10
191.4390324090
20
111.9204838573
11
192.1890324090
21
111.2709648045
0
LINE
5
24C
100
AcDbEntity
8
0
100
AcDbLine
62
9
6
CONTINUOUS
10
192.1890324090
20
112.1369902083
11
191.4390324090
21
112.7865092611
0
LINE
5
24D
100
AcDbEntity
8
0
100
AcDbLine
62
9
6
CONTINUOUS
10
192.6220451109
20
112.6950029102
11
191.8720451109
21
113.3445219630
0
LINE
5
24E
100
AcDbEntity
8
0
100
AcDbLine
62
9
6
CONTINUOUS
10
205.1794134657
20
116.3200029102
11
204.4294134657
21
116.9695219630
0
LINE
5
24F
100
AcDbEntity
8
0
100
AcDbLine
62
7
6
CONTINUOUS
10
207.7980281486
20
115.8796170791
11
207.0480281486
21
116.5291361319
0
SPLINE
5
250
100
AcDbEntity
8
0
100
AcDbSpline
62
7
6
CONTINUOUS
70
0
71
3
72
10
73
6
74
4
42
0.0000001000
43
0.0000001000
44
0.0000000001
12
2.1000608678
22
-1.8131131226
32
0.0000000000
13
2.6470701266
23
0.7641433251
33
0.0000000000
40
0.0000000000
40
0.0000000000
40
0.0000000000
40
0.0000000000
40
0.2491317419
40
0.6093034774
40
1.0000000000
40
1.0000000000
40
1.0000000000
40
1.0000000000
10
-207.9357158040
20
-116.0539474613
30
0.0000000000
10
-207.7613185299
20
-116.2045154715
30
0.0000000000
10
-207.2780593504
20
-116.5084786161
30
0.0000000000
10
-206.3566214272
20
-116.6965725866
30
0.0000000000
10
-205.6613616259
20
-116.5948664360
30
0.0000000000
10
-205.3166279281
20
-116.4953503894
30
0.0000000000
11
-207.9357158040
21
-116.0539474613
31
0.0000000000
11
-207.3530592376
21
-116.4214269603
31
0.0000000000
11
-206.3839701280
21
-116.6349337763
31
0.0000000000
11
-205.3166279281
21
-116.4953503894
31
0.0000000000
0
SPLINE
5
251
100
AcDbEntity
8
0
100
AcDbSpline
62
7
6
CONTINUOUS
70
0
71
3
72
9
73
5
74
3
42
0.0000001000
43
0.0000001000
44
0.0000000001
12
-0.1387885540
22
0.1186172395
32
0.0000000000
13
-0.0454549484
23
0.1758399690
33
0.0000000000
40
0.0000000000
40
0.0000000000
40
0.0000000000
40
0.0000000000
40
0.3374678568
40
1.0000000000
40
1.0000000000
40
1.0000000000
40
1.0000000000
10
190.5395862538
20
110.4847133042
30
0.0000000000
10
190.5239740285
20
110.4980564727
30
0.0000000000
10
190.4822713503
20
110.5429107977
30
0.0000000000
10
190.4582194037
20
110.5993672029
30
0.0000000000
10
190.4481809489
20
110.6382004135
30
0.0000000000
11
190.5395862538
21
110.4847133042
31
0.0000000000
11
190.4978375474
21
110.5296515563
31
0.0000000000
11
190.4481809489
21
110.6382004135
31
0.0000000000
0
SPLINE
5
252
100
AcDbEntity
8
0
100
AcDbSpline
62
7
6
CONTINUOUS
70
0
71
3
72
8
73
4
74
2
42
0.0000001000
43
0.0000001000
44
0.0000000001
12
-0.0162817318
22
0.0629849846
32
0.0000000000
13
-0.0068176866
23
0.0637542789
33
0.0000000000
40
0.0000000000
40
0.0000000000
40
0.0000000000
40
0.0000000000
40
1.0000000000
40
1.0000000000
40
1.0000000000
40
1.0000000000
10
190.4481809489
20
110.6382004135
30
0.0000000000
10
190.4427537050
20
110.6591954083
30
0.0000000000
10
190.4390500607
20
110.6806081042
30
0.0000000000
10
190.4367774985
20
110.7018595305
30
0.0000000000
11
190.4481809489
21
110.6382004135
31
0.0000000000
11
190.4367774985
21
110.7018595305
31
0.0000000000
0
SPLINE
5
253
100
AcDbEntity
8
0
100
AcDbSpline
62
7
6
CONTINUOUS
70
0
71
3
72
9
73
5
74
3
42
0.0000001000
43
0.0000001000
44
0.0000000001
12
0.2028345380
22
-0.1736196706
32
0.0000000000
13
0.2648968567
23
0.0282602905
33
0.0000000000
40
0.0000000000
40
0.0000000000
40
0.0000000000
40
0.0000000000
40
0.4769845408
40
1.0000000000
40
1.0000000000
40
1.0000000000
40
1.0000000000
10
192.2948026646
20
-1.5644450860
30
0.0000000000
10
192.3270523109
20
-1.5920497190
30
0.0000000000
10
192.4073994446
20
-1.6357520358
30
0.0000000000
10
192.4975015929
20
-1.6408071908
30
0.0000000000
10
192.5436833100
20
-1.6358803346
30
0.0000000000
11
192.2948026646
21
-1.5644450860
31
0.0000000000
11
192.4059203971
21
-1.6249475979
31
0.0000000000
11
192.5436833100
21
-1.6358803346
31
0.0000000000
0
SPLINE
5
254
100
AcDbEntity
8
0
100
AcDbSpline
62
7
6
CONTINUOUS
70
0
71
3
72
8
73
4
74
2
42
0.0000001000
43
0.0000001000
44
0.0000000001
12
0.0800005082
22
0.0085347846
32
0.0000000000
13
0.0760277550
23
0.0219473224
33
0.0000000000
40
0.0000000000
40
0.0000000000
40
0.0000000000
40
0.0000000000
40
1.0000000000
40
1.0000000000
40
1.0000000000
40
1.0000000000
10
192.5436833100
20
-1.6358803346
30
0.0000000000
10
192.5703501461
20
-1.6330354064
30
0.0000000000
10
192.5967025259
20
-1.6276661635
30
0.0000000000
10
192.6220451109
20
-1.6203503894
30
0.0000000000
11
192.5436833100
21
-1.6358803346
31
0.0000000000
11
192.6220451109
21
-1.6203503894
31
0.0000000000
0
SPLINE
5
255
100
AcDbEntity
8
0
100
AcDbSpline
62
7
6
CONTINUOUS
70
0
71
3
72
9
73
5
74
3
42
0.0000001000
43
0.0000001000
44
0.0000000001
12
-0.1563765333
22
0.1340266540
32
0.0000000000
13
-0.0394065050
23
0.2023637775
33
0.0000000000
40
0.0000000000
40
0.0000000000
40
0.0000000000
40
0.0000000000
40
0.3474544627
40
1.0000000000
40
1.0000000000
40
1.0000000000
40
1.0000000000
10
-192.2205405521
20
0.0189338928
30
0.0000000000
10
-192.2386517935
20
0.0344566125
30
0.0000000000
10
-192.2852696297
20
0.0852629465
30
0.0000000000
10
-192.3104113549
20
0.1506561687
30
0.0000000000
10
-192.3189828679
20
0.1946733620
30
0.0000000000
11
-192.2205405521
21
0.0189338928
31
0.0000000000
11
-192.2684542490
21
0.0715233838
31
0.0000000000
11
-192.3189828679
21
0.1946733620
31
0.0000000000
0
SPLINE
5
256
100
AcDbEntity
8
0
100
AcDbSpline
62
7
6
CONTINUOUS
70
0
71
3
72
8
73
4
74
2
42
0.0000001000
43
0.0000001000
44
0.0000000001
12
-0.0147766330
22
0.0758822755
32
0.0000000000
13
0.0000000000
23
0.0757772325
33
0.0000000000
40
0.0000000000
40
0.0000000000
40
0.0000000000
40
0.0000000000
40
1.0000000000
40
1.0000000000
40
1.0000000000
40
1.0000000000
10
-192.3189828679
20
0.1946733620
30
0.0000000000
10
-192.3239084122
20
0.2199674538
30
0.0000000000
10
-192.3262468713
20
0.2457057270
30
0.0000000000
10
-192.3262468713
20
0.2709648045
30
0.0000000000
11
-192.3189828679
21
0.1946733620
31
0.0000000000
11
-192.3262468713
21
0.2709648045
31
0.0000000000
0
SPLINE
5
257
100
AcDbEntity
8
0
100
AcDbSpline
62
7
6
CONTINUOUS
70
0
71
3
72
10
73
6
74
4
42
0.0000001000
43
0.0000001000
44
0.0000000001
12
0.8627215477
22
0.2263810793
32
0.0000000000
13
0.1144203677
23
0.8717980700
33
0.0000000000
40
0.0000000000
40
0.0000000000
40
0.0000000000
40
0.0000000000
40
0.0972567690
40
0.4820154367
40
1.0000000000
40
1.0000000000
40
1.0000000000
40
1.0000000000
10
190.0115302900
20
-1.5661252126
30
0.0000000000
10
190.0394987935
20
-1.5587861818
30
0.0000000000
10
190.1730341519
20
-1.5083152447
30
0.0000000000
10
190.3594648997
20
-1.2517325765
30
0.0000000000
10
190.4170215038
20
-0.9927384578
30
0.0000000000
10
190.4367774985
20
-0.8422124770
30
0.0000000000
11
190.0115302900
21
-1.5661252126
31
0.0000000000
11
190.0916079466
21
-1.5354387067
31
0.0000000000
11
190.3145105233
21
-1.2809448772
31
0.0000000000
11
190.4367774985
21
-0.8422124770
31
0.0000000000
0
SPLINE
5
258
100
AcDbEntity
8
0
100
AcDbSpline
62
7
6
CONTINUOUS
70
0
71
3
72
14
73
10
74
8
42
0.0000001000
43
0.0000001000
44
0.0000000001
12
-5.5042726862
22
4.7714202157
32
0.0000000000
13
6.9316000375
23
2.0009805738
33
0.0000000000
40
0.0000000000
40
0.0000000000
40
0.0000000000
40
0.0000000000
40
0.0689174225
40
0.2013815792
40
0.3472913426
40
0.5068144908
40
0.6743708007
40
0.8415314345
40
1.0000000000
40
1.0000000000
40
1.0000000000
40
1.0000000000
10
197.4764686806
20
30.2079187138
30
0.0000000000
10
197.3500219185
20
30.3175300414
30
0.0000000000
10
197.0199279151
20
30.6836414514
30
0.0000000000
10
196.7107739914
20
31.4875948871
30
0.0000000000
10
196.7306469916
20
32.5612555125
30
0.0000000000
10
197.1028389033
20
33.6524831764
30
0.0000000000
10
197.7791206280
20
34.6464572492
30
0.0000000000
10
198.6817815903
20
35.4349087425
30
0.0000000000
10
199.4006077873
20
35.7785417535
30
0.0000000000
10
199.7667546921
20
35.8842392605
30
0.0000000000
11
197.4764686806
21
30.2079187138
31
0.0000000000
11
197.1417546921
21
30.5798336623
31
0.0000000000
11
196.7817148303
21
31.4651004972
31
0.0000000000
11
196.7817148303
21
32.5177866295
31
0.0000000000
11
197.1417546921
21
33.6109225756
31
0.0000000000
11
197.8184082948
21
34.6126600074
31
0.0000000000
11
198.7300612275
21
35.4021746066
31
0.0000000000
11
199.7667546921
21
35.8842392605
31
0.0000000000
0
SPLINE
5
259
100
AcDbEntity
8
0
100
AcDbSpline
62
7
6
CONTINUOUS
70
0
71
3
72
14
73
10
74
8
42
0.0000001000
43
0.0000001000
44
0.0000000001
12
-5.5042726862
22
4.7714202157
32
0.0000000000
13
6.9316000375
23
2.0009805738
33
0.0000000000
40
0.0000000000
40
0.0000000000
40
0.0000000000
40
0.0000000000
40
0.0689174225
40
0.2013815792
40
0.3472913426
40
0.5068144908
40
0.6743708007
40
0.8415314345
40
1.0000000000
40
1.0000000000
40
1.0000000000
40
1.0000000000
10
197.4764686806
20
79.7012705400
30
0.0000000000
10
197.3500219185
20
79.8108818677
30
0.0000000000
10
197.0199279151
20
80.1769932777
30
0.0000000000
10
196.7107739914
20
80.9809467134
30
0.0000000000
10
196.7306469916
20
82.0546073387
30
0.0000000000
10
197.1028389033
20
83.1458350027
30
0.0000000000
10
197.7791206280
20
84.1398090755
30
0.0000000000
10
198.6817815903
20
84.9282605688
30
0.0000000000
10
199.4006077873
20
85.2718935797
30
0.0000000000
10
199.7667546921
20
85.3775910868
30
0.0000000000
11
197.4764686806
21
79.7012705400
31
0.0000000000
11
197.1417546921
21
80.0731854886
31
0.0000000000
11
196.7817148303
21
80.9584523235
31
0.0000000000
11
196.7817148303
21
82.0111384558
31
0.0000000000
11
197.1417546921
21
83.1042744018
31
0.0000000000
11
197.8184082948
21
84.1060118336
31
0.0000000000
11
198.7300612275
21
84.8955264328
31
0.0000000000
11
199.7667546921
21
85.3775910868
31
0.0000000000
0
SPLINE
5
25A
100
AcDbEntity
8
0
100
AcDbSpline
62
7
6
CONTINUOUS
70
0
71
3
72
14
73
10
74
8
42
0.0000001000
43
0.0000001000
44
0.0000000001
12
-5.5042726862
22
4.7714202157
32
0.0000000000
13
6.9316000375
23
2.0009805738
33
0.0000000000
40
0.0000000000
40
0.0000000000
40
0.0000000000
40
0.0000000000
40
0.0689174225
40
0.2013815792
40
0.3472913426
40
0.5068144908
40
0.6743708007
40
0.8415314345
40
1.0000000000
40
1.0000000000
40
1.0000000000
40
1.0000000000
10
-205.2253440792
20
-86.0420812862
30
0.0000000000
10
-205.3517908413
20
-85.9324699586
30
0.0000000000
10
-205.6818848447
20
-85.5663585486
30
0.0000000000
10
-205.9910387684
20
-84.7624051129
30
0.0000000000
10
-205.9711657682
20
-83.6887444875
30
0.0000000000
10
-205.5989738565
20
-82.5975168236
30
0.0000000000
10
-204.9226921318
20
-81.6035427508
30
0.0000000000
10
-204.0200311695
20
-80.8150912575
30
0.0000000000
10
-203.3012049725
20
-80.4714582465
30
0.0000000000
10
-202.9350580677
20
-80.3657607395
30
0.0000000000
11
-205.2253440792
21
-86.0420812862
31
0.0000000000
11
-205.5600580677
21
-85.6701663377
31
0.0000000000
11
-205.9200979295
21
-84.7848995028
31
0.0000000000
11
-205.9200979295
21
-83.7322133705
31
0.0000000000
11
-205.5600580677
21
-82.6390774244
31
0.0000000000
11
-204.8834044650
21
-81.6373399926
31
0.0000000000
11
-203.9717515322
21
-80.8478253934
31
0.0000000000
11
-202.9350580677
21
-80.3657607395
31
0.0000000000
0
SPLINE
5
25B
100
AcDbEntity
8
0
100
AcDbSpline
62
7
6
CONTINUOUS
70
0
71
3
72
14
73
10
74
8
42
0.0000001000
43
0.0000001000
44
0.0000000001
12
-5.5042726862
22
4.7714202157
32
0.0000000000
13
6.9316000375
23
2.0009805738
33
0.0000000000
40
0.0000000000
40
0.0000000000
40
0.0000000000
40
0.0000000000
40
0.0689174225
40
0.2013815792
40
0.3472913426
40
0.5068144908
40
0.6743708007
40
0.8415314345
40
1.0000000000
40
1.0000000000
40
1.0000000000
40
1.0000000000
10
-205.2253440792
20
-36.5487294600
30
0.0000000000
10
-205.3517908413
20
-36.4391181323
30
0.0000000000
10
-205.6818848447
20
-36.0730067223
30
0.0000000000
10
-205.9910387684
20
-35.2690532866
30
0.0000000000
10
-205.9711657682
20
-34.1953926613
30
0.0000000000
10
-205.5989738565
20
-33.1041649973
30
0.0000000000
10
-204.9226921318
20
-32.1101909245
30
0.0000000000
10
-204.0200311695
20
-31.3217394312
30
0.0000000000
10
-203.3012049725
20
-30.9781064203
30
0.0000000000
10
-202.9350580677
20
-30.8724089132
30
0.0000000000
11
-205.2253440792
21
-36.5487294600
31
0.0000000000
11
-205.5600580677
21
-36.1768145114
31
0.0000000000
11
-205.9200979295
21
-35.2915476765
31
0.0000000000
11
-205.9200979295
21
-34.2388615442
31
0.0000000000
11
-205.5600580677
21
-33.1457255982
31
0.0000000000
11
-204.8834044650
21
-32.1439881664
31
0.0000000000
11
-203.9717515322
21
-31.3544735672
31
0.0000000000
11
-202.9350580677
21
-30.8724089132
31
0.0000000000
0
SPLINE
5
25C
100
AcDbEntity
8
0
100
AcDbSpline
62
7
6
CONTINUOUS
70
0
71
3
72
10
73
6
74
4
42
0.0000001000
43
0.0000001000
44
0.0000000001
12
2.3122046419
22
0.6674759862
32
0.0000000000
13
1.8360847115
23
-1.5916238547
33
0.0000000000
40
0.0000000000
40
0.0000000000
40
0.0000000000
40
0.0000000000
40
0.4334776809
40
0.8277563343
40
1.0000000000
40
1.0000000000
40
1.0000000000
40
1.0000000000
10
202.7978436053
20
36.7592392605
30
0.0000000000
10
203.1319399740
20
36.8556845747
30
0.0000000000
10
203.8061042572
20
36.9448119234
30
0.0000000000
10
204.6051656370
20
36.7294813884
30
0.0000000000
10
204.9827116298
20
36.4647643564
30
0.0000000000
10
205.0881296168
20
36.3733819807
30
0.0000000000
11
202.7978436053
21
36.7592392605
31
0.0000000000
11
203.8345370699
21
36.8757098574
31
0.0000000000
11
204.7461900026
21
36.6125383243
31
0.0000000000
11
205.0881296168
21
36.3733819807
31
0.0000000000
0
SPLINE
5
25D
100
AcDbEntity
8
0
100
AcDbSpline
62
7
6
CONTINUOUS
70
0
71
3
72
10
73
6
74
4
42
0.0000001000
43
0.0000001000
44
0.0000000001
12
2.3122046419
22
0.6674759862
32
0.0000000000
13
1.8360847115
23
-1.5916238547
33
0.0000000000
40
0.0000000000
40
0.0000000000
40
0.0000000000
40
0.0000000000
40
0.4334776809
40
0.8277563343
40
1.0000000000
40
1.0000000000
40
1.0000000000
40
1.0000000000
10
202.7978436053
20
86.2525910868
30
0.0000000000
10
203.1319399740
20
86.3490364010
30
0.0000000000
10
203.8061042572
20
86.4381637497
30
0.0000000000
10
204.6051656370
20
86.2228332147
30
0.0000000000
10
204.9827116298
20
85.9581161827
30
0.0000000000
10
205.0881296168
20
85.8667338070
30
0.0000000000
11
202.7978436053
21
86.2525910868
31
0.0000000000
11
203.8345370699
21
86.3690616837
31
0.0000000000
11
204.7461900026
21
86.1058901506
31
0.0000000000
11
205.0881296168
21
85.8667338070
31
0.0000000000
0
SPLINE
5
25E
100
AcDbEntity
8
0
100
AcDbSpline
62
7
6
CONTINUOUS
70
0
71
3
72
10
73
6
74
4
42
0.0000001000
43
0.0000001000
44
0.0000000001
12
2.3122046419
22
0.6674759862
32
0.0000000000
13
1.8360847115
23
-1.5916238547
33
0.0000000000
40
0.0000000000
40
0.0000000000
40
0.0000000000
40
0.0000000000
40
0.4334776809
40
0.8277563343
40
1.0000000000
40
1.0000000000
40
1.0000000000
40
1.0000000000
10
-199.9039691544
20
-79.4907607395
30
0.0000000000
10
-199.5698727858
20
-79.3943154253
30
0.0000000000
10
-198.8957085026
20
-79.3051880766
30
0.0000000000
10
-198.0966471228
20
-79.5205186116
30
0.0000000000
10
-197.7191011300
20
-79.7852356436
30
0.0000000000
10
-197.6136831429
20
-79.8766180193
30
0.0000000000
11
-199.9039691544
21
-79.4907607395
31
0.0000000000
11
-198.8672756899
21
-79.3742901426
31
0.0000000000
11
-197.9556227571
21
-79.6374616757
31
0.0000000000
11
-197.6136831429
21
-79.8766180193
31
0.0000000000
0
SPLINE
5
25F
100
AcDbEntity
8
0
100
AcDbSpline
62
7
6
CONTINUOUS
70
0
71
3
72
10
73
6
74
4
42
0.0000001000
43
0.0000001000
44
0.0000000001
12
2.3122046419
22
0.6674759862
32
0.0000000000
13
1.8360847115
23
-1.5916238547
33
0.0000000000
40
0.0000000000
40
0.0000000000
40
0.0000000000
40
0.0000000000
40
0.4334776809
40
0.8277563343
40
1.0000000000
40
1.0000000000
40
1.0000000000
40
1.0000000000
10
-199.9039691544
20
-29.9974089132
30
0.0000000000
10
-199.5698727858
20
-29.9009635990
30
0.0000000000
10
-198.8957085026
20
-29.8118362503
30
0.0000000000
10
-198.0966471228
20
-30.0271667853
30
0.0000000000
10
-197.7191011300
20
-30.2918838173
30
0.0000000000
10
-197.6136831429
20
-30.3832661930
30
0.0000000000
11
-199.9039691544
21
-29.9974089132
31
0.0000000000
11
-198.8672756899
21
-29.8809383163
31
0.0000000000
11
-197.9556227571
21
-30.1441098494
31
0.0000000000
11
-197.6136831429
21
-30.3832661930
31
0.0000000000
0
SPLINE
5
260
100
AcDbEntity
8
0
100
AcDbSpline
62
7
6
CONTINUOUS
70
0
71
3
72
10
73
6
74
4
42
0.0000001000
43
0.0000001000
44
0.0000000001
12
0.0000000000
22
2.2486847810
32
0.0000000000
13
-1.7140124141
23
1.4798134892
33
0.0000000000
40
0.0000000000
40
0.0000000000
40
0.0000000000
40
0.0000000000
40
0.4587561929
40
0.8879042699
40
1.0000000000
40
1.0000000000
40
1.0000000000
40
1.0000000000
10
208.6435150809
20
113.8559012950
30
0.0000000000
10
208.6435150809
20
114.1997673181
30
0.0000000000
10
208.5437434371
20
114.8731007303
30
0.0000000000
10
208.1566733857
20
115.5392115274
30
0.0000000000
10
207.8625458326
20
115.8233063910
30
0.0000000000
10
207.7985013416
20
115.8785999821
30
0.0000000000
11
208.6435150809
21
113.8559012950
31
0.0000000000
11
208.4753045523
21
114.8736929213
31
0.0000000000
11
207.9807479524
21
115.7023514495
31
0.0000000000
11
207.7985013416
21
115.8785999821
31
0.0000000000
0
SPLINE
5
261
100
AcDbEntity
8
0
100
AcDbSpline
62
7
6
CONTINUOUS
70
0
71
3
72
12
73
8
74
6
42
0.0000001000
43
0.0000001000
44
0.0000000001
12
5.7670154267
22
1.6647939545
32
0.0000000000
13
-0.0000000000
23
6.0024999661
33
0.0000000000
40
0.0000000000
40
0.0000000000
40
0.0000000000
40
0.0000000000
40
0.1945493060
40
0.4015770956
40
0.6093857215
40
0.8119705428
40
1.0000000000
40
1.0000000000
40
1.0000000000
40
1.0000000000
10
205.1794134657
20
2.0046496106
30
0.0000000000
10
205.5534030820
20
2.1126111134
30
0.0000000000
10
206.2945158370
20
2.4514628719
30
0.0000000000
10
207.2528257861
20
3.2227019369
30
0.0000000000
10
208.0181434869
20
4.2070385753
30
0.0000000000
10
208.5159746624
20
5.3084403841
30
0.0000000000
10
208.6435150809
20
6.0925356222
30
0.0000000000
10
208.6435150809
20
6.4687512258
30
0.0000000000
11
205.1794134657
21
2.0046496106
31
0.0000000000
11
206.2457632890
21
2.4806888179
31
0.0000000000
11
207.2171880102
21
3.2556715800
31
0.0000000000
11
207.9817245694
21
4.2412774513
31
0.0000000000
11
208.4749833145
21
5.3527580955
31
0.0000000000
11
208.6435150809
21
6.4687512258
31
0.0000000000
0
SPLINE
5
262
100
AcDbEntity
8
0
100
AcDbSpline
62
7
6
CONTINUOUS
70
0
71
3
72
10
73
6
74
4
42
0.0000001000
43
0.0000001000
44
0.0000000001
12
0.7173804913
22
0.2070899099
32
0.0000000000
13
0.0000000000
23
0.7466732887
33
0.0000000000
40
0.0000000000
40
0.0000000000
40
0.0000000000
40
0.0000000000
40
0.3337749835
40
0.6787429737
40
1.0000000000
40
1.0000000000
40
1.0000000000
40
1.0000000000
10
-192.7592595732
20
-112.8703503894
30
0.0000000000
10
-192.6794450193
20
-112.8473099123
30
0.0000000000
10
-192.5281719617
20
-112.7588742924
30
0.0000000000
10
-192.3721968384
20
-112.5587888796
30
0.0000000000
10
-192.3262468713
20
-112.3922957009
30
0.0000000000
10
-192.3262468713
20
-112.3123376875
30
0.0000000000
11
-192.7592595732
21
-112.8703503894
31
0.0000000000
11
-192.5416467797
21
-112.7488773000
31
0.0000000000
11
-192.3840394936
21
-112.5451456943
31
0.0000000000
11
-192.3262468713
21
-112.3123376875
31
0.0000000000
0
SPLINE
5
263
100
AcDbEntity
8
0
100
AcDbSpline
62
7
6
CONTINUOUS
70
0
71
3
72
9
73
5
74
3
42
0.0000001000
43
0.0000001000
44
0.0000000001
12
0.0000000000
22
0.2779164488
32
0.0000000000
13
-0.2151388685
23
0.1841517714
33
0.0000000000
40
0.0000000000
40
0.0000000000
40
0.0000000000
40
0.0000000000
40
0.7523007766
40
1.0000000000
40
1.0000000000
40
1.0000000000
40
1.0000000000
10
-192.3262468713
20
1.1369902083
30
0.0000000000
10
-192.3262468713
20
1.2066824617
30
0.0000000000
10
-192.3499812952
20
1.3042300463
30
0.0000000000
10
-192.4142538834
20
1.3738928566
30
0.0000000000
10
-192.4320171269
20
1.3890976068
30
0.0000000000
11
-192.3262468713
21
1.1369902083
31
0.0000000000
11
-192.3849005582
21
1.3376711408
31
0.0000000000
11
-192.4320171269
21
1.3890976068
31
0.0000000000
0
SPLINE
5
264
100
AcDbEntity
8
0
100
AcDbSpline
62
7
6
CONTINUOUS
70
0
71
3
72
10
73
6
74
4
42
0.0000001000
43
0.0000001000
44
0.0000000001
12
0.0683264625
22
0.5205968076
32
0.0000000000
13
0.4787588097
23
0.2226367779
33
0.0000000000
40
0.0000000000
40
0.0000000000
40
0.0000000000
40
0.0000000000
40
0.3526043015
40
0.7444413595
40
1.0000000000
40
1.0000000000
40
1.0000000000
40
1.0000000000
10
190.4367774985
20
-0.8422124770
30
0.0000000000
10
190.4448082334
20
-0.7810242524
30
0.0000000000
10
190.4937614918
20
-0.6561522290
30
0.0000000000
10
190.6058651102
20
-0.5188409682
30
0.0000000000
10
190.7026440666
20
-0.4548317265
30
0.0000000000
10
190.7434277168
20
-0.4358661424
30
0.0000000000
11
190.4367774985
21
-0.8422124770
31
0.0000000000
11
190.4989217673
21
-0.6678149036
31
0.0000000000
11
190.6300088803
21
-0.5092446811
31
0.0000000000
11
190.7434277168
21
-0.4358661424
31
0.0000000000
0
SPLINE
5
265
100
AcDbEntity
8
0
100
AcDbSpline
62
7
6
CONTINUOUS
70
0
71
3
72
8
73
4
74
2
42
0.0000001000
43
0.0000001000
44
0.0000000001
12
0.0583335886
22
0.0271268161
32
0.0000000000
13
0.0614654419
23
0.0177435447
33
0.0000000000
40
0.0000000000
40
0.0000000000
40
0.0000000000
40
0.0000000000
40
1.0000000000
40
1.0000000000
40
1.0000000000
40
1.0000000000
10
190.7434277168
20
-0.4358661424
30
0.0000000000
10
190.7628722463
20
-0.4268238704
30
0.0000000000
10
190.7829033045
20
-0.4192141160
30
0.0000000000
10
190.8033917851
20
-0.4132996011
30
0.0000000000
11
190.7434277168
21
-0.4358661424
31
0.0000000000
11
190.8033917851
21
-0.4132996011
31
0.0000000000
0
SPLINE
5
266
100
AcDbEntity
8
0
100
AcDbSpline
62
7
6
CONTINUOUS
70
0
71
3
72
9
73
5
74
3
42
0.0000001000
43
0.0000001000
44
0.0000000001
12
0.2164786535
22
0.0624920044
32
0.0000000000
13
0.2023209931
23
-0.1119561961
33
0.0000000000
40
0.0000000000
40
0.0000000000
40
0.0000000000
40
0.0000000000
40
0.7731298729
40
1.0000000000
40
1.0000000000
40
1.0000000000
40
1.0000000000
10
-190.9406062024
20
-110.6132996016
30
0.0000000000
10
-190.8848174978
20
-110.5971947898
30
0.0000000000
10
-190.8052410411
20
-110.5916410018
30
0.0000000000
10
-190.7334775355
20
-110.6215032546
30
0.0000000000
10
-190.7181773391
20
-110.6299697601
30
0.0000000000
11
-190.9406062024
21
-110.6132996016
31
0.0000000000
11
-190.7664416598
21
-110.6097764140
31
0.0000000000
11
-190.7181773391
21
-110.6299697601
31
0.0000000000
0
SPLINE
5
267
100
AcDbEntity
8
0
100
AcDbSpline
62
7
6
CONTINUOUS
70
0
71
3
72
8
73
4
74
2
42
0.0000001000
43
0.0000001000
44
0.0000000001
12
0.0395376420
22
-0.0218785205
32
0.0000000000
13
0.0340618153
23
-0.0291578492
33
0.0000000000
40
0.0000000000
40
0.0000000000
40
0.0000000000
40
0.0000000000
40
1.0000000000
40
1.0000000000
40
1.0000000000
40
1.0000000000
10
-190.7181773391
20
-110.6299697601
30
0.0000000000
10
-190.7049981251
20
-110.6372626003
30
0.0000000000
10
-190.6925466324
20
-110.6458105919
30
0.0000000000
10
-190.6811926939
20
-110.6555298750
30
0.0000000000
11
-190.7181773391
21
-110.6299697601
31
0.0000000000
11
-190.6811926939
21
-110.6555298750
31
0.0000000000
0
SPLINE
5
268
100
AcDbEntity
8
0
100
AcDbSpline
62
7
6
CONTINUOUS
70
0
71
3
72
9
73
5
74
3
42
0.0000001000
43
0.0000001000
44
0.0000000001
12
0.2713630070
22
0.0783357526
32
0.0000000000
13
0.2514794200
23
-0.1411685219
33
0.0000000000
40
0.0000000000
40
0.0000000000
40
0.0000000000
40
0.0000000000
40
0.7706058225
40
1.0000000000
40
1.0000000000
40
1.0000000000
40
1.0000000000
10
191.7560197071
20
-0.1382995818
30
0.0000000000
10
191.8257243448
20
-0.1181775861
30
0.0000000000
10
191.9261740575
20
-0.1111995898
30
0.0000000000
10
192.0149940574
20
-0.1492019740
30
0.0000000000
10
192.0342233623
20
-0.1599963864
30
0.0000000000
11
191.7560197071
21
-0.1382995818
31
0.0000000000
11
191.9736325006
21
-0.1341338663
31
0.0000000000
11
192.0342233623
21
-0.1599963864
31
0.0000000000
0
SPLINE
5
269
100
AcDbEntity
8
0
100
AcDbSpline
62
7
6
CONTINUOUS
70
0
71
3
72
8
73
4
74
2
42
0.0000001000
43
0.0000001000
44
0.0000000001
12
0.0523285335
22
-0.0293747366
32
0.0000000000
13
0.0454787185
23
-0.0389787415
33
0.0000000000
40
0.0000000000
40
0.0000000000
40
0.0000000000
40
0.0000000000
40
1.0000000000
40
1.0000000000
40
1.0000000000
40
1.0000000000
10
192.0342233623
20
-0.1599963864
30
0.0000000000
10
192.0516662068
20
-0.1697879652
30
0.0000000000
10
192.0681665169
20
-0.1812884582
30
0.0000000000
10
192.0833260897
20
-0.1942813720
30
0.0000000000
11
192.0342233623
21
-0.1599963864
31
0.0000000000
11
192.0833260897
21
-0.1942813720
31
0.0000000000
0
SPLINE
5
26A
100
AcDbEntity
8
0
100
AcDbSpline
62
7
6
CONTINUOUS
70
0
71
3
72
8
73
4
74
2
42
0.0000001000
43
0.0000001000
44
0.0000000001
12
0.2070515754
22
-0.1793119242
32
0.0000000000
13
0.2517166785
23
-0.1135720924
33
0.0000000000
40
0.0000000000
40
0.0000000000
40
0.0000000000
40
0.0000000000
40
1.0000000000
40
1.0000000000
40
1.0000000000
40
1.0000000000
10
-191.5941960637
20
-111.3793249856
30
0.0000000000
10
-191.5251788719
20
-111.4390956270
30
0.0000000000
10
-191.4494365288
20
-111.4959599864
30
0.0000000000
10
-191.3655309693
20
-111.5338173506
30
0.0000000000
11
-191.5941960637
21
-111.3793249856
31
0.0000000000
11
-191.3655309693
21
-111.5338173506
31
0.0000000000
0
SPLINE
5
26B
100
AcDbEntity
8
0
100
AcDbSpline
62
7
6
CONTINUOUS
70
0
71
3
72
9
73
5
74
3
42
0.0000001000
43
0.0000001000
44
0.0000000001
12
0.3008283503
22
-0.1357307963
32
0.0000000000
13
0.3211814323
23
0.0842791043
33
0.0000000000
40
0.0000000000
40
0.0000000000
40
0.0000000000
40
0.0000000000
40
0.3481750313
40
1.0000000000
40
1.0000000000
40
1.0000000000
40
1.0000000000
10
-191.3655309693
20
-111.5338173506
30
0.0000000000
10
-191.3306173292
20
-111.5495700420
30
0.0000000000
10
-191.2262817132
20
-111.5853616208
30
0.0000000000
10
-191.1094320675
20
-111.5844369541
30
0.0000000000
10
-191.0396473751
20
-111.5661252126
30
0.0000000000
11
-191.3655309693
21
-111.5338173506
31
0.0000000000
11
-191.2564461925
21
-111.5700425520
31
0.0000000000
11
-191.0396473751
21
-111.5661252126
31
0.0000000000
0
SPLINE
5
26C
100
AcDbEntity
8
0
100
AcDbSpline
62
7
6
CONTINUOUS
70
0
71
3
72
10
73
6
74
4
42
0.0000001000
43
0.0000001000
44
0.0000000001
12
0.0000000000
22
0.7466705333
32
0.0000000000
13
0.7173778440
23
0.2070891457
33
0.0000000000
40
0.0000000000
40
0.0000000000
40
0.0000000000
40
0.0000000000
40
0.3237938769
40
0.6688060414
40
1.0000000000
40
1.0000000000
40
1.0000000000
40
1.0000000000
10
-192.3262468713
20
-111.4463122837
30
0.0000000000
10
-192.3262468713
20
-111.3657231681
30
0.0000000000
10
-192.2797633029
20
-111.1985834395
30
0.0000000000
10
-192.1232184933
20
-110.9989535956
30
0.0000000000
10
-191.9724312387
20
-110.9111618065
30
0.0000000000
10
-191.8932341694
20
-110.8882995818
30
0.0000000000
11
-192.3262468713
21
-111.4463122837
31
0.0000000000
11
-192.2675931844
21
-111.2117676292
31
0.0000000000
11
-192.1093588832
21
-111.0084820350
31
0.0000000000
11
-191.8932341694
21
-110.8882995818
31
0.0000000000
0
SPLINE
5
26D
100
AcDbEntity
8
0
100
AcDbSpline
62
7
6
CONTINUOUS
70
0
71
3
72
12
73
8
74
6
42
0.0000001000
43
0.0000001000
44
0.0000000001
12
-3.2251518560
22
2.7930634384
32
0.0000000000
13
-4.0990964706
23
-1.1833072254
33
0.0000000000
40
0.0000000000
40
0.0000000000
40
0.0000000000
40
0.0000000000
40
0.1625770562
40
0.3571323150
40
0.5710394981
40
0.7908743016
40
1.0000000000
40
1.0000000000
40
1.0000000000
40
1.0000000000
10
185.7069816014
20
116.1836235781
30
0.0000000000
10
185.5322030366
20
116.3349862553
30
0.0000000000
10
185.0851902433
20
116.5936072682
30
0.0000000000
10
184.3057214972
20
116.8346951980
30
0.0000000000
10
183.4153392567
20
116.9495712162
30
0.0000000000
10
182.4982138260
20
116.9263760028
30
0.0000000000
10
181.8946475275
20
116.8151483338
30
0.0000000000
10
181.6089053901
20
116.7326616838
30
0.0000000000
11
185.7069816014
21
116.1836235781
31
0.0000000000
11
185.1168291822
21
116.5481012635
31
0.0000000000
11
184.3273055168
21
116.8043442947
31
0.0000000000
11
183.4227393483
21
116.9253933532
31
0.0000000000
11
182.4851410738
21
116.9008418712
31
0.0000000000
11
181.6089053901
21
116.7326616838
31
0.0000000000
0
SPLINE
5
26E
100
AcDbEntity
8
0
100
AcDbSpline
62
7
6
CONTINUOUS
70
0
71
3
72
11
73
7
74
5
42
0.0000001000
43
0.0000001000
44
0.0000000001
12
-2.0196302824
22
-0.5830170436
32
0.0000000000
13
0.0193152679
23
-2.1312783378
33
0.0000000000
40
0.0000000000
40
0.0000000000
40
0.0000000000
40
0.0000000000
40
0.3741088060
40
0.6818487281
40
0.9258918038
40
1.0000000000
40
1.0000000000
40
1.0000000000
40
1.0000000000
10
-194.2461198524
20
8.2326616838
30
0.0000000000
10
-194.4979736769
20
8.1599577471
30
0.0000000000
10
-194.9477704241
20
7.9863853157
30
0.0000000000
10
-195.4842317550
20
7.6067727695
30
0.0000000000
10
-195.7244299701
20
7.2121917367
30
0.0000000000
10
-195.7445767712
20
6.9869435933
30
0.0000000000
10
-195.7440996313
20
6.9342951956
30
0.0000000000
11
-194.2461198524
21
8.2326616838
31
0.0000000000
11
-194.9750752231
21
7.9375854742
31
0.0000000000
11
-195.4875612855
21
7.5428236415
31
0.0000000000
11
-195.7296594024
21
7.0905405572
31
0.0000000000
11
-195.7440996313
21
6.9342951956
31
0.0000000000
0
SPLINE
5
26F
100
AcDbEntity
8
0
100
AcDbSpline
62
7
6
CONTINUOUS
70
0
71
3
72
10
73
6
74
4
42
0.0000001000
43
0.0000001000
44
0.0000000001
12
1.2055123199
22
-1.0440042936
32
0.0000000000
13
0.4861332496
23
-1.5207436387
33
0.0000000000
40
0.0000000000
40
0.0000000000
40
0.0000000000
40
0.0000000000
40
0.3255485378
40
0.7168095286
40
1.0000000000
40
1.0000000000
40
1.0000000000
40
1.0000000000
10
189.4569816014
20
112.9360283139
30
0.0000000000
10
189.5877991924
20
112.8227369569
30
0.0000000000
10
189.8302218303
20
112.5218715165
30
0.0000000000
10
190.0786896073
20
112.0500167764
30
0.0000000000
10
190.2048657748
20
111.7136887396
30
0.0000000000
10
190.2507552095
20
111.5701353703
30
0.0000000000
11
189.4569816014
21
112.9360283139
31
0.0000000000
11
189.7947314726
21
112.5417459431
31
0.0000000000
11
190.0916079466
21
111.9929369614
31
0.0000000000
11
190.2507552095
21
111.5701353703
31
0.0000000000
0
SPLINE
5
270
100
AcDbEntity
8
0
100
AcDbSpline
62
7
6
CONTINUOUS
70
0
71
3
72
9
73
5
74
3
42
0.0000001000
43
0.0000001000
44
0.0000000001
12
0.2038232866
22
-0.6376090644
32
0.0000000000
13
0.1070808166
23
-0.6605004520
33
0.0000000000
40
0.0000000000
40
0.0000000000
40
0.0000000000
40
0.0000000000
40
0.3389452823
40
1.0000000000
40
1.0000000000
40
1.0000000000
40
1.0000000000
10
190.2507552095
20
111.5701353703
30
0.0000000000
10
190.2737835233
20
111.4980971755
30
0.0000000000
10
190.3364571719
20
111.2838259493
30
0.0000000000
10
190.3838207996
20
111.0653749453
30
0.0000000000
10
190.4074162260
20
110.9198326320
30
0.0000000000
11
190.2507552095
21
111.5701353703
31
0.0000000000
11
190.3145105233
21
111.3523645438
31
0.0000000000
11
190.4074162260
21
110.9198326320
31
0.0000000000
0
SPLINE
5
271
100
AcDbEntity
8
0
100
AcDbSpline
62
7
6
CONTINUOUS
70
0
71
3
72
8
73
4
74
2
42
0.0000001000
43
0.0000001000
44
0.0000000001
12
0.0352152467
22
-0.2172161844
32
0.0000000000
13
0.0233812007
23
-0.2186447809
33
0.0000000000
40
0.0000000000
40
0.0000000000
40
0.0000000000
40
0.0000000000
40
1.0000000000
40
1.0000000000
40
1.0000000000
40
1.0000000000
10
190.4074162260
20
110.9198326320
30
0.0000000000
10
190.4191546416
20
110.8474272372
30
0.0000000000
10
190.4289837649
20
110.7747411241
30
0.0000000000
10
190.4367774985
20
110.7018595305
30
0.0000000000
11
190.4074162260
21
110.9198326320
31
0.0000000000
11
190.4367774985
21
110.7018595305
31
0.0000000000
0
SPLINE
5
272
100
AcDbEntity
8
0
100
AcDbSpline
62
7
6
CONTINUOUS
70
0
71
3
72
9
73
5
74
3
42
0.0000001000
43
0.0000001000
44
0.0000000001
12
0.1166494917
22
-0.0998551677
32
0.0000000000
13
0.0153282641
23
-0.1539992161
33
0.0000000000
40
0.0000000000
40
0.0000000000
40
0.0000000000
40
0.0000000000
40
0.3566377098
40
1.0000000000
40
1.0000000000
40
1.0000000000
40
1.0000000000
10
-190.6811926939
20
-110.6555298750
30
0.0000000000
10
-190.6673254914
20
-110.6674005811
30
0.0000000000
10
-190.6330330747
20
-110.7055848052
30
0.0000000000
10
-190.6169105430
20
-110.7563048968
30
0.0000000000
10
-190.6136233339
20
-110.7893306596
30
0.0000000000
11
-190.6811926939
21
-110.6555298750
31
0.0000000000
11
-190.6451765894
21
-110.6962308922
31
0.0000000000
11
-190.6136233339
21
-110.7893306596
31
0.0000000000
0
SPLINE
5
273
100
AcDbEntity
8
0
100
AcDbSpline
62
7
6
CONTINUOUS
70
0
71
3
72
8
73
4
74
2
42
0.0000001000
43
0.0000001000
44
0.0000000001
12
0.0053037493
22
-0.0532854361
32
0.0000000000
13
-0.0067896879
23
-0.0517323703
33
0.0000000000
40
0.0000000000
40
0.0000000000
40
0.0000000000
40
0.0000000000
40
1.0000000000
40
1.0000000000
40
1.0000000000
40
1.0000000000
10
-190.6136233339
20
-110.7893306596
30
0.0000000000
10
-190.6118554175
20
-110.8070924716
30
0.0000000000
10
-190.6121369373
20
-110.8249683535
30
0.0000000000
10
-190.6144001666
20
-110.8422124770
30
0.0000000000
11
-190.6136233339
21
-110.7893306596
31
0.0000000000
11
-190.6144001666
21
-110.8422124770
31
0.0000000000
0
SPLINE
5
274
100
AcDbEntity
8
0
100
AcDbSpline
62
7
6
CONTINUOUS
70
0
71
3
72
14
73
10
74
8
42
0.0000001000
43
0.0000001000
44
0.0000000001
12
5.5042726862
22
-4.7714202157
32
0.0000000000
13
-6.9316000375
23
-2.0009805738
33
0.0000000000
40
0.0000000000
40
0.0000000000
40
0.0000000000
40
0.0000000000
40
0.0689174225
40
0.2013815792
40
0.3472913426
40
0.5068144908
40
0.6743708007
40
0.8415314345
40
1.0000000000
40
1.0000000000
40
1.0000000000
40
1.0000000000
10
-197.6136831429
20
-79.8766180193
30
0.0000000000
10
-197.4872363808
20
-79.9862293469
30
0.0000000000
10
-197.1571423774
20
-80.3523407569
30
0.0000000000
10
-196.8479884537
20
-81.1562941926
30
0.0000000000
10
-196.8678614539
20
-82.2299548180
30
0.0000000000
10
-197.2400533656
20
-83.3211824819
30
0.0000000000
10
-197.9163350903
20
-84.3151565547
30
0.0000000000
10
-198.8189960526
20
-85.1036080480
30
0.0000000000
10
-199.5378222496
20
-85.4472410590
30
0.0000000000
10
-199.9039691544
20
-85.5529385660
30
0.0000000000
11
-197.6136831429
21
-79.8766180193
31
0.0000000000
11
-197.2789691544
21
-80.2485329678
31
0.0000000000
11
-196.9189292926
21
-81.1337998027
31
0.0000000000
11
-196.9189292926
21
-82.1864859350
31
0.0000000000
11
-197.2789691544
21
-83.2796218811
31
0.0000000000
11
-197.9556227571
21
-84.2813593129
31
0.0000000000
11
-198.8672756899
21
-85.0708739121
31
0.0000000000
11
-199.9039691544
21
-85.5529385660
31
0.0000000000
0
SPLINE
5
275
100
AcDbEntity
8
0
100
AcDbSpline
62
7
6
CONTINUOUS
70
0
71
3
72
8
73
4
74
2
42
0.0000001000
43
0.0000001000
44
0.0000000001
12
0.0000000000
22
-0.3599518609
32
0.0000000000
13
0.0393851587
23
-0.3595944176
33
0.0000000000
40
0.0000000000
40
0.0000000000
40
0.0000000000
40
0.0000000000
40
1.0000000000
40
1.0000000000
40
1.0000000000
40
1.0000000000
10
-208.7807295432
20
-114.0312487742
30
0.0000000000
10
-208.7807295432
20
-114.1512327279
30
0.0000000000
10
-208.7744534306
20
-114.2717069911
30
0.0000000000
10
-208.7613250444
20
-114.3915717969
30
0.0000000000
11
-208.7807295432
21
-114.0312487742
31
0.0000000000
11
-208.7613250444
21
-114.3915717969
31
0.0000000000
0
SPLINE
5
276
100
AcDbEntity
8
0
100
AcDbSpline
62
7
6
CONTINUOUS
70
0
71
3
72
10
73
6
74
4
42
0.0000001000
43
0.0000001000
44
0.0000000001
12
0.2066610953
22
-1.8868573501
32
0.0000000000
13
1.4396467212
23
-1.2429365273
33
0.0000000000
40
0.0000000000
40
0.0000000000
40
0.0000000000
40
0.0000000000
40
0.3556067675
40
0.8665412353
40
1.0000000000
40
1.0000000000
40
1.0000000000
40
1.0000000000
10
-208.7613250444
20
-114.3915717969
30
0.0000000000
10
-208.7368283497
20
-114.6152315446
30
0.0000000000
10
-208.6189987549
20
-115.1550740127
30
0.0000000000
10
-208.2938878481
20
-115.7145590066
30
0.0000000000
10
-207.9997602950
20
-115.9986538702
30
0.0000000000
10
-207.9357158040
20
-116.0539474613
30
0.0000000000
11
-208.7613250444
21
-114.3915717969
31
0.0000000000
11
-208.6125190146
21
-115.0490404005
31
0.0000000000
11
-208.1179624147
21
-115.8776989287
31
0.0000000000
11
-207.9357158040
21
-116.0539474613
31
0.0000000000
0
SPLINE
5
277
100
AcDbEntity
8
0
100
AcDbSpline
62
7
6
CONTINUOUS
70
0
71
3
72
12
73
8
74
6
42
0.0000001000
43
0.0000001000
44
0.0000000001
12
-5.7670154267
22
-1.6647939545
32
0.0000000000
13
0.0000000000
23
-6.0024999661
33
0.0000000000
40
0.0000000000
40
0.0000000000
40
0.0000000000
40
0.0000000000
40
0.1945493060
40
0.4015770956
40
0.6093857215
40
0.8119705428
40
1.0000000000
40
1.0000000000
40
1.0000000000
40
1.0000000000
10
-205.3166279281
20
-2.1799970898
30
0.0000000000
10
-205.6906175443
20
-2.2879585927
30
0.0000000000
10
-206.4317302993
20
-2.6268103511
30
0.0000000000
10
-207.3900402485
20
-3.3980494162
30
0.0000000000
10
-208.1553579493
20
-4.3823860545
30
0.0000000000
10
-208.6531891248
20
-5.4837878633
30
0.0000000000
10
-208.7807295432
20
-6.2678831014
30
0.0000000000
10
-208.7807295432
20
-6.6440987050
30
0.0000000000
11
-205.3166279281
21
-2.1799970898
31
0.0000000000
11
-206.3829777513
21
-2.6560362972
31
0.0000000000
11
-207.3544024725
21
-3.4310190593
31
0.0000000000
11
-208.1189390318
21
-4.4166249305
31
0.0000000000
11
-208.6121977769
21
-5.5281055747
31
0.0000000000
11
-208.7807295432
21
-6.6440987050
31
0.0000000000
0
SPLINE
5
278
100
AcDbEntity
8
0
100
AcDbSpline
62
7
6
CONTINUOUS
70
0
71
3
72
10
73
6
74
4
42
0.0000001000
43
0.0000001000
44
0.0000000001
12
-1.5411939480
22
1.3306085621
32
0.0000000000
13
-2.0264412161
23
-0.1529500444
33
0.0000000000
40
0.0000000000
40
0.0000000000
40
0.0000000000
40
0.0000000000
40
0.3394717600
40
0.8302487764
40
1.0000000000
40
1.0000000000
40
1.0000000000
40
1.0000000000
10
207.7985013416
20
115.8785999821
30
0.0000000000
10
207.6241040676
20
116.0291679923
30
0.0000000000
10
207.1408448881
20
116.3331311368
30
0.0000000000
10
206.4646194641
20
116.4711696545
30
0.0000000000
10
206.0165442138
20
116.4610956606
30
0.0000000000
10
205.9018805885
20
116.4524411749
30
0.0000000000
11
207.7985013416
21
115.8785999821
31
0.0000000000
11
207.2158447752
21
116.2460794811
31
0.0000000000
11
206.2467556657
21
116.4595862970
31
0.0000000000
11
205.9018805885
21
116.4524411749
31
0.0000000000
0
SPLINE
5
279
100
AcDbEntity
8
0
100
AcDbSpline
62
7
6
CONTINUOUS
70
0
71
3
72
8
73
4
74
2
42
0.0000001000
43
0.0000001000
44
0.0000000001
12
-0.7348270229
22
-0.0554626628
32
0.0000000000
13
-0.7044366908
23
-0.2033533565
33
0.0000000000
40
0.0000000000
40
0.0000000000
40
0.0000000000
40
0.0000000000
40
1.0000000000
40
1.0000000000
40
1.0000000000
40
1.0000000000
10
205.9018805885
20
116.4524411749
30
0.0000000000
10
205.6569382475
20
116.4339536206
30
0.0000000000
10
205.4142256960
20
116.3877873623
30
0.0000000000
10
205.1794134657
20
116.3200029102
30
0.0000000000
11
205.9018805885
21
116.4524411749
31
0.0000000000
11
205.1794134657
21
116.3200029102
31
0.0000000000
0
SPLINE
5
27A
100
AcDbEntity
8
0
100
AcDbSpline
62
7
6
CONTINUOUS
70
0
71
3
72
10
73
6
74
4
42
0.0000001000
43
0.0000001000
44
0.0000000001
12
-0.7173804913
22
-0.2070899099
32
0.0000000000
13
0.0000000000
23
-0.7466732887
33
0.0000000000
40
0.0000000000
40
0.0000000000
40
0.0000000000
40
0.0000000000
40
0.3337749835
40
0.6787429737
40
1.0000000000
40
1.0000000000
40
1.0000000000
40
1.0000000000
10
192.6220451109
20
112.6950029102
30
0.0000000000
10
192.5422305570
20
112.6719624331
30
0.0000000000
10
192.3909574994
20
112.5835268132
30
0.0000000000
10
192.2349823761
20
112.3834414003
30
0.0000000000
10
192.1890324090
20
112.2169482217
30
0.0000000000
10
192.1890324090
20
112.1369902083
30
0.0000000000
11
192.6220451109
21
112.6950029102
31
0.0000000000
11
192.4044323173
21
112.5735298208
31
0.0000000000
11
192.2468250313
21
112.3697982150
31
0.0000000000
11
192.1890324090
21
112.1369902083
31
0.0000000000
0
SPLINE
5
27B
100
AcDbEntity
8
0
100
AcDbSpline
62
7
6
CONTINUOUS
70
0
71
3
72
14
73
10
74
8
42
0.0000001000
43
0.0000001000
44
0.0000000001
12
5.5042726862
22
-4.7714202157
32
0.0000000000
13
-6.9316000375
23
-2.0009805738
33
0.0000000000
40
0.0000000000
40
0.0000000000
40
0.0000000000
40
0.0000000000
40
0.0689174225
40
0.2013815792
40
0.3472913426
40
0.5068144908
40
0.6743708007
40
0.8415314345
40
1.0000000000
40
1.0000000000
40
1.0000000000
40
1.0000000000
10
-197.6136831429
20
-30.3832661930
30
0.0000000000
10
-197.4872363808
20
-30.4928775207
30
0.0000000000
10
-197.1571423774
20
-30.8589889306
30
0.0000000000
10
-196.8479884537
20
-31.6629423663
30
0.0000000000
10
-196.8678614539
20
-32.7366029917
30
0.0000000000
10
-197.2400533656
20
-33.8278306556
30
0.0000000000
10
-197.9163350903
20
-34.8218047284
30
0.0000000000
10
-198.8189960526
20
-35.6102562217
30
0.0000000000
10
-199.5378222496
20
-35.9538892327
30
0.0000000000
10
-199.9039691544
20
-36.0595867397
30
0.0000000000
11
-197.6136831429
21
-30.3832661930
31
0.0000000000
11
-197.2789691544
21
-30.7551811415
31
0.0000000000
11
-196.9189292926
21
-31.6404479765
31
0.0000000000
11
-196.9189292926
21
-32.6931341087
31
0.0000000000
11
-197.2789691544
21
-33.7862700548
31
0.0000000000
11
-197.9556227571
21
-34.7880074866
31
0.0000000000
11
-198.8672756899
21
-35.5775220858
31
0.0000000000
11
-199.9039691544
21
-36.0595867397
31
0.0000000000
0
SPLINE
5
27C
100
AcDbEntity
8
0
100
AcDbSpline
62
7
6
CONTINUOUS
70
0
71
3
72
14
73
10
74
8
42
0.0000001000
43
0.0000001000
44
0.0000000001
12
5.5042726862
22
-4.7714202157
32
0.0000000000
13
-6.9316000375
23
-2.0009805738
33
0.0000000000
40
0.0000000000
40
0.0000000000
40
0.0000000000
40
0.0000000000
40
0.0689174225
40
0.2013815792
40
0.3472913426
40
0.5068144908
40
0.6743708007
40
0.8415314345
40
1.0000000000
40
1.0000000000
40
1.0000000000
40
1.0000000000
10
205.0881296168
20
36.3733819807
30
0.0000000000
10
205.2145763790
20
36.2637706531
30
0.0000000000
10
205.5446703824
20
35.8976592431
30
0.0000000000
10
205.8538243061
20
35.0937058074
30
0.0000000000
10
205.8339513058
20
34.0200451820
30
0.0000000000
10
205.4617593942
20
32.9288175181
30
0.0000000000
10
204.7854776695
20
31.9348434453
30
0.0000000000
10
203.8828167071
20
31.1463919520
30
0.0000000000
10
203.1639905101
20
30.8027589410
30
0.0000000000
10
202.7978436053
20
30.6970614340
30
0.0000000000
11
205.0881296168
21
36.3733819807
31
0.0000000000
11
205.4228436053
21
36.0014670322
31
0.0000000000
11
205.7828834672
21
35.1162001973
31
0.0000000000
11
205.7828834672
21
34.0635140650
31
0.0000000000
11
205.4228436053
21
32.9703781189
31
0.0000000000
11
204.7461900026
21
31.9686406871
31
0.0000000000
11
203.8345370699
21
31.1791260879
31
0.0000000000
11
202.7978436053
21
30.6970614340
31
0.0000000000
0
SPLINE
5
27D
100
AcDbEntity
8
0
100
AcDbSpline
62
7
6
CONTINUOUS
70
0
71
3
72
10
73
6
74
4
42
0.0000001000
43
0.0000001000
44
0.0000000001
12
0.0645947998
22
-0.6040457889
32
0.0000000000
13
-0.5836572782
23
-0.1684873433
33
0.0000000000
40
0.0000000000
40
0.0000000000
40
0.0000000000
40
0.0000000000
40
0.3346171852
40
0.6743393921
40
1.0000000000
40
1.0000000000
40
1.0000000000
40
1.0000000000
10
-190.6144001666
20
0.7018595305
30
0.0000000000
10
-190.6071953233
20
0.6344848299
30
0.0000000000
10
-190.6315165164
20
0.4927392274
30
0.0000000000
10
-190.7562979827
20
0.3262143015
30
0.0000000000
10
-190.8772481417
20
0.2562419802
30
0.0000000000
10
-190.9406062030
20
0.2379520834
30
0.0000000000
11
-190.6144001666
21
0.7018595305
31
0.0000000000
11
-190.6460627731
21
0.5010640631
31
0.0000000000
11
-190.7679382349
21
0.3345163167
31
0.0000000000
11
-190.9406062030
21
0.2379520834
31
0.0000000000
0
SPLINE
5
27E
100
AcDbEntity
8
0
100
AcDbSpline
62
7
6
CONTINUOUS
70
0
71
3
72
9
73
5
74
3
42
0.0000001000
43
0.0000001000
44
0.0000000001
12
0.2150145333
22
-0.1842839065
32
0.0000000000
13
0.0000000000
23
-0.2778608801
33
0.0000000000
40
0.0000000000
40
0.0000000000
40
0.0000000000
40
0.0000000000
40
0.2526979155
40
1.0000000000
40
1.0000000000
40
1.0000000000
40
1.0000000000
10
192.0833260897
20
-0.1942813720
30
0.0000000000
10
192.1014373312
20
-0.2098040917
30
0.0000000000
10
192.1655359020
20
-0.2796617613
30
0.0000000000
10
192.1890324090
20
-0.3770969454
30
0.0000000000
10
192.1890324090
20
-0.4463122837
30
0.0000000000
11
192.0833260897
21
-0.1942813720
31
0.0000000000
11
192.1312397867
21
-0.2468708630
31
0.0000000000
11
192.1890324090
21
-0.4463122837
31
0.0000000000
0
SPLINE
5
27F
100
AcDbEntity
8
0
100
AcDbSpline
62
7
6
CONTINUOUS
70
0
71
3
72
9
73
5
74
3
42
0.0000001000
43
0.0000001000
44
0.0000000001
12
-0.2649914222
22
-0.0764964345
32
0.0000000000
13
-0.2138491424
23
0.1827686378
33
0.0000000000
40
0.0000000000
40
0.0000000000
40
0.0000000000
40
0.0000000000
40
0.6342385932
40
1.0000000000
40
1.0000000000
40
1.0000000000
40
1.0000000000
10
190.8033917858
20
110.4379520828
30
0.0000000000
10
190.7473691901
20
110.4217797525
30
0.0000000000
10
190.6486761170
20
110.4151843645
30
0.0000000000
10
190.5656588415
20
110.4624300662
30
0.0000000000
10
190.5395862538
20
110.4847133042
30
0.0000000000
11
190.8033917858
21
110.4379520828
31
0.0000000000
11
190.6284850027
21
110.4350716943
31
0.0000000000
11
190.5395862538
21
110.4847133042
31
0.0000000000
0
SPLINE
5
280
100
AcDbEntity
8
0
100
AcDbSpline
62
7
6
CONTINUOUS
70
0
71
3
72
9
73
5
74
3
42
0.0000001000
43
0.0000001000
44
0.0000000001
12
-0.3278289723
22
-0.0946360727
32
0.0000000000
13
-0.2640394347
23
0.2263019981
33
0.0000000000
40
0.0000000000
40
0.0000000000
40
0.0000000000
40
0.0000000000
40
0.6378750230
40
1.0000000000
40
1.0000000000
40
1.0000000000
40
1.0000000000
10
-191.8932341694
20
-0.0370478974
30
0.0000000000
10
-191.9629388072
20
-0.0571698931
30
0.0000000000
10
-192.0842903739
20
-0.0655998902
30
0.0000000000
10
-192.1886687940
20
-0.0083826425
30
0.0000000000
10
-192.2205405521
20
0.0189338928
30
0.0000000000
11
-191.8932341694
21
-0.0370478974
31
0.0000000000
11
-192.1108469630
21
-0.0412136129
31
0.0000000000
11
-192.2205405521
21
0.0189338928
31
0.0000000000
0
SPLINE
5
281
100
AcDbEntity
8
0
100
AcDbSpline
62
7
6
CONTINUOUS
70
0
71
3
72
9
73
5
74
3
42
0.0000001000
43
0.0000001000
44
0.0000000001
12
-1.9139420386
22
-0.5525074756
32
0.0000000000
13
-1.7550578531
23
0.9701358246
33
0.0000000000
40
0.0000000000
40
0.0000000000
40
0.0000000000
40
0.0000000000
40
0.5236778782
40
1.0000000000
40
1.0000000000
40
1.0000000000
40
1.0000000000
10
199.7667546921
20
29.8220614340
30
0.0000000000
10
199.4326583235
20
29.7256161198
30
0.0000000000
10
198.7584940403
20
29.6364887711
30
0.0000000000
10
198.0970659216
20
29.8147299854
30
0.0000000000
10
197.8184082948
20
29.9687623702
30
0.0000000000
11
199.7667546921
21
29.8220614340
31
0.0000000000
11
198.7300612275
21
29.7055908371
31
0.0000000000
11
197.8184082948
21
29.9687623702
31
0.0000000000
0
SPLINE
5
282
100
AcDbEntity
8
0
100
AcDbSpline
62
7
6
CONTINUOUS
70
0
71
3
72
8
73
4
74
2
42
0.0000001000
43
0.0000001000
44
0.0000000001
12
-0.3652011897
22
0.2018707000
32
0.0000000000
13
-0.3162539612
23
0.2741471271
33
0.0000000000
40
0.0000000000
40
0.0000000000
40
0.0000000000
40
0.0000000000
40
1.0000000000
40
1.0000000000
40
1.0000000000
40
1.0000000000
10
197.8184082948
20
29.9687623702
30
0.0000000000
10
197.6966745649
20
30.0360526035
30
0.0000000000
10
197.5818866676
20
30.1165363381
30
0.0000000000
10
197.4764686806
20
30.2079187138
30
0.0000000000
11
197.8184082948
21
29.9687623702
31
0.0000000000
11
197.4764686806
21
30.2079187138
31
0.0000000000
0
SPLINE
5
283
100
AcDbEntity
8
0
100
AcDbSpline
62
7
6
CONTINUOUS
70
0
71
3
72
10
73
6
74
4
42
0.0000001000
43
0.0000001000
44
0.0000000001
12
0.0000000000
22
-0.7466705333
32
0.0000000000
13
-0.7173778440
23
-0.2070891457
33
0.0000000000
40
0.0000000000
40
0.0000000000
40
0.0000000000
40
0.0000000000
40
0.3237938769
40
0.6688060414
40
1.0000000000
40
1.0000000000
40
1.0000000000
40
1.0000000000
10
192.1890324090
20
111.2709648045
30
0.0000000000
10
192.1890324090
20
111.1903756889
30
0.0000000000
10
192.1425488405
20
111.0232359603
30
0.0000000000
10
191.9860040310
20
110.8236061164
30
0.0000000000
10
191.8352167764
20
110.7358143272
30
0.0000000000
10
191.7560197071
20
110.7129521026
30
0.0000000000
11
192.1890324090
21
111.2709648045
31
0.0000000000
11
192.1303787220
21
111.0364201500
31
0.0000000000
11
191.9721444208
21
110.8331345557
31
0.0000000000
11
191.7560197071
21
110.7129521026
31
0.0000000000
0
SPLINE
5
284
100
AcDbEntity
8
0
100
AcDbSpline
62
7
6
CONTINUOUS
70
0
71
3
72
9
73
5
74
3
42
0.0000001000
43
0.0000001000
44
0.0000000001
12
-1.9139420386
22
-0.5525074756
32
0.0000000000
13
-1.7550578531
23
0.9701358246
33
0.0000000000
40
0.0000000000
40
0.0000000000
40
0.0000000000
40
0.0000000000
40
0.5236778782
40
1.0000000000
40
1.0000000000
40
1.0000000000
40
1.0000000000
10
199.7667546921
20
79.3154132603
30
0.0000000000
10
199.4326583235
20
79.2189679461
30
0.0000000000
10
198.7584940403
20
79.1298405973
30
0.0000000000
10
198.0970659216
20
79.3080818117
30
0.0000000000
10
197.8184082948
20
79.4621141965
30
0.0000000000
11
199.7667546921
21
79.3154132603
31
0.0000000000
11
198.7300612275
21
79.1989426634
31
0.0000000000
11
197.8184082948
21
79.4621141965
31
0.0000000000
0
SPLINE
5
285
100
AcDbEntity
8
0
100
AcDbSpline
62
7
6
CONTINUOUS
70
0
71
3
72
8
73
4
74
2
42
0.0000001000
43
0.0000001000
44
0.0000000001
12
-0.3652011897
22
0.2018707000
32
0.0000000000
13
-0.3162539612
23
0.2741471271
33
0.0000000000
40
0.0000000000
40
0.0000000000
40
0.0000000000
40
0.0000000000
40
1.0000000000
40
1.0000000000
40
1.0000000000
40
1.0000000000
10
197.8184082948
20
79.4621141965
30
0.0000000000
10
197.6966745649
20
79.5294044298
30
0.0000000000
10
197.5818866676
20
79.6098881643
30
0.0000000000
10
197.4764686806
20
79.7012705400
30
0.0000000000
11
197.8184082948
21
79.4621141965
31
0.0000000000
11
197.4764686806
21
79.7012705400
31
0.0000000000
0
SPLINE
5
286
100
AcDbEntity
8
0
100
AcDbSpline
62
7
6
CONTINUOUS
70
0
71
3
72
10
73
6
74
4
42
0.0000001000
43
0.0000001000
44
0.0000000001
12
0.8627215477
22
0.2263810793
32
0.0000000000
13
0.1144203677
23
0.8717980700
33
0.0000000000
40
0.0000000000
40
0.0000000000
40
0.0000000000
40
0.0000000000
40
0.0972567690
40
0.4820154367
40
1.0000000000
40
1.0000000000
40
1.0000000000
40
1.0000000000
10
-191.0396473751
20
-111.5661252126
30
0.0000000000
10
-191.0116788717
20
-111.5587861818
30
0.0000000000
10
-190.8781435132
20
-111.5083152447
30
0.0000000000
10
-190.6917127654
20
-111.2517325765
30
0.0000000000
10
-190.6341561614
20
-110.9927384578
30
0.0000000000
10
-190.6144001666
20
-110.8422124770
30
0.0000000000
11
-191.0396473751
21
-111.5661252126
31
0.0000000000
11
-190.9595697186
21
-111.5354387067
31
0.0000000000
11
-190.7366671418
21
-111.2809448772
31
0.0000000000
11
-190.6144001666
21
-110.8422124770
31
0.0000000000
0
SPLINE
5
287
100
AcDbEntity
8
0
100
AcDbSpline
62
7
6
CONTINUOUS
70
0
71
3
72
9
73
5
74
3
42
0.0000001000
43
0.0000001000
44
0.0000000001
12
-1.9139420386
22
-0.5525074756
32
0.0000000000
13
-1.7550578531
23
0.9701358246
33
0.0000000000
40
0.0000000000
40
0.0000000000
40
0.0000000000
40
0.0000000000
40
0.5236778782
40
1.0000000000
40
1.0000000000
40
1.0000000000
40
1.0000000000
10
-202.9350580677
20
-86.4279385660
30
0.0000000000
10
-203.2691544363
20
-86.5243838802
30
0.0000000000
10
-203.9433187195
20
-86.6135112289
30
0.0000000000
10
-204.6047468382
20
-86.4352700146
30
0.0000000000
10
-204.8834044650
20
-86.2812376298
30
0.0000000000
11
-202.9350580677
21
-86.4279385660
31
0.0000000000
11
-203.9717515322
21
-86.5444091629
31
0.0000000000
11
-204.8834044650
21
-86.2812376298
31
0.0000000000
0
SPLINE
5
288
100
AcDbEntity
8
0
100
AcDbSpline
62
7
6
CONTINUOUS
70
0
71
3
72
8
73
4
74
2
42
0.0000001000
43
0.0000001000
44
0.0000000001
12
-0.3652011897
22
0.2018707000
32
0.0000000000
13
-0.3162539612
23
0.2741471271
33
0.0000000000
40
0.0000000000
40
0.0000000000
40
0.0000000000
40
0.0000000000
40
1.0000000000
40
1.0000000000
40
1.0000000000
40
1.0000000000
10
-204.8834044650
20
-86.2812376298
30
0.0000000000
10
-205.0051381949
20
-86.2139473965
30
0.0000000000
10
-205.1199260921
20
-86.1334636619
30
0.0000000000
10
-205.2253440792
20
-86.0420812862
30
0.0000000000
11
-204.8834044650
21
-86.2812376298
31
0.0000000000
11
-205.2253440792
21
-86.0420812862
31
0.0000000000
0
SPLINE
5
289
100
AcDbEntity
8
0
100
AcDbSpline
62
7
6
CONTINUOUS
70
0
71
3
72
14
73
10
74
8
42
0.0000001000
43
0.0000001000
44
0.0000000001
12
5.5042726862
22
-4.7714202157
32
0.0000000000
13
-6.9316000375
23
-2.0009805738
33
0.0000000000
40
0.0000000000
40
0.0000000000
40
0.0000000000
40
0.0000000000
40
0.0689174225
40
0.2013815792
40
0.3472913426
40
0.5068144908
40
0.6743708007
40
0.8415314345
40
1.0000000000
40
1.0000000000
40
1.0000000000
40
1.0000000000
10
205.0881296168
20
85.8667338070
30
0.0000000000
10
205.2145763790
20
85.7571224793
30
0.0000000000
10
205.5446703824
20
85.3910110694
30
0.0000000000
10
205.8538243061
20
84.5870576337
30
0.0000000000
10
205.8339513058
20
83.5133970083
30
0.0000000000
10
205.4617593942
20
82.4221693444
30
0.0000000000
10
204.7854776695
20
81.4281952716
30
0.0000000000
10
203.8828167071
20
80.6397437783
30
0.0000000000
10
203.1639905101
20
80.2961107673
30
0.0000000000
10
202.7978436053
20
80.1904132603
30
0.0000000000
11
205.0881296168
21
85.8667338070
31
0.0000000000
11
205.4228436053
21
85.4948188585
31
0.0000000000
11
205.7828834672
21
84.6095520235
31
0.0000000000
11
205.7828834672
21
83.5568658913
31
0.0000000000
11
205.4228436053
21
82.4637299452
31
0.0000000000
11
204.7461900026
21
81.4619925134
31
0.0000000000
11
203.8345370699
21
80.6724779142
31
0.0000000000
11
202.7978436053
21
80.1904132603
31
0.0000000000
0
SPLINE
5
28A
100
AcDbEntity
8
0
100
AcDbSpline
62
7
6
CONTINUOUS
70
0
71
3
72
9
73
5
74
3
42
0.0000001000
43
0.0000001000
44
0.0000000001
12
-1.9139420386
22
-0.5525074756
32
0.0000000000
13
-1.7550578531
23
0.9701358246
33
0.0000000000
40
0.0000000000
40
0.0000000000
40
0.0000000000
40
0.0000000000
40
0.5236778782
40
1.0000000000
40
1.0000000000
40
1.0000000000
40
1.0000000000
10
-202.9350580677
20
-36.9345867397
30
0.0000000000
10
-203.2691544363
20
-37.0310320539
30
0.0000000000
10
-203.9433187195
20
-37.1201594027
30
0.0000000000
10
-204.6047468382
20
-36.9419181883
30
0.0000000000
10
-204.8834044650
20
-36.7878858035
30
0.0000000000
11
-202.9350580677
21
-36.9345867397
31
0.0000000000
11
-203.9717515322
21
-37.0510573366
31
0.0000000000
11
-204.8834044650
21
-36.7878858035
31
0.0000000000
0
SPLINE
5
28B
100
AcDbEntity
8
0
100
AcDbSpline
62
7
6
CONTINUOUS
70
0
71
3
72
8
73
4
74
2
42
0.0000001000
43
0.0000001000
44
0.0000000001
12
-0.3652011897
22
0.2018707000
32
0.0000000000
13
-0.3162539612
23
0.2741471271
33
0.0000000000
40
0.0000000000
40
0.0000000000
40
0.0000000000
40
0.0000000000
40
1.0000000000
40
1.0000000000
40
1.0000000000
40
1.0000000000
10
-204.8834044650
20
-36.7878858035
30
0.0000000000
10
-205.0051381949
20
-36.7205955702
30
0.0000000000
10
-205.1199260921
20
-36.6401118357
30
0.0000000000
10
-205.2253440792
20
-36.5487294600
30
0.0000000000
11
-204.8834044650
21
-36.7878858035
31
0.0000000000
11
-205.2253440792
21
-36.5487294600
31
0.0000000000
0
SPLINE
5
28C
100
AcDbEntity
8
0
100
AcDbSpline
62
7
6
CONTINUOUS
70
0
71
3
72
8
73
4
74
2
42
0.0000001000
43
0.0000001000
44
0.0000000001
12
0.1237369615
22
-0.1071593520
32
0.0000000000
13
0.1120802415
23
-0.1196159521
33
0.0000000000
40
0.0000000000
40
0.0000000000
40
0.0000000000
40
0.0000000000
40
1.0000000000
40
1.0000000000
40
1.0000000000
40
1.0000000000
10
-191.5941960637
20
2.9360283139
30
0.0000000000
10
-191.5529504099
20
2.9003085299
30
0.0000000000
10
-191.5137643181
20
2.8622674882
30
0.0000000000
10
-191.4764042376
20
2.8223955042
30
0.0000000000
11
-191.5941960637
21
2.9360283139
31
0.0000000000
11
-191.4764042376
21
2.8223955042
31
0.0000000000
0
SPLINE
5
28D
100
AcDbEntity
8
0
100
AcDbSpline
62
7
6
CONTINUOUS
70
0
71
3
72
10
73
6
74
4
42
0.0000001000
43
0.0000001000
44
0.0000000001
12
0.9319540089
22
-0.9946138996
32
0.0000000000
13
0.4348141458
23
-1.2911964007
33
0.0000000000
40
0.0000000000
40
0.0000000000
40
0.0000000000
40
0.0000000000
40
0.2611730445
40
0.7196033643
40
1.0000000000
40
1.0000000000
40
1.0000000000
40
1.0000000000
10
-191.4764042376
20
2.8223955042
30
0.0000000000
10
-191.3952704823
20
2.7358067241
30
0.0000000000
10
-191.1954524475
20
2.4734391024
30
0.0000000000
10
-190.9833902334
20
2.0707206409
30
0.0000000000
10
-190.8629043488
20
1.7573730185
30
0.0000000000
10
-190.8222642076
20
1.6366906429
30
0.0000000000
11
-191.4764042376
21
2.8223955042
31
0.0000000000
11
-191.2564461925
21
2.5417459431
31
0.0000000000
11
-190.9595697186
21
1.9929369614
31
0.0000000000
11
-190.8222642076
21
1.6366906429
31
0.0000000000
0
SPLINE
5
28E
100
AcDbEntity
8
0
100
AcDbSpline
62
7
6
CONTINUOUS
70
0
71
3
72
8
73
4
74
2
42
0.0000001000
43
0.0000001000
44
0.0000000001
12
0.0223539123
22
-0.0663807547
32
0.0000000000
13
0.0213303716
23
-0.0667266166
33
0.0000000000
40
0.0000000000
40
0.0000000000
40
0.0000000000
40
0.0000000000
40
1.0000000000
40
1.0000000000
40
1.0000000000
40
1.0000000000
10
-190.8222642076
20
1.6366906429
30
0.0000000000
10
-190.8148129035
20
1.6145637247
30
0.0000000000
10
-190.8075325796
20
1.5923775758
30
0.0000000000
10
-190.8004224557
20
1.5701353703
30
0.0000000000
11
-190.8222642076
21
1.6366906429
31
0.0000000000
11
-190.8004224557
21
1.5701353703
31
0.0000000000
0
SPLINE
5
28F
100
AcDbEntity
8
0
100
AcDbSpline
62
7
6
CONTINUOUS
70
0
71
3
72
9
73
5
74
3
42
0.0000001000
43
0.0000001000
44
0.0000000001
12
0.2708538487
22
-0.8472970483
32
0.0000000000
13
0.0944776234
23
-0.8834892403
33
0.0000000000
40
0.0000000000
40
0.0000000000
40
0.0000000000
40
0.0000000000
40
0.2550635397
40
1.0000000000
40
1.0000000000
40
1.0000000000
40
1.0000000000
10
-190.8004224557
20
1.5701353703
30
0.0000000000
10
-190.7773941419
20
1.4980971755
30
0.0000000000
10
-190.6941092571
20
1.2133594143
30
0.0000000000
10
-190.6378601088
20
0.9212406462
30
0.0000000000
10
-190.6144001666
20
0.7018595305
30
0.0000000000
11
-190.8004224557
21
1.5701353703
31
0.0000000000
11
-190.7366671418
21
1.3523645438
31
0.0000000000
11
-190.6144001666
21
0.7018595305
31
0.0000000000
0
SPLINE
5
290
100
AcDbEntity
8
0
100
AcDbSpline
62
7
6
CONTINUOUS
70
0
71
3
72
9
73
5
74
3
42
0.0000001000
43
0.0000001000
44
0.0000000001
12
-0.2640918377
22
0.2260538975
32
0.0000000000
13
-0.3277700724
23
-0.0946190698
33
0.0000000000
40
0.0000000000
40
0.0000000000
40
0.0000000000
40
0.0000000000
40
0.3663458129
40
1.0000000000
40
1.0000000000
40
1.0000000000
40
1.0000000000
10
-192.4320171269
20
1.3890976068
30
0.0000000000
10
-192.4642667733
20
1.4167022398
30
0.0000000000
10
-192.5688792441
20
1.4736029297
30
0.0000000000
10
-192.6900286136
20
1.4649881667
30
0.0000000000
10
-192.7592595732
20
1.4450029102
30
0.0000000000
11
-192.4320171269
21
1.3890976068
31
0.0000000000
11
-192.5431348595
21
1.4496001187
31
0.0000000000
11
-192.7592595732
21
1.4450029102
31
0.0000000000
0
SPLINE
5
291
100
AcDbEntity
8
0
100
AcDbSpline
62
7
6
CONTINUOUS
70
0
71
3
72
9
73
5
74
3
42
0.0000001000
43
0.0000001000
44
0.0000000001
12
0.0079750013
22
-0.8799747220
32
0.0000000000
13
0.6560907710
23
-0.5681912749
33
0.0000000000
40
0.0000000000
40
0.0000000000
40
0.0000000000
40
0.0000000000
40
0.3636033826
40
1.0000000000
40
1.0000000000
40
1.0000000000
40
1.0000000000
10
-195.7440996313
20
6.9342951956
30
0.0000000000
10
-195.7431330521
20
6.8276412670
30
0.0000000000
10
-195.6821238942
20
6.5322793487
30
0.0000000000
10
-195.4833740462
20
6.3041552466
30
0.0000000000
10
-195.3441960637
20
6.1836235781
30
0.0000000000
11
-195.7440996313
21
6.9342951956
31
0.0000000000
11
-195.6805564385
21
6.6217414200
31
0.0000000000
11
-195.3441960637
21
6.1836235781
31
0.0000000000
0
SPLINE
5
292
100
AcDbEntity
8
0
100
AcDbSpline
62
7
6
CONTINUOUS
70
0
71
3
72
9
73
5
74
3
42
0.0000001000
43
0.0000001000
44
0.0000000001
12
0.0000000000
22
-0.2779164488
32
0.0000000000
13
0.2151388685
23
-0.1841517714
33
0.0000000000
40
0.0000000000
40
0.0000000000
40
0.0000000000
40
0.0000000000
40
0.7523007766
40
1.0000000000
40
1.0000000000
40
1.0000000000
40
1.0000000000
10
192.1890324090
20
-1.3123376875
30
0.0000000000
10
192.1890324090
20
-1.3820299409
30
0.0000000000
10
192.2127668328
20
-1.4795775255
30
0.0000000000
10
192.2770394210
20
-1.5492403358
30
0.0000000000
10
192.2948026646
20
-1.5644450860
30
0.0000000000
11
192.1890324090
21
-1.3123376875
31
0.0000000000
11
192.2476860959
21
-1.5130186201
31
0.0000000000
11
192.2948026646
21
-1.5644450860
31
0.0000000000
0
SPLINE
5
293
100
AcDbEntity
8
0
100
AcDbSpline
62
7
6
CONTINUOUS
70
0
71
3
72
8
73
4
74
2
42
0.0000001000
43
0.0000001000
44
0.0000000001
12
-0.1921334730
22
0.1658807735
32
0.0000000000
13
-0.1718581649
23
0.1863501702
33
0.0000000000
40
0.0000000000
40
0.0000000000
40
0.0000000000
40
0.0000000000
40
1.0000000000
40
1.0000000000
40
1.0000000000
40
1.0000000000
10
-208.6857158040
20
-115.4044284085
30
0.0000000000
10
-208.7497602950
20
-115.3491348173
30
0.0000000000
10
-208.8106763597
20
-115.2902965993
30
0.0000000000
10
-208.8679624147
20
-115.2281798758
30
0.0000000000
11
-208.6857158040
21
-115.4044284085
31
0.0000000000
11
-208.8679624147
21
-115.2281798758
31
0.0000000000
0
SPLINE
5
294
100
AcDbEntity
8
0
100
AcDbSpline
62
7
6
CONTINUOUS
70
0
71
3
72
9
73
5
74
3
42
0.0000001000
43
0.0000001000
44
0.0000000001
12
-1.3612793125
22
1.4760697100
32
0.0000000000
13
0.0000000000
23
1.9966168187
33
0.0000000000
40
0.0000000000
40
0.0000000000
40
0.0000000000
40
0.0000000000
40
0.4833269661
40
1.0000000000
40
1.0000000000
40
1.0000000000
40
1.0000000000
10
-208.8679624147
20
-115.2281798758
30
0.0000000000
10
-209.0872767481
20
-114.9903717776
30
0.0000000000
10
-209.4309578994
20
-114.3989291566
30
0.0000000000
10
-209.5307295432
20
-113.7255957445
30
0.0000000000
10
-209.5307295432
20
-113.3817297214
30
0.0000000000
11
-208.8679624147
21
-115.2281798758
31
0.0000000000
11
-209.3625190146
21
-114.3995213477
31
0.0000000000
11
-209.5307295432
21
-113.3817297214
31
0.0000000000
0
SPLINE
5
295
100
AcDbEntity
8
0
100
AcDbSpline
62
7
6
CONTINUOUS
70
0
71
3
72
8
73
4
74
2
42
0.0000001000
43
0.0000001000
44
0.0000000001
12
-0.3531495870
22
-0.1019455046
32
0.0000000000
13
-0.3643189941
23
-0.0617816240
33
0.0000000000
40
0.0000000000
40
0.0000000000
40
0.0000000000
40
0.0000000000
40
1.0000000000
40
1.0000000000
40
1.0000000000
40
1.0000000000
10
-203.6850580677
20
-36.2850676869
30
0.0000000000
10
-203.8027745967
20
-36.3190495217
30
0.0000000000
10
-203.9228435054
20
-36.3468524688
30
0.0000000000
10
-204.0442831701
20
-36.3674463434
30
0.0000000000
11
-203.6850580677
21
-36.2850676869
31
0.0000000000
11
-204.0442831701
21
-36.3674463434
31
0.0000000000
0
SPLINE
5
296
100
AcDbEntity
8
0
100
AcDbSpline
62
7
6
CONTINUOUS
70
0
71
3
72
9
73
5
74
3
42
0.0000001000
43
0.0000001000
44
0.0000000001
12
-1.5354152856
22
-0.2603774478
32
0.0000000000
13
-1.3920844272
23
0.7008538616
33
0.0000000000
40
0.0000000000
40
0.0000000000
40
0.0000000000
40
0.0000000000
40
0.4361494216
40
1.0000000000
40
1.0000000000
40
1.0000000000
40
1.0000000000
10
-204.0442831701
20
-36.3674463434
30
0.0000000000
10
-204.2675066664
20
-36.4053008345
30
0.0000000000
10
-204.7899307593
20
-36.4362459406
30
0.0000000000
10
-205.3046531522
20
-36.3055103113
30
0.0000000000
10
-205.5662956887
20
-36.1737846929
30
0.0000000000
11
-204.0442831701
21
-36.3674463434
31
0.0000000000
11
-204.7217515322
21
-36.4015382838
31
0.0000000000
11
-205.5662956887
21
-36.1737846929
31
0.0000000000
0
SPLINE
5
297
100
AcDbEntity
8
0
100
AcDbSpline
62
7
6
CONTINUOUS
70
0
71
3
72
8
73
4
74
2
42
0.0000001000
43
0.0000001000
44
0.0000000001
12
-0.3531495870
22
-0.1019455046
32
0.0000000000
13
-0.3643189941
23
-0.0617816240
33
0.0000000000
40
0.0000000000
40
0.0000000000
40
0.0000000000
40
0.0000000000
40
1.0000000000
40
1.0000000000
40
1.0000000000
40
1.0000000000
10
-203.6850580677
20
-85.7784195132
30
0.0000000000
10
-203.8027745967
20
-85.8124013480
30
0.0000000000
10
-203.9228435054
20
-85.8402042950
30
0.0000000000
10
-204.0442831701
20
-85.8607981697
30
0.0000000000
11
-203.6850580677
21
-85.7784195132
31
0.0000000000
11
-204.0442831701
21
-85.8607981697
31
0.0000000000
0
SPLINE
5
298
100
AcDbEntity
8
0
100
AcDbSpline
62
7
6
CONTINUOUS
70
0
71
3
72
9
73
5
74
3
42
0.0000001000
43
0.0000001000
44
0.0000000001
12
-1.5354152856
22
-0.2603774478
32
0.0000000000
13
-1.3920844272
23
0.7008538616
33
0.0000000000
40
0.0000000000
40
0.0000000000
40
0.0000000000
40
0.0000000000
40
0.4361494216
40
1.0000000000
40
1.0000000000
40
1.0000000000
40
1.0000000000
10
-204.0442831701
20
-85.8607981697
30
0.0000000000
10
-204.2675066664
20
-85.8986526608
30
0.0000000000
10
-204.7899307593
20
-85.9295977669
30
0.0000000000
10
-205.3046531522
20
-85.7988621376
30
0.0000000000
10
-205.5662956887
20
-85.6671365191
30
0.0000000000
11
-204.0442831701
21
-85.8607981697
31
0.0000000000
11
-204.7217515322
21
-85.8948901100
31
0.0000000000
11
-205.5662956887
21
-85.6671365191
31
0.0000000000
0
SPLINE
5
299
100
AcDbEntity
8
0
100
AcDbSpline
62
7
6
CONTINUOUS
70
0
71
3
72
8
73
4
74
2
42
0.0000001000
43
0.0000001000
44
0.0000000001
12
-0.3531495870
22
-0.1019455046
32
0.0000000000
13
-0.3643189941
23
-0.0617816240
33
0.0000000000
40
0.0000000000
40
0.0000000000
40
0.0000000000
40
0.0000000000
40
1.0000000000
40
1.0000000000
40
1.0000000000
40
1.0000000000
10
199.0167546921
20
79.9649323131
30
0.0000000000
10
198.8990381631
20
79.9309504783
30
0.0000000000
10
198.7789692543
20
79.9031475312
30
0.0000000000
10
198.6575295896
20
79.8825536566
30
0.0000000000
11
199.0167546921
21
79.9649323131
31
0.0000000000
11
198.6575295896
21
79.8825536566
31
0.0000000000
0
SPLINE
5
29A
100
AcDbEntity
8
0
100
AcDbSpline
62
7
6
CONTINUOUS
70
0
71
3
72
9
73
5
74
3
42
0.0000001000
43
0.0000001000
44
0.0000000001
12
-1.5354152856
22
-0.2603774478
32
0.0000000000
13
-1.3920844272
23
0.7008538616
33
0.0000000000
40
0.0000000000
40
0.0000000000
40
0.0000000000
40
0.0000000000
40
0.4361494216
40
1.0000000000
40
1.0000000000
40
1.0000000000
40
1.0000000000
10
198.6575295896
20
79.8825536566
30
0.0000000000
10
198.4343060934
20
79.8446991655
30
0.0000000000
10
197.9118820005
20
79.8137540594
30
0.0000000000
10
197.3971596075
20
79.9444896887
30
0.0000000000
10
197.1355170710
20
80.0762153071
30
0.0000000000
11
198.6575295896
21
79.8825536566
31
0.0000000000
11
197.9800612275
21
79.8484617162
31
0.0000000000
11
197.1355170710
21
80.0762153071
31
0.0000000000
0
SPLINE
5
29B
100
AcDbEntity
8
0
100
AcDbSpline
62
7
6
CONTINUOUS
70
0
71
3
72
8
73
4
74
2
42
0.0000001000
43
0.0000001000
44
0.0000000001
12
-0.3531495870
22
-0.1019455046
32
0.0000000000
13
-0.3643189941
23
-0.0617816240
33
0.0000000000
40
0.0000000000
40
0.0000000000
40
0.0000000000
40
0.0000000000
40
1.0000000000
40
1.0000000000
40
1.0000000000
40
1.0000000000
10
199.0167546921
20
30.4715804868
30
0.0000000000
10
198.8990381631
20
30.4375986520
30
0.0000000000
10
198.7789692543
20
30.4097957050
30
0.0000000000
10
198.6575295896
20
30.3892018303
30
0.0000000000
11
199.0167546921
21
30.4715804868
31
0.0000000000
11
198.6575295896
21
30.3892018303
31
0.0000000000
0
SPLINE
5
29C
100
AcDbEntity
8
0
100
AcDbSpline
62
7
6
CONTINUOUS
70
0
71
3
72
9
73
5
74
3
42
0.0000001000
43
0.0000001000
44
0.0000000001
12
-1.5354152856
22
-0.2603774478
32
0.0000000000
13
-1.3920844272
23
0.7008538616
33
0.0000000000
40
0.0000000000
40
0.0000000000
40
0.0000000000
40
0.0000000000
40
0.4361494216
40
1.0000000000
40
1.0000000000
40
1.0000000000
40
1.0000000000
10
198.6575295896
20
30.3892018303
30
0.0000000000
10
198.4343060934
20
30.3513473392
30
0.0000000000
10
197.9118820005
20
30.3204022331
30
0.0000000000
10
197.3971596075
20
30.4511378624
30
0.0000000000
10
197.1355170710
20
30.5828634809
30
0.0000000000
11
198.6575295896
21
30.3892018303
31
0.0000000000
11
197.9800612275
21
30.3551098900
31
0.0000000000
11
197.1355170710
21
30.5828634809
31
0.0000000000
0
SPLINE
5
29D
100
AcDbEntity
8
0
100
AcDbSpline
62
7
6
CONTINUOUS
70
0
71
3
72
9
73
5
74
3
42
0.0000001000
43
0.0000001000
44
0.0000000001
12
1.6784648735
22
0.4845310733
32
0.0000000000
13
1.6873579276
23
-0.4863402102
33
0.0000000000
40
0.0000000000
40
0.0000000000
40
0.0000000000
40
0.0000000000
40
0.6161589139
40
1.0000000000
40
1.0000000000
40
1.0000000000
40
1.0000000000
10
204.4294134657
20
116.9695219630
30
0.0000000000
10
204.7741471636
20
117.0690380096
30
0.0000000000
10
205.3612716380
20
117.1549255730
30
0.0000000000
10
205.9459848111
20
117.0675664034
30
0.0000000000
10
206.1618772443
20
117.0053406185
30
0.0000000000
11
204.4294134657
21
116.9695219630
31
0.0000000000
11
205.4967556657
21
117.1091053499
31
0.0000000000
11
206.1618772443
21
117.0053406185
31
0.0000000000
0
SPLINE
5
29E
100
AcDbEntity
8
0
100
AcDbSpline
62
7
6
CONTINUOUS
70
0
71
3
72
9
73
5
74
3
42
0.0000001000
43
0.0000001000
44
0.0000000001
12
0.9737372395
22
-0.2806562650
32
0.0000000000
13
0.7684458254
23
-0.6634470607
33
0.0000000000
40
0.0000000000
40
0.0000000000
40
0.0000000000
40
0.0000000000
40
0.3191558796
40
1.0000000000
40
1.0000000000
40
1.0000000000
40
1.0000000000
10
206.1618772443
20
117.0053406185
30
0.0000000000
10
206.2654685660
20
116.9754829195
30
0.0000000000
10
206.5838837395
20
116.8612315001
30
0.0000000000
10
206.8741040676
20
116.6786870451
30
0.0000000000
10
207.0485013416
20
116.5281190350
30
0.0000000000
11
206.1618772443
21
117.0053406185
31
0.0000000000
11
206.4658447752
21
116.8955985339
31
0.0000000000
11
207.0485013416
21
116.5281190350
31
0.0000000000
0
SPLINE
5
29F
100
AcDbEntity
8
0
100
AcDbSpline
62
7
6
CONTINUOUS
70
0
71
3
72
10
73
6
74
4
42
0.0000001000
43
0.0000001000
44
0.0000000001
12
0.0000000000
22
0.7466732887
32
0.0000000000
13
0.7173804913
23
0.2070899099
33
0.0000000000
40
0.0000000000
40
0.0000000000
40
0.0000000000
40
0.0000000000
40
0.3212570263
40
0.6662250165
40
1.0000000000
40
1.0000000000
40
1.0000000000
40
1.0000000000
10
191.4390324090
20
112.7865092611
30
0.0000000000
10
191.4390324090
20
112.8664672745
30
0.0000000000
10
191.4849823761
20
113.0329604532
30
0.0000000000
10
191.6409574994
20
113.2330458660
30
0.0000000000
10
191.7922305570
20
113.3214814859
30
0.0000000000
10
191.8720451109
20
113.3445219630
30
0.0000000000
11
191.4390324090
21
112.7865092611
31
0.0000000000
11
191.4968250313
21
113.0193172679
31
0.0000000000
11
191.6544323173
21
113.2230488736
31
0.0000000000
11
191.8720451109
21
113.3445219630
31
0.0000000000
0
SPLINE
5
2A0
100
AcDbEntity
8
0
100
AcDbSpline
62
7
6
CONTINUOUS
70
0
71
3
72
9
73
5
74
3
42
0.0000001000
43
0.0000001000
44
0.0000000001
12
-0.2151388685
22
0.1841517714
32
0.0000000000
13
0.0000000000
23
0.2779164488
33
0.0000000000
40
0.0000000000
40
0.0000000000
40
0.0000000000
40
0.0000000000
40
0.2476992234
40
1.0000000000
40
1.0000000000
40
1.0000000000
40
1.0000000000
10
191.5448026646
20
-0.9149260332
30
0.0000000000
10
191.5270394210
20
-0.8997212829
30
0.0000000000
10
191.4627668328
20
-0.8300584727
30
0.0000000000
10
191.4390324090
20
-0.7325108881
30
0.0000000000
10
191.4390324090
20
-0.6628186347
30
0.0000000000
11
191.5448026646
21
-0.9149260332
31
0.0000000000
11
191.4976860959
21
-0.8634995672
31
0.0000000000
11
191.4390324090
21
-0.6628186347
31
0.0000000000
0
SPLINE
5
2A1
100
AcDbEntity
8
0
100
AcDbSpline
62
7
6
CONTINUOUS
70
0
71
3
72
9
73
5
74
3
42
0.0000001000
43
0.0000001000
44
0.0000000001
12
0.3277700724
22
0.0946190698
32
0.0000000000
13
0.2640918377
23
-0.2260538975
33
0.0000000000
40
0.0000000000
40
0.0000000000
40
0.0000000000
40
0.0000000000
40
0.6336541871
40
1.0000000000
40
1.0000000000
40
1.0000000000
40
1.0000000000
10
-193.5092595732
20
2.0945219630
30
0.0000000000
10
-193.4400286136
20
2.1145072196
30
0.0000000000
10
-193.3188792441
20
2.1231219825
30
0.0000000000
10
-193.2142667733
20
2.0662212926
30
0.0000000000
10
-193.1820171269
20
2.0386166597
30
0.0000000000
11
-193.5092595732
21
2.0945219630
31
0.0000000000
11
-193.2931348595
21
2.0991191715
31
0.0000000000
11
-193.1820171269
21
2.0386166597
31
0.0000000000
0
SPLINE
5
2A2
100
AcDbEntity
8
0
100
AcDbSpline
62
7
6
CONTINUOUS
70
0
71
3
72
12
73
8
74
6
42
0.0000001000
43
0.0000001000
44
0.0000000001
12
0.0000000000
22
6.0024999661
32
0.0000000000
13
5.7670154267
23
1.6647939545
33
0.0000000000
40
0.0000000000
40
0.0000000000
40
0.0000000000
40
0.0000000000
40
0.1880294572
40
0.3906142785
40
0.5984229044
40
0.8054506940
40
1.0000000000
40
1.0000000000
40
1.0000000000
40
1.0000000000
10
-209.5307295432
20
-5.9945796521
30
0.0000000000
10
-209.5307295432
20
-5.6183640486
30
0.0000000000
10
-209.4031891248
20
-4.8342688105
30
0.0000000000
10
-208.9053579493
20
-3.7328670016
30
0.0000000000
10
-208.1400402485
20
-2.7485303633
30
0.0000000000
10
-207.1817302993
20
-1.9772912983
30
0.0000000000
10
-206.4406175443
20
-1.6384395398
30
0.0000000000
10
-206.0666279281
20
-1.5304780370
30
0.0000000000
11
-209.5307295432
21
-5.9945796521
31
0.0000000000
11
-209.3621977769
21
-4.8785865219
31
0.0000000000
11
-208.8689390318
21
-3.7671058777
31
0.0000000000
11
-208.1044024725
21
-2.7815000064
31
0.0000000000
11
-207.1329777513
21
-2.0065172443
31
0.0000000000
11
-206.0666279281
21
-1.5304780370
31
0.0000000000
0
SPLINE
5
2A3
100
AcDbEntity
8
0
100
AcDbSpline
62
7
6
CONTINUOUS
70
0
71
3
72
8
73
4
74
2
42
0.0000001000
43
0.0000001000
44
0.0000000001
12
0.3554303485
22
-0.5155713499
32
0.0000000000
13
0.1949465664
23
-0.5961732671
33
0.0000000000
40
0.0000000000
40
0.0000000000
40
0.0000000000
40
0.0000000000
40
1.0000000000
40
1.0000000000
40
1.0000000000
40
1.0000000000
10
204.6775371038
20
36.6442082278
30
0.0000000000
10
204.7960138866
20
36.4723511112
30
0.0000000000
10
204.8868771009
20
36.2822833644
30
0.0000000000
10
204.9518592897
20
36.0835589421
30
0.0000000000
11
204.6775371038
21
36.6442082278
31
0.0000000000
11
204.9518592897
21
36.0835589421
31
0.0000000000
0
SPLINE
5
2A4
100
AcDbEntity
8
0
100
AcDbSpline
62
7
6
CONTINUOUS
70
0
71
3
72
9
73
5
74
3
42
0.0000001000
43
0.0000001000
44
0.0000000001
12
0.2079584308
22
-0.6359653284
32
0.0000000000
13
0.0397930900
23
-0.6652962270
33
0.0000000000
40
0.0000000000
40
0.0000000000
40
0.0000000000
40
0.0000000000
40
0.4907395329
40
1.0000000000
40
1.0000000000
40
1.0000000000
40
1.0000000000
10
204.9518592897
20
36.0835589421
30
0.0000000000
10
204.9858770974
20
35.9795278327
30
0.0000000000
10
205.0407436940
20
35.7627051959
30
0.0000000000
10
205.0671911565
20
35.5417230974
30
0.0000000000
10
205.0739461723
20
35.4287867416
30
0.0000000000
11
204.9518592897
21
36.0835589421
31
0.0000000000
11
205.0328834672
21
35.7657192501
31
0.0000000000
11
205.0739461723
21
35.4287867416
31
0.0000000000
0
SPLINE
5
2A5
100
AcDbEntity
8
0
100
AcDbSpline
62
7
6
CONTINUOUS
70
0
71
3
72
12
73
8
74
6
42
0.0000001000
43
0.0000001000
44
0.0000000001
12
0.3253281483
22
-5.4391249796
32
0.0000000000
13
-5.2110984323
23
-1.5043145413
33
0.0000000000
40
0.0000000000
40
0.0000000000
40
0.0000000000
40
0.0000000000
40
0.1317923825
40
0.3439838570
40
0.5668607301
40
0.7892112903
40
1.0000000000
40
1.0000000000
40
1.0000000000
40
1.0000000000
10
205.0739461723
20
35.4287867416
30
0.0000000000
10
205.0882380962
20
35.1898416616
30
0.0000000000
10
205.0471013090
20
34.5615239076
30
0.0000000000
10
204.7117593942
20
33.5783365710
30
0.0000000000
10
204.0354776695
20
32.5843624981
30
0.0000000000
10
203.1328167071
20
31.7959110048
30
0.0000000000
10
202.4139905101
20
31.4522779939
30
0.0000000000
10
202.0478436053
20
31.3465804868
30
0.0000000000
11
205.0739461723
21
35.4287867416
31
0.0000000000
11
205.0328834672
21
34.7130331178
31
0.0000000000
11
204.6728436053
21
33.6198971718
31
0.0000000000
11
203.9961900026
21
32.6181597400
31
0.0000000000
11
203.0845370699
21
31.8286451408
31
0.0000000000
11
202.0478436053
21
31.3465804868
31
0.0000000000
0
SPLINE
5
2A6
100
AcDbEntity
8
0
100
AcDbSpline
62
7
6
CONTINUOUS
70
0
71
3
72
8
73
4
74
2
42
0.0000001000
43
0.0000001000
44
0.0000000001
12
0.3554303485
22
-0.5155713499
32
0.0000000000
13
0.1949465664
23
-0.5961732671
33
0.0000000000
40
0.0000000000
40
0.0000000000
40
0.0000000000
40
0.0000000000
40
1.0000000000
40
1.0000000000
40
1.0000000000
40
1.0000000000
10
204.6775371038
20
86.1375600541
30
0.0000000000
10
204.7960138866
20
85.9657029375
30
0.0000000000
10
204.8868771009
20
85.7756351907
30
0.0000000000
10
204.9518592897
20
85.5769107683
30
0.0000000000
11
204.6775371038
21
86.1375600541
31
0.0000000000
11
204.9518592897
21
85.5769107683
31
0.0000000000
0
SPLINE
5
2A7
100
AcDbEntity
8
0
100
AcDbSpline
62
7
6
CONTINUOUS
70
0
71
3
72
9
73
5
74
3
42
0.0000001000
43
0.0000001000
44
0.0000000001
12
0.2079584308
22
-0.6359653284
32
0.0000000000
13
0.0397930900
23
-0.6652962270
33
0.0000000000
40
0.0000000000
40
0.0000000000
40
0.0000000000
40
0.0000000000
40
0.4907395329
40
1.0000000000
40
1.0000000000
40
1.0000000000
40
1.0000000000
10
204.9518592897
20
85.5769107683
30
0.0000000000
10
204.9858770974
20
85.4728796589
30
0.0000000000
10
205.0407436940
20
85.2560570222
30
0.0000000000
10
205.0671911565
20
85.0350749237
30
0.0000000000
10
205.0739461723
20
84.9221385679
30
0.0000000000
11
204.9518592897
21
85.5769107683
31
0.0000000000
11
205.0328834672
21
85.2590710764
31
0.0000000000
11
205.0739461723
21
84.9221385679
31
0.0000000000
0
SPLINE
5
2A8
100
AcDbEntity
8
0
100
AcDbSpline
62
7
6
CONTINUOUS
70
0
71
3
72
12
73
8
74
6
42
0.0000001000
43
0.0000001000
44
0.0000000001
12
0.3253281483
22
-5.4391249796
32
0.0000000000
13
-5.2110984323
23
-1.5043145413
33
0.0000000000
40
0.0000000000
40
0.0000000000
40
0.0000000000
40
0.0000000000
40
0.1317923825
40
0.3439838570
40
0.5668607301
40
0.7892112903
40
1.0000000000
40
1.0000000000
40
1.0000000000
40
1.0000000000
10
205.0739461723
20
84.9221385679
30
0.0000000000
10
205.0882380962
20
84.6831934879
30
0.0000000000
10
205.0471013090
20
84.0548757339
30
0.0000000000
10
204.7117593942
20
83.0716883972
30
0.0000000000
10
204.0354776695
20
82.0777143244
30
0.0000000000
10
203.1328167071
20
81.2892628311
30
0.0000000000
10
202.4139905101
20
80.9456298201
30
0.0000000000
10
202.0478436053
20
80.8399323131
30
0.0000000000
11
205.0739461723
21
84.9221385679
31
0.0000000000
11
205.0328834672
21
84.2063849441
31
0.0000000000
11
204.6728436053
21
83.1132489981
31
0.0000000000
11
203.9961900026
21
82.1115115663
31
0.0000000000
11
203.0845370699
21
81.3219969671
31
0.0000000000
11
202.0478436053
21
80.8399323131
31
0.0000000000
0
SPLINE
5
2A9
100
AcDbEntity
8
0
100
AcDbSpline
62
7
6
CONTINUOUS
70
0
71
3
72
8
73
4
74
2
42
0.0000001000
43
0.0000001000
44
0.0000000001
12
0.3554303485
22
-0.5155713499
32
0.0000000000
13
0.1949465664
23
-0.5961732671
33
0.0000000000
40
0.0000000000
40
0.0000000000
40
0.0000000000
40
0.0000000000
40
1.0000000000
40
1.0000000000
40
1.0000000000
40
1.0000000000
10
-198.0242756560
20
-79.6057917722
30
0.0000000000
10
-197.9057988731
20
-79.7776488888
30
0.0000000000
10
-197.8149356589
20
-79.9677166356
30
0.0000000000
10
-197.7499534701
20
-80.1664410579
30
0.0000000000
11
-198.0242756560
21
-79.6057917722
31
0.0000000000
11
-197.7499534701
21
-80.1664410579
31
0.0000000000
0
SPLINE
5
2AA
100
AcDbEntity
8
0
100
AcDbSpline
62
7
6
CONTINUOUS
70
0
71
3
72
9
73
5
74
3
42
0.0000001000
43
0.0000001000
44
0.0000000001
12
0.2079584308
22
-0.6359653284
32
0.0000000000
13
0.0397930900
23
-0.6652962270
33
0.0000000000
40
0.0000000000
40
0.0000000000
40
0.0000000000
40
0.0000000000
40
0.4907395329
40
1.0000000000
40
1.0000000000
40
1.0000000000
40
1.0000000000
10
-197.7499534701
20
-80.1664410579
30
0.0000000000
10
-197.7159356624
20
-80.2704721673
30
0.0000000000
10
-197.6610690658
20
-80.4872948041
30
0.0000000000
10
-197.6346216033
20
-80.7082769026
30
0.0000000000
10
-197.6278665874
20
-80.8212132584
30
0.0000000000
11
-197.7499534701
21
-80.1664410579
31
0.0000000000
11
-197.6689292926
21
-80.4842807499
31
0.0000000000
11
-197.6278665874
21
-80.8212132584
31
0.0000000000
0
SPLINE
5
2AB
100
AcDbEntity
8
0
100
AcDbSpline
62
7
6
CONTINUOUS
70
0
71
3
72
12
73
8
74
6
42
0.0000001000
43
0.0000001000
44
0.0000000001
12
0.3253281483
22
-5.4391249796
32
0.0000000000
13
-5.2110984323
23
-1.5043145413
33
0.0000000000
40
0.0000000000
40
0.0000000000
40
0.0000000000
40
0.0000000000
40
0.1317923825
40
0.3439838570
40
0.5668607301
40
0.7892112903
40
1.0000000000
40
1.0000000000
40
1.0000000000
40
1.0000000000
10
-197.6278665874
20
-80.8212132584
30
0.0000000000
10
-197.6135746635
20
-81.0601583384
30
0.0000000000
10
-197.6547114507
20
-81.6884760924
30
0.0000000000
10
-197.9900533656
20
-82.6716634290
30
0.0000000000
10
-198.6663350903
20
-83.6656375019
30
0.0000000000
10
-199.5689960526
20
-84.4540889952
30
0.0000000000
10
-200.2878222496
20
-84.7977220061
30
0.0000000000
10
-200.6539691544
20
-84.9034195132
30
0.0000000000
11
-197.6278665874
21
-80.8212132584
31
0.0000000000
11
-197.6689292926
21
-81.5369668822
31
0.0000000000
11
-198.0289691544
21
-82.6301028282
31
0.0000000000
11
-198.7056227571
21
-83.6318402600
31
0.0000000000
11
-199.6172756899
21
-84.4213548592
31
0.0000000000
11
-200.6539691544
21
-84.9034195132
31
0.0000000000
0
SPLINE
5
2AC
100
AcDbEntity
8
0
100
AcDbSpline
62
7
6
CONTINUOUS
70
0
71
3
72
8
73
4
74
2
42
0.0000001000
43
0.0000001000
44
0.0000000001
12
0.3554303485
22
-0.5155713499
32
0.0000000000
13
0.1949465664
23
-0.5961732671
33
0.0000000000
40
0.0000000000
40
0.0000000000
40
0.0000000000
40
0.0000000000
40
1.0000000000
40
1.0000000000
40
1.0000000000
40
1.0000000000
10
-198.0242756560
20
-30.1124399459
30
0.0000000000
10
-197.9057988731
20
-30.2842970625
30
0.0000000000
10
-197.8149356589
20
-30.4743648093
30
0.0000000000
10
-197.7499534701
20
-30.6730892317
30
0.0000000000
11
-198.0242756560
21
-30.1124399459
31
0.0000000000
11
-197.7499534701
21
-30.6730892317
31
0.0000000000
0
SPLINE
5
2AD
100
AcDbEntity
8
0
100
AcDbSpline
62
7
6
CONTINUOUS
70
0
71
3
72
9
73
5
74
3
42
0.0000001000
43
0.0000001000
44
0.0000000001
12
0.2079584308
22
-0.6359653284
32
0.0000000000
13
0.0397930900
23
-0.6652962270
33
0.0000000000
40
0.0000000000
40
0.0000000000
40
0.0000000000
40
0.0000000000
40
0.4907395329
40
1.0000000000
40
1.0000000000
40
1.0000000000
40
1.0000000000
10
-197.7499534701
20
-30.6730892317
30
0.0000000000
10
-197.7159356624
20
-30.7771203411
30
0.0000000000
10
-197.6610690658
20
-30.9939429778
30
0.0000000000
10
-197.6346216033
20
-31.2149250763
30
0.0000000000
10
-197.6278665874
20
-31.3278614321
30
0.0000000000
11
-197.7499534701
21
-30.6730892317
31
0.0000000000
11
-197.6689292926
21
-30.9909289236
31
0.0000000000
11
-197.6278665874
21
-31.3278614321
31
0.0000000000
0
SPLINE
5
2AE
100
AcDbEntity
8
0
100
AcDbSpline
62
7
6
CONTINUOUS
70
0
71
3
72
12
73
8
74
6
42
0.0000001000
43
0.0000001000
44
0.0000000001
12
0.3253281483
22
-5.4391249796
32
0.0000000000
13
-5.2110984323
23
-1.5043145413
33
0.0000000000
40
0.0000000000
40
0.0000000000
40
0.0000000000
40
0.0000000000
40
0.1317923825
40
0.3439838570
40
0.5668607301
40
0.7892112903
40
1.0000000000
40
1.0000000000
40
1.0000000000
40
1.0000000000
10
-197.6278665874
20
-31.3278614321
30
0.0000000000
10
-197.6135746635
20
-31.5668065121
30
0.0000000000
10
-197.6547114507
20
-32.1951242661
30
0.0000000000
10
-197.9900533656
20
-33.1783116028
30
0.0000000000
10
-198.6663350903
20
-34.1722856756
30
0.0000000000
10
-199.5689960526
20
-34.9607371689
30
0.0000000000
10
-200.2878222496
20
-35.3043701799
30
0.0000000000
10
-200.6539691544
20
-35.4100676869
30
0.0000000000
11
-197.6278665874
21
-31.3278614321
31
0.0000000000
11
-197.6689292926
21
-32.0436150559
31
0.0000000000
11
-198.0289691544
21
-33.1367510019
31
0.0000000000
11
-198.7056227571
21
-34.1384884337
31
0.0000000000
11
-199.6172756899
21
-34.9280030329
31
0.0000000000
11
-200.6539691544
21
-35.4100676869
31
0.0000000000
0
SPLINE
5
2AF
100
AcDbEntity
8
0
100
AcDbSpline
62
7
6
CONTINUOUS
70
0
71
3
72
10
73
6
74
4
42
0.0000001000
43
0.0000001000
44
0.0000000001
12
0.6389098418
22
0.1844373846
32
0.0000000000
13
-0.2788431154
23
0.6037130541
33
0.0000000000
40
0.0000000000
40
0.0000000000
40
0.0000000000
40
0.0000000000
40
0.3237018798
40
0.6554913127
40
1.0000000000
40
1.0000000000
40
1.0000000000
40
1.0000000000
10
-191.6906061110
20
0.8874710565
30
0.0000000000
10
-191.6216673387
20
0.9073719658
30
0.0000000000
10
-191.4898756762
20
0.9839933250
30
0.0000000000
10
-191.3781826890
20
1.1933634852
30
0.0000000000
10
-191.4121747719
20
1.3511557267
30
0.0000000000
10
-191.4441960637
20
1.4204838573
30
0.0000000000
11
-191.6906061110
21
0.8874710565
31
0.0000000000
11
-191.5057870699
21
0.9978310433
31
0.0000000000
11
-191.4059655128
21
1.1945984873
31
0.0000000000
11
-191.4441960637
21
1.4204838573
31
0.0000000000
0
SPLINE
5
2B0
100
AcDbEntity
8
0
100
AcDbSpline
62
7
6
CONTINUOUS
70
0
71
3
72
10
73
6
74
4
42
0.0000001000
43
0.0000001000
44
0.0000000001
12
0.7173778440
22
0.2070891457
32
0.0000000000
13
0.0000000000
23
0.7466705333
33
0.0000000000
40
0.0000000000
40
0.0000000000
40
0.0000000000
40
0.0000000000
40
0.3311939586
40
0.6762061231
40
1.0000000000
40
1.0000000000
40
1.0000000000
40
1.0000000000
10
191.0060197071
20
111.3624711554
30
0.0000000000
10
191.0852167764
20
111.3853333801
30
0.0000000000
10
191.2360040310
20
111.4731251692
30
0.0000000000
10
191.3925488405
20
111.6727550131
30
0.0000000000
10
191.4390324090
20
111.8398947417
30
0.0000000000
10
191.4390324090
20
111.9204838573
30
0.0000000000
11
191.0060197071
21
111.3624711554
31
0.0000000000
11
191.2221444208
21
111.4826536086
31
0.0000000000
11
191.3803787220
21
111.6859392028
31
0.0000000000
11
191.4390324090
21
111.9204838573
31
0.0000000000
0
SPLINE
5
2B1
100
AcDbEntity
8
0
100
AcDbSpline
62
7
6
CONTINUOUS
70
0
71
3
72
8
73
4
74
2
42
0.0000001000
43
0.0000001000
44
0.0000000001
12
-0.1521796993
22
0.1317914856
32
0.0000000000
13
-0.1358029100
23
0.1518107313
33
0.0000000000
40
0.0000000000
40
0.0000000000
40
0.0000000000
40
0.0000000000
40
1.0000000000
40
1.0000000000
40
1.0000000000
40
1.0000000000
10
-195.3441960637
20
4.8845854725
30
0.0000000000
10
-195.3949226302
20
4.9285159676
30
0.0000000000
10
-195.4439628884
20
4.9757204102
30
0.0000000000
10
-195.4892305251
20
5.0263239873
30
0.0000000000
11
-195.3441960637
21
4.8845854725
31
0.0000000000
11
-195.4892305251
21
5.0263239873
31
0.0000000000
0
SPLINE
5
2B2
100
AcDbEntity
8
0
100
AcDbSpline
62
7
6
CONTINUOUS
70
0
71
3
72
9
73
5
74
3
42
0.0000001000
43
0.0000001000
44
0.0000000001
12
-0.4496827778
22
0.5026893116
32
0.0000000000
13
-0.0061252065
23
0.6758653296
33
0.0000000000
40
0.0000000000
40
0.0000000000
40
0.0000000000
40
0.0000000000
40
0.5265894380
40
1.0000000000
40
1.0000000000
40
1.0000000000
40
1.0000000000
10
-195.4892305251
20
5.0263239873
30
0.0000000000
10
-195.5681632588
20
5.1145609480
30
0.0000000000
10
-195.6962749168
20
5.3017501901
30
0.0000000000
10
-195.7431330521
20
5.5286031614
30
0.0000000000
10
-195.7440996313
20
5.6352570899
30
0.0000000000
11
-195.4892305251
21
5.0263239873
31
0.0000000000
11
-195.6805564385
21
5.3227033144
31
0.0000000000
11
-195.7440996313
21
5.6352570899
31
0.0000000000
0
SPLINE
5
2B3
100
AcDbEntity
8
0
100
AcDbSpline
62
7
6
CONTINUOUS
70
0
71
3
72
9
73
5
74
3
42
0.0000001000
43
0.0000001000
44
0.0000000001
12
0.2001264967
22
-0.1733146301
32
0.0000000000
13
0.1110102070
23
-0.2403441483
33
0.0000000000
40
0.0000000000
40
0.0000000000
40
0.0000000000
40
0.0000000000
40
0.4682036330
40
1.0000000000
40
1.0000000000
40
1.0000000000
40
1.0000000000
10
-191.5941960637
20
1.6369902083
30
0.0000000000
10
-191.5629627461
20
1.6099413618
30
0.0000000000
10
-191.5063678793
20
1.5407289302
30
0.0000000000
10
-191.4638743387
20
1.4630885723
30
0.0000000000
10
-191.4441960637
20
1.4204838573
30
0.0000000000
11
-191.5941960637
21
1.6369902083
31
0.0000000000
11
-191.5130581188
21
1.5432828131
31
0.0000000000
11
-191.4441960637
21
1.4204838573
31
0.0000000000
0
ENDSEC
0
SECTION
2
OBJECTS
0
DICTIONARY
5
2B4
100
AcDbDictionary
3
ACAD_GROUP
350
2B5
3
ACAD_MLINESTYLE
350
2B6
0
DICTIONARY
5
2B5
102
{ACAD_REACTORS
330
2B4
102
}
100
AcDbDictionary
0
DICTIONARY
5
2B6
102
{ACAD_REACTORS
330
2B4
102
}
100
AcDbDictionary
3
STANDARD
350
2B7
0
MLINESTYLE
5
2B7
102
{ACAD_REACTORS
330
2B6
102
}
100
AcDbMlineStyle
2
STANDARD
70
0
3

62
256
51
90.0
52
90.0
71
2
49
0.5
62
256
6
BYLAYER
49
-0.5
62
256
6
BYLAYER
0
ENDSEC
0
EOF
