0
SECTION
2
HEADER
9
$ACADVER
1
AC1014
9
$HANDSEED
5
       58A
9
$EXTMAX
10
297.0000000000
20
210.0000000000
9
$EXTMIN
10
0.0000000000
20
0.0000000000
9
$LIMMIN
10
0.0000000000
20
0.0000000000
9
$LIMMAX
10
297.0000000000
20
210.0000000000
9
$VIEWCTR
10
148.5000000000
20
105.0000000000
9
$VIEWSIZE
40
210.0000000000
9
$CLAYER
8
0
9
$LTSCALE
40
16.3350000000
9
$CELTYPE
6
BYLAYER
9
$DIMSCALE
40
1
9
$DIMASZ
40
3.0000000000
9
$DIMEXO
40
1.8562500000
9
$DIMDLI
40
11.2860000000
9
$DIMEXE
40
5.3460000000
9
$DIMCEN
40
2.6730000000
9
$DIMLFAC
40
1.0000000000
9
$DIMTXT
40
3.0000000000
9
$DIMTOL
70
1
9
$DIMLIM
70
0
9
$DIMTFAC
40
1.0000000000
9
$DIMTP
40
0.0100000000
9
$DIMTM
40
0.0100000000
9
$MEASUREMENT
70
1
0
ENDSEC
0
SECTION
2
CLASSES
0
ENDSEC
0
SECTION
2
TABLES
0
TABLE
2
VPORT
5
8
100
AcDbSymbolTable
70
2
0
VPORT
5
1F4
100
AcDbSymbolTableRecord
100
AcDbViewportTableRecord
2
*ACTIVE
70
0
10
0.0
20
0.0
11
1.0
21
1.0
12
148.5000000000
22
105.0000000000
13
0.0
23
0.0
14
1.0
24
1.0
15
0.0
25
0.0
16
0.0
26
0.0
36
1.0
17
0.0
27
0.0
37
0.0
40
210.0000000000
41
1.4142857143
42
50.0
43
0.0
44
0.0
50
0.0
51
0.0
71
0
72
100
73
1
74
1
75
0
76
0
77
0
78
0
0
ENDTAB
0
TABLE
2
LTYPE
5
5
100
AcDbSymbolTable
70
6
0
LTYPE
5
14
100
AcDbSymbolTableRecord
100
AcDbLinetypeTableRecord
2
BYBLOCK
70
0
3

72
65
73
0
40
0.0
0
LTYPE
5
15
100
AcDbSymbolTableRecord
100
AcDbLinetypeTableRecord
2
BYLAYER
70
0
3

72
65
73
0
40
0.0
0
LTYPE
5
16
100
AcDbSymbolTableRecord
100
AcDbLinetypeTableRecord
2
CONTINUOUS
70
64
3
Solid line
72
65
73
0
40
0
0
LTYPE
5
1F5
100
AcDbSymbolTableRecord
100
AcDbLinetypeTableRecord
2
CENTER
70
64
3
____ _ ____ _ ____ _ ____ _ ____ _ ____ _ ____
72
65
73
4
40
0.6
49
0.375
74
0
49
-0.075
74
0
49
0.075
74
0
49
-0.075
74
0
0
LTYPE
5
1F6
100
AcDbSymbolTableRecord
100
AcDbLinetypeTableRecord
2
HIDDEN
70
64
3
- - - - - - - - - - - - - - - - - - - -
72
65
73
2
40
0.2
49
0.1
74
0
49
-0.1
74
0
0
LTYPE
5
1F7
100
AcDbSymbolTableRecord
100
AcDbLinetypeTableRecord
2
PHANTOM
70
64
3
_____ _ _ _____ _ _ _____ _ _ _____
72
65
73
6
40
0.8
49
0.45
74
0
49
-0.05
74
0
49
0.1
74
0
49
-0.05
74
0
49
0.1
74
0
49
-0.05
74
0
0
LTYPE
5
1F8
100
AcDbSymbolTableRecord
100
AcDbLinetypeTableRecord
2
DOT
70
64
3
. . . . . . . . . . . . . . . . . . . .
72
65
73
2
40
0.2
49
0.1
74
0
49
-0.1
74
0
0
LTYPE
5
1F9
100
AcDbSymbolTableRecord
100
AcDbLinetypeTableRecord
2
DASHED
70
64
3
- - - - - - - - - - - - - - - - - - - -
72
65
73
2
40
0.2
49
0.1
74
0
49
-0.1
74
0
0
ENDTAB
0
TABLE
2
LAYER
5
2
100
AcDbSymbolTable
70
36
0
LAYER
5
10
100
AcDbSymbolTableRecord
100
AcDbLayerTableRecord
2
0
70
0
62
7
6
CONTINUOUS
0
LAYER
5
1FA
100
AcDbSymbolTableRecord
100
AcDbLayerTableRecord
2
DEFAULT_1
70
0
62
7
6
CENTER
0
LAYER
5
1FB
100
AcDbSymbolTableRecord
100
AcDbLayerTableRecord
2
DEFAULT_2
70
0
62
8
6
HIDDEN
0
LAYER
5
1FC
100
AcDbSymbolTableRecord
100
AcDbLayerTableRecord
2
DEFAULT_3
70
0
62
7
6
PHANTOM
0
LAYER
5
1FD
100
AcDbSymbolTableRecord
100
AcDbLayerTableRecord
2
ALTRI_PIANI
70
0
62
7
6
CONTINUOUS
0
LAYER
5
1FE
100
AcDbSymbolTableRecord
100
AcDbLayerTableRecord
2
ASSI
70
0
62
7
6
CONTINUOUS
0
LAYER
5
1FF
100
AcDbSymbolTableRecord
100
AcDbLayerTableRecord
2
COORDINATE
70
0
62
7
6
CONTINUOUS
0
LAYER
5
200
100
AcDbSymbolTableRecord
100
AcDbLayerTableRecord
2
COORD_ORIGINE
70
0
62
7
6
CONTINUOUS
0
LAYER
5
201
100
AcDbSymbolTableRecord
100
AcDbLayerTableRecord
2
PIANI
70
0
62
7
6
CONTINUOUS
0
LAYER
5
202
100
AcDbSymbolTableRecord
100
AcDbLayerTableRecord
2
PIANI_ORIGINE
70
0
62
7
6
CONTINUOUS
0
LAYER
5
203
100
AcDbSymbolTableRecord
100
AcDbLayerTableRecord
2
RACCORDO
70
0
62
7
6
CONTINUOUS
0
LAYER
5
204
100
AcDbSymbolTableRecord
100
AcDbLayerTableRecord
2
TRASH
70
0
62
7
6
CONTINUOUS
0
ENDTAB
0
TABLE
2
STYLE
5
3
100
AcDbSymbolTable
70
1
0
STYLE
5
11
100
AcDbSymbolTableRecord
100
AcDbTextStyleTableRecord
2
STANDARD
70
0
40
0.0
41
0.8000000000
50
0.0
71
0
42
0.2
3
txt
4

0
ENDTAB
0
TABLE
2
VIEW
5
6
100
AcDbSymbolTable
70
0
0
ENDTAB
0
TABLE
2
UCS
5
7
100
AcDbSymbolTable
70
0
0
ENDTAB
0
TABLE
2
APPID
5
9
100
AcDbSymbolTable
70
1
0
APPID
5
205
100
AcDbSymbolTableRecord
100
AcDbRegAppTableRecord
2
ACAD
70
0
0
ENDTAB
0
TABLE
2
DIMSTYLE
5
A
100
AcDbSymbolTable
70
1
0
DIMSTYLE
105
206
100
AcDbSymbolTableRecord
100
AcDbDimStyleTableRecord
2
STANDARD
70
0
3

4

5

6

7

40
1.0
41
3.0000000000
42
0.0625
43
0.38
44
0.18
45
0.0
46
0.0
47
0.0100000000
48
0.0100000000
140
3.0000000000
141
0.09
142
0.0
143
25.4
144
1.0000000000
145
0.0
146
1.0000000000
147
0.09
71
1
72
0
73
0
74
0
75
0
76
0
77
1
78
8
170
0
171
2
172
0
173
0
174
0
175
0
176
0
177
0
178
0
270
2
271
2
272
2
273
2
274
2
340
11
275
0
280
0
281
0
282
0
283
1
284
8
285
0
286
0
287
3
288
0
0
ENDTAB
0
TABLE
2
BLOCK_RECORD
5
1
100
AcDbSymbolTable
70
0
0
BLOCK_RECORD
5
1B
100
AcDbSymbolTableRecord
100
AcDbBlockTableRecord
2
*MODEL_SPACE
0
BLOCK_RECORD
5
1C
100
AcDbSymbolTableRecord
100
AcDbBlockTableRecord
2
*PAPER_SPACE
0
ENDTAB
0
ENDSEC
0
SECTION
2
BLOCKS
0
BLOCK
5
1E
100
AcDbEntity
8
0
100
AcDbBlockBegin
2
*MODEL_SPACE
70
0
10
0.0
20
0.0
30
0.0
3
*MODEL_SPACE
1

0
ENDBLK
5
1F
100
AcDbEntity
8
0
100
AcDbBlockEnd
0
BLOCK
5
20
100
AcDbEntity
8
0
100
AcDbBlockBegin
2
*PAPER_SPACE
70
0
10
0.0
20
0.0
30
0.0
3
*PAPER_SPACE
1

0
ENDBLK
5
21
100
AcDbEntity
8
0
100
AcDbBlockEnd
0
ENDSEC
0
SECTION
2
ENTITIES
0
LINE
5
207
100
AcDbEntity
8
0
100
AcDbLine
62
7
6
CONTINUOUS
10
-392.2385753184
20
65.3953043381
11
-392.2385753184
21
49.1466636953
0
LINE
5
208
100
AcDbEntity
8
0
100
AcDbLine
62
7
6
CONTINUOUS
10
-391.1779151467
20
64.8649742522
11
-391.1779151467
21
48.6163336094
0
LINE
5
209
100
AcDbEntity
8
0
100
AcDbLine
62
7
6
CONTINUOUS
10
-390.4708083655
20
30.9422721431
11
-390.4708083655
21
64.5114208616
0
LINE
5
20A
100
AcDbEntity
8
0
100
AcDbLine
62
7
6
CONTINUOUS
10
-337.2398379769
20
65.3229469023
11
-337.2398379769
21
85.0729469023
0
LINE
5
20B
100
AcDbEntity
8
0
100
AcDbLine
62
7
6
CONTINUOUS
10
-327.7398379769
20
85.0729469023
11
-327.7398379769
21
65.3229469023
0
LINE
5
20C
100
AcDbEntity
8
0
100
AcDbLine
62
7
6
CONTINUOUS
10
-302.2398379769
20
47.8229469023
11
-302.2398379769
21
67.5729469023
0
LINE
5
20D
100
AcDbEntity
8
0
100
AcDbLine
62
7
6
CONTINUOUS
10
-293.9758589994
20
-5.7746993984
11
-293.9758589994
21
-49.0759695876
0
LINE
5
20E
100
AcDbEntity
8
0
100
AcDbLine
62
9
6
CONTINUOUS
10
-293.2436259523
20
-49.9598530641
11
-293.2436259523
21
-6.6585828749
0
LINE
5
20F
100
AcDbEntity
8
0
100
AcDbLine
62
7
6
CONTINUOUS
10
-292.7398379769
20
67.5729469023
11
-292.7398379769
21
47.8229469023
0
LINE
5
210
100
AcDbEntity
8
0
100
AcDbLine
62
7
6
CONTINUOUS
10
-292.6779405274
20
-51.3733450138
11
-292.6779405274
21
-50.2426957766
0
LINE
5
211
100
AcDbEntity
8
0
100
AcDbLine
62
7
6
CONTINUOUS
10
-292.6779405274
20
-1.1438715943
11
-292.6779405274
21
-4.6079732095
0
LINE
5
212
100
AcDbEntity
8
0
100
AcDbLine
62
9
6
CONTINUOUS
10
-291.8294123899
20
-5.9514760937
11
-291.8294123899
21
-5.5979227031
0
LINE
5
213
100
AcDbEntity
8
0
100
AcDbLine
62
7
6
CONTINUOUS
10
-291.4758589994
20
1.1668162902
11
-291.4758589994
21
6.4752523691
0
LINE
5
214
100
AcDbEntity
8
0
100
AcDbLine
62
7
6
CONTINUOUS
10
-291.2778971998
20
88.3039172909
11
-291.2778971998
21
108.0539172909
0
LINE
5
215
100
AcDbEntity
8
0
100
AcDbLine
62
7
6
CONTINUOUS
10
-291.2637269650
20
-52.0804517950
11
-291.2637269650
21
-50.9498025578
0
LINE
5
216
100
AcDbEntity
8
0
100
AcDbLine
62
7
6
CONTINUOUS
10
-291.2637269650
20
-1.8509783755
11
-291.2637269650
21
-5.3150799907
0
LINE
5
217
100
AcDbEntity
8
0
100
AcDbLine
62
7
6
CONTINUOUS
10
-289.0009852652
20
-2.7114659543
11
-289.0009852652
21
-7.3656896561
0
LINE
5
218
100
AcDbEntity
8
0
100
AcDbLine
62
7
6
CONTINUOUS
10
-285.8190047499
20
-5.2148761559
11
-285.8190047499
21
-7.5004907683
0
LINE
5
219
100
AcDbEntity
8
0
100
AcDbLine
62
7
6
CONTINUOUS
10
-285.2886746640
20
-7.2353257254
11
-285.2886746640
21
-0.8553106537
0
LINE
5
21A
100
AcDbEntity
8
0
100
AcDbLine
62
7
6
CONTINUOUS
10
-284.0512377969
20
-6.6166072919
11
-284.0512377969
21
-0.2365922202
0
LINE
5
21B
100
AcDbEntity
8
0
100
AcDbLine
62
7
6
CONTINUOUS
10
-282.6370242345
20
-7.3237140730
11
-282.6370242345
21
0.4705145610
0
LINE
5
21C
100
AcDbEntity
8
0
100
AcDbLine
62
7
6
CONTINUOUS
10
-281.7778971998
20
108.0539172909
11
-281.7778971998
21
88.3039172909
0
LINE
5
21D
100
AcDbEntity
8
0
100
AcDbLine
62
7
6
CONTINUOUS
10
-281.2228106721
20
-8.8114012796
11
-281.2228106721
21
3.1694797709
0
LINE
5
21E
100
AcDbEntity
8
0
100
AcDbLine
62
7
6
CONTINUOUS
10
-267.2398379769
20
30.3229469023
11
-267.2398379769
21
50.0729469023
0
LINE
5
21F
100
AcDbEntity
8
0
100
AcDbLine
62
7
6
CONTINUOUS
10
-257.7398379769
20
50.0729469023
11
-257.7398379769
21
30.3229469023
0
LINE
5
220
100
AcDbEntity
8
0
100
AcDbLine
62
7
6
CONTINUOUS
10
-256.2778971998
20
70.8039172909
11
-256.2778971998
21
90.5539172909
0
LINE
5
221
100
AcDbEntity
8
0
100
AcDbLine
62
7
6
CONTINUOUS
10
-246.7778971998
20
90.5539172909
11
-246.7778971998
21
70.8039172909
0
LINE
5
222
100
AcDbEntity
8
0
100
AcDbLine
62
7
6
CONTINUOUS
10
-245.3159564227
20
111.2848876794
11
-245.3159564227
21
131.0348876794
0
LINE
5
223
100
AcDbEntity
8
0
100
AcDbLine
62
7
6
CONTINUOUS
10
-105.2105959737
20
222.6998224134
11
-390.7228169504
21
79.9437119250
0
LINE
5
224
100
AcDbEntity
8
0
100
AcDbLine
62
7
6
CONTINUOUS
10
-401.4309634739
20
73.9596172009
11
-390.4708083655
21
79.4396947551
0
LINE
5
225
100
AcDbEntity
8
0
100
AcDbLine
62
9
6
CONTINUOUS
10
-390.4708083655
20
79.4396947551
11
-104.0925619849
21
222.6288179453
0
LINE
5
226
100
AcDbEntity
8
0
100
AcDbLine
62
7
6
CONTINUOUS
10
-104.0925619849
20
222.6288179453
11
-93.1324068765
21
228.1088954995
0
LINE
5
227
100
AcDbEntity
8
0
100
AcDbLine
62
7
6
CONTINUOUS
10
-235.8159564227
20
131.0348876794
11
-235.8159564227
21
111.2848876794
0
LINE
5
228
100
AcDbEntity
8
0
100
AcDbLine
62
7
6
CONTINUOUS
10
-232.2398379769
20
12.8229469023
11
-232.2398379769
21
32.5729469023
0
LINE
5
229
100
AcDbEntity
8
0
100
AcDbLine
62
7
6
CONTINUOUS
10
-222.7398379769
20
32.5729469023
11
-222.7398379769
21
12.8229469023
0
LINE
5
22A
100
AcDbEntity
8
0
100
AcDbLine
62
7
6
CONTINUOUS
10
-221.2778971998
20
53.3039172909
11
-221.2778971998
21
73.0539172909
0
LINE
5
22B
100
AcDbEntity
8
0
100
AcDbLine
62
7
6
CONTINUOUS
10
-290.4151988276
20
9.2555824550
11
-287.3526876272
21
12.9523604925
0
LINE
5
22C
100
AcDbEntity
8
0
100
AcDbLine
62
7
6
CONTINUOUS
10
-391.1779151467
20
48.6163336094
11
-390.4708083655
21
48.9698870000
0
LINE
5
22D
100
AcDbEntity
8
0
100
AcDbLine
62
7
6
CONTINUOUS
10
-337.2398379769
20
75.5853721943
11
-327.7398379769
21
80.3353721943
0
LINE
5
22E
100
AcDbEntity
8
0
100
AcDbLine
62
7
6
CONTINUOUS
10
-291.2778971998
20
98.5663425829
11
-281.7778971998
21
103.3163425829
0
LINE
5
22F
100
AcDbEntity
8
0
100
AcDbLine
62
7
6
CONTINUOUS
10
-245.3159564227
20
121.5473129714
11
-235.8159564227
21
126.2973129714
0
LINE
5
230
100
AcDbEntity
8
0
100
AcDbLine
62
7
6
CONTINUOUS
10
-195.8184817396
20
146.2960503129
11
-186.3184817396
21
151.0460503129
0
LINE
5
231
100
AcDbEntity
8
0
100
AcDbLine
62
7
6
CONTINUOUS
10
-149.8565409625
20
169.2770207015
11
-140.3565409625
21
174.0270207015
0
LINE
5
232
100
AcDbEntity
8
0
100
AcDbLine
62
7
6
CONTINUOUS
10
-211.7778971998
20
73.0539172909
11
-211.7778971998
21
53.3039172909
0
LINE
5
233
100
AcDbEntity
8
0
100
AcDbLine
62
7
6
CONTINUOUS
10
-210.3159564227
20
93.7848876794
11
-210.3159564227
21
113.5348876794
0
LINE
5
234
100
AcDbEntity
8
0
100
AcDbLine
62
7
6
CONTINUOUS
10
-200.8159564227
20
113.5348876794
11
-200.8159564227
21
93.7848876794
0
LINE
5
235
100
AcDbEntity
8
0
100
AcDbLine
62
7
6
CONTINUOUS
10
-197.2398379769
20
-4.6770530977
11
-197.2398379769
21
15.0729469023
0
LINE
5
236
100
AcDbEntity
8
0
100
AcDbLine
62
7
6
CONTINUOUS
10
-195.8184817396
20
136.0336250210
11
-195.8184817396
21
155.7836250210
0
LINE
5
237
100
AcDbEntity
8
0
100
AcDbLine
62
7
6
CONTINUOUS
10
-187.7398379769
20
15.0729469023
11
-187.7398379769
21
-4.6770530977
0
LINE
5
238
100
AcDbEntity
8
0
100
AcDbLine
62
7
6
CONTINUOUS
10
-186.3184817396
20
155.7836250210
11
-186.3184817396
21
136.0336250210
0
LINE
5
239
100
AcDbEntity
8
0
100
AcDbLine
62
7
6
CONTINUOUS
10
-186.2778971998
20
35.8039172909
11
-186.2778971998
21
55.5539172909
0
LINE
5
23A
100
AcDbEntity
8
0
100
AcDbLine
62
7
6
CONTINUOUS
10
68.9770265305
20
-205.6762097806
11
63.1381917657
21
-204.4669475066
0
LINE
5
23B
100
AcDbEntity
8
0
100
AcDbLine
62
7
6
CONTINUOUS
10
69.6841333117
20
-203.8226563900
11
63.8452985469
21
-202.6133941160
0
LINE
5
23C
100
AcDbEntity
8
0
100
AcDbLine
62
7
6
CONTINUOUS
10
16.1050471023
20
-208.9201456217
11
14.3372801493
21
-208.0362621452
0
LINE
5
23D
100
AcDbEntity
8
0
100
AcDbLine
62
7
6
CONTINUOUS
10
-176.7778971998
20
55.5539172909
11
-176.7778971998
21
35.8039172909
0
LINE
5
23E
100
AcDbEntity
8
0
100
AcDbLine
62
7
6
CONTINUOUS
10
-175.3159564227
20
76.2848876794
11
-175.3159564227
21
96.0348876794
0
LINE
5
23F
100
AcDbEntity
8
0
100
AcDbLine
62
7
6
CONTINUOUS
10
-165.8159564227
20
96.0348876794
11
-165.8159564227
21
76.2848876794
0
LINE
5
240
100
AcDbEntity
8
0
100
AcDbLine
62
7
6
CONTINUOUS
10
-162.2398379769
20
-22.1770530977
11
-162.2398379769
21
-2.4270530977
0
LINE
5
241
100
AcDbEntity
8
0
100
AcDbLine
62
7
6
CONTINUOUS
10
-160.8184817396
20
118.5336250210
11
-160.8184817396
21
138.2836250210
0
LINE
5
242
100
AcDbEntity
8
0
100
AcDbLine
62
7
6
CONTINUOUS
10
-152.7398379769
20
-2.4270530977
11
-152.7398379769
21
-22.1770530977
0
LINE
5
243
100
AcDbEntity
8
0
100
AcDbLine
62
7
6
CONTINUOUS
10
-151.3184817396
20
138.2836250210
11
-151.3184817396
21
118.5336250210
0
LINE
5
244
100
AcDbEntity
8
0
100
AcDbLine
62
7
6
CONTINUOUS
10
-151.2778971998
20
18.3039172909
11
-151.2778971998
21
38.0539172909
0
LINE
5
245
100
AcDbEntity
8
0
100
AcDbLine
62
7
6
CONTINUOUS
10
101.8186032503
20
-149.4562737113
11
92.3186032503
21
-149.4562737113
0
LINE
5
246
100
AcDbEntity
8
0
100
AcDbLine
62
9
6
CONTINUOUS
10
15.5852607309
20
-207.8383980209
11
13.8174937779
21
-206.9545145444
0
LINE
5
247
100
AcDbEntity
8
0
100
AcDbLine
62
7
6
CONTINUOUS
10
-292.1581541560
20
-52.4550926146
11
-290.7439405936
21
-53.1621993958
0
LINE
5
248
100
AcDbEntity
8
0
100
AcDbLine
62
7
6
CONTINUOUS
10
-281.8573446775
20
-56.8857753242
11
11.5919695150
21
-203.6104324205
0
LINE
5
249
100
AcDbEntity
8
0
100
AcDbLine
62
9
6
CONTINUOUS
10
-292.6779405274
20
-51.3733450138
11
-291.2637269650
21
-52.0804517950
0
LINE
5
24A
100
AcDbEntity
8
0
100
AcDbLine
62
9
6
CONTINUOUS
10
10.8122899579
20
-201.9878110192
11
-282.6370242345
21
-55.2631539230
0
LINE
5
24B
100
AcDbEntity
8
0
100
AcDbLine
62
7
6
CONTINUOUS
10
-282.6370242345
20
-55.2631539230
11
-293.2436259523
21
-49.9598530641
0
LINE
5
24C
100
AcDbEntity
8
0
100
AcDbLine
62
9
6
CONTINUOUS
10
12.9336103015
20
-201.7931762512
11
12.2440607625
21
-201.4484014818
0
LINE
5
24D
100
AcDbEntity
8
0
100
AcDbLine
62
7
6
CONTINUOUS
10
-264.9593547049
20
-60.6378870727
11
-117.1740374369
21
-134.5305457067
0
LINE
5
24E
100
AcDbEntity
8
0
100
AcDbLine
62
7
6
CONTINUOUS
10
-68.3836695350
20
-158.9257296577
11
-15.7042143366
21
-185.2654572569
0
LINE
5
24F
100
AcDbEntity
8
0
100
AcDbLine
62
7
6
CONTINUOUS
10
-263.5451411425
20
-59.9307802915
11
-115.7598238745
21
-133.8234389255
0
LINE
5
250
100
AcDbEntity
8
0
100
AcDbLine
62
7
6
CONTINUOUS
10
-66.9694559726
20
-158.2186228765
11
-14.2900007742
21
-184.5583504757
0
LINE
5
251
100
AcDbEntity
8
0
100
AcDbLine
62
9
6
CONTINUOUS
10
-263.5308546843
20
-59.9022073752
11
-115.7455374163
21
-133.7948660092
0
LINE
5
252
100
AcDbEntity
8
0
100
AcDbLine
62
9
6
CONTINUOUS
10
-66.9551695145
20
-158.1900499601
11
-14.2757143161
21
-184.5297775593
0
LINE
5
253
100
AcDbEntity
8
0
100
AcDbLine
62
7
6
CONTINUOUS
10
-15.7042143366
20
-180.0693048341
11
-68.3836695350
21
-153.7295772349
0
LINE
5
254
100
AcDbEntity
8
0
100
AcDbLine
62
7
6
CONTINUOUS
10
-117.1740374369
20
-129.3343932840
11
-264.9593547049
21
-55.4417346500
0
LINE
5
255
100
AcDbEntity
8
0
100
AcDbLine
62
7
6
CONTINUOUS
10
26.5454158393
20
-200.5396671187
11
24.7776488863
21
-199.6557836423
0
LINE
5
256
100
AcDbEntity
8
0
100
AcDbLine
62
7
6
CONTINUOUS
10
13.8174937779
20
-193.8912579715
11
12.2265035203
21
-193.0957628426
0
LINE
5
257
100
AcDbEntity
8
0
100
AcDbLine
62
9
6
CONTINUOUS
10
12.2265035203
20
-184.0717635557
11
13.8174937779
21
-184.8672586845
0
LINE
5
258
100
AcDbEntity
8
0
100
AcDbLine
62
9
6
CONTINUOUS
10
12.2265035203
20
-183.2851974632
11
13.8174937779
21
-184.0806925920
0
LINE
5
259
100
AcDbEntity
8
0
100
AcDbLine
62
7
6
CONTINUOUS
10
20.1814548086
20
-187.2626731074
11
21.0162559218
21
-187.6800736640
0
LINE
5
25A
100
AcDbEntity
8
0
100
AcDbLine
62
7
6
CONTINUOUS
10
96.3722104815
20
-224.7821736603
11
97.4328706532
21
-225.3125037462
0
LINE
5
25B
100
AcDbEntity
8
0
100
AcDbLine
62
7
6
CONTINUOUS
10
26.5454158393
20
-186.6832606582
11
24.7776488863
21
-185.7993771817
0
LINE
5
25C
100
AcDbEntity
8
0
100
AcDbLine
62
7
6
CONTINUOUS
10
62.8572111510
20
-204.3698989937
11
33.7880565264
21
-189.8353216814
0
LINE
5
25D
100
AcDbEntity
8
0
100
AcDbLine
62
9
6
CONTINUOUS
10
33.7880565264
20
-188.6025400587
11
62.0775315939
21
-202.7472775925
0
LINE
5
25E
100
AcDbEntity
8
0
100
AcDbLine
62
9
6
CONTINUOUS
10
63.7568972815
20
-202.5691934833
11
63.8452985469
21
-202.6133941160
0
LINE
5
25F
100
AcDbEntity
8
0
100
AcDbLine
62
9
6
CONTINUOUS
10
63.4917451563
20
-200.7264623123
11
69.6841333117
21
-203.8226563900
0
LINE
5
260
100
AcDbEntity
8
0
100
AcDbLine
62
9
6
CONTINUOUS
10
63.4917451563
20
-199.7352813574
11
70.5376867023
21
-203.2582521304
0
LINE
5
261
100
AcDbEntity
8
0
100
AcDbLine
62
7
6
CONTINUOUS
10
-149.8565409625
20
159.0145954095
11
-149.8565409625
21
178.7645954095
0
LINE
5
262
100
AcDbEntity
8
0
100
AcDbLine
62
7
6
CONTINUOUS
10
-141.7778971998
20
38.0539172909
11
-141.7778971998
21
18.3039172909
0
LINE
5
263
100
AcDbEntity
8
0
100
AcDbLine
62
7
6
CONTINUOUS
10
-140.3565409625
20
178.7645954095
11
-140.3565409625
21
159.0145954095
0
LINE
5
264
100
AcDbEntity
8
0
100
AcDbLine
62
7
6
CONTINUOUS
10
-140.3159564227
20
58.7848876794
11
-140.3159564227
21
78.5348876794
0
LINE
5
265
100
AcDbEntity
8
0
100
AcDbLine
62
7
6
CONTINUOUS
10
-130.8159564227
20
78.5348876794
11
-130.8159564227
21
58.7848876794
0
LINE
5
266
100
AcDbEntity
8
0
100
AcDbLine
62
7
6
CONTINUOUS
10
-125.8184817396
20
101.0336250210
11
-125.8184817396
21
120.7836250210
0
LINE
5
267
100
AcDbEntity
8
0
100
AcDbLine
62
7
6
CONTINUOUS
10
-284.7688882926
20
4.6592569963
11
-283.0011213396
21
5.5431404727
0
LINE
5
268
100
AcDbEntity
8
0
100
AcDbLine
62
7
6
CONTINUOUS
10
-291.2637269650
20
1.2952859944
11
-284.0512377969
21
4.9015305785
0
LINE
5
269
100
AcDbEntity
8
0
100
AcDbLine
62
7
6
CONTINUOUS
10
54.7943317477
20
174.3243153508
11
47.5818425796
21
170.7180707667
0
LINE
5
26A
100
AcDbEntity
8
0
100
AcDbLine
62
9
6
CONTINUOUS
10
-283.1579884126
20
4.9606897663
11
-282.1066941486
21
5.4863368983
0
LINE
5
26B
100
AcDbEntity
8
0
100
AcDbLine
62
7
6
CONTINUOUS
10
-289.8495134026
20
0.5881792132
11
-282.6370242345
21
4.1944237973
0
LINE
5
26C
100
AcDbEntity
8
0
100
AcDbLine
62
7
6
CONTINUOUS
10
56.2085453101
20
173.6172085696
11
48.9960561420
21
170.0109639855
0
LINE
5
26D
100
AcDbEntity
8
0
100
AcDbLine
62
7
6
CONTINUOUS
10
55.3600171726
20
169.4690352646
11
48.9960561420
21
166.2870547493
0
LINE
5
26E
100
AcDbEntity
8
0
100
AcDbLine
62
7
6
CONTINUOUS
10
-282.6370242345
20
0.4705145610
11
-289.0009852652
21
-2.7114659543
0
LINE
5
26F
100
AcDbEntity
8
0
100
AcDbLine
62
7
6
CONTINUOUS
10
-293.2436259523
20
-4.8908159219
11
-292.6779405274
21
-4.6079732095
0
LINE
5
270
100
AcDbEntity
8
0
100
AcDbLine
62
7
6
CONTINUOUS
10
-291.8294123899
20
-5.5979227031
11
-291.2637269650
21
-5.3150799907
0
LINE
5
271
100
AcDbEntity
8
0
100
AcDbLine
62
7
6
CONTINUOUS
10
58.1884442974
20
169.4110056405
11
57.6227588724
21
169.1281629281
0
LINE
5
272
100
AcDbEntity
8
0
100
AcDbLine
62
9
6
CONTINUOUS
10
58.8955510786
20
169.4110056405
11
60.3097646410
21
170.1181124217
0
LINE
5
273
100
AcDbEntity
8
0
100
AcDbLine
62
9
6
CONTINUOUS
10
-291.8294123899
20
-5.9514760937
11
-293.2436259523
21
-6.6585828749
0
LINE
5
274
100
AcDbEntity
8
0
100
AcDbLine
62
7
6
CONTINUOUS
10
-287.2751938953
20
-8.2285853411
11
-284.0512377969
21
-6.6166072919
0
LINE
5
275
100
AcDbEntity
8
0
100
AcDbLine
62
7
6
CONTINUOUS
10
48.9960561420
20
159.9070396776
11
53.9458036103
21
162.3819134117
0
LINE
5
276
100
AcDbEntity
8
0
100
AcDbLine
62
7
6
CONTINUOUS
10
66.8186032503
20
-131.9562737113
11
57.3186032503
21
-131.9562737113
0
LINE
5
277
100
AcDbEntity
8
0
100
AcDbLine
62
7
6
CONTINUOUS
10
92.3186032503
20
-131.0053118169
11
101.8186032503
21
-131.0053118169
0
LINE
5
278
100
AcDbEntity
8
0
100
AcDbLine
62
7
6
CONTINUOUS
10
92.3186032503
20
-129.7062737113
11
101.8186032503
21
-129.7062737113
0
LINE
5
279
100
AcDbEntity
8
0
100
AcDbLine
62
7
6
CONTINUOUS
10
147.7805440274
20
-126.4753033227
11
138.2805440274
21
-126.4753033227
0
LINE
5
27A
100
AcDbEntity
8
0
100
AcDbLine
62
7
6
CONTINUOUS
10
63.4917451563
20
-197.1847301428
11
71.6841333117
21
-201.2809242205
0
LINE
5
27B
100
AcDbEntity
8
0
100
AcDbLine
62
7
6
CONTINUOUS
10
-390.4708083655
20
30.9422721431
11
-293.9758589994
21
-17.3052025399
0
LINE
5
27C
100
AcDbEntity
8
0
100
AcDbLine
62
7
6
CONTINUOUS
10
63.4917451563
20
-196.0390046178
11
96.3722104815
21
-212.4792372803
0
LINE
5
27D
100
AcDbEntity
8
0
100
AcDbLine
62
7
6
CONTINUOUS
10
26.5454158393
20
-175.5981354897
11
24.7776488863
21
-174.7142520133
0
LINE
5
27E
100
AcDbEntity
8
0
100
AcDbLine
62
7
6
CONTINUOUS
10
-264.9593547049
20
-29.4609725365
11
-117.1740374369
21
-103.3536311705
0
LINE
5
27F
100
AcDbEntity
8
0
100
AcDbLine
62
7
6
CONTINUOUS
10
-68.3836695350
20
-127.7488151214
11
-15.7042143366
21
-154.0885427206
0
LINE
5
280
100
AcDbEntity
8
0
100
AcDbLine
62
7
6
CONTINUOUS
10
-263.5451411425
20
-28.7538657553
11
-115.7598238745
21
-102.6465243893
0
LINE
5
281
100
AcDbEntity
8
0
100
AcDbLine
62
7
6
CONTINUOUS
10
-66.9694559726
20
-127.0417083402
11
-14.2900007742
21
-153.3814359394
0
LINE
5
282
100
AcDbEntity
8
0
100
AcDbLine
62
7
6
CONTINUOUS
10
54.0872249665
20
-187.5521542883
11
50.5516910606
21
-185.7843873353
0
LINE
5
283
100
AcDbEntity
8
0
100
AcDbLine
62
7
6
CONTINUOUS
10
-263.5308546843
20
-28.7252928390
11
-115.7455374163
21
-102.6179514730
0
LINE
5
284
100
AcDbEntity
8
0
100
AcDbLine
62
7
6
CONTINUOUS
10
-66.9551695145
20
-127.0131354239
11
-14.2757143161
21
-153.3528630231
0
LINE
5
285
100
AcDbEntity
8
0
100
AcDbLine
62
7
6
CONTINUOUS
10
54.0872249665
20
-186.1379407259
11
51.9659046230
21
-185.0772805541
0
LINE
5
286
100
AcDbEntity
8
0
100
AcDbLine
62
7
6
CONTINUOUS
10
-15.7042143366
20
-148.8923902979
11
-68.3836695350
21
-122.5526626987
0
LINE
5
287
100
AcDbEntity
8
0
100
AcDbLine
62
7
6
CONTINUOUS
10
-117.1740374369
20
-98.1574787478
11
-264.9593547049
21
-24.2648201138
0
LINE
5
288
100
AcDbEntity
8
0
100
AcDbLine
62
9
6
CONTINUOUS
10
10.8122899579
20
-158.6865408300
11
-282.6370242345
21
-11.9618837338
0
LINE
5
289
100
AcDbEntity
8
0
100
AcDbLine
62
7
6
CONTINUOUS
10
-282.6370242345
20
-11.9618837338
11
-293.2436259523
21
-6.6585828749
0
LINE
5
28A
100
AcDbEntity
8
0
100
AcDbLine
62
7
6
CONTINUOUS
10
-282.3992706376
20
-10.6665469699
11
-291.8294123899
21
-5.9514760937
0
LINE
5
28B
100
AcDbEntity
8
0
100
AcDbLine
62
9
6
CONTINUOUS
10
-291.8294123899
20
-5.5979227031
11
-293.2436259523
21
-4.8908159219
0
LINE
5
28C
100
AcDbEntity
8
0
100
AcDbLine
62
7
6
CONTINUOUS
10
-291.2637269650
20
-5.3150799907
11
-292.6779405274
21
-4.6079732095
0
LINE
5
28D
100
AcDbEntity
8
0
100
AcDbLine
62
7
6
CONTINUOUS
10
50.5516910606
20
-175.7384926514
11
54.0872249665
21
-177.5062596044
0
LINE
5
28E
100
AcDbEntity
8
0
100
AcDbLine
62
9
6
CONTINUOUS
10
15.5852607309
20
-157.6089246014
11
13.8174937779
21
-156.7250411249
0
LINE
5
28F
100
AcDbEntity
8
0
100
AcDbLine
62
7
6
CONTINUOUS
10
-284.0512377969
20
-6.6166072919
11
-282.6370242345
21
-7.3237140730
0
LINE
5
290
100
AcDbEntity
8
0
100
AcDbLine
62
9
6
CONTINUOUS
10
12.9336103015
20
-155.0278044469
11
-280.5157038910
21
-8.3031473507
0
LINE
5
291
100
AcDbEntity
8
0
100
AcDbLine
62
7
6
CONTINUOUS
10
26.5454158393
20
-161.7417290292
11
24.7776488863
21
-160.8578455527
0
LINE
5
292
100
AcDbEntity
8
0
100
AcDbLine
62
7
6
CONTINUOUS
10
-285.2886746640
20
-5.4800411989
11
-285.8190047499
21
-5.2148761559
0
LINE
5
293
100
AcDbEntity
8
0
100
AcDbLine
62
9
6
CONTINUOUS
10
-292.6779405274
20
-1.1438715943
11
-291.2637269650
21
-1.8509783755
0
LINE
5
294
100
AcDbEntity
8
0
100
AcDbLine
62
7
6
CONTINUOUS
10
-392.2385753184
20
49.1466636953
11
-391.1779151467
21
48.6163336094
0
LINE
5
295
100
AcDbEntity
8
0
100
AcDbLine
62
9
6
CONTINUOUS
10
16.9994742933
20
-155.1697670126
11
15.2317073403
21
-154.2858835361
0
LINE
5
296
100
AcDbEntity
8
0
100
AcDbLine
62
9
6
CONTINUOUS
10
-291.2637269650
20
1.2952859944
11
-289.8495134026
21
0.5881792132
0
LINE
5
297
100
AcDbEntity
8
0
100
AcDbLine
62
7
6
CONTINUOUS
10
80.4623079048
20
-184.1726890031
11
63.4917451563
21
-175.6874076288
0
LINE
5
298
100
AcDbEntity
8
0
100
AcDbLine
62
7
6
CONTINUOUS
10
81.5229680766
20
-183.6423589172
11
63.4917451563
21
-174.6267474570
0
LINE
5
299
100
AcDbEntity
8
0
100
AcDbLine
62
7
6
CONTINUOUS
10
19.1561499759
20
-149.7952142661
11
-270.0505235294
21
-5.1918775135
0
LINE
5
29A
100
AcDbEntity
8
0
100
AcDbLine
62
9
6
CONTINUOUS
10
-291.4758589994
20
6.4752523691
11
-286.1898266075
21
3.8322361732
0
LINE
5
29B
100
AcDbEntity
8
0
100
AcDbLine
62
9
6
CONTINUOUS
10
33.7880565264
20
-156.1567053938
11
62.0775315939
21
-170.3014429275
0
LINE
5
29C
100
AcDbEntity
8
0
100
AcDbLine
62
7
6
CONTINUOUS
10
63.4917451563
20
-170.4912552061
11
80.4623079048
21
-178.9765365803
0
LINE
5
29D
100
AcDbEntity
8
0
100
AcDbLine
62
9
6
CONTINUOUS
10
31.1416099170
20
-153.2591354781
11
32.9093768700
21
-154.1430189546
0
LINE
5
29E
100
AcDbEntity
8
0
100
AcDbLine
62
7
6
CONTINUOUS
10
-281.1799512977
20
3.2551985199
11
-267.0271008303
21
-3.8212267138
0
LINE
5
29F
100
AcDbEntity
8
0
100
AcDbLine
62
9
6
CONTINUOUS
10
18.0283507405
20
-146.3489524992
11
18.4136878557
21
-146.5416210568
0
LINE
5
2A0
100
AcDbEntity
8
0
100
AcDbLine
62
7
6
CONTINUOUS
10
18.4136878557
20
-146.5416210568
11
24.5669600773
21
-149.6182571676
0
LINE
5
2A1
100
AcDbEntity
8
0
100
AcDbLine
62
7
6
CONTINUOUS
10
30.8587672045
20
-152.7641607312
11
31.1416099170
21
-152.9055820875
0
LINE
5
2A2
100
AcDbEntity
8
0
100
AcDbLine
62
9
6
CONTINUOUS
10
-284.0512377969
20
4.9015305785
11
-282.6370242345
21
4.1944237973
0
LINE
5
2A3
100
AcDbEntity
8
0
100
AcDbLine
62
7
6
CONTINUOUS
10
-283.1568106059
20
4.9583341529
11
-281.7425970435
21
4.2512273717
0
LINE
5
2A4
100
AcDbEntity
8
0
100
AcDbLine
62
9
6
CONTINUOUS
10
-290.4151988276
20
9.2555824550
11
-282.9985958908
21
5.5472809866
0
LINE
5
2A5
100
AcDbEntity
8
0
100
AcDbLine
62
9
6
CONTINUOUS
10
33.7402944282
20
-152.8221641729
11
63.1381917657
21
-167.5211128416
0
LINE
5
2A6
100
AcDbEntity
8
0
100
AcDbLine
62
7
6
CONTINUOUS
10
-282.1066941486
20
5.4863368983
11
-265.2593338774
21
-2.9373432373
0
LINE
5
2A7
100
AcDbEntity
8
0
100
AcDbLine
62
7
6
CONTINUOUS
10
20.1814548086
20
-145.6577375803
11
26.3347270303
21
-148.7343736912
0
LINE
5
2A8
100
AcDbEntity
8
0
100
AcDbLine
62
7
6
CONTINUOUS
10
30.8587672045
20
-150.9963937783
11
32.9093768700
21
-152.0216986110
0
LINE
5
2A9
100
AcDbEntity
8
0
100
AcDbLine
62
9
6
CONTINUOUS
10
-264.7825780096
20
-2.6989653034
11
18.0601344651
21
-144.1203215407
0
LINE
5
2AA
100
AcDbEntity
8
0
100
AcDbLine
62
7
6
CONTINUOUS
10
19.4017752516
20
-144.0351161791
11
-263.4409372231
21
-2.6137599418
0
LINE
5
2AB
100
AcDbEntity
8
0
100
AcDbLine
62
9
6
CONTINUOUS
10
29.4445536422
20
-148.9472273382
11
27.6767866892
21
-148.0633438617
0
LINE
5
2AC
100
AcDbEntity
8
0
100
AcDbLine
62
7
6
CONTINUOUS
10
30.3389808332
20
-148.8904237638
11
28.5712138802
21
-148.0065402873
0
LINE
5
2AD
100
AcDbEntity
8
0
100
AcDbLine
62
9
6
CONTINUOUS
10
71.5376867023
20
-203.9829970018
11
70.5376867023
21
-203.2582521304
0
LINE
5
2AE
100
AcDbEntity
8
0
100
AcDbLine
62
7
6
CONTINUOUS
10
72.6841333117
20
-202.0056690919
11
71.6841333117
21
-201.2809242205
0
LINE
5
2AF
100
AcDbEntity
8
0
100
AcDbLine
62
7
6
CONTINUOUS
10
-116.3184817396
20
120.7836250210
11
-116.3184817396
21
101.0336250210
0
LINE
5
2B0
100
AcDbEntity
8
0
100
AcDbLine
62
7
6
CONTINUOUS
10
-116.2778971998
20
0.8039172909
11
-116.2778971998
21
20.5539172909
0
LINE
5
2B1
100
AcDbEntity
8
0
100
AcDbLine
62
7
6
CONTINUOUS
10
-114.8565409625
20
141.5145954095
11
-114.8565409625
21
161.2645954095
0
LINE
5
2B2
100
AcDbEntity
8
0
100
AcDbLine
62
7
6
CONTINUOUS
10
-106.7778971998
20
20.5539172909
11
-106.7778971998
21
0.8039172909
0
LINE
5
2B3
100
AcDbEntity
8
0
100
AcDbLine
62
7
6
CONTINUOUS
10
-105.3565409625
20
161.2645954095
11
-105.3565409625
21
141.5145954095
0
LINE
5
2B4
100
AcDbEntity
8
0
100
AcDbLine
62
7
6
CONTINUOUS
10
-105.3159564227
20
41.2848876794
11
-105.3159564227
21
61.0348876794
0
LINE
5
2B5
100
AcDbEntity
8
0
100
AcDbLine
62
7
6
CONTINUOUS
10
-103.8946001853
20
181.9955657981
11
-103.8946001853
21
201.7455657981
0
LINE
5
2B6
100
AcDbEntity
8
0
100
AcDbLine
62
7
6
CONTINUOUS
10
-95.8159564227
20
61.0348876794
11
-95.8159564227
21
41.2848876794
0
LINE
5
2B7
100
AcDbEntity
8
0
100
AcDbLine
62
7
6
CONTINUOUS
10
-94.3946001853
20
201.7455657981
11
-94.3946001853
21
181.9955657981
0
LINE
5
2B8
100
AcDbEntity
8
0
100
AcDbLine
62
7
6
CONTINUOUS
10
-90.8184817396
20
83.5336250210
11
-90.8184817396
21
103.2836250210
0
LINE
5
2B9
100
AcDbEntity
8
0
100
AcDbLine
62
7
6
CONTINUOUS
10
-285.8609803329
20
-8.9356921222
11
-282.6370242345
21
-7.3237140730
0
LINE
5
2BA
100
AcDbEntity
8
0
100
AcDbLine
62
7
6
CONTINUOUS
10
48.9960561420
20
158.4928261152
11
55.3600171726
21
161.6748066305
0
LINE
5
2BB
100
AcDbEntity
8
0
100
AcDbLine
62
7
6
CONTINUOUS
10
68.7950460152
20
166.3522276024
11
62.5725063408
21
163.2409577652
0
LINE
5
2BC
100
AcDbEntity
8
0
100
AcDbLine
62
7
6
CONTINUOUS
10
-274.2931642165
20
-5.1918775135
11
-280.5157038910
21
-8.3031473507
0
LINE
5
2BD
100
AcDbEntity
8
0
100
AcDbLine
62
7
6
CONTINUOUS
10
-269.9094629795
20
-5.2624077884
11
-264.7825780096
21
-2.6989653034
0
LINE
5
2BE
100
AcDbEntity
8
0
100
AcDbLine
62
7
6
CONTINUOUS
10
54.1225803056
20
156.7536138541
11
61.6574305812
21
160.5210389920
0
LINE
5
2BF
100
AcDbEntity
8
0
100
AcDbLine
62
9
6
CONTINUOUS
10
-263.5451411425
20
-28.7538657553
11
-264.9593547049
21
-29.4609725365
0
LINE
5
2C0
100
AcDbEntity
8
0
100
AcDbLine
62
7
6
CONTINUOUS
10
31.8186032503
20
-114.4562737113
11
22.3186032503
21
-114.4562737113
0
LINE
5
2C1
100
AcDbEntity
8
0
100
AcDbLine
62
7
6
CONTINUOUS
10
57.3186032503
20
-113.5053118169
11
66.8186032503
21
-113.5053118169
0
LINE
5
2C2
100
AcDbEntity
8
0
100
AcDbLine
62
7
6
CONTINUOUS
10
57.3186032503
20
-112.2062737113
11
66.8186032503
21
-112.2062737113
0
LINE
5
2C3
100
AcDbEntity
8
0
100
AcDbLine
62
7
6
CONTINUOUS
10
112.7805440274
20
-108.9753033227
11
103.2805440274
21
-108.9753033227
0
LINE
5
2C4
100
AcDbEntity
8
0
100
AcDbLine
62
7
6
CONTINUOUS
10
138.2805440274
20
-108.0243414284
11
147.7805440274
21
-108.0243414284
0
LINE
5
2C5
100
AcDbEntity
8
0
100
AcDbLine
62
7
6
CONTINUOUS
10
138.2805440274
20
-106.7253033227
11
147.7805440274
21
-106.7253033227
0
LINE
5
2C6
100
AcDbEntity
8
0
100
AcDbLine
62
7
6
CONTINUOUS
10
193.7424848045
20
-103.4943329341
11
184.2424848045
21
-103.4943329341
0
LINE
5
2C7
100
AcDbEntity
8
0
100
AcDbLine
62
7
6
CONTINUOUS
10
-3.1813967497
20
-96.9562737113
11
-12.6813967497
21
-96.9562737113
0
LINE
5
2C8
100
AcDbEntity
8
0
100
AcDbLine
62
7
6
CONTINUOUS
10
22.3186032503
20
-96.0053118169
11
31.8186032503
21
-96.0053118169
0
LINE
5
2C9
100
AcDbEntity
8
0
100
AcDbLine
62
7
6
CONTINUOUS
10
22.3186032503
20
-94.7062737113
11
31.8186032503
21
-94.7062737113
0
LINE
5
2CA
100
AcDbEntity
8
0
100
AcDbLine
62
7
6
CONTINUOUS
10
77.7805440274
20
-91.4753033227
11
68.2805440274
21
-91.4753033227
0
LINE
5
2CB
100
AcDbEntity
8
0
100
AcDbLine
62
7
6
CONTINUOUS
10
103.2805440274
20
-90.5243414284
11
112.7805440274
21
-90.5243414284
0
LINE
5
2CC
100
AcDbEntity
8
0
100
AcDbLine
62
7
6
CONTINUOUS
10
103.2805440274
20
-89.2253033227
11
112.7805440274
21
-89.2253033227
0
LINE
5
2CD
100
AcDbEntity
8
0
100
AcDbLine
62
7
6
CONTINUOUS
10
88.9016902254
20
-175.1748284339
11
-402.3253906649
21
70.4387120113
0
LINE
5
2CE
100
AcDbEntity
8
0
100
AcDbLine
62
9
6
CONTINUOUS
10
89.6229123357
20
-173.7323842134
11
90.0082494508
21
-173.9250527709
0
LINE
5
2CF
100
AcDbEntity
8
0
100
AcDbLine
62
9
6
CONTINUOUS
10
96.3722104815
20
-174.9857129427
11
97.4328706532
21
-175.5160430286
0
LINE
5
2D0
100
AcDbEntity
8
0
100
AcDbLine
62
9
6
CONTINUOUS
10
-401.4309634739
20
73.9596172009
11
90.0082494508
21
-171.7599892615
0
LINE
5
2D1
100
AcDbEntity
8
0
100
AcDbLine
62
7
6
CONTINUOUS
10
95.6651037003
20
-173.7661341483
11
92.1295697943
21
-171.9983671954
0
LINE
5
2D2
100
AcDbEntity
8
0
100
AcDbLine
62
7
6
CONTINUOUS
10
122.1958944529
20
-186.9288000456
11
122.5351613854
21
-187.0984335118
0
LINE
5
2D3
100
AcDbEntity
8
0
100
AcDbLine
62
7
6
CONTINUOUS
10
95.6651037003
20
-172.4670960426
11
92.1295697943
21
-170.6993290897
0
LINE
5
2D4
100
AcDbEntity
8
0
100
AcDbLine
62
7
6
CONTINUOUS
10
-82.6813967497
20
-61.9562737113
11
-82.6813967497
21
-42.2062737113
0
LINE
5
2D5
100
AcDbEntity
8
0
100
AcDbLine
62
7
6
CONTINUOUS
10
-81.3184817396
20
103.2836250210
11
-81.3184817396
21
83.5336250210
0
LINE
5
2D6
100
AcDbEntity
8
0
100
AcDbLine
62
7
6
CONTINUOUS
10
-79.8565409625
20
124.0145954095
11
-79.8565409625
21
143.7645954095
0
LINE
5
2D7
100
AcDbEntity
8
0
100
AcDbLine
62
7
6
CONTINUOUS
10
-73.1813967497
20
-42.2062737113
11
-73.1813967497
21
-61.9562737113
0
LINE
5
2D8
100
AcDbEntity
8
0
100
AcDbLine
62
7
6
CONTINUOUS
10
-70.3565409625
20
143.7645954095
11
-70.3565409625
21
124.0145954095
0
LINE
5
2D9
100
AcDbEntity
8
0
100
AcDbLine
62
7
6
CONTINUOUS
10
-70.3159564227
20
23.7848876794
11
-70.3159564227
21
43.5348876794
0
LINE
5
2DA
100
AcDbEntity
8
0
100
AcDbLine
62
7
6
CONTINUOUS
10
-68.8946001853
20
164.4955657981
11
-68.8946001853
21
184.2455657981
0
LINE
5
2DB
100
AcDbEntity
8
0
100
AcDbLine
62
7
6
CONTINUOUS
10
-60.8159564227
20
43.5348876794
11
-60.8159564227
21
23.7848876794
0
LINE
5
2DC
100
AcDbEntity
8
0
100
AcDbLine
62
7
6
CONTINUOUS
10
-59.3946001853
20
184.2455657981
11
-59.3946001853
21
164.4955657981
0
LINE
5
2DD
100
AcDbEntity
8
0
100
AcDbLine
62
7
6
CONTINUOUS
10
-289.8495134026
20
-53.1053958214
11
-288.4010269202
21
-52.3811525802
0
LINE
5
2DE
100
AcDbEntity
8
0
100
AcDbLine
62
9
6
CONTINUOUS
10
-263.5451411425
20
-59.9307802915
11
-264.9593547049
21
-60.6378870727
0
LINE
5
2DF
100
AcDbEntity
8
0
100
AcDbLine
62
7
6
CONTINUOUS
10
158.7424848045
20
-85.9943329341
11
149.2424848045
21
-85.9943329341
0
LINE
5
2E0
100
AcDbEntity
8
0
100
AcDbLine
62
7
6
CONTINUOUS
10
184.2424848045
20
-85.0433710398
11
193.7424848045
21
-85.0433710398
0
LINE
5
2E1
100
AcDbEntity
8
0
100
AcDbLine
62
7
6
CONTINUOUS
10
184.2424848045
20
-83.7443329341
11
193.7424848045
21
-83.7443329341
0
LINE
5
2E2
100
AcDbEntity
8
0
100
AcDbLine
62
7
6
CONTINUOUS
10
-38.1813967497
20
-79.4562737113
11
-47.6813967497
21
-79.4562737113
0
LINE
5
2E3
100
AcDbEntity
8
0
100
AcDbLine
62
7
6
CONTINUOUS
10
243.2399594876
20
-78.7455955926
11
233.7399594876
21
-78.7455955926
0
LINE
5
2E4
100
AcDbEntity
8
0
100
AcDbLine
62
7
6
CONTINUOUS
10
-12.6813967497
20
-78.5053118169
11
-3.1813967497
21
-78.5053118169
0
LINE
5
2E5
100
AcDbEntity
8
0
100
AcDbLine
62
7
6
CONTINUOUS
10
-12.6813967497
20
-77.2062737113
11
-3.1813967497
21
-77.2062737113
0
LINE
5
2E6
100
AcDbEntity
8
0
100
AcDbLine
62
7
6
CONTINUOUS
10
42.7805440274
20
-73.9753033227
11
33.2805440274
21
-73.9753033227
0
LINE
5
2E7
100
AcDbEntity
8
0
100
AcDbLine
62
7
6
CONTINUOUS
10
68.2805440274
20
-73.0243414284
11
77.7805440274
21
-73.0243414284
0
LINE
5
2E8
100
AcDbEntity
8
0
100
AcDbLine
62
7
6
CONTINUOUS
10
68.2805440274
20
-71.7253033227
11
77.7805440274
21
-71.7253033227
0
LINE
5
2E9
100
AcDbEntity
8
0
100
AcDbLine
62
7
6
CONTINUOUS
10
123.7424848045
20
-68.4943329341
11
114.2424848045
21
-68.4943329341
0
LINE
5
2EA
100
AcDbEntity
8
0
100
AcDbLine
62
7
6
CONTINUOUS
10
149.2424848045
20
-67.5433710398
11
158.7424848045
21
-67.5433710398
0
LINE
5
2EB
100
AcDbEntity
8
0
100
AcDbLine
62
7
6
CONTINUOUS
10
149.2424848045
20
-66.2443329341
11
158.7424848045
21
-66.2443329341
0
LINE
5
2EC
100
AcDbEntity
8
0
100
AcDbLine
62
7
6
CONTINUOUS
10
-73.1813967497
20
-61.9562737113
11
-82.6813967497
21
-61.9562737113
0
LINE
5
2ED
100
AcDbEntity
8
0
100
AcDbLine
62
7
6
CONTINUOUS
10
208.2399594876
20
-61.2455955926
11
198.7399594876
21
-61.2455955926
0
LINE
5
2EE
100
AcDbEntity
8
0
100
AcDbLine
62
7
6
CONTINUOUS
10
-47.6813967497
20
-61.0053118169
11
-38.1813967497
21
-61.0053118169
0
LINE
5
2EF
100
AcDbEntity
8
0
100
AcDbLine
62
7
6
CONTINUOUS
10
233.7399594876
20
-60.2946336983
11
243.2399594876
21
-60.2946336983
0
LINE
5
2F0
100
AcDbEntity
8
0
100
AcDbLine
62
7
6
CONTINUOUS
10
-47.6813967497
20
-59.7062737113
11
-38.1813967497
21
-59.7062737113
0
LINE
5
2F1
100
AcDbEntity
8
0
100
AcDbLine
62
7
6
CONTINUOUS
10
233.7399594876
20
-58.9955955926
11
243.2399594876
21
-58.9955955926
0
LINE
5
2F2
100
AcDbEntity
8
0
100
AcDbLine
62
7
6
CONTINUOUS
10
7.7805440274
20
-56.4753033227
11
-1.7194559726
21
-56.4753033227
0
LINE
5
2F3
100
AcDbEntity
8
0
100
AcDbLine
62
7
6
CONTINUOUS
10
-55.8184817396
20
66.0336250210
11
-55.8184817396
21
85.7836250210
0
LINE
5
2F4
100
AcDbEntity
8
0
100
AcDbLine
62
7
6
CONTINUOUS
10
-47.6813967497
20
-79.4562737113
11
-47.6813967497
21
-59.7062737113
0
LINE
5
2F5
100
AcDbEntity
8
0
100
AcDbLine
62
7
6
CONTINUOUS
10
-46.3184817396
20
85.7836250210
11
-46.3184817396
21
66.0336250210
0
LINE
5
2F6
100
AcDbEntity
8
0
100
AcDbLine
62
7
6
CONTINUOUS
10
-44.8565409625
20
106.5145954095
11
-44.8565409625
21
126.2645954095
0
LINE
5
2F7
100
AcDbEntity
8
0
100
AcDbLine
62
7
6
CONTINUOUS
10
-38.1813967497
20
-59.7062737113
11
-38.1813967497
21
-79.4562737113
0
LINE
5
2F8
100
AcDbEntity
8
0
100
AcDbLine
62
7
6
CONTINUOUS
10
-36.7194559726
20
-38.9753033227
11
-36.7194559726
21
-19.2253033227
0
LINE
5
2F9
100
AcDbEntity
8
0
100
AcDbLine
62
7
6
CONTINUOUS
10
-35.3565409625
20
126.2645954095
11
-35.3565409625
21
106.5145954095
0
LINE
5
2FA
100
AcDbEntity
8
0
100
AcDbLine
62
7
6
CONTINUOUS
10
-33.8946001853
20
146.9955657981
11
-33.8946001853
21
166.7455657981
0
LINE
5
2FB
100
AcDbEntity
8
0
100
AcDbLine
62
7
6
CONTINUOUS
10
289.2019002647
20
-55.7646252041
11
279.7019002647
21
-55.7646252041
0
LINE
5
2FC
100
AcDbEntity
8
0
100
AcDbLine
62
7
6
CONTINUOUS
10
33.2805440274
20
-55.5243414284
11
42.7805440274
21
-55.5243414284
0
LINE
5
2FD
100
AcDbEntity
8
0
100
AcDbLine
62
7
6
CONTINUOUS
10
33.2805440274
20
-54.2253033227
11
42.7805440274
21
-54.2253033227
0
LINE
5
2FE
100
AcDbEntity
8
0
100
AcDbLine
62
7
6
CONTINUOUS
10
88.7424848045
20
-50.9943329341
11
79.2424848045
21
-50.9943329341
0
LINE
5
2FF
100
AcDbEntity
8
0
100
AcDbLine
62
7
6
CONTINUOUS
10
114.2424848045
20
-50.0433710398
11
123.7424848045
21
-50.0433710398
0
LINE
5
300
100
AcDbEntity
8
0
100
AcDbLine
62
7
6
CONTINUOUS
10
114.2424848045
20
-48.7443329341
11
123.7424848045
21
-48.7443329341
0
LINE
5
301
100
AcDbEntity
8
0
100
AcDbLine
62
7
6
CONTINUOUS
10
173.2399594876
20
-43.7455955926
11
163.7399594876
21
-43.7455955926
0
LINE
5
302
100
AcDbEntity
8
0
100
AcDbLine
62
7
6
CONTINUOUS
10
-82.6813967497
20
-43.5053118169
11
-73.1813967497
21
-43.5053118169
0
LINE
5
303
100
AcDbEntity
8
0
100
AcDbLine
62
7
6
CONTINUOUS
10
198.7399594876
20
-42.7946336983
11
208.2399594876
21
-42.7946336983
0
LINE
5
304
100
AcDbEntity
8
0
100
AcDbLine
62
7
6
CONTINUOUS
10
-82.6813967497
20
-42.2062737113
11
-73.1813967497
21
-42.2062737113
0
LINE
5
305
100
AcDbEntity
8
0
100
AcDbLine
62
7
6
CONTINUOUS
10
198.7399594876
20
-41.4955955926
11
208.2399594876
21
-41.4955955926
0
LINE
5
306
100
AcDbEntity
8
0
100
AcDbLine
62
7
6
CONTINUOUS
10
-27.2194559726
20
-38.9753033227
11
-36.7194559726
21
-38.9753033227
0
LINE
5
307
100
AcDbEntity
8
0
100
AcDbLine
62
7
6
CONTINUOUS
10
254.2019002647
20
-38.2646252041
11
244.7019002647
21
-38.2646252041
0
LINE
5
308
100
AcDbEntity
8
0
100
AcDbLine
62
7
6
CONTINUOUS
10
-1.7194559726
20
-38.0243414284
11
7.7805440274
21
-38.0243414284
0
LINE
5
309
100
AcDbEntity
8
0
100
AcDbLine
62
7
6
CONTINUOUS
10
279.7019002647
20
-37.3136633097
11
289.2019002647
21
-37.3136633097
0
LINE
5
30A
100
AcDbEntity
8
0
100
AcDbLine
62
7
6
CONTINUOUS
10
-1.7194559726
20
-36.7253033227
11
7.7805440274
21
-36.7253033227
0
LINE
5
30B
100
AcDbEntity
8
0
100
AcDbLine
62
7
6
CONTINUOUS
10
279.7019002647
20
-36.0146252041
11
289.2019002647
21
-36.0146252041
0
LINE
5
30C
100
AcDbEntity
8
0
100
AcDbLine
62
7
6
CONTINUOUS
10
53.7424848045
20
-33.4943329341
11
44.2424848045
21
-33.4943329341
0
LINE
5
30D
100
AcDbEntity
8
0
100
AcDbLine
62
7
6
CONTINUOUS
10
335.1638410418
20
-32.7836548155
11
325.6638410418
21
-32.7836548155
0
LINE
5
30E
100
AcDbEntity
8
0
100
AcDbLine
62
7
6
CONTINUOUS
10
79.2424848045
20
-32.5433710398
11
88.7424848045
21
-32.5433710398
0
LINE
5
30F
100
AcDbEntity
8
0
100
AcDbLine
62
7
6
CONTINUOUS
10
79.2424848045
20
-31.2443329341
11
88.7424848045
21
-31.2443329341
0
LINE
5
310
100
AcDbEntity
8
0
100
AcDbLine
62
7
6
CONTINUOUS
10
138.2399594876
20
-26.2455955926
11
128.7399594876
21
-26.2455955926
0
LINE
5
311
100
AcDbEntity
8
0
100
AcDbLine
62
7
6
CONTINUOUS
10
163.7399594876
20
-25.2946336983
11
173.2399594876
21
-25.2946336983
0
LINE
5
312
100
AcDbEntity
8
0
100
AcDbLine
62
9
6
CONTINUOUS
10
63.1381917657
20
-167.5211128416
11
63.8452985469
21
-168.6675594510
0
LINE
5
313
100
AcDbEntity
8
0
100
AcDbLine
62
7
6
CONTINUOUS
10
50.5516910606
20
-185.7843873353
11
48.9253454639
21
-182.9793561082
0
LINE
5
314
100
AcDbEntity
8
0
100
AcDbLine
62
7
6
CONTINUOUS
10
51.9659046230
20
-185.0772805541
11
50.3395590262
21
-182.2722493270
0
LINE
5
315
100
AcDbEntity
8
0
100
AcDbLine
62
7
6
CONTINUOUS
10
-27.2194559726
20
-19.2253033227
11
-27.2194559726
21
-38.9753033227
0
LINE
5
316
100
AcDbEntity
8
0
100
AcDbLine
62
7
6
CONTINUOUS
10
-24.3946001853
20
166.7455657981
11
-24.3946001853
21
146.9955657981
0
LINE
5
317
100
AcDbEntity
8
0
100
AcDbLine
62
7
6
CONTINUOUS
10
-20.8184817396
20
48.5336250210
11
-20.8184817396
21
68.2836250210
0
LINE
5
318
100
AcDbEntity
8
0
100
AcDbLine
62
7
6
CONTINUOUS
10
-12.6813967497
20
-96.9562737113
11
-12.6813967497
21
-77.2062737113
0
LINE
5
319
100
AcDbEntity
8
0
100
AcDbLine
62
7
6
CONTINUOUS
10
-11.3184817396
20
68.2836250210
11
-11.3184817396
21
48.5336250210
0
LINE
5
31A
100
AcDbEntity
8
0
100
AcDbLine
62
7
6
CONTINUOUS
10
-9.8565409625
20
89.0145954095
11
-9.8565409625
21
108.7645954095
0
LINE
5
31B
100
AcDbEntity
8
0
100
AcDbLine
62
7
6
CONTINUOUS
10
-3.1813967497
20
-77.2062737113
11
-3.1813967497
21
-96.9562737113
0
LINE
5
31C
100
AcDbEntity
8
0
100
AcDbLine
62
7
6
CONTINUOUS
10
-1.7194559726
20
-56.4753033227
11
-1.7194559726
21
-36.7253033227
0
LINE
5
31D
100
AcDbEntity
8
0
100
AcDbLine
62
7
6
CONTINUOUS
10
-0.3565409625
20
108.7645954095
11
-0.3565409625
21
89.0145954095
0
LINE
5
31E
100
AcDbEntity
8
0
100
AcDbLine
62
7
6
CONTINUOUS
10
1.1053998147
20
129.4955657981
11
1.1053998147
21
149.2455657981
0
LINE
5
31F
100
AcDbEntity
8
0
100
AcDbLine
62
7
6
CONTINUOUS
10
163.7399594876
20
-23.9955955926
11
173.2399594876
21
-23.9955955926
0
LINE
5
320
100
AcDbEntity
8
0
100
AcDbLine
62
7
6
CONTINUOUS
10
-152.7398379769
20
-22.1770530977
11
-162.2398379769
21
-22.1770530977
0
LINE
5
321
100
AcDbEntity
8
0
100
AcDbLine
62
7
6
CONTINUOUS
10
219.2019002647
20
-20.7646252041
11
209.7019002647
21
-20.7646252041
0
LINE
5
322
100
AcDbEntity
8
0
100
AcDbLine
62
7
6
CONTINUOUS
10
-36.7194559726
20
-20.5243414284
11
-27.2194559726
21
-20.5243414284
0
LINE
5
323
100
AcDbEntity
8
0
100
AcDbLine
62
7
6
CONTINUOUS
10
244.7019002647
20
-19.8136633097
11
254.2019002647
21
-19.8136633097
0
LINE
5
324
100
AcDbEntity
8
0
100
AcDbLine
62
7
6
CONTINUOUS
10
-36.7194559726
20
-19.2253033227
11
-27.2194559726
21
-19.2253033227
0
LINE
5
325
100
AcDbEntity
8
0
100
AcDbLine
62
7
6
CONTINUOUS
10
244.7019002647
20
-18.5146252041
11
254.2019002647
21
-18.5146252041
0
LINE
5
326
100
AcDbEntity
8
0
100
AcDbLine
62
7
6
CONTINUOUS
10
18.7424848045
20
-15.9943329341
11
9.2424848045
21
-15.9943329341
0
LINE
5
327
100
AcDbEntity
8
0
100
AcDbLine
62
7
6
CONTINUOUS
10
300.1638410418
20
-15.2836548155
11
290.6638410418
21
-15.2836548155
0
LINE
5
328
100
AcDbEntity
8
0
100
AcDbLine
62
7
6
CONTINUOUS
10
44.2424848045
20
-15.0433710398
11
53.7424848045
21
-15.0433710398
0
LINE
5
329
100
AcDbEntity
8
0
100
AcDbLine
62
7
6
CONTINUOUS
10
325.6638410418
20
-14.3326929212
11
335.1638410418
21
-14.3326929212
0
LINE
5
32A
100
AcDbEntity
8
0
100
AcDbLine
62
7
6
CONTINUOUS
10
44.2424848045
20
-13.7443329341
11
53.7424848045
21
-13.7443329341
0
LINE
5
32B
100
AcDbEntity
8
0
100
AcDbLine
62
7
6
CONTINUOUS
10
325.6638410418
20
-13.0336548155
11
335.1638410418
21
-13.0336548155
0
LINE
5
32C
100
AcDbEntity
8
0
100
AcDbLine
62
7
6
CONTINUOUS
10
103.2399594876
20
-8.7455955926
11
93.7399594876
21
-8.7455955926
0
LINE
5
32D
100
AcDbEntity
8
0
100
AcDbLine
62
7
6
CONTINUOUS
10
128.7399594876
20
-7.7946336983
11
138.2399594876
21
-7.7946336983
0
LINE
5
32E
100
AcDbEntity
8
0
100
AcDbLine
62
7
6
CONTINUOUS
10
128.7399594876
20
-6.4955955926
11
138.2399594876
21
-6.4955955926
0
LINE
5
32F
100
AcDbEntity
8
0
100
AcDbLine
62
7
6
CONTINUOUS
10
-187.7398379769
20
-4.6770530977
11
-197.2398379769
21
-4.6770530977
0
LINE
5
330
100
AcDbEntity
8
0
100
AcDbLine
62
7
6
CONTINUOUS
10
-162.2398379769
20
-3.7260912034
11
-152.7398379769
21
-3.7260912034
0
LINE
5
331
100
AcDbEntity
8
0
100
AcDbLine
62
7
6
CONTINUOUS
10
184.2019002647
20
-3.2646252041
11
174.7019002647
21
-3.2646252041
0
LINE
5
332
100
AcDbEntity
8
0
100
AcDbLine
62
7
6
CONTINUOUS
10
-162.2398379769
20
-2.4270530977
11
-152.7398379769
21
-2.4270530977
0
LINE
5
333
100
AcDbEntity
8
0
100
AcDbLine
62
7
6
CONTINUOUS
10
209.7019002647
20
-2.3136633097
11
219.2019002647
21
-2.3136633097
0
LINE
5
334
100
AcDbEntity
8
0
100
AcDbLine
62
7
6
CONTINUOUS
10
209.7019002647
20
-1.0146252041
11
219.2019002647
21
-1.0146252041
0
LINE
5
335
100
AcDbEntity
8
0
100
AcDbLine
62
7
6
CONTINUOUS
10
-106.7778971998
20
0.8039172909
11
-116.2778971998
21
0.8039172909
0
LINE
5
336
100
AcDbEntity
8
0
100
AcDbLine
62
7
6
CONTINUOUS
10
265.1638410418
20
2.2163451845
11
255.6638410418
21
2.2163451845
0
LINE
5
337
100
AcDbEntity
8
0
100
AcDbLine
62
7
6
CONTINUOUS
10
9.2424848045
20
2.4566289602
11
18.7424848045
21
2.4566289602
0
LINE
5
338
100
AcDbEntity
8
0
100
AcDbLine
62
7
6
CONTINUOUS
10
290.6638410418
20
3.1673070788
11
300.1638410418
21
3.1673070788
0
LINE
5
339
100
AcDbEntity
8
0
100
AcDbLine
62
7
6
CONTINUOUS
10
9.2424848045
20
3.7556670659
11
18.7424848045
21
3.7556670659
0
LINE
5
33A
100
AcDbEntity
8
0
100
AcDbLine
62
7
6
CONTINUOUS
10
290.6638410418
20
4.4663451845
11
300.1638410418
21
4.4663451845
0
LINE
5
33B
100
AcDbEntity
8
0
100
AcDbLine
62
7
6
CONTINUOUS
10
7.7805440274
20
-36.7253033227
11
7.7805440274
21
-56.4753033227
0
LINE
5
33C
100
AcDbEntity
8
0
100
AcDbLine
62
7
6
CONTINUOUS
10
9.2424848045
20
-15.9943329341
11
9.2424848045
21
3.7556670659
0
LINE
5
33D
100
AcDbEntity
8
0
100
AcDbLine
62
7
6
CONTINUOUS
10
10.6053998147
20
149.2455657981
11
10.6053998147
21
129.4955657981
0
LINE
5
33E
100
AcDbEntity
8
0
100
AcDbLine
62
7
6
CONTINUOUS
10
10.8122899579
20
-201.9878110192
11
10.8122899579
21
-158.6865408300
0
LINE
5
33F
100
AcDbEntity
8
0
100
AcDbLine
62
7
6
CONTINUOUS
10
12.2265035203
20
-201.2807042380
11
12.2265035203
21
-157.9794340488
0
LINE
5
340
100
AcDbEntity
8
0
100
AcDbLine
62
9
6
CONTINUOUS
10
12.9336103015
20
-156.7598552545
11
12.9336103015
21
-155.0278044469
0
LINE
5
341
100
AcDbEntity
8
0
100
AcDbLine
62
9
6
CONTINUOUS
10
12.9336103015
20
-201.7931762512
11
12.9336103015
21
-203.5252270588
0
LINE
5
342
100
AcDbEntity
8
0
100
AcDbLine
62
7
6
CONTINUOUS
10
13.8174937779
20
-206.9545145444
11
13.8174937779
21
-156.7250411249
0
LINE
5
343
100
AcDbEntity
8
0
100
AcDbLine
62
7
6
CONTINUOUS
10
15.5852607309
20
-207.8383980209
11
15.5852607309
21
-157.6089246014
0
LINE
5
344
100
AcDbEntity
8
0
100
AcDbLine
62
9
6
CONTINUOUS
10
18.0601344651
20
-144.1203215407
11
18.0601344651
21
-146.2853850502
0
LINE
5
345
100
AcDbEntity
8
0
100
AcDbLine
62
7
6
CONTINUOUS
10
18.7424848045
20
3.7556670659
11
18.7424848045
21
-15.9943329341
0
LINE
5
346
100
AcDbEntity
8
0
100
AcDbLine
62
9
6
CONTINUOUS
10
19.1561499759
20
-151.9165346097
11
19.1561499759
21
-152.3236622184
0
LINE
5
347
100
AcDbEntity
8
0
100
AcDbLine
62
7
6
CONTINUOUS
10
20.0348296323
20
-150.8558744379
11
20.0348296323
21
-151.8843223901
0
LINE
5
348
100
AcDbEntity
8
0
100
AcDbLine
62
7
6
CONTINUOUS
10
20.1814548086
20
-203.7216476341
11
20.1814548086
21
-195.9274190000
0
LINE
5
349
100
AcDbEntity
8
0
100
AcDbLine
62
7
6
CONTINUOUS
10
20.1814548086
20
-189.8652411735
11
20.1814548086
21
-182.0710125395
0
LINE
5
34A
100
AcDbEntity
8
0
100
AcDbLine
62
7
6
CONTINUOUS
10
20.1814548086
20
-178.7801160051
11
20.1814548086
21
-170.9858873710
0
LINE
5
34B
100
AcDbEntity
8
0
100
AcDbLine
62
7
6
CONTINUOUS
10
20.1814548086
20
-164.9237095445
11
20.1814548086
21
-157.1294809105
0
LINE
5
34C
100
AcDbEntity
8
0
100
AcDbLine
62
7
6
CONTINUOUS
10
22.3186032503
20
-114.4562737113
11
22.3186032503
21
-94.7062737113
0
LINE
5
34D
100
AcDbEntity
8
0
100
AcDbLine
62
7
6
CONTINUOUS
10
24.7776488863
20
-154.8313838716
11
24.7776488863
21
-160.8578455527
0
LINE
5
34E
100
AcDbEntity
8
0
100
AcDbLine
62
7
6
CONTINUOUS
10
24.7776488863
20
-168.6877903322
11
24.7776488863
21
-174.7142520133
0
LINE
5
34F
100
AcDbEntity
8
0
100
AcDbLine
62
7
6
CONTINUOUS
10
24.7776488863
20
-179.7729155006
11
24.7776488863
21
-185.7993771817
0
LINE
5
350
100
AcDbEntity
8
0
100
AcDbLine
62
7
6
CONTINUOUS
10
24.7776488863
20
-193.6293219612
11
24.7776488863
21
-199.6557836423
0
LINE
5
351
100
AcDbEntity
8
0
100
AcDbLine
62
7
6
CONTINUOUS
10
25.1434590375
20
71.5145954095
11
25.1434590375
21
91.2645954095
0
LINE
5
352
100
AcDbEntity
8
0
100
AcDbLine
62
7
6
CONTINUOUS
10
26.5454158393
20
-153.9475003951
11
26.5454158393
21
-161.7417290292
0
LINE
5
353
100
AcDbEntity
8
0
100
AcDbLine
62
7
6
CONTINUOUS
10
26.5454158393
20
-167.8039068557
11
26.5454158393
21
-175.5981354897
0
LINE
5
354
100
AcDbEntity
8
0
100
AcDbLine
62
7
6
CONTINUOUS
10
26.5454158393
20
-178.8890320241
11
26.5454158393
21
-186.6832606582
0
LINE
5
355
100
AcDbEntity
8
0
100
AcDbLine
62
7
6
CONTINUOUS
10
26.5454158393
20
-192.7454384847
11
26.5454158393
21
-200.5396671187
0
LINE
5
356
100
AcDbEntity
8
0
100
AcDbLine
62
7
6
CONTINUOUS
10
30.8587672045
20
-200.2016447841
11
30.8587672045
21
-195.0054923614
0
LINE
5
357
100
AcDbEntity
8
0
100
AcDbLine
62
7
6
CONTINUOUS
10
30.8587672045
20
-149.9721713646
11
30.8587672045
21
-155.1683237873
0
LINE
5
358
100
AcDbEntity
8
0
100
AcDbLine
62
9
6
CONTINUOUS
10
31.1416099170
20
-153.2591354781
11
31.1416099170
21
-152.9055820875
0
LINE
5
359
100
AcDbEntity
8
0
100
AcDbLine
62
7
6
CONTINUOUS
10
31.8186032503
20
-94.7062737113
11
31.8186032503
21
-114.4562737113
0
LINE
5
35A
100
AcDbEntity
8
0
100
AcDbLine
62
9
6
CONTINUOUS
10
32.9093768700
20
-193.9801875286
11
32.9093768700
21
-154.1430189546
0
LINE
5
35B
100
AcDbEntity
8
0
100
AcDbLine
62
7
6
CONTINUOUS
10
33.2805440274
20
-73.9753033227
11
33.2805440274
21
-54.2253033227
0
LINE
5
35C
100
AcDbEntity
8
0
100
AcDbLine
62
7
6
CONTINUOUS
10
33.7880565264
20
-153.0823587828
11
33.7880565264
21
-192.9195273569
0
LINE
5
35D
100
AcDbEntity
8
0
100
AcDbLine
62
9
6
CONTINUOUS
10
-82.6813967497
20
-44.5192402346
11
-80.6535399144
21
-43.5053118169
0
LINE
5
35E
100
AcDbEntity
8
0
100
AcDbLine
62
9
6
CONTINUOUS
10
-36.7194559726
20
-21.5382698461
11
-34.6915991373
21
-20.5243414284
0
LINE
5
35F
100
AcDbEntity
8
0
100
AcDbLine
62
9
6
CONTINUOUS
10
9.2424848045
20
1.4427005425
11
11.2703416398
21
2.4566289602
0
LINE
5
360
100
AcDbEntity
8
0
100
AcDbLine
62
9
6
CONTINUOUS
10
58.7399594876
20
26.1914378840
11
60.7678163229
21
27.2053663017
0
LINE
5
361
100
AcDbEntity
8
0
100
AcDbLine
62
9
6
CONTINUOUS
10
104.7019002647
20
49.1724082726
11
106.7297571000
21
50.1863366903
0
LINE
5
362
100
AcDbEntity
8
0
100
AcDbLine
62
7
6
CONTINUOUS
10
-82.6813967497
20
-45.1356310460
11
-79.4207582917
21
-43.5053118169
0
LINE
5
363
100
AcDbEntity
8
0
100
AcDbLine
62
7
6
CONTINUOUS
10
-36.7194559726
20
-22.1546606574
11
-33.4588175146
21
-20.5243414284
0
LINE
5
364
100
AcDbEntity
8
0
100
AcDbLine
62
7
6
CONTINUOUS
10
9.2424848045
20
0.8263097312
11
12.5031232625
21
2.4566289602
0
LINE
5
365
100
AcDbEntity
8
0
100
AcDbLine
62
7
6
CONTINUOUS
10
58.7399594876
20
25.5750470727
11
62.0005979456
21
27.2053663017
0
LINE
5
366
100
AcDbEntity
8
0
100
AcDbLine
62
7
6
CONTINUOUS
10
104.7019002647
20
48.5560174613
11
107.9625387227
21
50.1863366903
0
LINE
5
367
100
AcDbEntity
8
0
100
AcDbLine
62
7
6
CONTINUOUS
10
68.2399594876
20
8.7544044074
11
58.7399594876
21
8.7544044074
0
LINE
5
368
100
AcDbEntity
8
0
100
AcDbLine
62
7
6
CONTINUOUS
10
93.7399594876
20
9.7053663017
11
103.2399594876
21
9.7053663017
0
LINE
5
369
100
AcDbEntity
8
0
100
AcDbLine
62
7
6
CONTINUOUS
10
93.7399594876
20
11.0044044074
11
103.2399594876
21
11.0044044074
0
LINE
5
36A
100
AcDbEntity
8
0
100
AcDbLine
62
7
6
CONTINUOUS
10
-222.7398379769
20
12.8229469023
11
-232.2398379769
21
12.8229469023
0
LINE
5
36B
100
AcDbEntity
8
0
100
AcDbLine
62
7
6
CONTINUOUS
10
-197.2398379769
20
13.7739087966
11
-187.7398379769
21
13.7739087966
0
LINE
5
36C
100
AcDbEntity
8
0
100
AcDbLine
62
7
6
CONTINUOUS
10
149.2019002647
20
14.2353747959
11
139.7019002647
21
14.2353747959
0
LINE
5
36D
100
AcDbEntity
8
0
100
AcDbLine
62
7
6
CONTINUOUS
10
-197.2398379769
20
15.0729469023
11
-187.7398379769
21
15.0729469023
0
LINE
5
36E
100
AcDbEntity
8
0
100
AcDbLine
62
7
6
CONTINUOUS
10
174.7019002647
20
15.1863366903
11
184.2019002647
21
15.1863366903
0
LINE
5
36F
100
AcDbEntity
8
0
100
AcDbLine
62
7
6
CONTINUOUS
10
174.7019002647
20
16.4853747959
11
184.2019002647
21
16.4853747959
0
LINE
5
370
100
AcDbEntity
8
0
100
AcDbLine
62
7
6
CONTINUOUS
10
-141.7778971998
20
18.3039172909
11
-151.2778971998
21
18.3039172909
0
LINE
5
371
100
AcDbEntity
8
0
100
AcDbLine
62
7
6
CONTINUOUS
10
-116.2778971998
20
19.2548791852
11
-106.7778971998
21
19.2548791852
0
LINE
5
372
100
AcDbEntity
8
0
100
AcDbLine
62
7
6
CONTINUOUS
10
230.1638410418
20
19.7163451845
11
220.6638410418
21
19.7163451845
0
LINE
5
373
100
AcDbEntity
8
0
100
AcDbLine
62
7
6
CONTINUOUS
10
-116.2778971998
20
20.5539172909
11
-106.7778971998
21
20.5539172909
0
LINE
5
374
100
AcDbEntity
8
0
100
AcDbLine
62
7
6
CONTINUOUS
10
255.6638410418
20
20.6673070788
11
265.1638410418
21
20.6673070788
0
LINE
5
375
100
AcDbEntity
8
0
100
AcDbLine
62
7
6
CONTINUOUS
10
255.6638410418
20
21.9663451845
11
265.1638410418
21
21.9663451845
0
LINE
5
376
100
AcDbEntity
8
0
100
AcDbLine
62
7
6
CONTINUOUS
10
-60.8159564227
20
23.7848876794
11
-70.3159564227
21
23.7848876794
0
LINE
5
377
100
AcDbEntity
8
0
100
AcDbLine
62
7
6
CONTINUOUS
10
58.7399594876
20
27.2053663017
11
68.2399594876
21
27.2053663017
0
LINE
5
378
100
AcDbEntity
8
0
100
AcDbLine
62
7
6
CONTINUOUS
10
58.7399594876
20
28.5044044074
11
68.2399594876
21
28.5044044074
0
LINE
5
379
100
AcDbEntity
8
0
100
AcDbLine
62
7
6
CONTINUOUS
10
-257.7398379769
20
30.3229469023
11
-267.2398379769
21
30.3229469023
0
LINE
5
37A
100
AcDbEntity
8
0
100
AcDbLine
62
7
6
CONTINUOUS
10
-232.2398379769
20
31.2739087966
11
-222.7398379769
21
31.2739087966
0
LINE
5
37B
100
AcDbEntity
8
0
100
AcDbLine
62
7
6
CONTINUOUS
10
114.2019002647
20
31.7353747959
11
104.7019002647
21
31.7353747959
0
LINE
5
37C
100
AcDbEntity
8
0
100
AcDbLine
62
7
6
CONTINUOUS
10
-232.2398379769
20
32.5729469023
11
-222.7398379769
21
32.5729469023
0
LINE
5
37D
100
AcDbEntity
8
0
100
AcDbLine
62
7
6
CONTINUOUS
10
139.7019002647
20
32.6863366903
11
149.2019002647
21
32.6863366903
0
LINE
5
37E
100
AcDbEntity
8
0
100
AcDbLine
62
7
6
CONTINUOUS
10
139.7019002647
20
33.9853747959
11
149.2019002647
21
33.9853747959
0
LINE
5
37F
100
AcDbEntity
8
0
100
AcDbLine
62
7
6
CONTINUOUS
10
-176.7778971998
20
35.8039172909
11
-186.2778971998
21
35.8039172909
0
LINE
5
380
100
AcDbEntity
8
0
100
AcDbLine
62
7
6
CONTINUOUS
10
34.6434590375
20
91.2645954095
11
34.6434590375
21
71.5145954095
0
LINE
5
381
100
AcDbEntity
8
0
100
AcDbLine
62
7
6
CONTINUOUS
10
36.1053998147
20
111.9955657981
11
36.1053998147
21
131.7455657981
0
LINE
5
382
100
AcDbEntity
8
0
100
AcDbLine
62
7
6
CONTINUOUS
10
42.7805440274
20
-54.2253033227
11
42.7805440274
21
-73.9753033227
0
LINE
5
383
100
AcDbEntity
8
0
100
AcDbLine
62
7
6
CONTINUOUS
10
44.2424848045
20
-33.4943329341
11
44.2424848045
21
-13.7443329341
0
LINE
5
384
100
AcDbEntity
8
0
100
AcDbLine
62
7
6
CONTINUOUS
10
45.6053998147
20
131.7455657981
11
45.6053998147
21
111.9955657981
0
LINE
5
385
100
AcDbEntity
8
0
100
AcDbLine
62
7
6
CONTINUOUS
10
46.1676290172
20
168.2789131780
11
46.1676290172
21
158.9628947226
0
LINE
5
386
100
AcDbEntity
8
0
100
AcDbLine
62
7
6
CONTINUOUS
10
47.5818425796
20
167.5718063968
11
47.5818425796
21
158.2557879414
0
LINE
5
387
100
AcDbEntity
8
0
100
AcDbLine
62
7
6
CONTINUOUS
10
48.9253454639
20
-182.9793561082
11
48.9253454639
21
-176.9171782817
0
LINE
5
388
100
AcDbEntity
8
0
100
AcDbLine
62
7
6
CONTINUOUS
10
48.9960561420
20
166.2870547493
11
48.9960561420
21
158.4928261152
0
LINE
5
389
100
AcDbEntity
8
0
100
AcDbLine
62
7
6
CONTINUOUS
10
50.3395590262
20
-182.2722493270
11
50.3395590262
21
-176.2100715005
0
LINE
5
38A
100
AcDbEntity
8
0
100
AcDbLine
62
7
6
CONTINUOUS
10
53.7424848045
20
-13.7443329341
11
53.7424848045
21
-33.4943329341
0
LINE
5
38B
100
AcDbEntity
8
0
100
AcDbLine
62
7
6
CONTINUOUS
10
53.9458036103
20
162.3819134117
11
53.9458036103
21
168.7619284834
0
LINE
5
38C
100
AcDbEntity
8
0
100
AcDbLine
62
7
6
CONTINUOUS
10
54.0872249665
20
-177.5062596044
11
54.0872249665
21
-187.5521542883
0
LINE
5
38D
100
AcDbEntity
8
0
100
AcDbLine
62
7
6
CONTINUOUS
10
55.3600171726
20
161.6748066305
11
55.3600171726
21
169.4690352646
0
LINE
5
38E
100
AcDbEntity
8
0
100
AcDbLine
62
7
6
CONTINUOUS
10
57.3186032503
20
-131.9562737113
11
57.3186032503
21
-112.2062737113
0
LINE
5
38F
100
AcDbEntity
8
0
100
AcDbLine
62
7
6
CONTINUOUS
10
57.6227588724
20
172.5922645432
11
57.6227588724
21
169.1281629281
0
LINE
5
390
100
AcDbEntity
8
0
100
AcDbLine
62
9
6
CONTINUOUS
10
58.1884442974
20
169.4110056405
11
58.1884442974
21
158.7865458500
0
LINE
5
391
100
AcDbEntity
8
0
100
AcDbLine
62
7
6
CONTINUOUS
10
58.7399594876
20
8.7544044074
11
58.7399594876
21
28.5044044074
0
LINE
5
392
100
AcDbEntity
8
0
100
AcDbLine
62
9
6
CONTINUOUS
10
58.8955510786
20
169.4110056405
11
58.8955510786
21
159.1400992406
0
LINE
5
393
100
AcDbEntity
8
0
100
AcDbLine
62
7
6
CONTINUOUS
10
61.6938266843
20
162.1802975934
11
61.6938266843
21
160.4482467858
0
LINE
5
394
100
AcDbEntity
8
0
100
AcDbLine
62
7
6
CONTINUOUS
10
62.0775315939
20
-202.7472775925
11
62.0775315939
21
-170.3014429275
0
LINE
5
395
100
AcDbEntity
8
0
100
AcDbLine
62
9
6
CONTINUOUS
10
62.5725063408
20
161.1196374216
11
62.5725063408
21
159.3875866141
0
LINE
5
396
100
AcDbEntity
8
0
100
AcDbLine
62
7
6
CONTINUOUS
10
63.4917451563
20
-202.0401708113
11
63.4917451563
21
-169.5943361463
0
LINE
5
397
100
AcDbEntity
8
0
100
AcDbLine
62
9
6
CONTINUOUS
10
-115.7598238745
20
-102.6465243893
11
-117.1740374369
21
-103.3536311705
0
LINE
5
398
100
AcDbEntity
8
0
100
AcDbLine
62
7
6
CONTINUOUS
10
-151.2778971998
20
36.7548791852
11
-141.7778971998
21
36.7548791852
0
LINE
5
399
100
AcDbEntity
8
0
100
AcDbLine
62
7
6
CONTINUOUS
10
195.1638410418
20
37.2163451845
11
185.6638410418
21
37.2163451845
0
LINE
5
39A
100
AcDbEntity
8
0
100
AcDbLine
62
7
6
CONTINUOUS
10
-151.2778971998
20
38.0539172909
11
-141.7778971998
21
38.0539172909
0
LINE
5
39B
100
AcDbEntity
8
0
100
AcDbLine
62
7
6
CONTINUOUS
10
220.6638410418
20
38.1673070788
11
230.1638410418
21
38.1673070788
0
LINE
5
39C
100
AcDbEntity
8
0
100
AcDbLine
62
7
6
CONTINUOUS
10
220.6638410418
20
39.4663451845
11
230.1638410418
21
39.4663451845
0
LINE
5
39D
100
AcDbEntity
8
0
100
AcDbLine
62
7
6
CONTINUOUS
10
-95.8159564227
20
41.2848876794
11
-105.3159564227
21
41.2848876794
0
LINE
5
39E
100
AcDbEntity
8
0
100
AcDbLine
62
7
6
CONTINUOUS
10
-70.3159564227
20
42.2358495738
11
-60.8159564227
21
42.2358495738
0
LINE
5
39F
100
AcDbEntity
8
0
100
AcDbLine
62
7
6
CONTINUOUS
10
-70.3159564227
20
43.5348876794
11
-60.8159564227
21
43.5348876794
0
LINE
5
3A0
100
AcDbEntity
8
0
100
AcDbLine
62
7
6
CONTINUOUS
10
-292.7398379769
20
47.8229469023
11
-302.2398379769
21
47.8229469023
0
LINE
5
3A1
100
AcDbEntity
8
0
100
AcDbLine
62
7
6
CONTINUOUS
10
-11.3184817396
20
48.5336250210
11
-20.8184817396
21
48.5336250210
0
LINE
5
3A2
100
AcDbEntity
8
0
100
AcDbLine
62
7
6
CONTINUOUS
10
-267.2398379769
20
48.7739087966
11
-257.7398379769
21
48.7739087966
0
LINE
5
3A3
100
AcDbEntity
8
0
100
AcDbLine
62
7
6
CONTINUOUS
10
-267.2398379769
20
50.0729469023
11
-257.7398379769
21
50.0729469023
0
LINE
5
3A4
100
AcDbEntity
8
0
100
AcDbLine
62
7
6
CONTINUOUS
10
104.7019002647
20
50.1863366903
11
114.2019002647
21
50.1863366903
0
LINE
5
3A5
100
AcDbEntity
8
0
100
AcDbLine
62
7
6
CONTINUOUS
10
104.7019002647
20
51.4853747959
11
114.2019002647
21
51.4853747959
0
LINE
5
3A6
100
AcDbEntity
8
0
100
AcDbLine
62
7
6
CONTINUOUS
10
-211.7778971998
20
53.3039172909
11
-221.2778971998
21
53.3039172909
0
LINE
5
3A7
100
AcDbEntity
8
0
100
AcDbLine
62
7
6
CONTINUOUS
10
-186.2778971998
20
54.2548791852
11
-176.7778971998
21
54.2548791852
0
LINE
5
3A8
100
AcDbEntity
8
0
100
AcDbLine
62
7
6
CONTINUOUS
10
160.1638410418
20
54.7163451845
11
150.6638410418
21
54.7163451845
0
LINE
5
3A9
100
AcDbEntity
8
0
100
AcDbLine
62
7
6
CONTINUOUS
10
-186.2778971998
20
55.5539172909
11
-176.7778971998
21
55.5539172909
0
LINE
5
3AA
100
AcDbEntity
8
0
100
AcDbLine
62
7
6
CONTINUOUS
10
185.6638410418
20
55.6673070788
11
195.1638410418
21
55.6673070788
0
LINE
5
3AB
100
AcDbEntity
8
0
100
AcDbLine
62
7
6
CONTINUOUS
10
185.6638410418
20
56.9663451845
11
195.1638410418
21
56.9663451845
0
LINE
5
3AC
100
AcDbEntity
8
0
100
AcDbLine
62
7
6
CONTINUOUS
10
-130.8159564227
20
58.7848876794
11
-140.3159564227
21
58.7848876794
0
LINE
5
3AD
100
AcDbEntity
8
0
100
AcDbLine
62
7
6
CONTINUOUS
10
-105.3159564227
20
59.7358495738
11
-95.8159564227
21
59.7358495738
0
LINE
5
3AE
100
AcDbEntity
8
0
100
AcDbLine
62
7
6
CONTINUOUS
10
-105.3159564227
20
61.0348876794
11
-95.8159564227
21
61.0348876794
0
LINE
5
3AF
100
AcDbEntity
8
0
100
AcDbLine
62
7
6
CONTINUOUS
10
-327.7398379769
20
65.3229469023
11
-337.2398379769
21
65.3229469023
0
LINE
5
3B0
100
AcDbEntity
8
0
100
AcDbLine
62
7
6
CONTINUOUS
10
-46.3184817396
20
66.0336250210
11
-55.8184817396
21
66.0336250210
0
LINE
5
3B1
100
AcDbEntity
8
0
100
AcDbLine
62
7
6
CONTINUOUS
10
-302.2398379769
20
66.2739087966
11
-292.7398379769
21
66.2739087966
0
LINE
5
3B2
100
AcDbEntity
8
0
100
AcDbLine
62
7
6
CONTINUOUS
10
-20.8184817396
20
66.9845869153
11
-11.3184817396
21
66.9845869153
0
LINE
5
3B3
100
AcDbEntity
8
0
100
AcDbLine
62
7
6
CONTINUOUS
10
66.8186032503
20
-112.2062737113
11
66.8186032503
21
-131.9562737113
0
LINE
5
3B4
100
AcDbEntity
8
0
100
AcDbLine
62
7
6
CONTINUOUS
10
68.2399594876
20
28.5044044074
11
68.2399594876
21
8.7544044074
0
LINE
5
3B5
100
AcDbEntity
8
0
100
AcDbLine
62
7
6
CONTINUOUS
10
68.2805440274
20
-91.4753033227
11
68.2805440274
21
-71.7253033227
0
LINE
5
3B6
100
AcDbEntity
8
0
100
AcDbLine
62
7
6
CONTINUOUS
10
71.1053998147
20
94.4955657981
11
71.1053998147
21
114.2455657981
0
LINE
5
3B7
100
AcDbEntity
8
0
100
AcDbLine
62
7
6
CONTINUOUS
10
77.7805440274
20
-71.7253033227
11
77.7805440274
21
-91.4753033227
0
LINE
5
3B8
100
AcDbEntity
8
0
100
AcDbLine
62
7
6
CONTINUOUS
10
79.2424848045
20
-50.9943329341
11
79.2424848045
21
-31.2443329341
0
LINE
5
3B9
100
AcDbEntity
8
0
100
AcDbLine
62
7
6
CONTINUOUS
10
80.6053998147
20
114.2455657981
11
80.6053998147
21
94.4955657981
0
LINE
5
3BA
100
AcDbEntity
8
0
100
AcDbLine
62
7
6
CONTINUOUS
10
88.7424848045
20
-31.2443329341
11
88.7424848045
21
-50.9943329341
0
LINE
5
3BB
100
AcDbEntity
8
0
100
AcDbLine
62
9
6
CONTINUOUS
10
90.0082494508
20
-175.2240908766
11
90.0082494508
21
-173.9250527709
0
LINE
5
3BC
100
AcDbEntity
8
0
100
AcDbLine
62
9
6
CONTINUOUS
10
90.0082494508
20
-171.7599892615
11
90.0082494508
21
-173.0590273671
0
LINE
5
3BD
100
AcDbEntity
8
0
100
AcDbLine
62
9
6
CONTINUOUS
10
92.1295697943
20
-174.1634307048
11
92.1295697943
21
-172.8643925991
0
LINE
5
3BE
100
AcDbEntity
8
0
100
AcDbLine
62
7
6
CONTINUOUS
10
92.1295697943
20
-170.6993290897
11
92.1295697943
21
-171.9983671954
0
LINE
5
3BF
100
AcDbEntity
8
0
100
AcDbLine
62
7
6
CONTINUOUS
10
92.3186032503
20
-149.4562737113
11
92.3186032503
21
-129.7062737113
0
LINE
5
3C0
100
AcDbEntity
8
0
100
AcDbLine
62
7
6
CONTINUOUS
10
93.7399594876
20
-8.7455955926
11
93.7399594876
21
11.0044044074
0
LINE
5
3C1
100
AcDbEntity
8
0
100
AcDbLine
62
9
6
CONTINUOUS
10
95.6651037003
20
-173.7661341483
11
95.6651037003
21
-172.4670960426
0
LINE
5
3C2
100
AcDbEntity
8
0
100
AcDbLine
62
9
6
CONTINUOUS
10
-115.7598238745
20
-133.8234389255
11
-117.1740374369
21
-134.5305457067
0
LINE
5
3C3
100
AcDbEntity
8
0
100
AcDbLine
62
9
6
CONTINUOUS
10
-66.9694559726
20
-127.0417083402
11
-68.3836695350
21
-127.7488151214
0
LINE
5
3C4
100
AcDbEntity
8
0
100
AcDbLine
62
7
6
CONTINUOUS
10
-302.2398379769
20
67.5729469023
11
-292.7398379769
21
67.5729469023
0
LINE
5
3C5
100
AcDbEntity
8
0
100
AcDbLine
62
7
6
CONTINUOUS
10
-20.8184817396
20
68.2836250210
11
-11.3184817396
21
68.2836250210
0
LINE
5
3C6
100
AcDbEntity
8
0
100
AcDbLine
62
7
6
CONTINUOUS
10
-246.7778971998
20
70.8039172909
11
-256.2778971998
21
70.8039172909
0
LINE
5
3C7
100
AcDbEntity
8
0
100
AcDbLine
62
7
6
CONTINUOUS
10
34.6434590375
20
71.5145954095
11
25.1434590375
21
71.5145954095
0
LINE
5
3C8
100
AcDbEntity
8
0
100
AcDbLine
62
7
6
CONTINUOUS
10
-221.2778971998
20
71.7548791852
11
-211.7778971998
21
71.7548791852
0
LINE
5
3C9
100
AcDbEntity
8
0
100
AcDbLine
62
7
6
CONTINUOUS
10
-221.2778971998
20
73.0539172909
11
-211.7778971998
21
73.0539172909
0
LINE
5
3CA
100
AcDbEntity
8
0
100
AcDbLine
62
7
6
CONTINUOUS
10
150.6638410418
20
73.1673070788
11
160.1638410418
21
73.1673070788
0
LINE
5
3CB
100
AcDbEntity
8
0
100
AcDbLine
62
7
6
CONTINUOUS
10
150.6638410418
20
74.4663451845
11
160.1638410418
21
74.4663451845
0
LINE
5
3CC
100
AcDbEntity
8
0
100
AcDbLine
62
7
6
CONTINUOUS
10
-165.8159564227
20
76.2848876794
11
-175.3159564227
21
76.2848876794
0
LINE
5
3CD
100
AcDbEntity
8
0
100
AcDbLine
62
7
6
CONTINUOUS
10
-140.3159564227
20
77.2358495738
11
-130.8159564227
21
77.2358495738
0
LINE
5
3CE
100
AcDbEntity
8
0
100
AcDbLine
62
7
6
CONTINUOUS
10
-140.3159564227
20
78.5348876794
11
-130.8159564227
21
78.5348876794
0
LINE
5
3CF
100
AcDbEntity
8
0
100
AcDbLine
62
7
6
CONTINUOUS
10
-81.3184817396
20
83.5336250210
11
-90.8184817396
21
83.5336250210
0
LINE
5
3D0
100
AcDbEntity
8
0
100
AcDbLine
62
7
6
CONTINUOUS
10
-337.2398379769
20
83.7739087966
11
-327.7398379769
21
83.7739087966
0
LINE
5
3D1
100
AcDbEntity
8
0
100
AcDbLine
62
7
6
CONTINUOUS
10
-55.8184817396
20
84.4845869153
11
-46.3184817396
21
84.4845869153
0
LINE
5
3D2
100
AcDbEntity
8
0
100
AcDbLine
62
7
6
CONTINUOUS
10
-337.2398379769
20
85.0729469023
11
-327.7398379769
21
85.0729469023
0
LINE
5
3D3
100
AcDbEntity
8
0
100
AcDbLine
62
7
6
CONTINUOUS
10
-55.8184817396
20
85.7836250210
11
-46.3184817396
21
85.7836250210
0
LINE
5
3D4
100
AcDbEntity
8
0
100
AcDbLine
62
7
6
CONTINUOUS
10
-281.7778971998
20
88.3039172909
11
-291.2778971998
21
88.3039172909
0
LINE
5
3D5
100
AcDbEntity
8
0
100
AcDbLine
62
7
6
CONTINUOUS
10
-0.3565409625
20
89.0145954095
11
-9.8565409625
21
89.0145954095
0
LINE
5
3D6
100
AcDbEntity
8
0
100
AcDbLine
62
7
6
CONTINUOUS
10
-256.2778971998
20
89.2548791852
11
-246.7778971998
21
89.2548791852
0
LINE
5
3D7
100
AcDbEntity
8
0
100
AcDbLine
62
7
6
CONTINUOUS
10
25.1434590375
20
89.9655573038
11
34.6434590375
21
89.9655573038
0
LINE
5
3D8
100
AcDbEntity
8
0
100
AcDbLine
62
7
6
CONTINUOUS
10
-256.2778971998
20
90.5539172909
11
-246.7778971998
21
90.5539172909
0
LINE
5
3D9
100
AcDbEntity
8
0
100
AcDbLine
62
7
6
CONTINUOUS
10
25.1434590375
20
91.2645954095
11
34.6434590375
21
91.2645954095
0
LINE
5
3DA
100
AcDbEntity
8
0
100
AcDbLine
62
7
6
CONTINUOUS
10
-200.8159564227
20
93.7848876794
11
-210.3159564227
21
93.7848876794
0
LINE
5
3DB
100
AcDbEntity
8
0
100
AcDbLine
62
7
6
CONTINUOUS
10
80.6053998147
20
94.4955657981
11
71.1053998147
21
94.4955657981
0
LINE
5
3DC
100
AcDbEntity
8
0
100
AcDbLine
62
7
6
CONTINUOUS
10
-175.3159564227
20
94.7358495738
11
-165.8159564227
21
94.7358495738
0
LINE
5
3DD
100
AcDbEntity
8
0
100
AcDbLine
62
7
6
CONTINUOUS
10
-175.3159564227
20
96.0348876794
11
-165.8159564227
21
96.0348876794
0
LINE
5
3DE
100
AcDbEntity
8
0
100
AcDbLine
62
7
6
CONTINUOUS
10
96.3722104815
20
-224.7821736603
11
96.3722104815
21
-174.9857129427
0
LINE
5
3DF
100
AcDbEntity
8
0
100
AcDbLine
62
7
6
CONTINUOUS
10
97.4328706532
20
-225.3125037462
11
97.4328706532
21
-175.5160430286
0
LINE
5
3E0
100
AcDbEntity
8
0
100
AcDbLine
62
7
6
CONTINUOUS
10
101.8186032503
20
-129.7062737113
11
101.8186032503
21
-149.4562737113
0
LINE
5
3E1
100
AcDbEntity
8
0
100
AcDbLine
62
7
6
CONTINUOUS
10
103.2399594876
20
11.0044044074
11
103.2399594876
21
-8.7455955926
0
LINE
5
3E2
100
AcDbEntity
8
0
100
AcDbLine
62
7
6
CONTINUOUS
10
103.2805440274
20
-108.9753033227
11
103.2805440274
21
-89.2253033227
0
LINE
5
3E3
100
AcDbEntity
8
0
100
AcDbLine
62
7
6
CONTINUOUS
10
104.7019002647
20
31.7353747959
11
104.7019002647
21
51.4853747959
0
LINE
5
3E4
100
AcDbEntity
8
0
100
AcDbLine
62
7
6
CONTINUOUS
10
112.7805440274
20
-89.2253033227
11
112.7805440274
21
-108.9753033227
0
LINE
5
3E5
100
AcDbEntity
8
0
100
AcDbLine
62
7
6
CONTINUOUS
10
114.2019002647
20
51.4853747959
11
114.2019002647
21
31.7353747959
0
LINE
5
3E6
100
AcDbEntity
8
0
100
AcDbLine
62
7
6
CONTINUOUS
10
114.2424848045
20
-68.4943329341
11
114.2424848045
21
-48.7443329341
0
LINE
5
3E7
100
AcDbEntity
8
0
100
AcDbLine
62
9
6
CONTINUOUS
10
122.5351613854
20
-187.0984335118
11
122.5351613854
21
-186.9573729619
0
LINE
5
3E8
100
AcDbEntity
8
0
100
AcDbLine
62
7
6
CONTINUOUS
10
123.7424848045
20
-48.7443329341
11
123.7424848045
21
-68.4943329341
0
LINE
5
3E9
100
AcDbEntity
8
0
100
AcDbLine
62
9
6
CONTINUOUS
10
-66.9694559726
20
-158.2186228765
11
-68.3836695350
21
-158.9257296577
0
LINE
5
3EA
100
AcDbEntity
8
0
100
AcDbLine
62
7
6
CONTINUOUS
10
-116.3184817396
20
101.0336250210
11
-125.8184817396
21
101.0336250210
0
LINE
5
3EB
100
AcDbEntity
8
0
100
AcDbLine
62
7
6
CONTINUOUS
10
-90.8184817396
20
101.9845869153
11
-81.3184817396
21
101.9845869153
0
LINE
5
3EC
100
AcDbEntity
8
0
100
AcDbLine
62
7
6
CONTINUOUS
10
-90.8184817396
20
103.2836250210
11
-81.3184817396
21
103.2836250210
0
LINE
5
3ED
100
AcDbEntity
8
0
100
AcDbLine
62
7
6
CONTINUOUS
10
-35.3565409625
20
106.5145954095
11
-44.8565409625
21
106.5145954095
0
LINE
5
3EE
100
AcDbEntity
8
0
100
AcDbLine
62
7
6
CONTINUOUS
10
-291.2778971998
20
106.7548791852
11
-281.7778971998
21
106.7548791852
0
LINE
5
3EF
100
AcDbEntity
8
0
100
AcDbLine
62
7
6
CONTINUOUS
10
-9.8565409625
20
107.4655573038
11
-0.3565409625
21
107.4655573038
0
LINE
5
3F0
100
AcDbEntity
8
0
100
AcDbLine
62
7
6
CONTINUOUS
10
-291.2778971998
20
108.0539172909
11
-281.7778971998
21
108.0539172909
0
LINE
5
3F1
100
AcDbEntity
8
0
100
AcDbLine
62
7
6
CONTINUOUS
10
-9.8565409625
20
108.7645954095
11
-0.3565409625
21
108.7645954095
0
LINE
5
3F2
100
AcDbEntity
8
0
100
AcDbLine
62
7
6
CONTINUOUS
10
-235.8159564227
20
111.2848876794
11
-245.3159564227
21
111.2848876794
0
LINE
5
3F3
100
AcDbEntity
8
0
100
AcDbLine
62
7
6
CONTINUOUS
10
45.6053998147
20
111.9955657981
11
36.1053998147
21
111.9955657981
0
LINE
5
3F4
100
AcDbEntity
8
0
100
AcDbLine
62
7
6
CONTINUOUS
10
-210.3159564227
20
112.2358495738
11
-200.8159564227
21
112.2358495738
0
LINE
5
3F5
100
AcDbEntity
8
0
100
AcDbLine
62
7
6
CONTINUOUS
10
71.1053998147
20
112.9465276924
11
80.6053998147
21
112.9465276924
0
LINE
5
3F6
100
AcDbEntity
8
0
100
AcDbLine
62
7
6
CONTINUOUS
10
-210.3159564227
20
113.5348876794
11
-200.8159564227
21
113.5348876794
0
LINE
5
3F7
100
AcDbEntity
8
0
100
AcDbLine
62
7
6
CONTINUOUS
10
71.1053998147
20
114.2455657981
11
80.6053998147
21
114.2455657981
0
LINE
5
3F8
100
AcDbEntity
8
0
100
AcDbLine
62
7
6
CONTINUOUS
10
-151.3184817396
20
118.5336250210
11
-160.8184817396
21
118.5336250210
0
LINE
5
3F9
100
AcDbEntity
8
0
100
AcDbLine
62
7
6
CONTINUOUS
10
-125.8184817396
20
119.4845869153
11
-116.3184817396
21
119.4845869153
0
LINE
5
3FA
100
AcDbEntity
8
0
100
AcDbLine
62
7
6
CONTINUOUS
10
-125.8184817396
20
120.7836250210
11
-116.3184817396
21
120.7836250210
0
LINE
5
3FB
100
AcDbEntity
8
0
100
AcDbLine
62
7
6
CONTINUOUS
10
-70.3565409625
20
124.0145954095
11
-79.8565409625
21
124.0145954095
0
LINE
5
3FC
100
AcDbEntity
8
0
100
AcDbLine
62
7
6
CONTINUOUS
10
-44.8565409625
20
124.9655573038
11
-35.3565409625
21
124.9655573038
0
LINE
5
3FD
100
AcDbEntity
8
0
100
AcDbLine
62
7
6
CONTINUOUS
10
-44.8565409625
20
126.2645954095
11
-35.3565409625
21
126.2645954095
0
LINE
5
3FE
100
AcDbEntity
8
0
100
AcDbLine
62
7
6
CONTINUOUS
10
390.8821848457
20
-78.5878466500
11
389.8215246739
21
-78.0575165641
0
LINE
5
3FF
100
AcDbEntity
8
0
100
AcDbLine
62
7
6
CONTINUOUS
10
369.8944855436
20
-63.9227886026
11
384.8387004496
21
-71.3948960556
0
LINE
5
400
100
AcDbEntity
8
0
100
AcDbLine
62
7
6
CONTINUOUS
10
335.1638410418
20
-26.2058693628
11
325.6638410418
21
-21.4558693628
0
LINE
5
401
100
AcDbEntity
8
0
100
AcDbLine
62
7
6
CONTINUOUS
10
265.1638410418
20
8.7941306372
11
255.6638410418
21
13.5441306372
0
LINE
5
402
100
AcDbEntity
8
0
100
AcDbLine
62
7
6
CONTINUOUS
10
230.1638410418
20
26.2941306372
11
220.6638410418
21
31.0441306372
0
LINE
5
403
100
AcDbEntity
8
0
100
AcDbLine
62
7
6
CONTINUOUS
10
195.1638410418
20
43.7941306372
11
185.6638410418
21
48.5441306372
0
LINE
5
404
100
AcDbEntity
8
0
100
AcDbLine
62
7
6
CONTINUOUS
10
160.1638410418
20
61.2941306372
11
150.6638410418
21
66.0441306372
0
LINE
5
405
100
AcDbEntity
8
0
100
AcDbLine
62
7
6
CONTINUOUS
10
80.6053998147
20
101.0733512508
11
71.1053998147
21
105.8233512508
0
LINE
5
406
100
AcDbEntity
8
0
100
AcDbLine
62
7
6
CONTINUOUS
10
45.6053998147
20
118.5733512508
11
36.1053998147
21
123.3233512508
0
LINE
5
407
100
AcDbEntity
8
0
100
AcDbLine
62
7
6
CONTINUOUS
10
335.1638410418
20
-25.1452091910
11
325.6638410418
21
-20.3952091910
0
LINE
5
408
100
AcDbEntity
8
0
100
AcDbLine
62
7
6
CONTINUOUS
10
265.1638410418
20
9.8547908090
11
255.6638410418
21
14.6047908090
0
LINE
5
409
100
AcDbEntity
8
0
100
AcDbLine
62
7
6
CONTINUOUS
10
230.1638410418
20
27.3547908090
11
220.6638410418
21
32.1047908090
0
LINE
5
40A
100
AcDbEntity
8
0
100
AcDbLine
62
7
6
CONTINUOUS
10
195.1638410418
20
44.8547908090
11
185.6638410418
21
49.6047908090
0
LINE
5
40B
100
AcDbEntity
8
0
100
AcDbLine
62
7
6
CONTINUOUS
10
160.1638410418
20
62.3547908090
11
150.6638410418
21
67.1047908090
0
LINE
5
40C
100
AcDbEntity
8
0
100
AcDbLine
62
7
6
CONTINUOUS
10
80.6053998147
20
102.1340114226
11
71.1053998147
21
106.8840114226
0
LINE
5
40D
100
AcDbEntity
8
0
100
AcDbLine
62
7
6
CONTINUOUS
10
45.6053998147
20
119.6340114226
11
36.1053998147
21
124.3840114226
0
LINE
5
40E
100
AcDbEntity
8
0
100
AcDbLine
62
7
6
CONTINUOUS
10
128.7399594876
20
-26.2455955926
11
128.7399594876
21
-6.4955955926
0
LINE
5
40F
100
AcDbEntity
8
0
100
AcDbLine
62
7
6
CONTINUOUS
10
138.2399594876
20
-6.4955955926
11
138.2399594876
21
-26.2455955926
0
LINE
5
410
100
AcDbEntity
8
0
100
AcDbLine
62
7
6
CONTINUOUS
10
138.2805440274
20
-126.4753033227
11
138.2805440274
21
-106.7253033227
0
LINE
5
411
100
AcDbEntity
8
0
100
AcDbLine
62
7
6
CONTINUOUS
10
139.7019002647
20
14.2353747959
11
139.7019002647
21
33.9853747959
0
LINE
5
412
100
AcDbEntity
8
0
100
AcDbLine
62
7
6
CONTINUOUS
10
147.7805440274
20
-106.7253033227
11
147.7805440274
21
-126.4753033227
0
LINE
5
413
100
AcDbEntity
8
0
100
AcDbLine
62
7
6
CONTINUOUS
10
149.2019002647
20
33.9853747959
11
149.2019002647
21
14.2353747959
0
LINE
5
414
100
AcDbEntity
8
0
100
AcDbLine
62
7
6
CONTINUOUS
10
149.2424848045
20
-85.9943329341
11
149.2424848045
21
-66.2443329341
0
LINE
5
415
100
AcDbEntity
8
0
100
AcDbLine
62
7
6
CONTINUOUS
10
150.6638410418
20
54.7163451845
11
150.6638410418
21
74.4663451845
0
LINE
5
416
100
AcDbEntity
8
0
100
AcDbLine
62
9
6
CONTINUOUS
10
63.1381917657
20
-204.4669475066
11
63.8452985469
21
-202.6133941160
0
LINE
5
417
100
AcDbEntity
8
0
100
AcDbLine
62
9
6
CONTINUOUS
10
68.9770265305
20
-205.6762097806
11
69.6841333117
21
-203.8226563900
0
LINE
5
418
100
AcDbEntity
8
0
100
AcDbLine
62
7
6
CONTINUOUS
10
63.1381917657
20
-167.5211128416
11
66.2007029661
21
-163.8243348042
0
LINE
5
419
100
AcDbEntity
8
0
100
AcDbLine
62
9
6
CONTINUOUS
10
-14.2900007742
20
-153.3814359394
11
-15.7042143366
21
-154.0885427206
0
LINE
5
41A
100
AcDbEntity
8
0
100
AcDbLine
62
7
6
CONTINUOUS
10
12.9332494951
20
-146.6837640257
11
18.0601344651
21
-144.1203215407
0
LINE
5
41B
100
AcDbEntity
8
0
100
AcDbLine
62
7
6
CONTINUOUS
10
336.9652927802
20
15.3322576168
11
343.8242285577
21
18.7617255056
0
LINE
5
41C
100
AcDbEntity
8
0
100
AcDbLine
62
7
6
CONTINUOUS
10
15.0983130046
20
-147.7662957804
11
18.0601344651
21
-146.2853850502
0
LINE
5
41D
100
AcDbEntity
8
0
100
AcDbLine
62
7
6
CONTINUOUS
10
337.3621615139
20
13.3656284742
11
345.9892920672
21
17.6791937508
0
LINE
5
41E
100
AcDbEntity
8
0
100
AcDbLine
62
7
6
CONTINUOUS
10
20.1814548086
20
-145.6577375803
11
18.4136878557
21
-146.5416210568
0
LINE
5
41F
100
AcDbEntity
8
0
100
AcDbLine
62
7
6
CONTINUOUS
10
362.2443602076
20
19.6275705062
11
356.0218205332
21
16.5163006690
0
LINE
5
420
100
AcDbEntity
8
0
100
AcDbLine
62
7
6
CONTINUOUS
10
19.1561499759
20
-151.9165346097
11
12.9336103015
21
-155.0278044469
0
LINE
5
421
100
AcDbEntity
8
0
100
AcDbLine
62
7
6
CONTINUOUS
10
27.6767866892
20
-148.0633438617
11
15.2317073403
21
-154.2858835361
0
LINE
5
422
100
AcDbEntity
8
0
100
AcDbLine
62
7
6
CONTINUOUS
10
353.5115914600
20
14.8540585237
11
365.9566708088
21
21.0765981981
0
LINE
5
423
100
AcDbEntity
8
0
100
AcDbLine
62
9
6
CONTINUOUS
10
349.3396614510
20
11.9931625106
11
351.1074284039
21
12.8770459871
0
LINE
5
424
100
AcDbEntity
8
0
100
AcDbLine
62
7
6
CONTINUOUS
10
13.8587657413
20
-156.2972775345
11
12.9336103015
21
-156.7598552545
0
LINE
5
425
100
AcDbEntity
8
0
100
AcDbLine
62
7
6
CONTINUOUS
10
348.8198750796
20
10.9114149098
11
350.5876420325
21
11.7952983862
0
LINE
5
426
100
AcDbEntity
8
0
100
AcDbLine
62
7
6
CONTINUOUS
10
29.4445536422
20
-148.9472273382
11
16.9994742933
21
-155.1697670126
0
LINE
5
427
100
AcDbEntity
8
0
100
AcDbLine
62
7
6
CONTINUOUS
10
355.2793584129
20
13.9701750472
11
367.7244377618
21
20.1927147216
0
LINE
5
428
100
AcDbEntity
8
0
100
AcDbLine
62
9
6
CONTINUOUS
10
12.2265035203
20
-157.9794340488
11
10.8122899579
21
-158.6865408300
0
LINE
5
429
100
AcDbEntity
8
0
100
AcDbLine
62
7
6
CONTINUOUS
10
20.1814548086
20
-157.1294809105
11
26.5454158393
21
-153.9475003951
0
LINE
5
42A
100
AcDbEntity
8
0
100
AcDbLine
62
7
6
CONTINUOUS
10
358.1784962158
20
11.8690397931
11
364.5424572465
21
15.0510203085
0
LINE
5
42B
100
AcDbEntity
8
0
100
AcDbLine
62
9
6
CONTINUOUS
10
31.1416099170
20
-152.9055820875
11
32.9093768700
21
-152.0216986110
0
LINE
5
42C
100
AcDbEntity
8
0
100
AcDbLine
62
7
6
CONTINUOUS
10
31.1416099170
20
-153.2591354781
11
30.8587672045
21
-153.4005568343
0
LINE
5
42D
100
AcDbEntity
8
0
100
AcDbLine
62
7
6
CONTINUOUS
10
350.8766496678
20
6.6083843973
11
352.0973778976
21
7.2187485122
0
LINE
5
42E
100
AcDbEntity
8
0
100
AcDbLine
62
9
6
CONTINUOUS
10
12.2265035203
20
-162.9069937684
11
13.5346510655
21
-162.2529199958
0
LINE
5
42F
100
AcDbEntity
8
0
100
AcDbLine
62
9
6
CONTINUOUS
10
13.8174937779
20
-162.2175646567
11
13.6407170826
21
-162.3059530044
0
LINE
5
430
100
AcDbEntity
8
0
100
AcDbLine
62
7
6
CONTINUOUS
10
32.9093768700
20
-154.1430189546
11
30.8587672045
21
-155.1683237873
0
LINE
5
431
100
AcDbEntity
8
0
100
AcDbLine
62
7
6
CONTINUOUS
10
352.6444166207
20
5.7245009208
11
353.8651448505
21
6.3348650357
0
LINE
5
432
100
AcDbEntity
8
0
100
AcDbLine
62
7
6
CONTINUOUS
10
362.7746902935
20
8.1406751509
11
358.1784962158
21
5.8425781120
0
LINE
5
433
100
AcDbEntity
8
0
100
AcDbLine
62
7
6
CONTINUOUS
10
24.7776488863
20
-160.8578455527
11
20.1814548086
21
-163.1559425916
0
LINE
5
434
100
AcDbEntity
8
0
100
AcDbLine
62
7
6
CONTINUOUS
10
10.6053998147
20
129.4955657981
11
1.1053998147
21
129.4955657981
0
LINE
5
435
100
AcDbEntity
8
0
100
AcDbLine
62
7
6
CONTINUOUS
10
-245.3159564227
20
129.7358495738
11
-235.8159564227
21
129.7358495738
0
LINE
5
436
100
AcDbEntity
8
0
100
AcDbLine
62
7
6
CONTINUOUS
10
36.1053998147
20
130.4465276924
11
45.6053998147
21
130.4465276924
0
LINE
5
437
100
AcDbEntity
8
0
100
AcDbLine
62
7
6
CONTINUOUS
10
-245.3159564227
20
131.0348876794
11
-235.8159564227
21
131.0348876794
0
LINE
5
438
100
AcDbEntity
8
0
100
AcDbLine
62
7
6
CONTINUOUS
10
36.1053998147
20
131.7455657981
11
45.6053998147
21
131.7455657981
0
LINE
5
439
100
AcDbEntity
8
0
100
AcDbLine
62
7
6
CONTINUOUS
10
-186.3184817396
20
136.0336250210
11
-195.8184817396
21
136.0336250210
0
LINE
5
43A
100
AcDbEntity
8
0
100
AcDbLine
62
7
6
CONTINUOUS
10
-160.8184817396
20
136.9845869153
11
-151.3184817396
21
136.9845869153
0
LINE
5
43B
100
AcDbEntity
8
0
100
AcDbLine
62
7
6
CONTINUOUS
10
-160.8184817396
20
138.2836250210
11
-151.3184817396
21
138.2836250210
0
LINE
5
43C
100
AcDbEntity
8
0
100
AcDbLine
62
7
6
CONTINUOUS
10
-105.3565409625
20
141.5145954095
11
-114.8565409625
21
141.5145954095
0
LINE
5
43D
100
AcDbEntity
8
0
100
AcDbLine
62
7
6
CONTINUOUS
10
-79.8565409625
20
142.4655573038
11
-70.3565409625
21
142.4655573038
0
LINE
5
43E
100
AcDbEntity
8
0
100
AcDbLine
62
7
6
CONTINUOUS
10
-79.8565409625
20
143.7645954095
11
-70.3565409625
21
143.7645954095
0
LINE
5
43F
100
AcDbEntity
8
0
100
AcDbLine
62
7
6
CONTINUOUS
10
-24.3946001853
20
146.9955657981
11
-33.8946001853
21
146.9955657981
0
LINE
5
440
100
AcDbEntity
8
0
100
AcDbLine
62
7
6
CONTINUOUS
10
1.1053998147
20
147.9465276924
11
10.6053998147
21
147.9465276924
0
LINE
5
441
100
AcDbEntity
8
0
100
AcDbLine
62
7
6
CONTINUOUS
10
1.1053998147
20
149.2455657981
11
10.6053998147
21
149.2455657981
0
LINE
5
442
100
AcDbEntity
8
0
100
AcDbLine
62
7
6
CONTINUOUS
10
-195.8184817396
20
154.4845869153
11
-186.3184817396
21
154.4845869153
0
LINE
5
443
100
AcDbEntity
8
0
100
AcDbLine
62
7
6
CONTINUOUS
10
-195.8184817396
20
155.7836250210
11
-186.3184817396
21
155.7836250210
0
LINE
5
444
100
AcDbEntity
8
0
100
AcDbLine
62
7
6
CONTINUOUS
10
-140.3565409625
20
159.0145954095
11
-149.8565409625
21
159.0145954095
0
LINE
5
445
100
AcDbEntity
8
0
100
AcDbLine
62
7
6
CONTINUOUS
10
36.1053998147
20
128.5195036735
11
45.6053998147
21
123.7695036735
0
LINE
5
446
100
AcDbEntity
8
0
100
AcDbLine
62
7
6
CONTINUOUS
10
71.1053998147
20
111.0195036735
11
80.6053998147
21
106.2695036735
0
LINE
5
447
100
AcDbEntity
8
0
100
AcDbLine
62
7
6
CONTINUOUS
10
150.6638410418
20
71.2402830599
11
160.1638410418
21
66.4902830599
0
LINE
5
448
100
AcDbEntity
8
0
100
AcDbLine
62
7
6
CONTINUOUS
10
185.6638410418
20
53.7402830599
11
195.1638410418
21
48.9902830599
0
LINE
5
449
100
AcDbEntity
8
0
100
AcDbLine
62
7
6
CONTINUOUS
10
220.6638410418
20
36.2402830599
11
230.1638410418
21
31.4902830599
0
LINE
5
44A
100
AcDbEntity
8
0
100
AcDbLine
62
7
6
CONTINUOUS
10
255.6638410418
20
18.7402830599
11
265.1638410418
21
13.9902830599
0
LINE
5
44B
100
AcDbEntity
8
0
100
AcDbLine
62
7
6
CONTINUOUS
10
325.6638410418
20
-16.2597169401
11
335.1638410418
21
-21.0097169401
0
LINE
5
44C
100
AcDbEntity
8
0
100
AcDbLine
62
7
6
CONTINUOUS
10
158.7424848045
20
-66.2443329341
11
158.7424848045
21
-85.9943329341
0
LINE
5
44D
100
AcDbEntity
8
0
100
AcDbLine
62
7
6
CONTINUOUS
10
160.1638410418
20
74.4663451845
11
160.1638410418
21
54.7163451845
0
LINE
5
44E
100
AcDbEntity
8
0
100
AcDbLine
62
7
6
CONTINUOUS
10
163.7399594876
20
-43.7455955926
11
163.7399594876
21
-23.9955955926
0
LINE
5
44F
100
AcDbEntity
8
0
100
AcDbLine
62
7
6
CONTINUOUS
10
173.2399594876
20
-23.9955955926
11
173.2399594876
21
-43.7455955926
0
LINE
5
450
100
AcDbEntity
8
0
100
AcDbLine
62
7
6
CONTINUOUS
10
174.7019002647
20
-3.2646252041
11
174.7019002647
21
16.4853747959
0
LINE
5
451
100
AcDbEntity
8
0
100
AcDbLine
62
7
6
CONTINUOUS
10
184.2019002647
20
16.4853747959
11
184.2019002647
21
-3.2646252041
0
LINE
5
452
100
AcDbEntity
8
0
100
AcDbLine
62
7
6
CONTINUOUS
10
184.2424848045
20
-103.4943329341
11
184.2424848045
21
-83.7443329341
0
LINE
5
453
100
AcDbEntity
8
0
100
AcDbLine
62
7
6
CONTINUOUS
10
185.6638410418
20
37.2163451845
11
185.6638410418
21
56.9663451845
0
LINE
5
454
100
AcDbEntity
8
0
100
AcDbLine
62
7
6
CONTINUOUS
10
108.0394723710
20
-220.0092028873
11
122.1816079948
21
-186.9573729619
0
LINE
5
455
100
AcDbEntity
8
0
100
AcDbLine
62
7
6
CONTINUOUS
10
71.6841333117
20
-201.2809242205
11
70.5376867023
21
-203.2582521304
0
LINE
5
456
100
AcDbEntity
8
0
100
AcDbLine
62
7
6
CONTINUOUS
10
72.6841333117
20
-202.0056690919
11
71.5376867023
21
-203.9829970018
0
LINE
5
457
100
AcDbEntity
8
0
100
AcDbLine
62
7
6
CONTINUOUS
10
63.8452985469
20
-168.6675594510
11
67.3722758413
21
-164.4101212418
0
LINE
5
458
100
AcDbEntity
8
0
100
AcDbLine
62
7
6
CONTINUOUS
10
48.9253454639
20
-176.9171782817
11
50.5516910606
21
-175.7384926514
0
LINE
5
459
100
AcDbEntity
8
0
100
AcDbLine
62
7
6
CONTINUOUS
10
50.3395590262
20
-176.2100715005
11
50.8112040846
21
-175.8682491634
0
LINE
5
45A
100
AcDbEntity
8
0
100
AcDbLine
62
7
6
CONTINUOUS
10
364.5424572465
20
7.2567916744
11
358.1784962158
21
4.0748111591
0
LINE
5
45B
100
AcDbEntity
8
0
100
AcDbLine
62
7
6
CONTINUOUS
10
26.5454158393
20
-161.7417290292
11
20.1814548086
21
-164.9237095445
0
LINE
5
45C
100
AcDbEntity
8
0
100
AcDbLine
62
9
6
CONTINUOUS
10
-14.2900007742
20
-184.5583504757
11
-15.7042143366
21
-185.2654572569
0
LINE
5
45D
100
AcDbEntity
8
0
100
AcDbLine
62
7
6
CONTINUOUS
10
20.1814548086
20
-170.9858873710
11
26.5454158393
21
-167.8039068557
0
LINE
5
45E
100
AcDbEntity
8
0
100
AcDbLine
62
7
6
CONTINUOUS
10
363.1233240065
20
0.4850472279
11
364.5424572465
21
1.1946138479
0
LINE
5
45F
100
AcDbEntity
8
0
100
AcDbLine
62
7
6
CONTINUOUS
10
24.7776488863
20
-174.7142520133
11
20.1814548086
21
-177.0123490521
0
LINE
5
460
100
AcDbEntity
8
0
100
AcDbLine
62
7
6
CONTINUOUS
10
26.5454158393
20
-175.5981354897
11
20.1814548086
21
-178.7801160051
0
LINE
5
461
100
AcDbEntity
8
0
100
AcDbLine
62
9
6
CONTINUOUS
10
37.6823476430
20
-172.9125547222
11
36.2681340806
21
-173.6196615034
0
LINE
5
462
100
AcDbEntity
8
0
100
AcDbLine
62
7
6
CONTINUOUS
10
20.1814548086
20
-182.0710125395
11
26.5454158393
21
-178.8890320241
0
LINE
5
463
100
AcDbEntity
8
0
100
AcDbLine
62
7
6
CONTINUOUS
10
13.8174937779
20
-189.1098993716
11
12.2265035203
21
-189.9053945005
0
LINE
5
464
100
AcDbEntity
8
0
100
AcDbLine
62
7
6
CONTINUOUS
10
13.8174937779
20
-191.2749628811
11
12.2265035203
21
-192.0704580099
0
LINE
5
465
100
AcDbEntity
8
0
100
AcDbLine
62
7
6
CONTINUOUS
10
24.7776488863
20
-185.7993771817
11
20.1814548086
21
-188.0974742206
0
LINE
5
466
100
AcDbEntity
8
0
100
AcDbLine
62
7
6
CONTINUOUS
10
26.5454158393
20
-186.6832606582
11
20.1814548086
21
-189.8652411735
0
LINE
5
467
100
AcDbEntity
8
0
100
AcDbLine
62
9
6
CONTINUOUS
10
62.0775315939
20
-170.3014429275
11
63.4917451563
21
-169.5943361463
0
LINE
5
468
100
AcDbEntity
8
0
100
AcDbLine
62
7
6
CONTINUOUS
10
48.9253454639
20
-176.9171782817
11
50.3395590262
21
-176.2100715005
0
LINE
5
469
100
AcDbEntity
8
0
100
AcDbLine
62
7
6
CONTINUOUS
10
20.1814548086
20
-195.9274190000
11
26.5454158393
21
-192.7454384847
0
LINE
5
46A
100
AcDbEntity
8
0
100
AcDbLine
62
9
6
CONTINUOUS
10
12.2265035203
20
-201.2807042380
11
10.8122899579
21
-201.9878110192
0
LINE
5
46B
100
AcDbEntity
8
0
100
AcDbLine
62
7
6
CONTINUOUS
10
48.9253454639
20
-182.9793561082
11
50.3395590262
21
-182.2722493270
0
LINE
5
46C
100
AcDbEntity
8
0
100
AcDbLine
62
7
6
CONTINUOUS
10
12.9336103015
20
-201.7931762512
11
13.8174937779
21
-201.3512345130
0
LINE
5
46D
100
AcDbEntity
8
0
100
AcDbLine
62
7
6
CONTINUOUS
10
-114.8565409625
20
159.9655573038
11
-105.3565409625
21
159.9655573038
0
LINE
5
46E
100
AcDbEntity
8
0
100
AcDbLine
62
7
6
CONTINUOUS
10
-114.8565409625
20
161.2645954095
11
-105.3565409625
21
161.2645954095
0
LINE
5
46F
100
AcDbEntity
8
0
100
AcDbLine
62
7
6
CONTINUOUS
10
-59.3946001853
20
164.4955657981
11
-68.8946001853
21
164.4955657981
0
LINE
5
470
100
AcDbEntity
8
0
100
AcDbLine
62
7
6
CONTINUOUS
10
-33.8946001853
20
165.4465276924
11
-24.3946001853
21
165.4465276924
0
LINE
5
471
100
AcDbEntity
8
0
100
AcDbLine
62
7
6
CONTINUOUS
10
-33.8946001853
20
166.7455657981
11
-24.3946001853
21
166.7455657981
0
LINE
5
472
100
AcDbEntity
8
0
100
AcDbLine
62
7
6
CONTINUOUS
10
-149.8565409625
20
177.4655573038
11
-140.3565409625
21
177.4655573038
0
LINE
5
473
100
AcDbEntity
8
0
100
AcDbLine
62
7
6
CONTINUOUS
10
-149.8565409625
20
178.7645954095
11
-140.3565409625
21
178.7645954095
0
LINE
5
474
100
AcDbEntity
8
0
100
AcDbLine
62
7
6
CONTINUOUS
10
-94.3946001853
20
181.9955657981
11
-103.8946001853
21
181.9955657981
0
LINE
5
475
100
AcDbEntity
8
0
100
AcDbLine
62
7
6
CONTINUOUS
10
-68.8946001853
20
182.9465276924
11
-59.3946001853
21
182.9465276924
0
LINE
5
476
100
AcDbEntity
8
0
100
AcDbLine
62
7
6
CONTINUOUS
10
-68.8946001853
20
184.2455657981
11
-59.3946001853
21
184.2455657981
0
LINE
5
477
100
AcDbEntity
8
0
100
AcDbLine
62
7
6
CONTINUOUS
10
399.7210196105
20
-20.4391380875
11
396.1854857046
21
-18.6713711346
0
LINE
5
478
100
AcDbEntity
8
0
100
AcDbLine
62
9
6
CONTINUOUS
10
-93.1324068765
20
228.1088954995
11
398.3068060481
21
-17.6107109628
0
LINE
5
479
100
AcDbEntity
8
0
100
AcDbLine
62
7
6
CONTINUOUS
10
399.2012332391
20
-17.5539073884
11
-92.2379796855
21
228.1656990740
0
LINE
5
47A
100
AcDbEntity
8
0
100
AcDbLine
62
7
6
CONTINUOUS
10
352.0973778976
20
7.2187485122
11
353.8651448505
21
6.3348650357
0
LINE
5
47B
100
AcDbEntity
8
0
100
AcDbLine
62
9
6
CONTINUOUS
10
54.1225803056
20
156.7536138541
11
336.9652927802
21
15.3322576168
0
LINE
5
47C
100
AcDbEntity
8
0
100
AcDbLine
62
7
6
CONTINUOUS
10
340.2463947112
20
14.8077450729
11
347.9254478886
21
10.9682184842
0
LINE
5
47D
100
AcDbEntity
8
0
100
AcDbLine
62
9
6
CONTINUOUS
10
353.8651448505
20
11.5310174584
11
352.0973778976
21
12.4149009349
0
LINE
5
47E
100
AcDbEntity
8
0
100
AcDbLine
62
7
6
CONTINUOUS
10
53.9458036103
20
162.3819134117
11
55.3600171726
21
161.6748066305
0
LINE
5
47F
100
AcDbEntity
8
0
100
AcDbLine
62
7
6
CONTINUOUS
10
364.5424572465
20
7.2567916744
11
362.7746902935
21
8.1406751509
0
LINE
5
480
100
AcDbEntity
8
0
100
AcDbLine
62
7
6
CONTINUOUS
10
351.7791798460
20
14.7842498614
11
62.5725063408
21
159.3875866141
0
LINE
5
481
100
AcDbEntity
8
0
100
AcDbLine
62
9
6
CONTINUOUS
10
46.1676290172
20
168.2789131780
11
47.5818425796
21
167.5718063968
0
LINE
5
482
100
AcDbEntity
8
0
100
AcDbLine
62
9
6
CONTINUOUS
10
355.2793584129
20
13.9701750472
11
353.5115914600
21
14.8540585237
0
LINE
5
483
100
AcDbEntity
8
0
100
AcDbLine
62
7
6
CONTINUOUS
10
351.7791798460
20
16.5163006690
11
62.5725063408
21
161.1196374216
0
LINE
5
484
100
AcDbEntity
8
0
100
AcDbLine
62
9
6
CONTINUOUS
10
47.5818425796
20
170.7180707667
11
48.9960561420
21
170.0109639855
0
LINE
5
485
100
AcDbEntity
8
0
100
AcDbLine
62
9
6
CONTINUOUS
10
58.1884442974
20
169.4110056405
11
57.6227588724
21
169.6938483530
0
LINE
5
486
100
AcDbEntity
8
0
100
AcDbLine
62
7
6
CONTINUOUS
10
66.9040765850
20
165.4067428873
11
58.8955510786
21
169.4110056405
0
LINE
5
487
100
AcDbEntity
8
0
100
AcDbLine
62
7
6
CONTINUOUS
10
68.3182901474
20
166.1138496685
11
60.3097646410
21
170.1181124217
0
LINE
5
488
100
AcDbEntity
8
0
100
AcDbLine
62
9
6
CONTINUOUS
10
362.2443602076
20
19.6275705062
11
68.7950460152
21
166.3522276024
0
LINE
5
489
100
AcDbEntity
8
0
100
AcDbLine
62
7
6
CONTINUOUS
10
70.1366868017
20
166.4374329641
11
363.4075135712
21
19.8020195793
0
LINE
5
48A
100
AcDbEntity
8
0
100
AcDbLine
62
9
6
CONTINUOUS
10
54.7943317477
20
174.3243153508
11
56.2085453101
21
173.6172085696
0
LINE
5
48B
100
AcDbEntity
8
0
100
AcDbLine
62
7
6
CONTINUOUS
10
55.6887589387
20
174.3811189252
11
57.1029725011
21
173.6740121440
0
LINE
5
48C
100
AcDbEntity
8
0
100
AcDbLine
62
9
6
CONTINUOUS
10
367.7244377618
20
20.1927147216
11
365.9566708088
21
21.0765981981
0
LINE
5
48D
100
AcDbEntity
8
0
100
AcDbLine
62
7
6
CONTINUOUS
10
368.6188649528
20
20.2495182961
11
366.8510979998
21
21.1334017726
0
LINE
5
48E
100
AcDbEntity
8
0
100
AcDbLine
62
7
6
CONTINUOUS
10
193.7424848045
20
-83.7443329341
11
193.7424848045
21
-103.4943329341
0
LINE
5
48F
100
AcDbEntity
8
0
100
AcDbLine
62
7
6
CONTINUOUS
10
195.1638410418
20
56.9663451845
11
195.1638410418
21
37.2163451845
0
LINE
5
490
100
AcDbEntity
8
0
100
AcDbLine
62
7
6
CONTINUOUS
10
198.7399594876
20
-61.2455955926
11
198.7399594876
21
-41.4955955926
0
LINE
5
491
100
AcDbEntity
8
0
100
AcDbLine
62
7
6
CONTINUOUS
10
208.2399594876
20
-41.4955955926
11
208.2399594876
21
-61.2455955926
0
LINE
5
492
100
AcDbEntity
8
0
100
AcDbLine
62
7
6
CONTINUOUS
10
209.7019002647
20
-20.7646252041
11
209.7019002647
21
-1.0146252041
0
LINE
5
493
100
AcDbEntity
8
0
100
AcDbLine
62
7
6
CONTINUOUS
10
12.9336103015
20
-203.5252270588
11
13.8174937779
21
-203.0832853206
0
LINE
5
494
100
AcDbEntity
8
0
100
AcDbLine
62
7
6
CONTINUOUS
10
32.9093768700
20
-193.9801875286
11
30.8587672045
21
-195.0054923614
0
LINE
5
495
100
AcDbEntity
8
0
100
AcDbLine
62
7
6
CONTINUOUS
10
50.5516910606
20
-185.7843873353
11
51.9659046230
21
-185.0772805541
0
LINE
5
496
100
AcDbEntity
8
0
100
AcDbLine
62
7
6
CONTINUOUS
10
24.7776488863
20
-199.6557836423
11
20.1814548086
21
-201.9538806811
0
LINE
5
497
100
AcDbEntity
8
0
100
AcDbLine
62
7
6
CONTINUOUS
10
26.5454158393
20
-200.5396671187
11
20.1814548086
21
-203.7216476341
0
LINE
5
498
100
AcDbEntity
8
0
100
AcDbLine
62
7
6
CONTINUOUS
10
398.3068060481
20
-17.6107109628
11
396.1854857046
21
-18.6713711346
0
LINE
5
499
100
AcDbEntity
8
0
100
AcDbLine
62
7
6
CONTINUOUS
10
90.0082494508
20
-171.7599892615
11
92.1295697943
21
-170.6993290897
0
LINE
5
49A
100
AcDbEntity
8
0
100
AcDbLine
62
7
6
CONTINUOUS
10
29.4445536422
20
-202.6408023728
11
16.9994742933
21
-208.8633420473
0
LINE
5
49B
100
AcDbEntity
8
0
100
AcDbLine
62
7
6
CONTINUOUS
10
398.3068060481
20
-18.9097490685
11
397.4845238102
21
-19.3208901874
0
LINE
5
49C
100
AcDbEntity
8
0
100
AcDbLine
62
7
6
CONTINUOUS
10
90.0082494508
20
-173.0590273671
11
92.1295697943
21
-171.9983671954
0
LINE
5
49D
100
AcDbEntity
8
0
100
AcDbLine
62
9
6
CONTINUOUS
10
399.7210196105
20
-18.6356549892
11
398.6603594387
21
-19.1659850751
0
LINE
5
49E
100
AcDbEntity
8
0
100
AcDbLine
62
9
6
CONTINUOUS
10
88.5940358884
20
-174.1991468502
11
89.6546960602
21
-173.6688167643
0
LINE
5
49F
100
AcDbEntity
8
0
100
AcDbLine
62
7
6
CONTINUOUS
10
90.0082494508
20
-173.9250527709
11
92.9955951981
21
-172.4313798973
0
LINE
5
4A0
100
AcDbEntity
8
0
100
AcDbLine
62
7
6
CONTINUOUS
10
90.0082494508
20
-175.2240908766
11
94.2946333038
21
-173.0808989501
0
LINE
5
4A1
100
AcDbEntity
8
0
100
AcDbLine
62
9
6
CONTINUOUS
10
95.6651037003
20
-172.4670960426
11
399.7210196105
21
-20.4391380875
0
LINE
5
4A2
100
AcDbEntity
8
0
100
AcDbLine
62
9
6
CONTINUOUS
10
97.4328706532
20
-175.5160430286
11
401.4887865635
21
-23.4880850735
0
LINE
5
4A3
100
AcDbEntity
8
0
100
AcDbLine
62
9
6
CONTINUOUS
10
80.4623079048
20
-184.1726890031
11
81.5229680766
21
-183.6423589172
0
LINE
5
4A4
100
AcDbEntity
8
0
100
AcDbLine
62
9
6
CONTINUOUS
10
62.0775315939
20
-202.7472775925
11
63.4917451563
21
-202.0401708113
0
LINE
5
4A5
100
AcDbEntity
8
0
100
AcDbLine
62
7
6
CONTINUOUS
10
-103.8946001853
20
200.4465276924
11
-94.3946001853
21
200.4465276924
0
LINE
5
4A6
100
AcDbEntity
8
0
100
AcDbLine
62
7
6
CONTINUOUS
10
-103.8946001853
20
201.7455657981
11
-94.3946001853
21
201.7455657981
0
LINE
5
4A7
100
AcDbEntity
8
0
100
AcDbLine
62
7
6
CONTINUOUS
10
219.2019002647
20
-1.0146252041
11
219.2019002647
21
-20.7646252041
0
LINE
5
4A8
100
AcDbEntity
8
0
100
AcDbLine
62
7
6
CONTINUOUS
10
220.6638410418
20
19.7163451845
11
220.6638410418
21
39.4663451845
0
LINE
5
4A9
100
AcDbEntity
8
0
100
AcDbLine
62
7
6
CONTINUOUS
10
230.1638410418
20
39.4663451845
11
230.1638410418
21
19.7163451845
0
LINE
5
4AA
100
AcDbEntity
8
0
100
AcDbLine
62
7
6
CONTINUOUS
10
233.7399594876
20
-78.7455955926
11
233.7399594876
21
-58.9955955926
0
LINE
5
4AB
100
AcDbEntity
8
0
100
AcDbLine
62
7
6
CONTINUOUS
10
243.2399594876
20
-58.9955955926
11
243.2399594876
21
-78.7455955926
0
LINE
5
4AC
100
AcDbEntity
8
0
100
AcDbLine
62
7
6
CONTINUOUS
10
244.7019002647
20
-38.2646252041
11
244.7019002647
21
-18.5146252041
0
LINE
5
4AD
100
AcDbEntity
8
0
100
AcDbLine
62
7
6
CONTINUOUS
10
122.1816079948
20
-186.9573729619
11
123.9493749477
21
-186.0734894854
0
LINE
5
4AE
100
AcDbEntity
8
0
100
AcDbLine
62
9
6
CONTINUOUS
10
123.9493749477
20
-186.0734894854
11
374.9722822690
21
-60.5620358248
0
LINE
5
4AF
100
AcDbEntity
8
0
100
AcDbLine
62
7
6
CONTINUOUS
10
374.9722822690
20
-60.5620358248
11
376.7400492219
21
-59.6781523483
0
LINE
5
4B0
100
AcDbEntity
8
0
100
AcDbLine
62
7
6
CONTINUOUS
10
374.4524958976
20
-61.6437834256
11
123.4295885764
21
-187.1552370862
0
LINE
5
4B1
100
AcDbEntity
8
0
100
AcDbLine
62
7
6
CONTINUOUS
10
97.4328706532
20
-225.3125037462
11
108.0394723710
21
-220.0092028873
0
LINE
5
4B2
100
AcDbEntity
8
0
100
AcDbLine
62
7
6
CONTINUOUS
10
390.8821848457
20
-78.5878466500
11
401.4887865635
21
-73.2845457911
0
LINE
5
4B3
100
AcDbEntity
8
0
100
AcDbLine
62
7
6
CONTINUOUS
10
254.2019002647
20
-18.5146252041
11
254.2019002647
21
-38.2646252041
0
LINE
5
4B4
100
AcDbEntity
8
0
100
AcDbLine
62
7
6
CONTINUOUS
10
255.6638410418
20
2.2163451845
11
255.6638410418
21
21.9663451845
0
LINE
5
4B5
100
AcDbEntity
8
0
100
AcDbLine
62
7
6
CONTINUOUS
10
265.1638410418
20
21.9663451845
11
265.1638410418
21
2.2163451845
0
LINE
5
4B6
100
AcDbEntity
8
0
100
AcDbLine
62
7
6
CONTINUOUS
10
279.7019002647
20
-55.7646252041
11
279.7019002647
21
-36.0146252041
0
LINE
5
4B7
100
AcDbEntity
8
0
100
AcDbLine
62
7
6
CONTINUOUS
10
376.3141982954
20
-59.9966366909
11
389.8215246739
21
-78.0575165641
0
LINE
5
4B8
100
AcDbEntity
8
0
100
AcDbLine
62
7
6
CONTINUOUS
10
376.7400492219
20
-59.6781523483
11
390.8821848457
21
-78.5878466500
0
LINE
5
4B9
100
AcDbEntity
8
0
100
AcDbLine
62
7
6
CONTINUOUS
10
289.2019002647
20
-36.0146252041
11
289.2019002647
21
-55.7646252041
0
LINE
5
4BA
100
AcDbEntity
8
0
100
AcDbLine
62
7
6
CONTINUOUS
10
290.6638410418
20
-15.2836548155
11
290.6638410418
21
4.4663451845
0
LINE
5
4BB
100
AcDbEntity
8
0
100
AcDbLine
62
7
6
CONTINUOUS
10
300.1638410418
20
4.4663451845
11
300.1638410418
21
-15.2836548155
0
LINE
5
4BC
100
AcDbEntity
8
0
100
AcDbLine
62
7
6
CONTINUOUS
10
325.6638410418
20
-32.7836548155
11
325.6638410418
21
-13.0336548155
0
LINE
5
4BD
100
AcDbEntity
8
0
100
AcDbLine
62
7
6
CONTINUOUS
10
335.1638410418
20
-13.0336548155
11
335.1638410418
21
-32.7836548155
0
LINE
5
4BE
100
AcDbEntity
8
0
100
AcDbLine
62
9
6
CONTINUOUS
10
336.9652927802
20
15.3322576168
11
336.9652927802
21
13.5640628411
0
LINE
5
4BF
100
AcDbEntity
8
0
100
AcDbLine
62
7
6
CONTINUOUS
10
349.3396614510
20
16.0040090590
11
349.3396614510
21
11.9931625106
0
LINE
5
4C0
100
AcDbEntity
8
0
100
AcDbLine
62
7
6
CONTINUOUS
10
351.1074284039
20
15.1201255825
11
351.1074284039
21
12.8770459871
0
LINE
5
4C1
100
AcDbEntity
8
0
100
AcDbLine
62
9
6
CONTINUOUS
10
351.7791798460
20
16.5163006690
11
351.7791798460
21
14.7842498614
0
LINE
5
4C2
100
AcDbEntity
8
0
100
AcDbLine
62
7
6
CONTINUOUS
10
352.0973778976
20
12.4149009349
11
352.0973778976
21
7.2187485122
0
LINE
5
4C3
100
AcDbEntity
8
0
100
AcDbLine
62
7
6
CONTINUOUS
10
353.8651448505
20
11.5310174584
11
353.8651448505
21
6.3348650357
0
LINE
5
4C4
100
AcDbEntity
8
0
100
AcDbLine
62
9
6
CONTINUOUS
10
356.0218205332
20
16.5163006690
11
356.0218205332
21
16.1091730603
0
LINE
5
4C5
100
AcDbEntity
8
0
100
AcDbLine
62
7
6
CONTINUOUS
10
358.1784962158
20
4.0748111591
11
358.1784962158
21
11.8690397931
0
LINE
5
4C6
100
AcDbEntity
8
0
100
AcDbLine
62
9
6
CONTINUOUS
10
362.2443602076
20
19.2204428975
11
362.2443602076
21
19.6275705062
0
LINE
5
4C7
100
AcDbEntity
8
0
100
AcDbLine
62
7
6
CONTINUOUS
10
362.7746902935
20
14.1671368320
11
362.7746902935
21
8.1406751509
0
LINE
5
4C8
100
AcDbEntity
8
0
100
AcDbLine
62
7
6
CONTINUOUS
10
364.5424572465
20
15.0510203085
11
364.5424572465
21
7.2567916744
0
LINE
5
4C9
100
AcDbEntity
8
0
100
AcDbLine
62
7
6
CONTINUOUS
10
364.5424572465
20
1.1946138479
11
364.5424572465
21
-0.2245193920
0
LINE
5
4CA
100
AcDbEntity
8
0
100
AcDbLine
62
7
6
CONTINUOUS
10
369.1386513242
20
19.1677706953
11
369.1386513242
21
-2.5226164309
0
LINE
5
4CB
100
AcDbEntity
8
0
100
AcDbLine
62
9
6
CONTINUOUS
10
398.3068060481
20
-17.6107109628
11
398.3068060481
21
-18.9097490685
0
LINE
5
4CC
100
AcDbEntity
8
0
100
AcDbLine
62
7
6
CONTINUOUS
10
401.4887865635
20
-73.2845457911
11
401.4887865635
21
-23.4880850735
0
SPLINE
5
4CD
100
AcDbEntity
8
0
100
AcDbSpline
62
7
6
CONTINUOUS
70
0
71
3
72
10
73
6
74
4
42
0.0000001000
43
0.0000001000
44
0.0000000001
12
0.0000000000
22
1.2556165517
32
0.0000000000
13
-1.1290215444
23
0.5710727619
33
0.0000000000
40
0.0000000000
40
0.0000000000
40
0.0000000000
40
0.0000000000
40
0.4031021348
40
0.7465796701
40
1.0000000000
40
1.0000000000
40
1.0000000000
40
1.0000000000
10
57.6227588724
20
172.5922645432
30
0.0000000000
10
57.6227588724
20
172.7609784473
30
0.0000000000
10
57.5863474481
20
173.0760585291
30
0.0000000000
10
57.3991834889
20
173.4631628714
30
0.0000000000
10
57.1977450298
20
173.6257526635
30
0.0000000000
10
57.1023726924
20
173.6739931461
30
0.0000000000
11
57.6227588724
21
172.5922645432
31
0.0000000000
11
57.5533185880
21
173.0936201854
31
0.0000000000
11
57.3526189436
21
173.4753513848
31
0.0000000000
11
57.1023726924
21
173.6739931461
31
0.0000000000
0
SPLINE
5
4CE
100
AcDbEntity
8
0
100
AcDbSpline
62
7
6
CONTINUOUS
70
0
71
3
72
8
73
4
74
2
42
0.0000001000
43
0.0000001000
44
0.0000000001
12
-0.4124881512
22
0.0693280180
32
0.0000000000
13
-0.4059396917
23
0.1035687948
33
0.0000000000
40
0.0000000000
40
0.0000000000
40
0.0000000000
40
0.0000000000
40
1.0000000000
40
1.0000000000
40
1.0000000000
40
1.0000000000
10
352.9453558448
20
14.4228574439
30
0.0000000000
10
352.8078597944
20
14.4459667833
30
0.0000000000
10
352.6712467098
20
14.4745392722
30
0.0000000000
10
352.5359334793
20
14.5090622038
30
0.0000000000
11
352.9453558448
21
14.4228574439
31
0.0000000000
11
352.5359334793
21
14.5090622038
31
0.0000000000
0
SPLINE
5
4CF
100
AcDbEntity
8
0
100
AcDbSpline
62
7
6
CONTINUOUS
70
0
71
3
72
8
73
4
74
2
42
0.0000001000
43
0.0000001000
44
0.0000000001
12
-0.7822585750
22
0.1995803305
32
0.0000000000
13
-0.7202245807
23
0.3601122903
33
0.0000000000
40
0.0000000000
40
0.0000000000
40
0.0000000000
40
0.0000000000
40
1.0000000000
40
1.0000000000
40
1.0000000000
40
1.0000000000
10
352.5359334793
20
14.5090622038
30
0.0000000000
10
352.2751806209
20
14.5755889807
30
0.0000000000
10
352.0192547063
20
14.6642124313
30
0.0000000000
10
351.7791798460
20
14.7842498614
30
0.0000000000
11
352.5359334793
21
14.5090622038
31
0.0000000000
11
351.7791798460
21
14.7842498614
31
0.0000000000
0
SPLINE
5
4D0
100
AcDbEntity
8
0
100
AcDbSpline
62
7
6
CONTINUOUS
70
0
71
3
72
10
73
6
74
4
42
0.0000001000
43
0.0000001000
44
0.0000000001
12
-1.2849367394
22
0.6424683697
32
0.0000000000
13
-0.0001923468
23
1.4623248941
33
0.0000000000
40
0.0000000000
40
0.0000000000
40
0.0000000000
40
0.0000000000
40
0.4653172175
40
0.8367981696
40
1.0000000000
40
1.0000000000
40
1.0000000000
40
1.0000000000
10
62.5725063408
20
159.3875866141
30
0.0000000000
10
62.3732052780
20
159.4872371454
30
0.0000000000
10
62.0312755213
20
159.7050309696
30
0.0000000000
10
61.7338719179
20
160.1080010153
30
0.0000000000
10
61.6966455803
20
160.3686307778
30
0.0000000000
10
61.6966351165
20
160.4481821443
30
0.0000000000
11
62.5725063408
21
159.3875866141
31
0.0000000000
11
62.0217086669
21
159.7663770583
31
0.0000000000
11
61.7307175701
21
160.2137343248
31
0.0000000000
11
61.6966351165
21
160.4481821443
31
0.0000000000
0
SPLINE
5
4D1
100
AcDbEntity
8
0
100
AcDbSpline
62
7
6
CONTINUOUS
70
0
71
3
72
10
73
6
74
4
42
0.0000001000
43
0.0000001000
44
0.0000000001
12
-0.6488279618
22
0.3244139809
32
0.0000000000
13
-0.6488279618
23
-0.3244139809
33
0.0000000000
40
0.0000000000
40
0.0000000000
40
0.0000000000
40
0.0000000000
40
0.3216054138
40
0.6783945862
40
1.0000000000
40
1.0000000000
40
1.0000000000
40
1.0000000000
10
58.8955510786
20
169.4110056405
30
0.0000000000
10
58.8259955502
20
169.4457834047
30
0.0000000000
10
58.6635226556
20
169.4871535540
30
0.0000000000
10
58.4204727204
20
169.4871535540
30
0.0000000000
10
58.2579998258
20
169.4457834047
30
0.0000000000
10
58.1884442974
20
169.4110056405
30
0.0000000000
11
58.8955510786
21
169.4110056405
31
0.0000000000
11
58.6714072105
21
169.4757104018
31
0.0000000000
11
58.4125881654
21
169.4757104018
31
0.0000000000
11
58.1884442974
21
169.4110056405
31
0.0000000000
0
SPLINE
5
4D2
100
AcDbEntity
8
0
100
AcDbSpline
62
7
6
CONTINUOUS
70
0
71
3
72
10
73
6
74
4
42
0.0000001000
43
0.0000001000
44
0.0000000001
12
-0.8294108727
22
0.4195260579
32
0.0000000000
13
-0.8250295812
23
-0.4125147906
33
0.0000000000
40
0.0000000000
40
0.0000000000
40
0.0000000000
40
0.0000000000
40
0.0728150943
40
0.5036319766
40
1.0000000000
40
1.0000000000
40
1.0000000000
40
1.0000000000
10
57.1023726924
20
173.6739931461
30
0.0000000000
10
57.0822414821
20
173.6841757559
30
0.0000000000
10
56.9399670116
20
173.7481981708
30
0.0000000000
10
56.6214353508
20
173.7797907659
30
0.0000000000
10
56.3450514109
20
173.6854616200
30
0.0000000000
10
56.2085453101
20
173.6172085696
30
0.0000000000
11
57.1023726924
21
173.6739931461
31
0.0000000000
11
57.0407220460
21
173.7016827834
31
0.0000000000
11
56.6464075925
21
173.7510299867
31
0.0000000000
11
56.2085453101
21
173.6172085696
31
0.0000000000
0
SPLINE
5
4D3
100
AcDbEntity
8
0
100
AcDbSpline
62
7
6
CONTINUOUS
70
0
71
3
72
12
73
8
74
6
42
0.0000001000
43
0.0000001000
44
0.0000000001
12
-2.6293922999
22
-1.3146961500
32
0.0000000000
13
0.0000000000
23
-2.9397499611
33
0.0000000000
40
0.0000000000
40
0.0000000000
40
0.0000000000
40
0.0000000000
40
0.1812601362
40
0.3827465031
40
0.5943425159
40
0.8043274162
40
1.0000000000
40
1.0000000000
40
1.0000000000
40
1.0000000000
10
48.9960561420
20
170.0109639855
30
0.0000000000
10
48.8371881399
20
169.9315299845
30
0.0000000000
10
48.5285026850
20
169.7091849230
30
0.0000000000
10
48.1428916244
20
169.2678907297
30
0.0000000000
10
47.8355411505
20
168.7358703038
30
0.0000000000
10
47.6348501235
20
168.1617183496
30
0.0000000000
10
47.5818425796
20
167.7635492203
30
0.0000000000
10
47.5818425796
20
167.5718063968
30
0.0000000000
11
48.9960561420
21
170.0109639855
31
0.0000000000
11
48.5583520969
21
169.7070653307
31
0.0000000000
11
48.1647345910
21
169.2644507176
31
0.0000000000
11
47.8526044027
21
168.7263914978
31
0.0000000000
11
47.6513343783
21
168.1428218809
31
0.0000000000
11
47.5818425796
21
167.5718063968
31
0.0000000000
0
SPLINE
5
4D4
100
AcDbEntity
8
0
100
AcDbSpline
62
7
6
CONTINUOUS
70
0
71
3
72
10
73
6
74
4
42
0.0000001000
43
0.0000001000
44
0.0000000001
12
0.8249996675
22
0.4124998338
32
0.0000000000
13
0.8294356848
23
-0.4194917342
33
0.0000000000
40
0.0000000000
40
0.0000000000
40
0.0000000000
40
0.0000000000
40
0.4963089917
40
0.9262338943
40
1.0000000000
40
1.0000000000
40
1.0000000000
40
1.0000000000
10
365.9566708088
20
21.0765981981
30
0.0000000000
10
366.0931557266
20
21.1448406570
30
0.0000000000
10
366.3692520785
20
21.2390638502
30
0.0000000000
10
366.6877207378
20
21.2076610229
30
0.0000000000
10
366.8300522273
20
21.1437156472
30
0.0000000000
10
366.8504469741
20
21.1334008900
30
0.0000000000
11
365.9566708088
21
21.0765981981
31
0.0000000000
11
366.3944610264
21
21.2104123194
31
0.0000000000
11
366.7879752766
21
21.1614131424
31
0.0000000000
11
366.8504469741
21
21.1334008900
31
0.0000000000
0
SPLINE
5
4D5
100
AcDbEntity
8
0
100
AcDbSpline
62
7
6
CONTINUOUS
70
0
71
3
72
12
73
8
74
6
42
0.0000001000
43
0.0000001000
44
0.0000000001
12
0.0000000000
22
2.9397483923
32
0.0000000000
13
2.6293908968
23
1.3146954484
33
0.0000000000
40
0.0000000000
40
0.0000000000
40
0.0000000000
40
0.0000000000
40
0.1956379591
40
0.4051418540
40
0.6167190321
40
0.8185242299
40
1.0000000000
40
1.0000000000
40
1.0000000000
40
1.0000000000
10
352.0973778976
20
12.4149009349
30
0.0000000000
10
352.0973778976
20
12.6066097268
30
0.0000000000
10
352.1503088042
20
13.0042741356
30
0.0000000000
10
352.3506662001
20
13.5779644811
30
0.0000000000
10
352.6576786276
20
14.1099727878
30
0.0000000000
10
353.0434503592
20
14.5518125405
30
0.0000000000
10
353.3525345473
20
14.7745300673
30
0.0000000000
10
353.5115914600
20
14.8540585237
30
0.0000000000
11
352.0973778976
21
12.4149009349
31
0.0000000000
11
352.1668462330
21
12.9858164263
31
0.0000000000
11
352.3675054134
21
13.5681005763
31
0.0000000000
11
352.6793474895
21
14.1062624519
31
0.0000000000
11
353.0734124623
21
14.5497329455
31
0.0000000000
11
353.5115914600
21
14.8540585237
31
0.0000000000
0
SPLINE
5
4D6
100
AcDbEntity
8
0
100
AcDbSpline
62
7
6
CONTINUOUS
70
0
71
3
72
10
73
6
74
4
42
0.0000001000
43
0.0000001000
44
0.0000000001
12
0.8250226519
22
-0.4125113259
32
0.0000000000
13
0.8294058423
23
0.4195090175
33
0.0000000000
40
0.0000000000
40
0.0000000000
40
0.0000000000
40
0.0000000000
40
0.4967107027
40
0.9272706904
40
1.0000000000
40
1.0000000000
40
1.0000000000
40
1.0000000000
10
347.9254478886
20
10.9682184842
30
0.0000000000
10
348.0620470823
20
10.8999188873
30
0.0000000000
10
348.3384807733
20
10.8056028774
30
0.0000000000
10
348.6569874712
20
10.8372761523
30
0.0000000000
10
348.7991607544
20
10.9012595563
30
0.0000000000
10
348.8192681258
20
10.9114297567
30
0.0000000000
11
347.9254478886
21
10.9682184842
31
0.0000000000
11
348.3636268862
21
10.8343650647
31
0.0000000000
11
348.7576918590
21
10.8837705856
31
0.0000000000
11
348.8192681258
21
10.9114297567
31
0.0000000000
0
SPLINE
5
4D7
100
AcDbEntity
8
0
100
AcDbSpline
62
7
6
CONTINUOUS
70
0
71
3
72
10
73
6
74
4
42
0.0000001000
43
0.0000001000
44
0.0000000001
12
1.1290333071
22
0.5710589789
32
0.0000000000
13
0.0000000000
23
1.2556267029
33
0.0000000000
40
0.0000000000
40
0.0000000000
40
0.0000000000
40
0.0000000000
40
0.2534409873
40
0.5968258652
40
1.0000000000
40
1.0000000000
40
1.0000000000
40
1.0000000000
10
348.8192681258
20
10.9114297567
30
0.0000000000
10
348.9146492312
20
10.9596730072
30
0.0000000000
10
349.1160628022
20
11.1222470666
30
0.0000000000
10
349.3032437656
20
11.5093397828
30
0.0000000000
10
349.3396614510
20
11.8244171074
30
0.0000000000
10
349.3396614510
20
11.9931625106
30
0.0000000000
11
348.8192681258
21
10.9114297567
31
0.0000000000
11
349.0695339351
21
11.1100903850
31
0.0000000000
11
349.2701931155
21
11.4917153546
31
0.0000000000
11
349.3396614510
21
11.9931625106
31
0.0000000000
0
SPLINE
5
4D8
100
AcDbEntity
8
0
100
AcDbSpline
62
7
6
CONTINUOUS
70
0
71
3
72
10
73
6
74
4
42
0.0000001000
43
0.0000001000
44
0.0000000001
12
0.8294108727
22
-0.4195260579
32
0.0000000000
13
0.8250295812
23
0.4125147906
33
0.0000000000
40
0.0000000000
40
0.0000000000
40
0.0000000000
40
0.0000000000
40
0.0728150943
40
0.5036319766
40
1.0000000000
40
1.0000000000
40
1.0000000000
40
1.0000000000
10
-290.7433407850
20
-53.1621803979
30
0.0000000000
10
-290.7232095747
20
-53.1723630077
30
0.0000000000
10
-290.5809351042
20
-53.2363854226
30
0.0000000000
10
-290.2624034433
20
-53.2679780178
30
0.0000000000
10
-289.9860195034
20
-53.1736488718
30
0.0000000000
10
-289.8495134026
20
-53.1053958214
30
0.0000000000
11
-290.7433407850
21
-53.1621803979
31
0.0000000000
11
-290.6816901386
21
-53.1898700352
31
0.0000000000
11
-290.2873756851
21
-53.2392172385
31
0.0000000000
11
-289.8495134026
21
-53.1053958214
31
0.0000000000
0
SPLINE
5
4D9
100
AcDbEntity
8
0
100
AcDbSpline
62
7
6
CONTINUOUS
70
0
71
3
72
12
73
8
74
6
42
0.0000001000
43
0.0000001000
44
0.0000000001
12
-3.8043345539
22
1.9021672769
32
0.0000000000
13
-0.2013792747
23
4.2615420418
33
0.0000000000
40
0.0000000000
40
0.0000000000
40
0.0000000000
40
0.0000000000
40
0.2097901947
40
0.4449241888
40
0.6898662439
40
0.9263711231
40
1.0000000000
40
1.0000000000
40
1.0000000000
40
1.0000000000
10
-66.9694559726
20
-127.0417083402
30
0.0000000000
10
-67.2354933349
20
-126.9086896591
30
0.0000000000
10
-67.7494218883
20
-126.5246020901
30
0.0000000000
10
-68.3708354226
20
-125.7601375305
30
0.0000000000
10
-68.8359548957
20
-124.8483987169
30
0.0000000000
10
-69.0409781934
20
-124.0817857850
30
0.0000000000
10
-69.0822941400
20
-123.6421097429
30
0.0000000000
10
-69.0872365833
20
-123.5375188914
30
0.0000000000
11
-66.9694559726
21
-127.0417083402
31
0.0000000000
11
-67.6949902606
21
-126.5222580289
31
0.0000000000
11
-68.3330144056
21
-125.7520947569
31
0.0000000000
11
-68.8065732797
21
-124.8241115810
31
0.0000000000
11
-69.0585486936
21
-123.8502369679
31
0.0000000000
11
-69.0872365833
21
-123.5375188914
31
0.0000000000
0
SPLINE
5
4DA
100
AcDbEntity
8
0
100
AcDbSpline
62
7
6
CONTINUOUS
70
0
71
3
72
9
73
5
74
3
42
0.0000001000
43
0.0000001000
44
0.0000000001
12
-0.0561223770
22
1.1876488755
32
0.0000000000
13
0.5171502220
23
1.0741742155
33
0.0000000000
40
0.0000000000
40
0.0000000000
40
0.0000000000
40
0.0000000000
40
0.4970006921
40
1.0000000000
40
1.0000000000
40
1.0000000000
40
1.0000000000
10
-69.0872365833
20
-123.5375188914
30
0.0000000000
10
-69.0965342033
20
-123.3407647871
30
0.0000000000
10
-69.0805911951
20
-122.9434055508
30
0.0000000000
10
-68.9750236152
20
-122.5547318552
30
0.0000000000
10
-68.8883148807
20
-122.3746288929
30
0.0000000000
11
-69.0872365833
21
-123.5375188914
31
0.0000000000
11
-69.0585486936
21
-122.9479345689
31
0.0000000000
11
-68.8883148807
21
-122.3746288929
31
0.0000000000
0
SPLINE
5
4DB
100
AcDbEntity
8
0
100
AcDbSpline
62
7
6
CONTINUOUS
70
0
71
3
72
12
73
8
74
6
42
0.0000001000
43
0.0000001000
44
0.0000000001
12
-3.8043345539
22
1.9021672769
32
0.0000000000
13
-0.2013792747
23
4.2615420418
33
0.0000000000
40
0.0000000000
40
0.0000000000
40
0.0000000000
40
0.0000000000
40
0.2097901947
40
0.4449241888
40
0.6898662439
40
0.9263711231
40
1.0000000000
40
1.0000000000
40
1.0000000000
40
1.0000000000
10
-66.9694559726
20
-158.2186228765
30
0.0000000000
10
-67.2354933349
20
-158.0856041953
30
0.0000000000
10
-67.7494218883
20
-157.7015166263
30
0.0000000000
10
-68.3708354226
20
-156.9370520668
30
0.0000000000
10
-68.8359548957
20
-156.0253132532
30
0.0000000000
10
-69.0409781934
20
-155.2587003213
30
0.0000000000
10
-69.0822941400
20
-154.8190242791
30
0.0000000000
10
-69.0872365833
20
-154.7144334277
30
0.0000000000
11
-66.9694559726
21
-158.2186228765
31
0.0000000000
11
-67.6949902606
21
-157.6991725652
31
0.0000000000
11
-68.3330144056
21
-156.9290092931
31
0.0000000000
11
-68.8065732797
21
-156.0010261172
31
0.0000000000
11
-69.0585486936
21
-155.0271515042
31
0.0000000000
11
-69.0872365833
21
-154.7144334277
31
0.0000000000
0
SPLINE
5
4DC
100
AcDbEntity
8
0
100
AcDbSpline
62
7
6
CONTINUOUS
70
0
71
3
72
9
73
5
74
3
42
0.0000001000
43
0.0000001000
44
0.0000000001
12
-0.0561223770
22
1.1876488755
32
0.0000000000
13
0.5171502220
23
1.0741742155
33
0.0000000000
40
0.0000000000
40
0.0000000000
40
0.0000000000
40
0.0000000000
40
0.4970006921
40
1.0000000000
40
1.0000000000
40
1.0000000000
40
1.0000000000
10
-69.0872365833
20
-154.7144334277
30
0.0000000000
10
-69.0965342033
20
-154.5176793233
30
0.0000000000
10
-69.0805911951
20
-154.1203200871
30
0.0000000000
10
-68.9750236152
20
-153.7316463914
30
0.0000000000
10
-68.8883148807
20
-153.5515434291
30
0.0000000000
11
-69.0872365833
21
-154.7144334277
31
0.0000000000
11
-69.0585486936
21
-154.1248491051
31
0.0000000000
11
-68.8883148807
21
-153.5515434291
31
0.0000000000
0
SPLINE
5
4DD
100
AcDbEntity
8
0
100
AcDbSpline
62
7
6
CONTINUOUS
70
0
71
3
72
12
73
8
74
6
42
0.0000001000
43
0.0000001000
44
0.0000000001
12
-3.8043345539
22
1.9021672769
32
0.0000000000
13
-0.2013792747
23
4.2615420418
33
0.0000000000
40
0.0000000000
40
0.0000000000
40
0.0000000000
40
0.0000000000
40
0.2097901947
40
0.4449241888
40
0.6898662439
40
0.9263711231
40
1.0000000000
40
1.0000000000
40
1.0000000000
40
1.0000000000
10
-263.5451411425
20
-28.7538657553
30
0.0000000000
10
-263.8111785048
20
-28.6208470742
30
0.0000000000
10
-264.3251070581
20
-28.2367595051
30
0.0000000000
10
-264.9465205925
20
-27.4722949456
30
0.0000000000
10
-265.4116400656
20
-26.5605561320
30
0.0000000000
10
-265.6166633633
20
-25.7939432001
30
0.0000000000
10
-265.6579793098
20
-25.3542671580
30
0.0000000000
10
-265.6629217531
20
-25.2496763065
30
0.0000000000
11
-263.5451411425
21
-28.7538657553
31
0.0000000000
11
-264.2706754304
21
-28.2344154440
31
0.0000000000
11
-264.9086995755
21
-27.4642521719
31
0.0000000000
11
-265.3822584496
21
-26.5362689961
31
0.0000000000
11
-265.6342338634
21
-25.5623943830
31
0.0000000000
11
-265.6629217531
21
-25.2496763065
31
0.0000000000
0
SPLINE
5
4DE
100
AcDbEntity
8
0
100
AcDbSpline
62
7
6
CONTINUOUS
70
0
71
3
72
9
73
5
74
3
42
0.0000001000
43
0.0000001000
44
0.0000000001
12
-0.0561223770
22
1.1876488755
32
0.0000000000
13
0.5171502220
23
1.0741742155
33
0.0000000000
40
0.0000000000
40
0.0000000000
40
0.0000000000
40
0.0000000000
40
0.4970006921
40
1.0000000000
40
1.0000000000
40
1.0000000000
40
1.0000000000
10
-265.6629217531
20
-25.2496763065
30
0.0000000000
10
-265.6722193732
20
-25.0529222021
30
0.0000000000
10
-265.6562763649
20
-24.6555629659
30
0.0000000000
10
-265.5507087851
20
-24.2668892702
30
0.0000000000
10
-265.4640000505
20
-24.0867863079
30
0.0000000000
11
-265.6629217531
21
-25.2496763065
31
0.0000000000
11
-265.6342338634
21
-24.6600919839
31
0.0000000000
11
-265.4640000505
21
-24.0867863079
31
0.0000000000
0
SPLINE
5
4DF
100
AcDbEntity
8
0
100
AcDbSpline
62
7
6
CONTINUOUS
70
0
71
3
72
12
73
8
74
6
42
0.0000001000
43
0.0000001000
44
0.0000000001
12
-3.8043345539
22
1.9021672769
32
0.0000000000
13
-0.2013792747
23
4.2615420418
33
0.0000000000
40
0.0000000000
40
0.0000000000
40
0.0000000000
40
0.0000000000
40
0.2097901947
40
0.4449241888
40
0.6898662439
40
0.9263711231
40
1.0000000000
40
1.0000000000
40
1.0000000000
40
1.0000000000
10
-263.5451411425
20
-59.9307802915
30
0.0000000000
10
-263.8111785048
20
-59.7977616104
30
0.0000000000
10
-264.3251070581
20
-59.4136740414
30
0.0000000000
10
-264.9465205925
20
-58.6492094819
30
0.0000000000
10
-265.4116400656
20
-57.7374706683
30
0.0000000000
10
-265.6166633633
20
-56.9708577363
30
0.0000000000
10
-265.6579793098
20
-56.5311816942
30
0.0000000000
10
-265.6629217531
20
-56.4265908427
30
0.0000000000
11
-263.5451411425
21
-59.9307802915
31
0.0000000000
11
-264.2706754304
21
-59.4113299803
31
0.0000000000
11
-264.9086995755
21
-58.6411667082
31
0.0000000000
11
-265.3822584496
21
-57.7131835323
31
0.0000000000
11
-265.6342338634
21
-56.7393089192
31
0.0000000000
11
-265.6629217531
21
-56.4265908427
31
0.0000000000
0
SPLINE
5
4E0
100
AcDbEntity
8
0
100
AcDbSpline
62
7
6
CONTINUOUS
70
0
71
3
72
9
73
5
74
3
42
0.0000001000
43
0.0000001000
44
0.0000000001
12
-0.0561223770
22
1.1876488755
32
0.0000000000
13
0.5171502220
23
1.0741742155
33
0.0000000000
40
0.0000000000
40
0.0000000000
40
0.0000000000
40
0.0000000000
40
0.4970006921
40
1.0000000000
40
1.0000000000
40
1.0000000000
40
1.0000000000
10
-265.6629217531
20
-56.4265908427
30
0.0000000000
10
-265.6722193732
20
-56.2298367384
30
0.0000000000
10
-265.6562763649
20
-55.8324775021
30
0.0000000000
10
-265.5507087851
20
-55.4438038065
30
0.0000000000
10
-265.4640000505
20
-55.2637008442
30
0.0000000000
11
-265.6629217531
21
-56.4265908427
31
0.0000000000
11
-265.6342338634
21
-55.8370065202
31
0.0000000000
11
-265.4640000505
21
-55.2637008442
31
0.0000000000
0
SPLINE
5
4E1
100
AcDbEntity
8
0
100
AcDbSpline
62
7
6
CONTINUOUS
70
0
71
3
72
9
73
5
74
3
42
0.0000001000
43
0.0000001000
44
0.0000000001
12
-0.2109931099
22
0.1054965549
32
0.0000000000
13
0.0000000000
23
0.2454472409
33
0.0000000000
40
0.0000000000
40
0.0000000000
40
0.0000000000
40
0.0000000000
40
0.7257081148
40
1.0000000000
40
1.0000000000
40
1.0000000000
40
1.0000000000
10
-291.8294123899
20
-5.9514760937
30
0.0000000000
10
-291.8804521940
20
-5.9259561917
30
0.0000000000
10
-291.9559437158
20
-5.8789565409
30
0.0000000000
10
-291.9721932988
20
-5.7971407939
30
0.0000000000
10
-291.9721932988
20
-5.7746993984
30
0.0000000000
11
-291.8294123899
21
-5.9514760937
31
0.0000000000
11
-291.9588219125
21
-5.8394041597
31
0.0000000000
11
-291.9721932988
21
-5.7746993984
31
0.0000000000
0
SPLINE
5
4E2
100
AcDbEntity
8
0
100
AcDbSpline
62
7
6
CONTINUOUS
70
0
71
3
72
8
73
4
74
2
42
0.0000001000
43
0.0000001000
44
0.0000000001
12
-0.5220978522
22
0.1055806749
32
0.0000000000
13
-0.4727733357
23
0.2363866679
33
0.0000000000
40
0.0000000000
40
0.0000000000
40
0.0000000000
40
0.0000000000
40
1.0000000000
40
1.0000000000
40
1.0000000000
40
1.0000000000
10
-115.2599983809
20
-134.0009625648
30
0.0000000000
10
-115.4340309983
20
-133.9657690065
30
0.0000000000
10
-115.6022327626
20
-133.9022344815
30
0.0000000000
10
-115.7598238745
20
-133.8234389255
30
0.0000000000
11
-115.2599983809
21
-134.0009625648
31
0.0000000000
11
-115.7598238745
21
-133.8234389255
31
0.0000000000
0
SPLINE
5
4E3
100
AcDbEntity
8
0
100
AcDbSpline
62
7
6
CONTINUOUS
70
0
71
3
72
8
73
4
74
2
42
0.0000001000
43
0.0000001000
44
0.0000000001
12
-0.5220978522
22
0.1055806749
32
0.0000000000
13
-0.4727733357
23
0.2363866679
33
0.0000000000
40
0.0000000000
40
0.0000000000
40
0.0000000000
40
0.0000000000
40
1.0000000000
40
1.0000000000
40
1.0000000000
40
1.0000000000
10
-115.2599983809
20
-102.8240480285
30
0.0000000000
10
-115.4340309983
20
-102.7888544702
30
0.0000000000
10
-115.6022327626
20
-102.7253199452
30
0.0000000000
10
-115.7598238745
20
-102.6465243893
30
0.0000000000
11
-115.2599983809
21
-102.8240480285
31
0.0000000000
11
-115.7598238745
21
-102.6465243893
31
0.0000000000
0
SPLINE
5
4E4
100
AcDbEntity
8
0
100
AcDbSpline
62
7
6
CONTINUOUS
70
0
71
3
72
8
73
4
74
2
42
0.0000001000
43
0.0000001000
44
0.0000000001
12
-0.5220978522
22
0.1055806749
32
0.0000000000
13
-0.4727733357
23
0.2363866679
33
0.0000000000
40
0.0000000000
40
0.0000000000
40
0.0000000000
40
0.0000000000
40
1.0000000000
40
1.0000000000
40
1.0000000000
40
1.0000000000
10
-13.7901752806
20
-184.7358741149
30
0.0000000000
10
-13.9642078980
20
-184.7006805566
30
0.0000000000
10
-14.1324096623
20
-184.6371460316
30
0.0000000000
10
-14.2900007742
20
-184.5583504757
30
0.0000000000
11
-13.7901752806
21
-184.7358741149
31
0.0000000000
11
-14.2900007742
21
-184.5583504757
31
0.0000000000
0
SPLINE
5
4E5
100
AcDbEntity
8
0
100
AcDbSpline
62
7
6
CONTINUOUS
70
0
71
3
72
8
73
4
74
2
42
0.0000001000
43
0.0000001000
44
0.0000000001
12
-0.5220978522
22
0.1055806749
32
0.0000000000
13
-0.4727733357
23
0.2363866679
33
0.0000000000
40
0.0000000000
40
0.0000000000
40
0.0000000000
40
0.0000000000
40
1.0000000000
40
1.0000000000
40
1.0000000000
40
1.0000000000
10
-13.7901752806
20
-153.5589595787
30
0.0000000000
10
-13.9642078980
20
-153.5237660204
30
0.0000000000
10
-14.1324096623
20
-153.4602314954
30
0.0000000000
10
-14.2900007742
20
-153.3814359394
30
0.0000000000
11
-13.7901752806
21
-153.5589595787
31
0.0000000000
11
-14.2900007742
21
-153.3814359394
31
0.0000000000
0
SPLINE
5
4E6
100
AcDbEntity
8
0
100
AcDbSpline
62
7
6
CONTINUOUS
70
0
71
3
72
9
73
5
74
3
42
0.0000001000
43
0.0000001000
44
0.0000000001
12
0.0000000000
22
-0.6201662296
32
0.0000000000
13
0.5599808860
23
-0.2950503009
33
0.0000000000
40
0.0000000000
40
0.0000000000
40
0.0000000000
40
0.0000000000
40
0.6403297784
40
1.0000000000
40
1.0000000000
40
1.0000000000
40
1.0000000000
10
12.2265035203
20
-201.2807042380
30
0.0000000000
10
12.2265035203
20
-201.4130745395
30
0.0000000000
10
12.2584619054
20
-201.6325382644
30
0.0000000000
10
12.4216486261
20
-201.7842420308
30
0.0000000000
10
12.4887847759
20
-201.8196156332
30
0.0000000000
11
12.2265035203
21
-201.2807042380
31
0.0000000000
11
12.3212378658
21
-201.6663497672
31
0.0000000000
11
12.4887847759
21
-201.8196156332
31
0.0000000000
0
SPLINE
5
4E7
100
AcDbEntity
8
0
100
AcDbSpline
62
7
6
CONTINUOUS
70
0
71
3
72
10
73
6
74
4
42
0.0000001000
43
0.0000001000
44
0.0000000001
12
-1.3100585763
22
-0.6550292881
32
0.0000000000
13
0.0000000000
23
-1.4646900155
33
0.0000000000
40
0.0000000000
40
0.0000000000
40
0.0000000000
40
0.0000000000
40
0.3134156114
40
0.6657095235
40
1.0000000000
40
1.0000000000
40
1.0000000000
40
1.0000000000
10
12.9336103015
20
-156.7598552545
30
0.0000000000
10
12.7967460316
20
-156.8282873894
30
0.0000000000
10
12.5459855576
20
-157.0521976470
30
0.0000000000
10
12.3009600449
20
-157.4802830950
30
0.0000000000
10
12.2265035203
20
-157.8162234078
30
0.0000000000
10
12.2265035203
20
-157.9794340488
30
0.0000000000
11
12.9336103015
21
-156.7598552545
31
0.0000000000
11
12.5800569109
21
-157.0526573535
31
0.0000000000
11
12.3212378658
21
-157.4990541742
31
0.0000000000
11
12.2265035203
21
-157.9794340488
31
0.0000000000
0
SPLINE
5
4E8
100
AcDbEntity
8
0
100
AcDbSpline
62
7
6
CONTINUOUS
70
0
71
3
72
10
73
6
74
4
42
0.0000001000
43
0.0000001000
44
0.0000000001
12
0.0000000000
22
1.2556165517
32
0.0000000000
13
-1.1290215444
23
0.5710727619
33
0.0000000000
40
0.0000000000
40
0.0000000000
40
0.0000000000
40
0.0000000000
40
0.4031021348
40
0.7465796701
40
1.0000000000
40
1.0000000000
40
1.0000000000
40
1.0000000000
10
-281.2228106721
20
3.1694797709
30
0.0000000000
10
-281.2228106721
20
3.3381936751
30
0.0000000000
10
-281.2592220965
20
3.6532737568
30
0.0000000000
10
-281.4463860557
20
4.0403780991
30
0.0000000000
10
-281.6478245147
20
4.2029678912
30
0.0000000000
10
-281.7431968522
20
4.2512083738
30
0.0000000000
11
-281.2228106721
21
3.1694797709
31
0.0000000000
11
-281.2922509566
21
3.6708354131
31
0.0000000000
11
-281.4929506010
21
4.0525666125
31
0.0000000000
11
-281.7431968522
21
4.2512083738
31
0.0000000000
0
SPLINE
5
4E9
100
AcDbEntity
8
0
100
AcDbSpline
62
7
6
CONTINUOUS
70
0
71
3
72
9
73
5
74
3
42
0.0000001000
43
0.0000001000
44
0.0000000001
12
0.0000000000
22
0.1768849861
32
0.0000000000
13
0.1452197591
23
0.1000265026
33
0.0000000000
40
0.0000000000
40
0.0000000000
40
0.0000000000
40
0.0000000000
40
0.3806099539
40
1.0000000000
40
1.0000000000
40
1.0000000000
40
1.0000000000
10
-291.9721932988
20
-5.7746993984
30
0.0000000000
10
-291.9721932988
20
-5.7522580030
30
0.0000000000
10
-291.9604828096
20
-5.6932963409
30
0.0000000000
10
-291.9180046299
20
-5.6524166473
30
0.0000000000
10
-291.8880220721
20
-5.6317648406
30
0.0000000000
11
-291.9721932988
21
-5.7746993984
31
0.0000000000
11
-291.9588219125
21
-5.7099946371
31
0.0000000000
11
-291.8880220721
21
-5.6317648406
31
0.0000000000
0
SPLINE
5
4EA
100
AcDbEntity
8
0
100
AcDbSpline
62
7
6
CONTINUOUS
70
0
71
3
72
8
73
4
74
2
42
0.0000001000
43
0.0000001000
44
0.0000000001
12
0.0562885202
22
0.0387711965
32
0.0000000000
13
0.0589379750
23
0.0294689875
33
0.0000000000
40
0.0000000000
40
0.0000000000
40
0.0000000000
40
0.0000000000
40
1.0000000000
40
1.0000000000
40
1.0000000000
40
1.0000000000
10
-291.8880220721
20
-5.6317648406
30
0.0000000000
10
-291.8692592320
20
-5.6188411085
30
0.0000000000
10
-291.8490583816
20
-5.6077456990
30
0.0000000000
10
-291.8294123899
20
-5.5979227031
30
0.0000000000
11
-291.8880220721
21
-5.6317648406
31
0.0000000000
11
-291.8294123899
21
-5.5979227031
31
0.0000000000
0
SPLINE
5
4EB
100
AcDbEntity
8
0
100
AcDbSpline
62
7
6
CONTINUOUS
70
0
71
3
72
10
73
6
74
4
42
0.0000001000
43
0.0000001000
44
0.0000000001
12
-0.8294108727
22
0.4195260579
32
0.0000000000
13
-0.8250295812
23
-0.4125147906
33
0.0000000000
40
0.0000000000
40
0.0000000000
40
0.0000000000
40
0.0000000000
40
0.0728150943
40
0.5036319766
40
1.0000000000
40
1.0000000000
40
1.0000000000
40
1.0000000000
10
-281.7431968522
20
4.2512083738
30
0.0000000000
10
-281.7633280625
20
4.2613909836
30
0.0000000000
10
-281.9056025330
20
4.3254133985
30
0.0000000000
10
-282.2241341938
20
4.3570059936
30
0.0000000000
10
-282.5005181337
20
4.2626768477
30
0.0000000000
10
-282.6370242345
20
4.1944237973
30
0.0000000000
11
-281.7431968522
21
4.2512083738
31
0.0000000000
11
-281.8048474985
21
4.2788980111
31
0.0000000000
11
-282.1991619521
21
4.3282452144
31
0.0000000000
11
-282.6370242345
21
4.1944237973
31
0.0000000000
0
SPLINE
5
4EC
100
AcDbEntity
8
0
100
AcDbSpline
62
7
6
CONTINUOUS
70
0
71
3
72
10
73
6
74
4
42
0.0000001000
43
0.0000001000
44
0.0000000001
12
0.0000000000
22
-1.2556165517
32
0.0000000000
13
1.1290215444
23
-0.5710727619
33
0.0000000000
40
0.0000000000
40
0.0000000000
40
0.0000000000
40
0.0000000000
40
0.4031021348
40
0.7465796701
40
1.0000000000
40
1.0000000000
40
1.0000000000
40
1.0000000000
10
-291.2637269650
20
-52.0804517950
30
0.0000000000
10
-291.2637269650
20
-52.2491656992
30
0.0000000000
10
-291.2273155406
20
-52.5642457809
30
0.0000000000
10
-291.0401515815
20
-52.9513501232
30
0.0000000000
10
-290.8387131224
20
-53.1139399153
30
0.0000000000
10
-290.7433407850
20
-53.1621803979
30
0.0000000000
11
-291.2637269650
21
-52.0804517950
31
0.0000000000
11
-291.1942866805
21
-52.5818074372
31
0.0000000000
11
-290.9935870361
21
-52.9635386366
31
0.0000000000
11
-290.7433407850
21
-53.1621803979
31
0.0000000000
0
SPLINE
5
4ED
100
AcDbEntity
8
0
100
AcDbSpline
62
7
6
CONTINUOUS
70
0
71
3
72
12
73
8
74
6
42
0.0000001000
43
0.0000001000
44
0.0000000001
12
-2.6293922999
22
-1.3146961500
32
0.0000000000
13
0.0000000000
23
-2.9397499611
33
0.0000000000
40
0.0000000000
40
0.0000000000
40
0.0000000000
40
0.0000000000
40
0.1812601362
40
0.3827465031
40
0.5943425159
40
0.8043274162
40
1.0000000000
40
1.0000000000
40
1.0000000000
40
1.0000000000
10
-289.8495134026
20
0.5881792132
30
0.0000000000
10
-290.0083814047
20
0.5087452122
30
0.0000000000
10
-290.3170668596
20
0.2864001507
30
0.0000000000
10
-290.7026779202
20
-0.1548940426
30
0.0000000000
10
-291.0100283941
20
-0.6869144685
30
0.0000000000
10
-291.2107194211
20
-1.2610664227
30
0.0000000000
10
-291.2637269650
20
-1.6592355520
30
0.0000000000
10
-291.2637269650
20
-1.8509783755
30
0.0000000000
11
-289.8495134026
21
0.5881792132
31
0.0000000000
11
-290.2872174477
21
0.2842805584
31
0.0000000000
11
-290.6808349536
21
-0.1583340547
31
0.0000000000
11
-290.9929651419
21
-0.6963932745
31
0.0000000000
11
-291.1942351663
21
-1.2799628914
31
0.0000000000
11
-291.2637269650
21
-1.8509783755
31
0.0000000000
0
SPLINE
5
4EE
100
AcDbEntity
8
0
100
AcDbSpline
62
7
6
CONTINUOUS
70
0
71
3
72
9
73
5
74
3
42
0.0000001000
43
0.0000001000
44
0.0000000001
12
0.4111363359
22
-0.2166250717
32
0.0000000000
13
0.4072543809
23
0.2036271904
33
0.0000000000
40
0.0000000000
40
0.0000000000
40
0.0000000000
40
0.0000000000
40
0.2121331219
40
1.0000000000
40
1.0000000000
40
1.0000000000
40
1.0000000000
10
12.4887847759
20
-201.8196156332
30
0.0000000000
10
12.5178566541
20
-201.8349334174
30
0.0000000000
10
12.6623650152
20
-201.8901791293
30
0.0000000000
10
12.8266562222
20
-201.8466532908
30
0.0000000000
10
12.9336103015
20
-201.7931762512
30
0.0000000000
11
12.4887847759
21
-201.8196156332
31
0.0000000000
11
12.5800569109
21
-201.8539275428
31
0.0000000000
11
12.9336103015
21
-201.7931762512
31
0.0000000000
0
SPLINE
5
4EF
100
AcDbEntity
8
0
100
AcDbSpline
62
7
6
CONTINUOUS
70
0
71
3
72
9
73
5
74
3
42
0.0000001000
43
0.0000001000
44
0.0000000001
12
-0.3596152459
22
-0.1818914587
32
0.0000000000
13
-0.2309535179
23
-0.3290159556
33
0.0000000000
40
0.0000000000
40
0.0000000000
40
0.0000000000
40
0.0000000000
40
0.7956929504
40
1.0000000000
40
1.0000000000
40
1.0000000000
40
1.0000000000
10
-284.7682813389
20
4.6592421493
30
0.0000000000
10
-284.8636624442
20
4.6109988989
30
0.0000000000
10
-284.9711535262
20
4.5242358200
30
0.0000000000
10
-285.0530966826
20
4.4179761280
30
0.0000000000
10
-285.0688251599
20
4.3955693683
30
0.0000000000
11
-284.7682813389
21
4.6592421493
31
0.0000000000
11
-285.0185471481
21
4.4605815210
31
0.0000000000
11
-285.0688251599
21
4.3955693683
31
0.0000000000
0
SPLINE
5
4F0
100
AcDbEntity
8
0
100
AcDbSpline
62
7
6
CONTINUOUS
70
0
71
3
72
9
73
5
74
3
42
0.0000001000
43
0.0000001000
44
0.0000000001
12
0.2054438369
22
0.1027219185
32
0.0000000000
13
0.2088391124
23
-0.1019065656
33
0.0000000000
40
0.0000000000
40
0.0000000000
40
0.0000000000
40
0.0000000000
40
0.6080938427
40
1.0000000000
40
1.0000000000
40
1.0000000000
40
1.0000000000
10
18.0601344651
20
-146.2853850502
30
0.0000000000
10
18.1017775091
20
-146.2645635282
30
0.0000000000
10
18.1781822436
20
-146.2403283734
30
0.0000000000
10
18.2565705561
20
-146.2583013285
30
0.0000000000
10
18.2838523341
20
-146.2716139320
30
0.0000000000
11
18.0601344651
21
-146.2853850502
31
0.0000000000
11
18.1954334901
21
-146.2506966670
31
0.0000000000
11
18.2838523341
21
-146.2716139320
31
0.0000000000
0
SPLINE
5
4F1
100
AcDbEntity
8
0
100
AcDbSpline
62
7
6
CONTINUOUS
70
0
71
3
72
10
73
6
74
4
42
0.0000001000
43
0.0000001000
44
0.0000000001
12
-1.1291321965
22
0.5710649203
32
0.0000000000
13
0.0000000000
23
1.2556565174
33
0.0000000000
40
0.0000000000
40
0.0000000000
40
0.0000000000
40
0.0000000000
40
0.2526335380
40
0.5964959213
40
1.0000000000
40
1.0000000000
40
1.0000000000
40
1.0000000000
10
14.3379311751
20
-208.0362612627
30
0.0000000000
10
14.2428456212
20
-207.9881712123
30
0.0000000000
10
14.0414259026
20
-207.8258745892
30
0.0000000000
10
13.8539747668
20
-207.4388285682
30
0.0000000000
10
13.8174937779
20
-207.1234020531
30
0.0000000000
10
13.8174937779
20
-206.9545145444
30
0.0000000000
11
14.3379311751
21
-208.0362612627
31
0.0000000000
11
14.0883045356
21
-207.8383957000
31
0.0000000000
11
13.8870887453
21
-207.4563745408
31
0.0000000000
11
13.8174937779
21
-206.9545145444
31
0.0000000000
0
SPLINE
5
4F2
100
AcDbEntity
8
0
100
AcDbSpline
62
7
6
CONTINUOUS
70
0
71
3
72
10
73
6
74
4
42
0.0000001000
43
0.0000001000
44
0.0000000001
12
-1.1907161780
22
0.5467733301
32
0.0000000000
13
-1.1835083416
23
-0.5940417601
33
0.0000000000
40
0.0000000000
40
0.0000000000
40
0.0000000000
40
0.0000000000
40
0.2433484834
40
0.7746551617
40
1.0000000000
40
1.0000000000
40
1.0000000000
40
1.0000000000
10
13.8191612441
20
-161.5655819333
30
0.0000000000
10
13.7225749188
20
-161.5212297797
30
0.0000000000
10
13.4049417889
20
-161.4017937510
30
0.0000000000
10
12.9534068603
20
-161.3586130839
30
0.0000000000
10
12.6366780634
20
-161.4714242462
30
0.0000000000
10
12.5477788981
20
-161.5160456610
30
0.0000000000
11
13.8191612441
21
-161.5655819333
31
0.0000000000
11
13.5198410442
21
-161.4546763422
31
0.0000000000
11
12.8275442843
21
-161.4171335582
31
0.0000000000
11
12.5477788981
21
-161.5160456610
31
0.0000000000
0
SPLINE
5
4F3
100
AcDbEntity
8
0
100
AcDbSpline
62
7
6
CONTINUOUS
70
0
71
3
72
12
73
8
74
6
42
0.0000001000
43
0.0000001000
44
0.0000000001
12
0.0000000000
22
2.9397483923
32
0.0000000000
13
2.6293908968
23
1.3146954484
33
0.0000000000
40
0.0000000000
40
0.0000000000
40
0.0000000000
40
0.0000000000
40
0.1956379591
40
0.4051418540
40
0.6167190321
40
0.8185242299
40
1.0000000000
40
1.0000000000
40
1.0000000000
40
1.0000000000
10
13.8174937779
20
-156.7250411249
30
0.0000000000
10
13.8174937779
20
-156.5333323330
30
0.0000000000
10
13.8704246846
20
-156.1356679242
30
0.0000000000
10
14.0707820805
20
-155.5619775787
30
0.0000000000
10
14.3777945080
20
-155.0299692720
30
0.0000000000
10
14.7635662396
20
-154.5881295193
30
0.0000000000
10
15.0726504276
20
-154.3654119925
30
0.0000000000
10
15.2317073403
20
-154.2858835361
30
0.0000000000
11
13.8174937779
21
-156.7250411249
31
0.0000000000
11
13.8869621134
21
-156.1541256335
31
0.0000000000
11
14.0876212938
21
-155.5718414835
31
0.0000000000
11
14.3994633699
21
-155.0336796080
31
0.0000000000
11
14.7935283427
21
-154.5902091143
31
0.0000000000
11
15.2317073403
21
-154.2858835361
31
0.0000000000
0
SPLINE
5
4F4
100
AcDbEntity
8
0
100
AcDbSpline
62
7
6
CONTINUOUS
70
0
71
3
72
9
73
5
74
3
42
0.0000001000
43
0.0000001000
44
0.0000000001
12
0.0000000000
22
-0.1768849861
32
0.0000000000
13
-0.1452197591
23
-0.1000265026
33
0.0000000000
40
0.0000000000
40
0.0000000000
40
0.0000000000
40
0.0000000000
40
0.3806099539
40
1.0000000000
40
1.0000000000
40
1.0000000000
40
1.0000000000
10
31.2843908259
20
-153.0823587828
30
0.0000000000
10
31.2843908259
20
-153.1048001782
30
0.0000000000
10
31.2726803366
20
-153.1637618403
30
0.0000000000
10
31.2302021569
20
-153.2046415339
30
0.0000000000
10
31.2002195992
20
-153.2252933406
30
0.0000000000
11
31.2843908259
21
-153.0823587828
31
0.0000000000
11
31.2710194396
21
-153.1470635440
31
0.0000000000
11
31.2002195992
21
-153.2252933406
31
0.0000000000
0
SPLINE
5
4F5
100
AcDbEntity
8
0
100
AcDbSpline
62
7
6
CONTINUOUS
70
0
71
3
72
8
73
4
74
2
42
0.0000001000
43
0.0000001000
44
0.0000000001
12
-0.0562885202
22
-0.0387711965
32
0.0000000000
13
-0.0589379750
23
-0.0294689875
33
0.0000000000
40
0.0000000000
40
0.0000000000
40
0.0000000000
40
0.0000000000
40
1.0000000000
40
1.0000000000
40
1.0000000000
40
1.0000000000
10
31.2002195992
20
-153.2252933406
30
0.0000000000
10
31.1814567591
20
-153.2382170727
30
0.0000000000
10
31.1612559087
20
-153.2493124822
30
0.0000000000
10
31.1416099170
20
-153.2591354781
30
0.0000000000
11
31.2002195992
21
-153.2252933406
31
0.0000000000
11
31.1416099170
21
-153.2591354781
31
0.0000000000
0
SPLINE
5
4F6
100
AcDbEntity
8
0
100
AcDbSpline
62
7
6
CONTINUOUS
70
0
71
3
72
10
73
6
74
4
42
0.0000001000
43
0.0000001000
44
0.0000000001
12
0.8249996675
22
0.4124998338
32
0.0000000000
13
0.8294356848
23
-0.4194917342
33
0.0000000000
40
0.0000000000
40
0.0000000000
40
0.0000000000
40
0.0000000000
40
0.4963089917
40
0.9262338943
40
1.0000000000
40
1.0000000000
40
1.0000000000
40
1.0000000000
10
27.6767866892
20
-148.0633438617
30
0.0000000000
10
27.8132716069
20
-147.9951014028
30
0.0000000000
10
28.0893679588
20
-147.9008782096
30
0.0000000000
10
28.4078366182
20
-147.9322810370
30
0.0000000000
10
28.5501681076
20
-147.9962264126
30
0.0000000000
10
28.5705628544
20
-148.0065411698
30
0.0000000000
11
27.6767866892
21
-148.0633438617
31
0.0000000000
11
28.1145769068
21
-147.9295297405
31
0.0000000000
11
28.5080911570
21
-147.9785289175
31
0.0000000000
11
28.5705628544
21
-148.0065411698
31
0.0000000000
0
SPLINE
5
4F7
100
AcDbEntity
8
0
100
AcDbSpline
62
7
6
CONTINUOUS
70
0
71
3
72
9
73
5
74
3
42
0.0000001000
43
0.0000001000
44
0.0000000001
12
0.2109931099
22
-0.1054965549
32
0.0000000000
13
0.0000000000
23
-0.2454472409
33
0.0000000000
40
0.0000000000
40
0.0000000000
40
0.0000000000
40
0.0000000000
40
0.7257081148
40
1.0000000000
40
1.0000000000
40
1.0000000000
40
1.0000000000
10
31.1416099170
20
-152.9055820875
30
0.0000000000
10
31.1926497210
20
-152.9311019895
30
0.0000000000
10
31.2681412428
20
-152.9781016403
30
0.0000000000
10
31.2843908259
20
-153.0599173873
30
0.0000000000
10
31.2843908259
20
-153.0823587828
30
0.0000000000
11
31.1416099170
21
-152.9055820875
31
0.0000000000
11
31.2710194396
21
-153.0176540215
31
0.0000000000
11
31.2843908259
21
-153.0823587828
31
0.0000000000
0
SPLINE
5
4F8
100
AcDbEntity
8
0
100
AcDbSpline
62
7
6
CONTINUOUS
70
0
71
3
72
9
73
5
74
3
42
0.0000001000
43
0.0000001000
44
0.0000000001
12
-0.3624112022
22
-0.1819061014
32
0.0000000000
13
-0.2786343130
23
-0.2897512990
33
0.0000000000
40
0.0000000000
40
0.0000000000
40
0.0000000000
40
0.0000000000
40
0.8610375030
40
1.0000000000
40
1.0000000000
40
1.0000000000
40
1.0000000000
10
12.5477788981
20
-161.5160456610
30
0.0000000000
10
12.4437623526
20
-161.5682549861
30
0.0000000000
10
12.3315898006
20
-161.6464183773
30
0.0000000000
10
12.2363935571
20
-161.7408774823
30
0.0000000000
10
12.2234869838
20
-161.7542990036
30
0.0000000000
11
12.5477788981
21
-161.5160456610
31
0.0000000000
11
12.2631787948
21
-161.7149396157
31
0.0000000000
11
12.2234869838
21
-161.7542990036
31
0.0000000000
0
SPLINE
5
4F9
100
AcDbEntity
8
0
100
AcDbSpline
62
7
6
CONTINUOUS
70
0
71
3
72
10
73
6
74
4
42
0.0000001000
43
0.0000001000
44
0.0000000001
12
0.2331193578
22
-0.1137545207
32
0.0000000000
13
0.0291838676
23
-0.2561082549
33
0.0000000000
40
0.0000000000
40
0.0000000000
40
0.0000000000
40
0.0000000000
40
0.1183893128
40
0.6164887403
40
1.0000000000
40
1.0000000000
40
1.0000000000
40
1.0000000000
10
18.2838523341
20
-146.2716139320
30
0.0000000000
10
18.2930519476
20
-146.2761030385
30
0.0000000000
10
18.3389207654
20
-146.3031910739
30
0.0000000000
10
18.3898098805
20
-146.3781230071
30
0.0000000000
10
18.4068996816
20
-146.4525208284
30
0.0000000000
10
18.4106304622
20
-146.4852609616
30
0.0000000000
11
18.2838523341
21
-146.2716139320
31
0.0000000000
11
18.3101344651
21
-146.2872115342
31
0.0000000000
11
18.3867752063
21
-146.3893705945
31
0.0000000000
11
18.4106304622
21
-146.4852609616
31
0.0000000000
0
SPLINE
5
4FA
100
AcDbEntity
8
0
100
AcDbSpline
62
7
6
CONTINUOUS
70
0
71
3
72
8
73
4
74
2
42
0.0000001000
43
0.0000001000
44
0.0000000001
12
0.0064058481
22
-0.0562156669
32
0.0000000000
13
0.0000000000
23
-0.0562792645
33
0.0000000000
40
0.0000000000
40
0.0000000000
40
0.0000000000
40
0.0000000000
40
1.0000000000
40
1.0000000000
40
1.0000000000
40
1.0000000000
10
18.4106304622
20
-146.4852609616
30
0.0000000000
10
18.4127657449
20
-146.5039995172
30
0.0000000000
10
18.4136878557
20
-146.5228613020
30
0.0000000000
10
18.4136878557
20
-146.5416210568
30
0.0000000000
11
18.4106304622
21
-146.4852609616
31
0.0000000000
11
18.4136878557
21
-146.5416210568
31
0.0000000000
0
SPLINE
5
4FB
100
AcDbEntity
8
0
100
AcDbSpline
62
7
6
CONTINUOUS
70
0
71
3
72
11
73
7
74
5
42
0.0000001000
43
0.0000001000
44
0.0000000001
12
1.0633817816
22
-2.1768877053
32
0.0000000000
13
2.1342670379
23
-1.1592160109
33
0.0000000000
40
0.0000000000
40
0.0000000000
40
0.0000000000
40
0.0000000000
40
0.0359197622
40
0.4619791928
40
0.8559613279
40
1.0000000000
40
1.0000000000
40
1.0000000000
40
1.0000000000
10
12.2242964998
20
-164.9771046500
30
0.0000000000
10
12.2370286400
20
-165.0031690795
30
0.0000000000
10
12.4037385293
20
-165.3369671056
30
0.0000000000
10
12.7819269948
20
-165.9205138075
30
0.0000000000
10
13.3448332808
20
-166.4678064040
30
0.0000000000
10
13.7131855843
20
-166.7027261628
30
0.0000000000
10
13.8156579144
20
-166.7583834744
30
0.0000000000
11
12.2242964998
21
-164.9771046500
31
0.0000000000
11
12.2631787948
21
-165.0549620111
31
0.0000000000
11
12.8275442843
21
-165.9171335582
31
0.0000000000
11
13.5198410442
21
-166.5718875339
31
0.0000000000
11
13.8156579144
21
-166.7583834744
31
0.0000000000
0
SPLINE
5
4FC
100
AcDbEntity
8
0
100
AcDbSpline
62
7
6
CONTINUOUS
70
0
71
3
72
8
73
4
74
2
42
0.0000001000
43
0.0000001000
44
0.0000000001
12
-0.2637401076
22
-0.0123471100
32
0.0000000000
13
-0.2441364601
23
-0.0961770719
33
0.0000000000
40
0.0000000000
40
0.0000000000
40
0.0000000000
40
0.0000000000
40
1.0000000000
40
1.0000000000
40
1.0000000000
40
1.0000000000
10
-284.4503077938
20
4.7399591634
30
0.0000000000
10
-284.5382211630
20
4.7358434601
30
0.0000000000
10
-284.6253262520
20
4.7189603444
30
0.0000000000
10
-284.7067050720
20
4.6869013204
30
0.0000000000
11
-284.4503077938
21
4.7399591634
31
0.0000000000
11
-284.7067050720
21
4.6869013204
31
0.0000000000
0
SPLINE
5
4FD
100
AcDbEntity
8
0
100
AcDbSpline
62
7
6
CONTINUOUS
70
0
71
3
72
8
73
4
74
2
42
0.0000001000
43
0.0000001000
44
0.0000000001
12
-0.0627711730
22
-0.0247285785
32
0.0000000000
13
-0.0603221143
23
-0.0305106012
33
0.0000000000
40
0.0000000000
40
0.0000000000
40
0.0000000000
40
0.0000000000
40
1.0000000000
40
1.0000000000
40
1.0000000000
40
1.0000000000
10
-284.7067050720
20
4.6869013204
30
0.0000000000
10
-284.7276287963
20
4.6786584609
30
0.0000000000
10
-284.7481739674
20
4.6694123497
30
0.0000000000
10
-284.7682813389
20
4.6592421493
30
0.0000000000
11
-284.7067050720
21
4.6869013204
31
0.0000000000
11
-284.7682813389
21
4.6592421493
31
0.0000000000
0
SPLINE
5
4FE
100
AcDbEntity
8
0
100
AcDbSpline
62
7
6
CONTINUOUS
70
0
71
3
72
11
73
7
74
5
42
0.0000001000
43
0.0000001000
44
0.0000000001
12
0.0000000000
22
1.0093149490
32
0.0000000000
13
0.6438944628
23
0.7772493725
33
0.0000000000
40
0.0000000000
40
0.0000000000
40
0.0000000000
40
0.0000000000
40
0.2352255441
40
0.4870808209
40
0.7456501518
40
1.0000000000
40
1.0000000000
40
1.0000000000
40
1.0000000000
10
63.4917451563
20
-169.5943361463
30
0.0000000000
10
63.4917451563
20
-169.5151972603
30
0.0000000000
10
63.5098685639
20
-169.3510960879
30
0.0000000000
10
63.5808657827
20
-169.1093755684
30
0.0000000000
10
63.6921653582
20
-168.8762509525
30
0.0000000000
10
63.7907070606
20
-168.7334572043
30
0.0000000000
10
63.8452985469
20
-168.6675594510
30
0.0000000000
11
63.4917451563
21
-169.5943361463
31
0.0000000000
11
63.5158392356
21
-169.3581452386
31
0.0000000000
11
63.5864795018
21
-169.1139562717
31
0.0000000000
11
63.6988519375
21
-168.8784103200
31
0.0000000000
11
63.8452985469
21
-168.6675594510
31
0.0000000000
0
SPLINE
5
4FF
100
AcDbEntity
8
0
100
AcDbSpline
62
7
6
CONTINUOUS
70
0
71
3
72
8
73
4
74
2
42
0.0000001000
43
0.0000001000
44
0.0000000001
12
-0.6072194024
22
0.1712431522
32
0.0000000000
13
-0.5437914212
23
0.3122364935
33
0.0000000000
40
0.0000000000
40
0.0000000000
40
0.0000000000
40
0.0000000000
40
1.0000000000
40
1.0000000000
40
1.0000000000
40
1.0000000000
10
40.5869786910
20
-177.3499101080
30
0.0000000000
10
40.3845722236
20
-177.2928290573
30
0.0000000000
10
40.1926769683
20
-177.2076361729
30
0.0000000000
10
40.0114131612
20
-177.1035573417
30
0.0000000000
11
40.5869786910
21
-177.3499101080
31
0.0000000000
11
40.0114131612
21
-177.1035573417
31
0.0000000000
0
SPLINE
5
500
100
AcDbEntity
8
0
100
AcDbSpline
62
7
6
CONTINUOUS
70
0
71
3
72
12
73
8
74
6
42
0.0000001000
43
0.0000001000
44
0.0000000001
12
-4.3356352645
22
2.4894536748
32
0.0000000000
13
0.0000000000
23
4.9775753277
33
0.0000000000
40
0.0000000000
40
0.0000000000
40
0.0000000000
40
0.0000000000
40
0.0676354702
40
0.2909754689
40
0.5324993965
40
0.7747301216
40
1.0000000000
40
1.0000000000
40
1.0000000000
40
1.0000000000
10
40.0114131612
20
-177.1035573417
30
0.0000000000
10
39.9136655846
20
-177.0474322184
30
0.0000000000
10
39.5064447980
20
-176.7823484679
30
0.0000000000
10
38.8665643390
20
-176.1602167799
30
0.0000000000
10
38.2235976149
20
-175.1681158952
30
0.0000000000
10
37.7971230205
20
-174.0633468830
30
0.0000000000
10
37.6823476430
20
-173.2863206518
30
0.0000000000
10
37.6823476430
20
-172.9125547222
30
0.0000000000
11
40.0114131612
21
-177.1035573417
31
0.0000000000
11
39.7274640632
21
-176.9201527941
31
0.0000000000
11
38.9197845101
21
-176.1562731557
31
0.0000000000
11
38.2613581057
21
-175.1504063508
31
0.0000000000
11
37.8316007918
21
-174.0238747611
31
0.0000000000
11
37.6823476430
21
-172.9125547222
31
0.0000000000
0
SPLINE
5
501
100
AcDbEntity
8
0
100
AcDbSpline
62
7
6
CONTINUOUS
70
0
71
3
72
11
73
7
74
5
42
0.0000001000
43
0.0000001000
44
0.0000000001
12
-0.4996129752
22
0.2500210619
32
0.0000000000
13
-0.0413318054
23
0.5530162163
33
0.0000000000
40
0.0000000000
40
0.0000000000
40
0.0000000000
40
0.0000000000
40
0.1096683926
40
0.4110129612
40
0.7496676231
40
1.0000000000
40
1.0000000000
40
1.0000000000
40
1.0000000000
10
63.7511708604
20
-202.5806463820
30
0.0000000000
10
63.7329069431
20
-202.5715065793
30
0.0000000000
10
63.6671638816
20
-202.5318218146
30
0.0000000000
10
63.5736068270
20
-202.4251355944
30
0.0000000000
10
63.5140522986
20
-202.2693855348
30
0.0000000000
10
63.4979301788
20
-202.1613080594
30
0.0000000000
10
63.4944812824
20
-202.1151621048
30
0.0000000000
11
63.7511708604
21
-202.5806463820
31
0.0000000000
11
63.6988519375
21
-202.5489898564
31
0.0000000000
11
63.5864795018
21
-202.4258163405
31
0.0000000000
11
63.5158392356
21
-202.2522676397
31
0.0000000000
11
63.4944812824
21
-202.1151621048
31
0.0000000000
0
SPLINE
5
502
100
AcDbEntity
8
0
100
AcDbSpline
62
7
6
CONTINUOUS
70
0
71
3
72
8
73
4
74
2
42
0.0000001000
43
0.0000001000
44
0.0000000001
12
-0.0055992269
22
0.0749172031
32
0.0000000000
13
0.0000000000
23
0.0749543927
33
0.0000000000
40
0.0000000000
40
0.0000000000
40
0.0000000000
40
0.0000000000
40
1.0000000000
40
1.0000000000
40
1.0000000000
40
1.0000000000
10
63.4944812824
20
-202.1151621048
30
0.0000000000
10
63.4926148735
20
-202.0901897038
30
0.0000000000
10
63.4917451563
20
-202.0651556089
30
0.0000000000
10
63.4917451563
20
-202.0401708113
30
0.0000000000
11
63.4944812824
21
-202.1151621048
31
0.0000000000
11
63.4917451563
21
-202.0401708113
31
0.0000000000
0
SPLINE
5
503
100
AcDbEntity
8
0
100
AcDbSpline
62
7
6
CONTINUOUS
70
0
71
3
72
9
73
5
74
3
42
0.0000001000
43
0.0000001000
44
0.0000000001
12
0.0000000000
22
1.3609203003
32
0.0000000000
13
0.6943480489
23
1.1867389516
33
0.0000000000
40
0.0000000000
40
0.0000000000
40
0.0000000000
40
0.0000000000
40
0.7153802274
40
1.0000000000
40
1.0000000000
40
1.0000000000
40
1.0000000000
10
37.6823476430
20
-172.9125547222
30
0.0000000000
10
37.6823476430
20
-172.5880295642
30
0.0000000000
10
37.7395295426
20
-172.1297022505
30
0.0000000000
10
37.9284887973
20
-171.7069669095
30
0.0000000000
10
37.9943638586
20
-171.5943771193
30
0.0000000000
11
37.6823476430
21
-172.9125547222
31
0.0000000000
11
37.8316007918
21
-171.9504878320
31
0.0000000000
11
37.9943638586
21
-171.5943771193
31
0.0000000000
0
SPLINE
5
504
100
AcDbEntity
8
0
100
AcDbSpline
62
7
6
CONTINUOUS
70
0
71
3
72
12
73
8
74
6
42
0.0000001000
43
0.0000001000
44
0.0000000001
12
-0.5426965434
22
-0.9360130800
32
0.0000000000
13
-1.0594775596
23
0.2194249871
33
0.0000000000
40
0.0000000000
40
0.0000000000
40
0.0000000000
40
0.0000000000
40
0.2372720071
40
0.4609986861
40
0.6637828746
40
0.8423739769
40
1.0000000000
40
1.0000000000
40
1.0000000000
40
1.0000000000
10
70.5376867023
20
-203.2582521304
30
0.0000000000
10
70.4947644696
20
-203.3322820312
30
0.0000000000
10
70.3998479802
20
-203.4698537503
30
0.0000000000
10
70.2315509458
20
-203.6418888038
30
0.0000000000
10
70.0495581483
20
-203.7655774425
30
0.0000000000
10
69.8644759051
20
-203.8326757657
30
0.0000000000
10
69.7398003898
20
-203.8341854194
30
0.0000000000
10
69.6841333117
20
-203.8226563900
30
0.0000000000
11
70.5376867023
21
-203.2582521304
31
0.0000000000
11
70.3912400929
21
-203.4691029994
31
0.0000000000
11
70.2206994042
21
-203.6408896475
31
0.0000000000
11
70.0376867023
21
-203.7619050985
31
0.0000000000
11
69.8546740004
21
-203.8239023494
31
0.0000000000
11
69.6841333117
21
-203.8226563900
31
0.0000000000
0
SPLINE
5
505
100
AcDbEntity
8
0
100
AcDbSpline
62
7
6
CONTINUOUS
70
0
71
3
72
8
73
4
74
2
42
0.0000001000
43
0.0000001000
44
0.0000000001
12
-0.0972407734
22
0.0201392236
32
0.0000000000
13
-0.0896703023
23
0.0448736629
33
0.0000000000
40
0.0000000000
40
0.0000000000
40
0.0000000000
40
0.0000000000
40
1.0000000000
40
1.0000000000
40
1.0000000000
40
1.0000000000
10
63.8452985469
20
-202.6133941160
30
0.0000000000
10
63.8128849558
20
-202.6066810415
30
0.0000000000
10
63.7810609612
20
-202.5956042696
30
0.0000000000
10
63.7511708604
20
-202.5806463820
30
0.0000000000
11
63.8452985469
21
-202.6133941160
31
0.0000000000
11
63.7511708604
21
-202.5806463820
31
0.0000000000
0
SPLINE
5
506
100
AcDbEntity
8
0
100
AcDbSpline
62
7
6
CONTINUOUS
70
0
71
3
72
11
73
7
74
5
42
0.0000001000
43
0.0000001000
44
0.0000000001
12
0.0000000000
22
0.6224698684
32
0.0000000000
13
0.4809626744
23
0.4018087334
33
0.0000000000
40
0.0000000000
40
0.0000000000
40
0.0000000000
40
0.0000000000
40
0.2903581857
40
0.6024372972
40
0.9071278692
40
1.0000000000
40
1.0000000000
40
1.0000000000
40
1.0000000000
10
89.6546960602
20
-173.6688167643
30
0.0000000000
10
89.6546960602
20
-173.6085703571
30
0.0000000000
10
89.6754495229
20
-173.4833565181
30
0.0000000000
10
89.7506860220
20
-173.3090946905
30
0.0000000000
10
89.8391733777
20
-173.1898273490
30
0.0000000000
10
89.9002660158
20
-173.1332495659
30
0.0000000000
10
89.9151553586
20
-173.1208106215
30
0.0000000000
11
89.6546960602
21
-173.6688167643
31
0.0000000000
11
89.6814871819
21
-173.4900742064
31
0.0000000000
11
89.7578921058
21
-173.3114708066
31
0.0000000000
11
89.8723516988
21
-173.1602418981
31
0.0000000000
11
89.9151553586
21
-173.1208106215
31
0.0000000000
0
SPLINE
5
507
100
AcDbEntity
8
0
100
AcDbSpline
62
7
6
CONTINUOUS
70
0
71
3
72
8
73
4
74
2
42
0.0000001000
43
0.0000001000
44
0.0000000001
12
0.0862589519
22
0.0720629730
32
0.0000000000
13
0.0998518533
23
0.0499259267
33
0.0000000000
40
0.0000000000
40
0.0000000000
40
0.0000000000
40
0.0000000000
40
1.0000000000
40
1.0000000000
40
1.0000000000
40
1.0000000000
10
89.9151553586
20
-173.1208106215
30
0.0000000000
10
89.9439083425
20
-173.0967896305
30
0.0000000000
10
89.9749654997
20
-173.0756693427
30
0.0000000000
10
90.0082494508
20
-173.0590273671
30
0.0000000000
11
89.9151553586
21
-173.1208106215
31
0.0000000000
11
90.0082494508
21
-173.0590273671
31
0.0000000000
0
SPLINE
5
508
100
AcDbEntity
8
0
100
AcDbSpline
62
7
6
CONTINUOUS
70
0
71
3
72
9
73
5
74
3
42
0.0000001000
43
0.0000001000
44
0.0000000001
12
0.2054484567
22
0.1027242283
32
0.0000000000
13
0.2088588094
23
-0.1019538785
33
0.0000000000
40
0.0000000000
40
0.0000000000
40
0.0000000000
40
0.0000000000
40
0.6105998696
40
1.0000000000
40
1.0000000000
40
1.0000000000
40
1.0000000000
10
398.3068060481
20
-18.9097490685
30
0.0000000000
10
398.3486216484
20
-18.8888412683
30
0.0000000000
10
398.4250978206
20
-18.8646444442
30
0.0000000000
10
398.5034232701
20
-18.8827554852
30
0.0000000000
10
398.5305331527
20
-18.8959891030
30
0.0000000000
11
398.3068060481
21
-18.9097490685
31
0.0000000000
11
398.4427038001
21
-18.8750658475
31
0.0000000000
11
398.5305331527
21
-18.8959891030
31
0.0000000000
0
SPLINE
5
509
100
AcDbEntity
8
0
100
AcDbSpline
62
7
6
CONTINUOUS
70
0
71
3
72
10
73
6
74
4
42
0.0000001000
43
0.0000001000
44
0.0000000001
12
0.0000000000
22
1.4646900155
32
0.0000000000
13
-1.3100585763
23
0.6550292881
33
0.0000000000
40
0.0000000000
40
0.0000000000
40
0.0000000000
40
0.0000000000
40
0.3342904765
40
0.6865843886
40
1.0000000000
40
1.0000000000
40
1.0000000000
40
1.0000000000
10
96.3722104815
20
-174.9857129427
30
0.0000000000
10
96.3722104815
20
-174.8225023017
30
0.0000000000
10
96.2977539568
20
-174.4865619889
30
0.0000000000
10
96.0527284441
20
-174.0584765409
30
0.0000000000
10
95.8019679702
20
-173.8345662833
30
0.0000000000
10
95.6651037003
20
-173.7661341483
30
0.0000000000
11
96.3722104815
21
-174.9857129427
31
0.0000000000
11
96.2774761360
21
-174.5053330681
31
0.0000000000
11
96.0186570909
21
-174.0589362474
31
0.0000000000
11
95.6651037003
21
-173.7661341483
31
0.0000000000
0
SPLINE
5
50A
100
AcDbEntity
8
0
100
AcDbSpline
62
7
6
CONTINUOUS
70
0
71
3
72
10
73
6
74
4
42
0.0000001000
43
0.0000001000
44
0.0000000001
12
-0.2843055610
22
0.1387830119
32
0.0000000000
13
0.0000000000
23
0.3126730474
33
0.0000000000
40
0.0000000000
40
0.0000000000
40
0.0000000000
40
0.0000000000
40
0.0984286346
40
0.5065286782
40
1.0000000000
40
1.0000000000
40
1.0000000000
40
1.0000000000
10
89.7845223463
20
-173.9388127364
30
0.0000000000
10
89.7751944102
20
-173.9342593289
30
0.0000000000
10
89.7292568433
20
-173.9070608971
30
0.0000000000
10
89.6673669821
20
-173.8156033997
30
0.0000000000
10
89.6546960602
20
-173.7202484917
30
0.0000000000
10
89.6546960602
20
-173.6688167643
30
0.0000000000
11
89.7845223463
21
-173.9388127364
31
0.0000000000
11
89.7578921058
21
-173.9229666764
31
0.0000000000
11
89.6814871819
21
-173.8207682006
31
0.0000000000
11
89.6546960602
21
-173.6688167643
31
0.0000000000
0
SPLINE
5
50B
100
AcDbEntity
8
0
100
AcDbSpline
62
7
6
CONTINUOUS
70
0
71
3
72
8
73
4
74
2
42
0.0000001000
43
0.0000001000
44
0.0000000001
12
0.6823012153
22
-0.3411506077
32
0.0000000000
13
0.7705854052
23
-0.0304281208
33
0.0000000000
40
0.0000000000
40
0.0000000000
40
0.0000000000
40
0.0000000000
40
1.0000000000
40
1.0000000000
40
1.0000000000
40
1.0000000000
10
81.5229680766
20
-183.6423589172
30
0.0000000000
10
81.7504018150
20
-183.7560757864
30
0.0000000000
10
82.0017799626
20
-183.8395255930
30
0.0000000000
10
82.2586417643
20
-183.8496682999
30
0.0000000000
11
81.5229680766
21
-183.6423589172
31
0.0000000000
11
82.2586417643
21
-183.8496682999
31
0.0000000000
0
SPLINE
5
50C
100
AcDbEntity
8
0
100
AcDbSpline
62
7
6
CONTINUOUS
70
0
71
3
72
10
73
6
74
4
42
0.0000001000
43
0.0000001000
44
0.0000000001
12
0.2843055610
22
-0.1387830119
32
0.0000000000
13
0.0000000000
23
-0.3126730474
33
0.0000000000
40
0.0000000000
40
0.0000000000
40
0.0000000000
40
0.0000000000
40
0.0984286346
40
0.5065286782
40
1.0000000000
40
1.0000000000
40
1.0000000000
40
1.0000000000
10
398.5305331527
20
-18.8959891030
30
0.0000000000
10
398.5398610887
20
-18.9005425105
30
0.0000000000
10
398.5857986556
20
-18.9277409423
30
0.0000000000
10
398.6476885168
20
-19.0191984397
30
0.0000000000
10
398.6603594387
20
-19.1145533477
30
0.0000000000
10
398.6603594387
20
-19.1659850751
30
0.0000000000
11
398.5305331527
21
-18.8959891030
31
0.0000000000
11
398.5571633931
21
-18.9118351630
31
0.0000000000
11
398.6335683170
21
-19.0140336388
31
0.0000000000
11
398.6603594387
21
-19.1659850751
31
0.0000000000
0
SPLINE
5
50D
100
AcDbEntity
8
0
100
AcDbSpline
62
7
6
CONTINUOUS
70
0
71
3
72
9
73
5
74
3
42
0.0000001000
43
0.0000001000
44
0.0000000001
12
-0.2054484567
22
-0.1027242283
32
0.0000000000
13
-0.2088588094
23
0.1019538785
33
0.0000000000
40
0.0000000000
40
0.0000000000
40
0.0000000000
40
0.0000000000
40
0.6105998696
40
1.0000000000
40
1.0000000000
40
1.0000000000
40
1.0000000000
10
90.0082494508
20
-173.9250527709
30
0.0000000000
10
89.9664338505
20
-173.9459605711
30
0.0000000000
10
89.8899576783
20
-173.9701573952
30
0.0000000000
10
89.8116322288
20
-173.9520463542
30
0.0000000000
10
89.7845223463
20
-173.9388127364
30
0.0000000000
11
90.0082494508
21
-173.9250527709
31
0.0000000000
11
89.8723516988
21
-173.9597359919
31
0.0000000000
11
89.7845223463
21
-173.9388127364
31
0.0000000000
0
SPLINE
5
50E
100
AcDbEntity
8
0
100
AcDbSpline
62
7
6
CONTINUOUS
70
0
71
3
72
11
73
7
74
5
42
0.0000001000
43
0.0000001000
44
0.0000000001
12
0.0000000000
22
-0.6224698684
32
0.0000000000
13
-0.4809626744
23
-0.4018087334
33
0.0000000000
40
0.0000000000
40
0.0000000000
40
0.0000000000
40
0.0000000000
40
0.2903581857
40
0.6024372972
40
0.9071278692
40
1.0000000000
40
1.0000000000
40
1.0000000000
40
1.0000000000
10
398.6603594387
20
-19.1659850751
30
0.0000000000
10
398.6603594387
20
-19.2262314823
30
0.0000000000
10
398.6396059760
20
-19.3514453213
30
0.0000000000
10
398.5643694769
20
-19.5257071489
30
0.0000000000
10
398.4758821212
20
-19.6449744904
30
0.0000000000
10
398.4147894831
20
-19.7015522735
30
0.0000000000
10
398.3999001403
20
-19.7139912179
30
0.0000000000
11
398.6603594387
21
-19.1659850751
31
0.0000000000
11
398.6335683170
21
-19.3447276330
31
0.0000000000
11
398.5571633931
21
-19.5233310328
31
0.0000000000
11
398.4427038001
21
-19.6745599413
31
0.0000000000
11
398.3999001403
21
-19.7139912179
31
0.0000000000
0
SPLINE
5
50F
100
AcDbEntity
8
0
100
AcDbSpline
62
7
6
CONTINUOUS
70
0
71
3
72
12
73
8
74
6
42
0.0000001000
43
0.0000001000
44
0.0000000001
12
0.0000000000
22
2.9397499611
32
0.0000000000
13
2.6293922999
23
1.3146961500
33
0.0000000000
40
0.0000000000
40
0.0000000000
40
0.0000000000
40
0.0000000000
40
0.1956725838
40
0.4056574841
40
0.6172534969
40
0.8187398638
40
1.0000000000
40
1.0000000000
40
1.0000000000
40
1.0000000000
10
46.1676290172
20
168.2789131780
30
0.0000000000
10
46.1676290172
20
168.4706560015
30
0.0000000000
10
46.2206365611
20
168.8688251307
30
0.0000000000
10
46.4213275881
20
169.4429770850
30
0.0000000000
10
46.7286780620
20
169.9749975109
30
0.0000000000
10
47.1142891226
20
170.4162917042
30
0.0000000000
10
47.4229745775
20
170.6386367657
30
0.0000000000
10
47.5818425796
20
170.7180707667
30
0.0000000000
11
46.1676290172
21
168.2789131780
31
0.0000000000
11
46.2371208160
21
168.8499286621
31
0.0000000000
11
46.4383908403
21
169.4334982790
31
0.0000000000
11
46.7505210286
21
169.9715574988
31
0.0000000000
11
47.1441385345
21
170.4141721119
31
0.0000000000
11
47.5818425796
21
170.7180707667
31
0.0000000000
0
SPLINE
5
510
100
AcDbEntity
8
0
100
AcDbSpline
62
7
6
CONTINUOUS
70
0
71
3
72
10
73
6
74
4
42
0.0000001000
43
0.0000001000
44
0.0000000001
12
0.8250295812
22
0.4125147906
32
0.0000000000
13
0.8294108727
23
-0.4195260579
33
0.0000000000
40
0.0000000000
40
0.0000000000
40
0.0000000000
40
0.0000000000
40
0.4963680234
40
0.9271849057
40
1.0000000000
40
1.0000000000
40
1.0000000000
40
1.0000000000
10
54.7943317477
20
174.3243153508
30
0.0000000000
10
54.9308378485
20
174.3925684012
30
0.0000000000
10
55.2072217884
20
174.4868975471
30
0.0000000000
10
55.5257534493
20
174.4553049519
30
0.0000000000
10
55.6680279197
20
174.3912825371
30
0.0000000000
10
55.6881591301
20
174.3810999273
30
0.0000000000
11
54.7943317477
21
174.3243153508
31
0.0000000000
11
55.2321940301
21
174.4581367679
31
0.0000000000
11
55.6265084837
21
174.4087895646
31
0.0000000000
11
55.6881591301
21
174.3810999273
31
0.0000000000
0
SPLINE
5
511
100
AcDbEntity
8
0
100
AcDbSpline
62
7
6
CONTINUOUS
70
0
71
3
72
10
73
6
74
4
42
0.0000001000
43
0.0000001000
44
0.0000000001
12
-2.4508561598
22
1.2254280799
32
0.0000000000
13
-2.6982542954
23
-0.5329756038
33
0.0000000000
40
0.0000000000
40
0.0000000000
40
0.0000000000
40
0.0000000000
40
0.3125617744
40
0.6629409300
40
1.0000000000
40
1.0000000000
40
1.0000000000
40
1.0000000000
10
60.3097646410
20
170.1181124217
30
0.0000000000
10
60.0544166576
20
170.2457864134
30
0.0000000000
10
59.4684283704
20
170.4275006217
30
0.0000000000
10
58.5541756130
20
170.5130713279
30
0.0000000000
10
57.9256833197
20
170.4564830405
30
0.0000000000
10
57.6225262919
20
170.3966016201
30
0.0000000000
11
60.3097646410
21
170.1181124217
31
0.0000000000
11
59.4973863272
21
170.3893515089
31
0.0000000000
11
58.5419976880
21
170.4842289452
31
0.0000000000
11
57.6225262919
21
170.3966016201
31
0.0000000000
0
SPLINE
5
512
100
AcDbEntity
8
0
100
AcDbSpline
62
7
6
CONTINUOUS
70
0
71
3
72
10
73
6
74
4
42
0.0000001000
43
0.0000001000
44
0.0000000001
12
-1.2850396095
22
-0.6425198048
32
0.0000000000
13
0.0001923622
23
-1.4624419657
33
0.0000000000
40
0.0000000000
40
0.0000000000
40
0.0000000000
40
0.0000000000
40
0.4648746133
40
0.8372476564
40
1.0000000000
40
1.0000000000
40
1.0000000000
40
1.0000000000
10
62.5725063408
20
163.2409577652
30
0.0000000000
10
62.3733789102
20
163.1413940499
30
0.0000000000
10
62.0312556386
20
162.9235336899
30
0.0000000000
10
61.7337166369
20
162.5204317358
30
0.0000000000
10
61.6966246807
20
162.2595715709
30
0.0000000000
10
61.6966351165
20
162.1802329518
30
0.0000000000
11
62.5725063408
21
163.2409577652
31
0.0000000000
11
62.0221310256
21
162.8625809486
31
0.0000000000
11
61.7304838295
21
162.4140705199
31
0.0000000000
11
61.6966351165
21
162.1802329518
31
0.0000000000
0
SPLINE
5
513
100
AcDbEntity
8
0
100
AcDbSpline
62
7
6
CONTINUOUS
70
0
71
3
72
9
73
5
74
3
42
0.0000001000
43
0.0000001000
44
0.0000000001
12
-1.2334090077
22
0.6498752152
32
0.0000000000
13
-1.2217631426
23
-0.6108815713
33
0.0000000000
40
0.0000000000
40
0.0000000000
40
0.0000000000
40
0.0000000000
40
0.2121331219
40
1.0000000000
40
1.0000000000
40
1.0000000000
40
1.0000000000
10
70.1295225918
20
166.4315457482
30
0.0000000000
10
70.0423069573
20
166.4774991010
30
0.0000000000
10
69.6087818738
20
166.6432362365
30
0.0000000000
10
69.1159082528
20
166.5126587212
30
0.0000000000
10
68.7950460152
20
166.3522276024
30
0.0000000000
11
70.1295225918
21
166.4315457482
31
0.0000000000
11
69.8557061870
21
166.5344814769
31
0.0000000000
11
68.7950460152
21
166.3522276024
31
0.0000000000
0
SPLINE
5
514
100
AcDbEntity
8
0
100
AcDbSpline
62
7
6
CONTINUOUS
70
0
71
3
72
10
73
6
74
4
42
0.0000001000
43
0.0000001000
44
0.0000000001
12
0.0001923468
22
-1.4623248941
32
0.0000000000
13
1.2849367394
23
-0.6424683697
33
0.0000000000
40
0.0000000000
40
0.0000000000
40
0.0000000000
40
0.0000000000
40
0.1632018304
40
0.5346827825
40
1.0000000000
40
1.0000000000
40
1.0000000000
40
1.0000000000
10
61.6966351165
20
162.1802329518
30
0.0000000000
10
61.6966455803
20
162.1006815854
30
0.0000000000
10
61.7338719179
20
161.8400518229
30
0.0000000000
10
62.0312755213
20
161.4370817771
30
0.0000000000
10
62.3732052780
20
161.2192879530
30
0.0000000000
10
62.5725063408
20
161.1196374216
30
0.0000000000
11
61.6966351165
21
162.1802329518
31
0.0000000000
11
61.7307175701
21
161.9457851324
31
0.0000000000
11
62.0217086669
21
161.4984278659
31
0.0000000000
11
62.5725063408
21
161.1196374216
31
0.0000000000
0
SPLINE
5
515
100
AcDbEntity
8
0
100
AcDbSpline
62
7
6
CONTINUOUS
70
0
71
3
72
12
73
8
74
6
42
0.0000001000
43
0.0000001000
44
0.0000000001
12
3.9025247356
22
-1.9512623678
32
0.0000000000
13
3.9025247356
23
1.9512623678
33
0.0000000000
40
0.0000000000
40
0.0000000000
40
0.0000000000
40
0.0000000000
40
0.1845534954
40
0.3928423052
40
0.6074967740
40
0.8152517781
40
1.0000000000
40
1.0000000000
40
1.0000000000
40
1.0000000000
10
351.7791798460
20
16.5163006690
30
0.0000000000
10
352.0192547063
20
16.3962632389
30
0.0000000000
10
352.5640210142
20
16.2076185287
30
0.0000000000
10
353.4402764369
20
16.0707219849
30
0.0000000000
10
354.3614325263
20
16.0708309681
30
0.0000000000
10
355.2371617878
20
16.2077192591
30
0.0000000000
10
355.7814923646
20
16.3961365847
30
0.0000000000
10
356.0218205332
20
16.5163006690
30
0.0000000000
11
351.7791798460
21
16.5163006690
31
0.0000000000
11
352.5359334793
21
16.2411130114
31
0.0000000000
11
353.4329543366
21
16.0952894133
31
0.0000000000
11
354.3695251117
21
16.0954062837
31
0.0000000000
11
355.2642396446
21
16.2409018321
31
0.0000000000
11
356.0218205332
21
16.5163006690
31
0.0000000000
0
SPLINE
5
516
100
AcDbEntity
8
0
100
AcDbSpline
62
7
6
CONTINUOUS
70
0
71
3
72
9
73
5
74
3
42
0.0000001000
43
0.0000001000
44
0.0000000001
12
-1.1080984026
22
0.3371395041
32
0.0000000000
13
-1.0275199794
23
-0.5137599897
33
0.0000000000
40
0.0000000000
40
0.0000000000
40
0.0000000000
40
0.0000000000
40
0.0631941644
40
1.0000000000
40
1.0000000000
40
1.0000000000
40
1.0000000000
10
363.3756140220
20
19.7909501980
30
0.0000000000
10
363.3522722378
20
19.7980519477
30
0.0000000000
10
362.9797360897
20
19.8978191512
30
0.0000000000
10
362.5652224452
20
19.7880016250
30
0.0000000000
10
362.2443602076
20
19.6275705062
30
0.0000000000
11
363.3756140220
21
19.7909501980
31
0.0000000000
11
363.3050203794
21
19.8098243807
31
0.0000000000
11
362.2443602076
21
19.6275705062
31
0.0000000000
0
SPLINE
5
517
100
AcDbEntity
8
0
100
AcDbSpline
62
7
6
CONTINUOUS
70
0
71
3
72
10
73
6
74
4
42
0.0000001000
43
0.0000001000
44
0.0000000001
12
0.0000000000
22
1.2556565174
32
0.0000000000
13
-1.1291321965
23
0.5710649203
33
0.0000000000
40
0.0000000000
40
0.0000000000
40
0.0000000000
40
0.0000000000
40
0.4035040787
40
0.7473664620
40
1.0000000000
40
1.0000000000
40
1.0000000000
40
1.0000000000
10
369.1386513242
20
19.1677706953
30
0.0000000000
10
369.1386513242
20
19.3366582040
30
0.0000000000
10
369.1021703354
20
19.6520847191
30
0.0000000000
10
368.9147191996
20
20.0391307401
30
0.0000000000
10
368.7132994809
20
20.2014273631
30
0.0000000000
10
368.6182139270
20
20.2495174136
30
0.0000000000
11
369.1386513242
21
19.1677706953
31
0.0000000000
11
369.0690563568
21
19.6696306917
31
0.0000000000
11
368.8678405665
21
20.0516518509
31
0.0000000000
11
368.6182139270
21
20.2495174136
31
0.0000000000
0
SPLINE
5
518
100
AcDbEntity
8
0
100
AcDbSpline
62
7
6
CONTINUOUS
70
0
71
3
72
10
73
6
74
4
42
0.0000001000
43
0.0000001000
44
0.0000000001
12
0.0000000000
22
-1.2556267029
32
0.0000000000
13
-1.1290333071
23
-0.5710589789
33
0.0000000000
40
0.0000000000
40
0.0000000000
40
0.0000000000
40
0.0000000000
40
0.4031741348
40
0.7465590127
40
1.0000000000
40
1.0000000000
40
1.0000000000
40
1.0000000000
10
351.1074284039
20
12.8770459871
30
0.0000000000
10
351.1074284039
20
12.7083005839
30
0.0000000000
10
351.0710107186
20
12.3932232593
30
0.0000000000
10
350.8838297552
20
12.0061305430
30
0.0000000000
10
350.6824161842
20
11.8435564836
30
0.0000000000
10
350.5870350788
20
11.7953132332
30
0.0000000000
11
351.1074284039
21
12.8770459871
31
0.0000000000
11
351.0379600685
21
12.3755988311
31
0.0000000000
11
350.8373008881
21
11.9939738615
31
0.0000000000
11
350.5870350788
21
11.7953132332
31
0.0000000000
0
SPLINE
5
519
100
AcDbEntity
8
0
100
AcDbSpline
62
7
6
CONTINUOUS
70
0
71
3
72
9
73
5
74
3
42
0.0000001000
43
0.0000001000
44
0.0000000001
12
0.9917565917
22
1.3938349114
32
0.0000000000
13
1.5270572074
23
0.7635286037
33
0.0000000000
40
0.0000000000
40
0.0000000000
40
0.0000000000
40
0.0000000000
40
0.4074614763
40
1.0000000000
40
1.0000000000
40
1.0000000000
40
1.0000000000
10
52.8624901546
20
155.6160090550
30
0.0000000000
10
52.9971910229
20
155.8053203985
30
0.0000000000
10
53.3633903620
20
156.2448290804
30
0.0000000000
10
53.8209668978
20
156.6028071502
30
0.0000000000
10
54.1225803056
20
156.7536138541
30
0.0000000000
11
52.8624901546
21
155.6160090550
31
0.0000000000
11
53.3107861554
21
156.1499500032
31
0.0000000000
11
54.1225803056
21
156.7536138541
31
0.0000000000
0
SPLINE
5
51A
100
AcDbEntity
8
0
100
AcDbSpline
62
7
6
CONTINUOUS
70
0
71
3
72
9
73
5
74
3
42
0.0000001000
43
0.0000001000
44
0.0000000001
12
0.9917565917
22
1.3938349114
32
0.0000000000
13
1.5270572074
23
0.7635286037
33
0.0000000000
40
0.0000000000
40
0.0000000000
40
0.0000000000
40
0.0000000000
40
0.4074614763
40
1.0000000000
40
1.0000000000
40
1.0000000000
40
1.0000000000
10
335.7052026292
20
14.1946528177
30
0.0000000000
10
335.8399034976
20
14.3839641612
30
0.0000000000
10
336.2061028366
20
14.8234728431
30
0.0000000000
10
336.6636793724
20
15.1814509129
30
0.0000000000
10
336.9652927802
20
15.3322576168
30
0.0000000000
11
335.7052026292
21
14.1946528177
31
0.0000000000
11
336.1534986300
21
14.7285937659
31
0.0000000000
11
336.9652927802
21
15.3322576168
31
0.0000000000
0
SPLINE
5
51B
100
AcDbEntity
8
0
100
AcDbSpline
62
7
6
CONTINUOUS
70
0
71
3
72
12
73
8
74
6
42
0.0000001000
43
0.0000001000
44
0.0000000001
12
-2.6293908968
22
-1.3146954484
32
0.0000000000
13
0.0000000000
23
-2.9397483923
33
0.0000000000
40
0.0000000000
40
0.0000000000
40
0.0000000000
40
0.0000000000
40
0.1814757701
40
0.3832809679
40
0.5948581460
40
0.8043620409
40
1.0000000000
40
1.0000000000
40
1.0000000000
40
1.0000000000
10
355.2793584129
20
13.9701750472
30
0.0000000000
10
355.1203015003
20
13.8906465909
30
0.0000000000
10
354.8112173122
20
13.6679290641
30
0.0000000000
10
354.4254455806
20
13.2260893113
30
0.0000000000
10
354.1184331531
20
12.6940810047
30
0.0000000000
10
353.9180757572
20
12.1203906591
30
0.0000000000
10
353.8651448505
20
11.7227262503
30
0.0000000000
10
353.8651448505
20
11.5310174584
30
0.0000000000
11
355.2793584129
21
13.9701750472
31
0.0000000000
11
354.8411794153
21
13.6658494690
31
0.0000000000
11
354.4471144425
21
13.2223789754
31
0.0000000000
11
354.1352723664
21
12.6842170998
31
0.0000000000
11
353.9346131860
21
12.1019329499
31
0.0000000000
11
353.8651448505
21
11.5310174584
31
0.0000000000
0
SPLINE
5
51C
100
AcDbEntity
8
0
100
AcDbSpline
62
7
6
CONTINUOUS
70
0
71
3
72
10
73
6
74
4
42
0.0000001000
43
0.0000001000
44
0.0000000001
12
-0.8294356848
22
0.4194917342
32
0.0000000000
13
-0.8249996675
23
-0.4124998338
33
0.0000000000
40
0.0000000000
40
0.0000000000
40
0.0000000000
40
0.0000000000
40
0.0737661057
40
0.5036910083
40
1.0000000000
40
1.0000000000
40
1.0000000000
40
1.0000000000
10
368.6182139270
20
20.2495174136
30
0.0000000000
10
368.5978191802
20
20.2598321708
30
0.0000000000
10
368.4554876908
20
20.3237775464
30
0.0000000000
10
368.1370190314
20
20.3551803738
30
0.0000000000
10
367.8609226795
20
20.2609571805
30
0.0000000000
10
367.7244377618
20
20.1927147216
30
0.0000000000
11
368.6182139270
21
20.2495174136
31
0.0000000000
11
368.5557422296
21
20.2775296659
31
0.0000000000
11
368.1622279794
21
20.3265288429
31
0.0000000000
11
367.7244377618
21
20.1927147216
31
0.0000000000
0
SPLINE
5
51D
100
AcDbEntity
8
0
100
AcDbSpline
62
7
6
CONTINUOUS
70
0
71
3
72
10
73
6
74
4
42
0.0000001000
43
0.0000001000
44
0.0000000001
12
-1.1290215444
22
0.5710727619
32
0.0000000000
13
0.0000000000
23
1.2556165517
33
0.0000000000
40
0.0000000000
40
0.0000000000
40
0.0000000000
40
0.0000000000
40
0.2534203299
40
0.5968978652
40
1.0000000000
40
1.0000000000
40
1.0000000000
40
1.0000000000
10
-292.1575543473
20
-52.4550736167
30
0.0000000000
10
-292.2529266848
20
-52.4068331341
30
0.0000000000
10
-292.4543651439
20
-52.2442433420
30
0.0000000000
10
-292.6415291030
20
-51.8571389997
30
0.0000000000
10
-292.6779405274
20
-51.5420589180
30
0.0000000000
10
-292.6779405274
20
-51.3733450138
30
0.0000000000
11
-292.1575543473
21
-52.4550736167
31
0.0000000000
11
-292.4078005985
21
-52.2564318554
31
0.0000000000
11
-292.6085002429
21
-51.8747006560
31
0.0000000000
11
-292.6779405274
21
-51.3733450138
31
0.0000000000
0
SPLINE
5
51E
100
AcDbEntity
8
0
100
AcDbSpline
62
7
6
CONTINUOUS
70
0
71
3
72
10
73
6
74
4
42
0.0000001000
43
0.0000001000
44
0.0000000001
12
-0.0001923468
22
1.4623248941
32
0.0000000000
13
-1.2849367394
23
0.6424683697
33
0.0000000000
40
0.0000000000
40
0.0000000000
40
0.0000000000
40
0.0000000000
40
0.1632018304
40
0.5346827825
40
1.0000000000
40
1.0000000000
40
1.0000000000
40
1.0000000000
10
20.0320212001
20
-150.8558097963
30
0.0000000000
10
20.0320107364
20
-150.7762584298
30
0.0000000000
10
19.9947843987
20
-150.5156286674
30
0.0000000000
10
19.6973807954
20
-150.1126586216
30
0.0000000000
10
19.3554510387
20
-149.8948647975
30
0.0000000000
10
19.1561499759
20
-149.7952142661
30
0.0000000000
11
20.0320212001
21
-150.8558097963
31
0.0000000000
11
19.9979387465
21
-150.6213619769
31
0.0000000000
11
19.7069476497
21
-150.1740047104
31
0.0000000000
11
19.1561499759
21
-149.7952142661
31
0.0000000000
0
SPLINE
5
51F
100
AcDbEntity
8
0
100
AcDbSpline
62
7
6
CONTINUOUS
70
0
71
3
72
9
73
5
74
3
42
0.0000001000
43
0.0000001000
44
0.0000000001
12
1.2432323871
22
0.6192215683
32
0.0000000000
13
1.2358511721
23
-0.6179255861
33
0.0000000000
40
0.0000000000
40
0.0000000000
40
0.0000000000
40
0.0000000000
40
0.4541345994
40
1.0000000000
40
1.0000000000
40
1.0000000000
40
1.0000000000
10
-266.3013791103
20
-55.3567519145
30
0.0000000000
10
-266.1131808296
20
-55.2630152682
30
0.0000000000
10
-265.6357525797
20
-55.1802487785
30
0.0000000000
10
-265.1842241699
20
-55.3292999175
30
0.0000000000
10
-264.9593547049
20
-55.4417346500
30
0.0000000000
11
-266.3013791103
21
-55.3567519145
31
0.0000000000
11
-265.6848889928
21
-55.2356506733
31
0.0000000000
11
-264.9593547049
21
-55.4417346500
31
0.0000000000
0
SPLINE
5
520
100
AcDbEntity
8
0
100
AcDbSpline
62
7
6
CONTINUOUS
70
0
71
3
72
9
73
5
74
3
42
0.0000001000
43
0.0000001000
44
0.0000000001
12
1.2432323871
22
0.6192215683
32
0.0000000000
13
1.2358511721
23
-0.6179255861
33
0.0000000000
40
0.0000000000
40
0.0000000000
40
0.0000000000
40
0.0000000000
40
0.4541345994
40
1.0000000000
40
1.0000000000
40
1.0000000000
40
1.0000000000
10
-266.3013791103
20
-24.1798373783
30
0.0000000000
10
-266.1131808296
20
-24.0861007320
30
0.0000000000
10
-265.6357525797
20
-24.0033342422
30
0.0000000000
10
-265.1842241699
20
-24.1523853813
30
0.0000000000
10
-264.9593547049
20
-24.2648201138
30
0.0000000000
11
-266.3013791103
21
-24.1798373783
31
0.0000000000
11
-265.6848889928
21
-24.0587361371
31
0.0000000000
11
-264.9593547049
21
-24.2648201138
31
0.0000000000
0
SPLINE
5
521
100
AcDbEntity
8
0
100
AcDbSpline
62
7
6
CONTINUOUS
70
0
71
3
72
9
73
5
74
3
42
0.0000001000
43
0.0000001000
44
0.0000000001
12
1.2432323871
22
0.6192215683
32
0.0000000000
13
1.2358511721
23
-0.6179255861
33
0.0000000000
40
0.0000000000
40
0.0000000000
40
0.0000000000
40
0.0000000000
40
0.4541345994
40
1.0000000000
40
1.0000000000
40
1.0000000000
40
1.0000000000
10
-69.7256939404
20
-153.6445944995
30
0.0000000000
10
-69.5374956597
20
-153.5508578532
30
0.0000000000
10
-69.0600674098
20
-153.4680913634
30
0.0000000000
10
-68.6085390000
20
-153.6171425024
30
0.0000000000
10
-68.3836695350
20
-153.7295772349
30
0.0000000000
11
-69.7256939404
21
-153.6445944995
31
0.0000000000
11
-69.1092038229
21
-153.5234932583
31
0.0000000000
11
-68.3836695350
21
-153.7295772349
31
0.0000000000
0
SPLINE
5
522
100
AcDbEntity
8
0
100
AcDbSpline
62
7
6
CONTINUOUS
70
0
71
3
72
10
73
6
74
4
42
0.0000001000
43
0.0000001000
44
0.0000000001
12
0.8250295812
22
0.4125147906
32
0.0000000000
13
0.8294108727
23
-0.4195260579
33
0.0000000000
40
0.0000000000
40
0.0000000000
40
0.0000000000
40
0.0000000000
40
0.4963680234
40
0.9271849057
40
1.0000000000
40
1.0000000000
40
1.0000000000
40
1.0000000000
10
-284.0512377969
20
4.9015305785
30
0.0000000000
10
-283.9147316961
20
4.9697836289
30
0.0000000000
10
-283.6383477562
20
5.0641127748
30
0.0000000000
10
-283.3198160953
20
5.0325201796
30
0.0000000000
10
-283.1775416248
20
4.9684977648
30
0.0000000000
10
-283.1574104145
20
4.9583151550
30
0.0000000000
11
-284.0512377969
21
4.9015305785
31
0.0000000000
11
-283.6133755145
21
5.0353519956
31
0.0000000000
11
-283.2190610609
21
4.9860047923
31
0.0000000000
11
-283.1574104145
21
4.9583151550
31
0.0000000000
0
SPLINE
5
523
100
AcDbEntity
8
0
100
AcDbSpline
62
7
6
CONTINUOUS
70
0
71
3
72
12
73
8
74
6
42
0.0000001000
43
0.0000001000
44
0.0000000001
12
0.0000000000
22
2.9397499611
32
0.0000000000
13
2.6293922999
23
1.3146961500
33
0.0000000000
40
0.0000000000
40
0.0000000000
40
0.0000000000
40
0.0000000000
40
0.1956725838
40
0.4056574841
40
0.6172534969
40
0.8187398638
40
1.0000000000
40
1.0000000000
40
1.0000000000
40
1.0000000000
10
-292.6779405274
20
-1.1438715943
30
0.0000000000
10
-292.6779405274
20
-0.9521287708
30
0.0000000000
10
-292.6249329835
20
-0.5539596416
30
0.0000000000
10
-292.4242419565
20
0.0201923127
30
0.0000000000
10
-292.1168914826
20
0.5522127386
30
0.0000000000
10
-291.7312804220
20
0.9935069319
30
0.0000000000
10
-291.4225949671
20
1.2158519934
30
0.0000000000
10
-291.2637269650
20
1.2952859944
30
0.0000000000
11
-292.6779405274
21
-1.1438715943
31
0.0000000000
11
-292.6084487286
21
-0.5728561102
31
0.0000000000
11
-292.4071787043
21
0.0107135067
31
0.0000000000
11
-292.0950485160
21
0.5487727265
31
0.0000000000
11
-291.7014310101
21
0.9913873396
31
0.0000000000
11
-291.2637269650
21
1.2952859944
31
0.0000000000
0
SPLINE
5
524
100
AcDbEntity
8
0
100
AcDbSpline
62
7
6
CONTINUOUS
70
0
71
3
72
9
73
5
74
3
42
0.0000001000
43
0.0000001000
44
0.0000000001
12
1.2432323871
22
0.6192215683
32
0.0000000000
13
1.2358511721
23
-0.6179255861
33
0.0000000000
40
0.0000000000
40
0.0000000000
40
0.0000000000
40
0.0000000000
40
0.4541345994
40
1.0000000000
40
1.0000000000
40
1.0000000000
40
1.0000000000
10
-69.7256939404
20
-122.4676799632
30
0.0000000000
10
-69.5374956597
20
-122.3739433169
30
0.0000000000
10
-69.0600674098
20
-122.2911768272
30
0.0000000000
10
-68.6085390000
20
-122.4402279662
30
0.0000000000
10
-68.3836695350
20
-122.5526626987
30
0.0000000000
11
-69.7256939404
21
-122.4676799632
31
0.0000000000
11
-69.1092038229
21
-122.3465787220
31
0.0000000000
11
-68.3836695350
21
-122.5526626987
31
0.0000000000
0
SPLINE
5
525
100
AcDbEntity
8
0
100
AcDbSpline
62
7
6
CONTINUOUS
70
0
71
3
72
9
73
5
74
3
42
0.0000001000
43
0.0000001000
44
0.0000000001
12
-1.0658879393
22
0.5329439696
32
0.0000000000
13
0.0000000000
23
1.1835913106
33
0.0000000000
40
0.0000000000
40
0.0000000000
40
0.0000000000
40
0.0000000000
40
0.5686807464
40
1.0000000000
40
1.0000000000
40
1.0000000000
40
1.0000000000
10
-293.2436259523
20
-49.9598530641
30
0.0000000000
10
-293.4456759353
20
-49.8588280726
30
0.0000000000
10
-293.7901111190
20
-49.6406685980
30
0.0000000000
10
-293.9758589994
20
-49.2461381612
30
0.0000000000
10
-293.9758589994
20
-49.0759695876
30
0.0000000000
11
-293.2436259523
21
-49.9598530641
31
0.0000000000
11
-293.7861041266
21
-49.5536639073
31
0.0000000000
11
-293.9758589994
21
-49.0759695876
31
0.0000000000
0
SPLINE
5
526
100
AcDbEntity
8
0
100
AcDbSpline
62
7
6
CONTINUOUS
70
0
71
3
72
9
73
5
74
3
42
0.0000001000
43
0.0000001000
44
0.0000000001
12
1.2334090077
22
-0.6498752152
32
0.0000000000
13
1.2217631426
23
0.6108815713
33
0.0000000000
40
0.0000000000
40
0.0000000000
40
0.0000000000
40
0.0000000000
40
0.2121331219
40
1.0000000000
40
1.0000000000
40
1.0000000000
40
1.0000000000
10
11.5991337248
20
-203.6045452046
30
0.0000000000
10
11.6863493593
20
-203.6504985574
30
0.0000000000
10
12.1198744428
20
-203.8162356929
30
0.0000000000
10
12.6127480638
20
-203.6856581776
30
0.0000000000
10
12.9336103015
20
-203.5252270588
30
0.0000000000
11
11.5991337248
21
-203.6045452046
31
0.0000000000
11
11.8729501297
21
-203.7074809333
31
0.0000000000
11
12.9336103015
21
-203.5252270588
31
0.0000000000
0
SPLINE
5
527
100
AcDbEntity
8
0
100
AcDbSpline
62
7
6
CONTINUOUS
70
0
71
3
72
9
73
5
74
3
42
0.0000001000
43
0.0000001000
44
0.0000000001
12
0.0000000000
22
-1.8604986888
32
0.0000000000
13
1.6799426581
23
-0.8851509027
33
0.0000000000
40
0.0000000000
40
0.0000000000
40
0.0000000000
40
0.0000000000
40
0.6403297784
40
1.0000000000
40
1.0000000000
40
1.0000000000
40
1.0000000000
10
-282.6370242345
20
-55.2631539230
30
0.0000000000
10
-282.6370242345
20
-55.6602648274
30
0.0000000000
10
-282.5411490792
20
-56.3186560020
30
0.0000000000
10
-282.0515889170
20
-56.7737673013
30
0.0000000000
10
-281.8501804676
20
-56.8798881084
30
0.0000000000
11
-282.6370242345
21
-55.2631539230
31
0.0000000000
11
-282.3528211980
21
-56.4200905105
31
0.0000000000
11
-281.8501804676
21
-56.8798881084
31
0.0000000000
0
SPLINE
5
528
100
AcDbEntity
8
0
100
AcDbSpline
62
7
6
CONTINUOUS
70
0
71
3
72
9
73
5
74
3
42
0.0000001000
43
0.0000001000
44
0.0000000001
12
0.0000000000
22
1.1835913106
32
0.0000000000
13
1.0658879393
23
0.5329439696
33
0.0000000000
40
0.0000000000
40
0.0000000000
40
0.0000000000
40
0.0000000000
40
0.4313192536
40
1.0000000000
40
1.0000000000
40
1.0000000000
40
1.0000000000
10
-293.9758589994
20
-5.7746993984
30
0.0000000000
10
-293.9758589994
20
-5.6045308249
30
0.0000000000
10
-293.7901111190
20
-5.2100003880
30
0.0000000000
10
-293.4456759353
20
-4.9918409134
30
0.0000000000
10
-293.2436259523
20
-4.8908159219
30
0.0000000000
11
-293.9758589994
21
-5.7746993984
31
0.0000000000
11
-293.7861041266
21
-5.2970050788
31
0.0000000000
11
-293.2436259523
21
-4.8908159219
31
0.0000000000
0
SPLINE
5
529
100
AcDbEntity
8
0
100
AcDbSpline
62
7
6
CONTINUOUS
70
0
71
3
72
9
73
5
74
3
42
0.0000001000
43
0.0000001000
44
0.0000000001
12
-2.6163554119
22
-1.3081777059
32
0.0000000000
13
-1.0481598456
23
-2.7529892680
33
0.0000000000
40
0.0000000000
40
0.0000000000
40
0.0000000000
40
0.0000000000
40
0.4707993507
40
1.0000000000
40
1.0000000000
40
1.0000000000
40
1.0000000000
10
-280.5157038910
20
-8.3031473507
30
0.0000000000
10
-280.9262967007
20
-8.5084437555
30
0.0000000000
10
-281.6785781225
20
-9.1801745284
30
0.0000000000
10
-282.1679255744
20
-10.0351162072
30
0.0000000000
10
-282.3528211980
20
-10.5207441099
30
0.0000000000
11
-280.5157038910
21
-8.3031473507
31
0.0000000000
11
-281.5763640627
21
-9.1815536479
31
0.0000000000
11
-282.3528211980
21
-10.5207441099
31
0.0000000000
0
SPLINE
5
52A
100
AcDbEntity
8
0
100
AcDbSpline
62
7
6
CONTINUOUS
70
0
71
3
72
8
73
4
74
2
42
0.0000001000
43
0.0000001000
44
0.0000000001
12
-0.5263404560
22
-1.3824319189
32
0.0000000000
13
0.0000000000
23
-1.4688957695
33
0.0000000000
40
0.0000000000
40
0.0000000000
40
0.0000000000
40
0.0000000000
40
1.0000000000
40
1.0000000000
40
1.0000000000
40
1.0000000000
10
-282.3528211980
20
-10.5207441099
30
0.0000000000
10
-282.5282680167
20
-10.9815547495
30
0.0000000000
10
-282.6370242345
20
-11.4722518107
30
0.0000000000
10
-282.6370242345
20
-11.9618837338
30
0.0000000000
11
-282.3528211980
21
-10.5207441099
31
0.0000000000
11
-282.6370242345
21
-11.9618837338
31
0.0000000000
0
SPLINE
5
52B
100
AcDbEntity
8
0
100
AcDbSpline
62
7
6
CONTINUOUS
70
0
71
3
72
12
73
8
74
6
42
0.0000001000
43
0.0000001000
44
0.0000000001
12
-3.9025247356
22
1.9512623678
32
0.0000000000
13
-3.9025247356
23
-1.9512623678
33
0.0000000000
40
0.0000000000
40
0.0000000000
40
0.0000000000
40
0.0000000000
40
0.1845534954
40
0.3928423052
40
0.6074967740
40
0.8152517781
40
1.0000000000
40
1.0000000000
40
1.0000000000
40
1.0000000000
10
-270.0505235294
20
-5.1918775135
30
0.0000000000
10
-270.2905983896
20
-5.0718400833
30
0.0000000000
10
-270.8353646976
20
-4.8831953731
30
0.0000000000
10
-271.7116201203
20
-4.7462988294
30
0.0000000000
10
-272.6327762096
20
-4.7464078126
30
0.0000000000
10
-273.5085054712
20
-4.8832961036
30
0.0000000000
10
-274.0528360479
20
-5.0717134291
30
0.0000000000
10
-274.2931642165
20
-5.1918775135
30
0.0000000000
11
-270.0505235294
21
-5.1918775135
31
0.0000000000
11
-270.8072771626
21
-4.9166898559
31
0.0000000000
11
-271.7042980199
21
-4.7708662578
31
0.0000000000
11
-272.6408687950
21
-4.7709831281
31
0.0000000000
11
-273.5355833280
21
-4.9164786765
31
0.0000000000
11
-274.2931642165
21
-5.1918775135
31
0.0000000000
0
SPLINE
5
52C
100
AcDbEntity
8
0
100
AcDbSpline
62
7
6
CONTINUOUS
70
0
71
3
72
15
73
11
74
9
42
0.0000001000
43
0.0000001000
44
0.0000000001
12
5.6237249578
22
-2.8118624789
32
0.0000000000
13
-5.6573130820
23
-2.8177598295
33
0.0000000000
40
0.0000000000
40
0.0000000000
40
0.0000000000
40
0.0000000000
40
0.1419187625
40
0.3009820854
40
0.4666803603
40
0.6266710587
40
0.7701780414
40
0.8917858587
40
0.9961709149
40
1.0000000000
40
1.0000000000
40
1.0000000000
40
1.0000000000
10
-15.7042143366
20
-148.8923902979
30
0.0000000000
10
-15.4381769743
20
-149.0254089790
30
0.0000000000
10
-14.9242484209
20
-149.4094965481
30
0.0000000000
10
-14.3028348866
20
-150.1739611076
30
0.0000000000
10
-13.8377154135
20
-151.0856999212
30
0.0000000000
10
-13.5815322742
20
-152.0436071916
30
0.0000000000
10
-13.5640897991
20
-152.9447733834
30
0.0000000000
10
-13.7959439800
20
-153.7041248322
30
0.0000000000
10
-14.1520926753
20
-154.0659524948
30
0.0000000000
10
-14.3549691535
20
-154.1699289754
30
0.0000000000
10
-14.3621899312
20
-154.1735254561
30
0.0000000000
11
-15.7042143366
21
-148.8923902979
31
0.0000000000
11
-14.9786800487
21
-149.4118406092
31
0.0000000000
11
-14.3406559036
21
-150.1820038813
31
0.0000000000
11
-13.8670970295
21
-151.1099870571
31
0.0000000000
11
-13.6151216156
21
-152.0838616702
31
0.0000000000
11
-13.6151216156
21
-152.9861640693
31
0.0000000000
11
-13.8670970295
21
-153.7080632685
31
0.0000000000
11
-14.3406559036
21
-154.1624875703
31
0.0000000000
11
-14.3621899312
21
-154.1735254561
31
0.0000000000
0
SPLINE
5
52D
100
AcDbEntity
8
0
100
AcDbSpline
62
7
6
CONTINUOUS
70
0
71
3
72
15
73
11
74
9
42
0.0000001000
43
0.0000001000
44
0.0000000001
12
5.6237249578
22
-2.8118624789
32
0.0000000000
13
-5.6573130820
23
-2.8177598294
33
0.0000000000
40
0.0000000000
40
0.0000000000
40
0.0000000000
40
0.0000000000
40
0.1419187625
40
0.3009820854
40
0.4666803603
40
0.6266710587
40
0.7701780414
40
0.8917858587
40
0.9961709149
40
1.0000000000
40
1.0000000000
40
1.0000000000
40
1.0000000000
10
-15.7042143366
20
-180.0693048341
30
0.0000000000
10
-15.4381769743
20
-180.2023235153
30
0.0000000000
10
-14.9242484209
20
-180.5864110843
30
0.0000000000
10
-14.3028348866
20
-181.3508756438
30
0.0000000000
10
-13.8377154135
20
-182.2626144574
30
0.0000000000
10
-13.5815322742
20
-183.2205217278
30
0.0000000000
10
-13.5640897991
20
-184.1216879197
30
0.0000000000
10
-13.7959439800
20
-184.8810393685
30
0.0000000000
10
-14.1520926753
20
-185.2428670310
30
0.0000000000
10
-14.3549691535
20
-185.3468435117
30
0.0000000000
10
-14.3621899312
20
-185.3504399923
30
0.0000000000
11
-15.7042143366
21
-180.0693048341
31
0.0000000000
11
-14.9786800487
21
-180.5887551454
31
0.0000000000
11
-14.3406559036
21
-181.3589184175
31
0.0000000000
11
-13.8670970295
21
-182.2869015934
31
0.0000000000
11
-13.6151216156
21
-183.2607762064
31
0.0000000000
11
-13.6151216156
21
-184.1630786055
31
0.0000000000
11
-13.8670970295
21
-184.8849778047
31
0.0000000000
11
-14.3406559036
21
-185.3394021065
31
0.0000000000
11
-14.3621899312
21
-185.3504399923
31
0.0000000000
0
SPLINE
5
52E
100
AcDbEntity
8
0
100
AcDbSpline
62
7
6
CONTINUOUS
70
0
71
3
72
15
73
11
74
9
42
0.0000001000
43
0.0000001000
44
0.0000000001
12
5.6237249578
22
-2.8118624789
32
0.0000000000
13
-5.6573130820
23
-2.8177598294
33
0.0000000000
40
0.0000000000
40
0.0000000000
40
0.0000000000
40
0.0000000000
40
0.1419187625
40
0.3009820854
40
0.4666803603
40
0.6266710587
40
0.7701780414
40
0.8917858587
40
0.9961709149
40
1.0000000000
40
1.0000000000
40
1.0000000000
40
1.0000000000
10
-117.1740374369
20
-98.1574787478
30
0.0000000000
10
-116.9080000746
20
-98.2904974289
30
0.0000000000
10
-116.3940715212
20
-98.6745849979
30
0.0000000000
10
-115.7726579869
20
-99.4390495574
30
0.0000000000
10
-115.3075385138
20
-100.3507883710
30
0.0000000000
10
-115.0513553745
20
-101.3086956415
30
0.0000000000
10
-115.0339128994
20
-102.2098618333
30
0.0000000000
10
-115.2657670803
20
-102.9692132821
30
0.0000000000
10
-115.6219157756
20
-103.3310409446
30
0.0000000000
10
-115.8247922538
20
-103.4350174253
30
0.0000000000
10
-115.8320130314
20
-103.4386139060
30
0.0000000000
11
-117.1740374369
21
-98.1574787478
31
0.0000000000
11
-116.4485031489
21
-98.6769290590
31
0.0000000000
11
-115.8104790039
21
-99.4470923311
31
0.0000000000
11
-115.3369201298
21
-100.3750755070
31
0.0000000000
11
-115.0849447159
21
-101.3489501201
31
0.0000000000
11
-115.0849447159
21
-102.2512525191
31
0.0000000000
11
-115.3369201298
21
-102.9731517183
31
0.0000000000
11
-115.8104790039
21
-103.4275760201
31
0.0000000000
11
-115.8320130314
21
-103.4386139060
31
0.0000000000
0
SPLINE
5
52F
100
AcDbEntity
8
0
100
AcDbSpline
62
7
6
CONTINUOUS
70
0
71
3
72
15
73
11
74
9
42
0.0000001000
43
0.0000001000
44
0.0000000001
12
5.6237249578
22
-2.8118624789
32
0.0000000000
13
-5.6573130820
23
-2.8177598294
33
0.0000000000
40
0.0000000000
40
0.0000000000
40
0.0000000000
40
0.0000000000
40
0.1419187625
40
0.3009820854
40
0.4666803603
40
0.6266710587
40
0.7701780414
40
0.8917858587
40
0.9961709149
40
1.0000000000
40
1.0000000000
40
1.0000000000
40
1.0000000000
10
-117.1740374369
20
-129.3343932840
30
0.0000000000
10
-116.9080000746
20
-129.4674119651
30
0.0000000000
10
-116.3940715212
20
-129.8514995342
30
0.0000000000
10
-115.7726579869
20
-130.6159640937
30
0.0000000000
10
-115.3075385138
20
-131.5277029073
30
0.0000000000
10
-115.0513553745
20
-132.4856101777
30
0.0000000000
10
-115.0339128994
20
-133.3867763695
30
0.0000000000
10
-115.2657670803
20
-134.1461278183
30
0.0000000000
10
-115.6219157756
20
-134.5079554809
30
0.0000000000
10
-115.8247922538
20
-134.6119319615
30
0.0000000000
10
-115.8320130314
20
-134.6155284422
30
0.0000000000
11
-117.1740374369
21
-129.3343932840
31
0.0000000000
11
-116.4485031489
21
-129.8538435953
31
0.0000000000
11
-115.8104790039
21
-130.6240068674
31
0.0000000000
11
-115.3369201298
21
-131.5519900432
31
0.0000000000
11
-115.0849447159
21
-132.5258646563
31
0.0000000000
11
-115.0849447159
21
-133.4281670554
31
0.0000000000
11
-115.3369201298
21
-134.1500662546
31
0.0000000000
11
-115.8104790039
21
-134.6044905564
31
0.0000000000
11
-115.8320130314
21
-134.6155284422
31
0.0000000000
0
SPLINE
5
530
100
AcDbEntity
8
0
100
AcDbSpline
62
7
6
CONTINUOUS
70
0
71
3
72
9
73
5
74
3
42
0.0000001000
43
0.0000001000
44
0.0000000001
12
-1.2432323871
22
-0.6192215683
32
0.0000000000
13
-1.2358511721
23
0.6179255861
33
0.0000000000
40
0.0000000000
40
0.0000000000
40
0.0000000000
40
0.0000000000
40
0.4541345994
40
1.0000000000
40
1.0000000000
40
1.0000000000
40
1.0000000000
10
-14.3621899312
20
-154.1735254561
30
0.0000000000
10
-14.5503882119
20
-154.2672621024
30
0.0000000000
10
-15.0278164618
20
-154.3500285922
30
0.0000000000
10
-15.4793448716
20
-154.2009774531
30
0.0000000000
10
-15.7042143366
20
-154.0885427206
30
0.0000000000
11
-14.3621899312
21
-154.1735254561
31
0.0000000000
11
-14.9786800487
21
-154.2946266973
31
0.0000000000
11
-15.7042143366
21
-154.0885427206
31
0.0000000000
0
SPLINE
5
531
100
AcDbEntity
8
0
100
AcDbSpline
62
7
6
CONTINUOUS
70
0
71
3
72
9
73
5
74
3
42
0.0000001000
43
0.0000001000
44
0.0000000001
12
-1.2432323871
22
-0.6192215683
32
0.0000000000
13
-1.2358511721
23
0.6179255861
33
0.0000000000
40
0.0000000000
40
0.0000000000
40
0.0000000000
40
0.0000000000
40
0.4541345994
40
1.0000000000
40
1.0000000000
40
1.0000000000
40
1.0000000000
10
-14.3621899312
20
-185.3504399923
30
0.0000000000
10
-14.5503882119
20
-185.4441766386
30
0.0000000000
10
-15.0278164618
20
-185.5269431284
30
0.0000000000
10
-15.4793448716
20
-185.3778919894
30
0.0000000000
10
-15.7042143366
20
-185.2654572569
30
0.0000000000
11
-14.3621899312
21
-185.3504399923
31
0.0000000000
11
-14.9786800487
21
-185.4715412335
31
0.0000000000
11
-15.7042143366
21
-185.2654572569
31
0.0000000000
0
SPLINE
5
532
100
AcDbEntity
8
0
100
AcDbSpline
62
7
6
CONTINUOUS
70
0
71
3
72
15
73
11
74
9
42
0.0000001000
43
0.0000001000
44
0.0000000001
12
-5.6237249578
22
2.8118624789
32
0.0000000000
13
5.6573130820
23
2.8177598295
33
0.0000000000
40
0.0000000000
40
0.0000000000
40
0.0000000000
40
0.0000000000
40
0.1419187625
40
0.3009820854
40
0.4666803603
40
0.6266710587
40
0.7701780414
40
0.8917858587
40
0.9961709149
40
1.0000000000
40
1.0000000000
40
1.0000000000
40
1.0000000000
10
-68.3836695350
20
-127.7488151214
30
0.0000000000
10
-68.6497068973
20
-127.6157964403
30
0.0000000000
10
-69.1636354507
20
-127.2317088712
30
0.0000000000
10
-69.7850489850
20
-126.4672443117
30
0.0000000000
10
-70.2501684581
20
-125.5555054981
30
0.0000000000
10
-70.5063515974
20
-124.5975982277
30
0.0000000000
10
-70.5237940725
20
-123.6964320359
30
0.0000000000
10
-70.2919398916
20
-122.9370805871
30
0.0000000000
10
-69.9357911963
20
-122.5752529245
30
0.0000000000
10
-69.7329147181
20
-122.4712764439
30
0.0000000000
10
-69.7256939404
20
-122.4676799632
30
0.0000000000
11
-68.3836695350
21
-127.7488151214
31
0.0000000000
11
-69.1092038229
21
-127.2293648101
31
0.0000000000
11
-69.7472279680
21
-126.4592015381
31
0.0000000000
11
-70.2207868421
21
-125.5312183622
31
0.0000000000
11
-70.4727622560
21
-124.5573437491
31
0.0000000000
11
-70.4727622560
21
-123.6550413500
31
0.0000000000
11
-70.2207868421
21
-122.9331421508
31
0.0000000000
11
-69.7472279680
21
-122.4787178490
31
0.0000000000
11
-69.7256939404
21
-122.4676799632
31
0.0000000000
0
SPLINE
5
533
100
AcDbEntity
8
0
100
AcDbSpline
62
7
6
CONTINUOUS
70
0
71
3
72
9
73
5
74
3
42
0.0000001000
43
0.0000001000
44
0.0000000001
12
-1.0658879393
22
0.5329439696
32
0.0000000000
13
0.0000000000
23
1.1835913106
33
0.0000000000
40
0.0000000000
40
0.0000000000
40
0.0000000000
40
0.0000000000
40
0.5686807464
40
1.0000000000
40
1.0000000000
40
1.0000000000
40
1.0000000000
10
-293.2436259523
20
-6.6585828749
30
0.0000000000
10
-293.4456759353
20
-6.5575578834
30
0.0000000000
10
-293.7901111190
20
-6.3393984088
30
0.0000000000
10
-293.9758589994
20
-5.9448679720
30
0.0000000000
10
-293.9758589994
20
-5.7746993984
30
0.0000000000
11
-293.2436259523
21
-6.6585828749
31
0.0000000000
11
-293.7861041266
21
-6.2523937180
31
0.0000000000
11
-293.9758589994
21
-5.7746993984
31
0.0000000000
0
SPLINE
5
534
100
AcDbEntity
8
0
100
AcDbSpline
62
7
6
CONTINUOUS
70
0
71
3
72
9
73
5
74
3
42
0.0000001000
43
0.0000001000
44
0.0000000001
12
-1.2432323871
22
-0.6192215683
32
0.0000000000
13
-1.2358511721
23
0.6179255861
33
0.0000000000
40
0.0000000000
40
0.0000000000
40
0.0000000000
40
0.0000000000
40
0.4541345994
40
1.0000000000
40
1.0000000000
40
1.0000000000
40
1.0000000000
10
-115.8320130314
20
-134.6155284422
30
0.0000000000
10
-116.0202113121
20
-134.7092650885
30
0.0000000000
10
-116.4976395621
20
-134.7920315783
30
0.0000000000
10
-116.9491679718
20
-134.6429804392
30
0.0000000000
10
-117.1740374369
20
-134.5305457067
30
0.0000000000
11
-115.8320130314
21
-134.6155284422
31
0.0000000000
11
-116.4485031489
21
-134.7366296834
31
0.0000000000
11
-117.1740374369
21
-134.5305457067
31
0.0000000000
0
SPLINE
5
535
100
AcDbEntity
8
0
100
AcDbSpline
62
7
6
CONTINUOUS
70
0
71
3
72
15
73
11
74
9
42
0.0000001000
43
0.0000001000
44
0.0000000001
12
-5.6237249578
22
2.8118624789
32
0.0000000000
13
5.6573130820
23
2.8177598295
33
0.0000000000
40
0.0000000000
40
0.0000000000
40
0.0000000000
40
0.0000000000
40
0.1419187625
40
0.3009820854
40
0.4666803603
40
0.6266710587
40
0.7701780414
40
0.8917858587
40
0.9961709149
40
1.0000000000
40
1.0000000000
40
1.0000000000
40
1.0000000000
10
-68.3836695350
20
-158.9257296577
30
0.0000000000
10
-68.6497068973
20
-158.7927109765
30
0.0000000000
10
-69.1636354507
20
-158.4086234075
30
0.0000000000
10
-69.7850489850
20
-157.6441588480
30
0.0000000000
10
-70.2501684581
20
-156.7324200344
30
0.0000000000
10
-70.5063515974
20
-155.7745127640
30
0.0000000000
10
-70.5237940725
20
-154.8733465721
30
0.0000000000
10
-70.2919398916
20
-154.1139951233
30
0.0000000000
10
-69.9357911963
20
-153.7521674608
30
0.0000000000
10
-69.7329147181
20
-153.6481909801
30
0.0000000000
10
-69.7256939404
20
-153.6445944995
30
0.0000000000
11
-68.3836695350
21
-158.9257296577
31
0.0000000000
11
-69.1092038229
21
-158.4062793464
31
0.0000000000
11
-69.7472279680
21
-157.6361160743
31
0.0000000000
11
-70.2207868421
21
-156.7081328984
31
0.0000000000
11
-70.4727622560
21
-155.7342582854
31
0.0000000000
11
-70.4727622560
21
-154.8319558863
31
0.0000000000
11
-70.2207868421
21
-154.1100566871
31
0.0000000000
11
-69.7472279680
21
-153.6556323853
31
0.0000000000
11
-69.7256939404
21
-153.6445944995
31
0.0000000000
0
SPLINE
5
536
100
AcDbEntity
8
0
100
AcDbSpline
62
7
6
CONTINUOUS
70
0
71
3
72
10
73
6
74
4
42
0.0000001000
43
0.0000001000
44
0.0000000001
12
-3.9301757288
22
-1.9650878644
32
0.0000000000
13
0.0000000000
23
-4.3940700466
33
0.0000000000
40
0.0000000000
40
0.0000000000
40
0.0000000000
40
0.0000000000
40
0.3134156114
40
0.6657095235
40
1.0000000000
40
1.0000000000
40
1.0000000000
40
1.0000000000
10
12.9336103015
20
-155.0278044469
30
0.0000000000
10
12.5230174918
20
-155.2331008517
30
0.0000000000
10
11.7707360699
20
-155.9048316246
30
0.0000000000
10
11.0356595318
20
-157.1890879685
30
0.0000000000
10
10.8122899579
20
-158.1969089069
30
0.0000000000
10
10.8122899579
20
-158.6865408300
30
0.0000000000
11
12.9336103015
21
-155.0278044469
31
0.0000000000
11
11.8729501297
21
-155.9062107441
31
0.0000000000
11
11.0964929944
21
-157.2454012061
31
0.0000000000
11
10.8122899579
21
-158.6865408300
31
0.0000000000
0
SPLINE
5
537
100
AcDbEntity
8
0
100
AcDbSpline
62
7
6
CONTINUOUS
70
0
71
3
72
15
73
11
74
9
42
0.0000001000
43
0.0000001000
44
0.0000000001
12
-5.6237249578
22
2.8118624789
32
0.0000000000
13
5.6573130820
23
2.8177598294
33
0.0000000000
40
0.0000000000
40
0.0000000000
40
0.0000000000
40
0.0000000000
40
0.1419187625
40
0.3009820854
40
0.4666803603
40
0.6266710587
40
0.7701780414
40
0.8917858587
40
0.9961709149
40
1.0000000000
40
1.0000000000
40
1.0000000000
40
1.0000000000
10
-264.9593547049
20
-29.4609725365
30
0.0000000000
10
-265.2253920671
20
-29.3279538553
30
0.0000000000
10
-265.7393206205
20
-28.9438662863
30
0.0000000000
10
-266.3607341549
20
-28.1794017268
30
0.0000000000
10
-266.8258536279
20
-27.2676629132
30
0.0000000000
10
-267.0820367672
20
-26.3097556428
30
0.0000000000
10
-267.0994792423
20
-25.4085894510
30
0.0000000000
10
-266.8676250615
20
-24.6492380022
30
0.0000000000
10
-266.5114763661
20
-24.2874103396
30
0.0000000000
10
-266.3085998879
20
-24.1834338590
30
0.0000000000
10
-266.3013791103
20
-24.1798373783
30
0.0000000000
11
-264.9593547049
21
-29.4609725365
31
0.0000000000
11
-265.6848889928
21
-28.9415222252
31
0.0000000000
11
-266.3229131379
21
-28.1713589531
31
0.0000000000
11
-266.7964720119
21
-27.2433757773
31
0.0000000000
11
-267.0484474258
21
-26.2695011642
31
0.0000000000
11
-267.0484474258
21
-25.3671987651
31
0.0000000000
11
-266.7964720119
21
-24.6452995659
31
0.0000000000
11
-266.3229131379
21
-24.1908752641
31
0.0000000000
11
-266.3013791103
21
-24.1798373783
31
0.0000000000
0
SPLINE
5
538
100
AcDbEntity
8
0
100
AcDbSpline
62
7
6
CONTINUOUS
70
0
71
3
72
9
73
5
74
3
42
0.0000001000
43
0.0000001000
44
0.0000000001
12
-1.2432323871
22
-0.6192215683
32
0.0000000000
13
-1.2358511721
23
0.6179255861
33
0.0000000000
40
0.0000000000
40
0.0000000000
40
0.0000000000
40
0.0000000000
40
0.4541345994
40
1.0000000000
40
1.0000000000
40
1.0000000000
40
1.0000000000
10
-115.8320130314
20
-103.4386139060
30
0.0000000000
10
-116.0202113121
20
-103.5323505523
30
0.0000000000
10
-116.4976395621
20
-103.6151170420
30
0.0000000000
10
-116.9491679718
20
-103.4660659030
30
0.0000000000
10
-117.1740374369
20
-103.3536311705
30
0.0000000000
11
-115.8320130314
21
-103.4386139060
31
0.0000000000
11
-116.4485031489
21
-103.5597151471
31
0.0000000000
11
-117.1740374369
21
-103.3536311705
31
0.0000000000
0
SPLINE
5
539
100
AcDbEntity
8
0
100
AcDbSpline
62
7
6
CONTINUOUS
70
0
71
3
72
10
73
6
74
4
42
0.0000001000
43
0.0000001000
44
0.0000000001
12
1.2850396095
22
0.6425198048
32
0.0000000000
13
-0.0001923622
23
1.4624419657
33
0.0000000000
40
0.0000000000
40
0.0000000000
40
0.0000000000
40
0.0000000000
40
0.4648746133
40
0.8372476564
40
1.0000000000
40
1.0000000000
40
1.0000000000
40
1.0000000000
10
19.1561499759
20
-151.9165346097
30
0.0000000000
10
19.3552774064
20
-151.8169708944
30
0.0000000000
10
19.6974006780
20
-151.5991105344
30
0.0000000000
10
19.9949396798
20
-151.1960085803
30
0.0000000000
10
20.0320316359
20
-150.9351484154
30
0.0000000000
10
20.0320212001
20
-150.8558097963
30
0.0000000000
11
19.1561499759
21
-151.9165346097
31
0.0000000000
11
19.7065252911
21
-151.5381577931
31
0.0000000000
11
19.9981724872
21
-151.0896473644
31
0.0000000000
11
20.0320212001
21
-150.8558097963
31
0.0000000000
0
SPLINE
5
53A
100
AcDbEntity
8
0
100
AcDbSpline
62
7
6
CONTINUOUS
70
0
71
3
72
9
73
5
74
3
42
0.0000001000
43
0.0000001000
44
0.0000000001
12
0.0000000000
22
-1.8604986888
32
0.0000000000
13
1.6799426581
23
-0.8851509027
33
0.0000000000
40
0.0000000000
40
0.0000000000
40
0.0000000000
40
0.0000000000
40
0.6403297784
40
1.0000000000
40
1.0000000000
40
1.0000000000
40
1.0000000000
10
10.8122899579
20
-201.9878110192
30
0.0000000000
10
10.8122899579
20
-202.3849219236
30
0.0000000000
10
10.9081651133
20
-203.0433130982
30
0.0000000000
10
11.3977252755
20
-203.4984243975
30
0.0000000000
10
11.5991337248
20
-203.6045452046
30
0.0000000000
11
10.8122899579
21
-201.9878110192
31
0.0000000000
11
11.0964929944
21
-203.1447476067
31
0.0000000000
11
11.5991337248
21
-203.6045452046
31
0.0000000000
0
SPLINE
5
53B
100
AcDbEntity
8
0
100
AcDbSpline
62
7
6
CONTINUOUS
70
0
71
3
72
15
73
11
74
9
42
0.0000001000
43
0.0000001000
44
0.0000000001
12
-5.6237249578
22
2.8118624789
32
0.0000000000
13
5.6573130820
23
2.8177598294
33
0.0000000000
40
0.0000000000
40
0.0000000000
40
0.0000000000
40
0.0000000000
40
0.1419187625
40
0.3009820854
40
0.4666803603
40
0.6266710587
40
0.7701780414
40
0.8917858587
40
0.9961709149
40
1.0000000000
40
1.0000000000
40
1.0000000000
40
1.0000000000
10
-264.9593547049
20
-60.6378870727
30
0.0000000000
10
-265.2253920671
20
-60.5048683916
30
0.0000000000
10
-265.7393206205
20
-60.1207808226
30
0.0000000000
10
-266.3607341549
20
-59.3563162630
30
0.0000000000
10
-266.8258536279
20
-58.4445774494
30
0.0000000000
10
-267.0820367672
20
-57.4866701790
30
0.0000000000
10
-267.0994792423
20
-56.5855039872
30
0.0000000000
10
-266.8676250615
20
-55.8261525384
30
0.0000000000
10
-266.5114763661
20
-55.4643248759
30
0.0000000000
10
-266.3085998879
20
-55.3603483952
30
0.0000000000
10
-266.3013791103
20
-55.3567519145
30
0.0000000000
11
-264.9593547049
21
-60.6378870727
31
0.0000000000
11
-265.6848889928
21
-60.1184367614
31
0.0000000000
11
-266.3229131379
21
-59.3482734894
31
0.0000000000
11
-266.7964720119
21
-58.4202903135
31
0.0000000000
11
-267.0484474258
21
-57.4464157004
31
0.0000000000
11
-267.0484474258
21
-56.5441133013
31
0.0000000000
11
-266.7964720119
21
-55.8222141021
31
0.0000000000
11
-266.3229131379
21
-55.3677898004
31
0.0000000000
11
-266.3013791103
21
-55.3567519145
31
0.0000000000
0
SPLINE
5
53C
100
AcDbEntity
8
0
100
AcDbSpline
62
7
6
CONTINUOUS
70
0
71
3
72
10
73
6
74
4
42
0.0000001000
43
0.0000001000
44
0.0000000001
12
0.0000000000
22
1.2556565174
32
0.0000000000
13
-1.1291321965
23
0.5710649203
33
0.0000000000
40
0.0000000000
40
0.0000000000
40
0.0000000000
40
0.0000000000
40
0.4035040787
40
0.7473664620
40
1.0000000000
40
1.0000000000
40
1.0000000000
40
1.0000000000
10
30.8587672045
20
-149.9721713646
30
0.0000000000
10
30.8587672045
20
-149.8032838558
30
0.0000000000
10
30.8222862157
20
-149.4878573407
30
0.0000000000
10
30.6348350799
20
-149.1008113197
30
0.0000000000
10
30.4334153613
20
-148.9385146967
30
0.0000000000
10
30.3383298074
20
-148.8904246463
30
0.0000000000
11
30.8587672045
21
-149.9721713646
31
0.0000000000
11
30.7891722372
21
-149.4703113681
31
0.0000000000
11
30.5879564468
21
-149.0882902089
31
0.0000000000
11
30.3383298074
21
-148.8904246463
31
0.0000000000
0
SPLINE
5
53D
100
AcDbEntity
8
0
100
AcDbSpline
62
7
6
CONTINUOUS
70
0
71
3
72
12
73
8
74
6
42
0.0000001000
43
0.0000001000
44
0.0000000001
12
2.6293908968
22
1.3146954484
32
0.0000000000
13
0.0000000000
23
2.9397483923
33
0.0000000000
40
0.0000000000
40
0.0000000000
40
0.0000000000
40
0.0000000000
40
0.1814757701
40
0.3832809679
40
0.5948581460
40
0.8043620409
40
1.0000000000
40
1.0000000000
40
1.0000000000
40
1.0000000000
10
29.4445536422
20
-202.6408023728
30
0.0000000000
10
29.6036105548
20
-202.5612739165
30
0.0000000000
10
29.9126947429
20
-202.3385563897
30
0.0000000000
10
30.2984664745
20
-201.8967166369
30
0.0000000000
10
30.6054789020
20
-201.3647083303
30
0.0000000000
10
30.8058362979
20
-200.7910179847
30
0.0000000000
10
30.8587672045
20
-200.3933535759
30
0.0000000000
10
30.8587672045
20
-200.2016447841
30
0.0000000000
11
29.4445536422
21
-202.6408023728
31
0.0000000000
11
29.8827326398
21
-202.3364767946
31
0.0000000000
11
30.2767976126
21
-201.8930063010
31
0.0000000000
11
30.5886396887
21
-201.3548444254
31
0.0000000000
11
30.7892988691
21
-200.7725602755
31
0.0000000000
11
30.8587672045
21
-200.2016447841
31
0.0000000000
0
SPLINE
5
53E
100
AcDbEntity
8
0
100
AcDbSpline
62
7
6
CONTINUOUS
70
0
71
3
72
10
73
6
74
4
42
0.0000001000
43
0.0000001000
44
0.0000000001
12
1.2849913078
22
-0.6424956539
32
0.0000000000
13
0.0000000000
23
-1.4626667332
33
0.0000000000
40
0.0000000000
40
0.0000000000
40
0.0000000000
40
0.0000000000
40
0.4665482587
40
0.8360676094
40
1.0000000000
40
1.0000000000
40
1.0000000000
40
1.0000000000
10
32.9093768700
20
-152.0216986110
30
0.0000000000
10
33.1092136890
20
-152.1216170205
30
0.0000000000
10
33.4508797369
20
-152.3394052113
30
0.0000000000
10
33.7479386312
20
-152.7423452595
30
0.0000000000
10
33.7851889855
20
-153.0024326314
30
0.0000000000
10
33.7851889855
20
-153.0823587828
30
0.0000000000
11
32.9093768700
21
-152.0216986110
31
0.0000000000
11
33.4614768750
21
-152.4017664599
31
0.0000000000
11
33.7508473244
21
-152.8468430258
31
0.0000000000
11
33.7851889855
21
-153.0823587828
31
0.0000000000
0
SPLINE
5
53F
100
AcDbEntity
8
0
100
AcDbSpline
62
7
6
CONTINUOUS
70
0
71
3
72
10
73
6
74
4
42
0.0000001000
43
0.0000001000
44
0.0000000001
12
0.8294058423
22
0.4195090175
32
0.0000000000
13
0.8250226519
23
-0.4125113259
33
0.0000000000
40
0.0000000000
40
0.0000000000
40
0.0000000000
40
0.0000000000
40
0.0727293096
40
0.5032892973
40
1.0000000000
40
1.0000000000
40
1.0000000000
40
1.0000000000
10
-283.0005143859
20
5.5431256258
30
0.0000000000
10
-282.9804070145
20
5.5532958262
30
0.0000000000
10
-282.8382337313
20
5.6172792302
30
0.0000000000
10
-282.5197270333
20
5.6489525051
30
0.0000000000
10
-282.2432933423
20
5.5546364952
30
0.0000000000
10
-282.1066941486
20
5.4863368983
30
0.0000000000
11
-283.0005143859
21
5.5431256258
31
0.0000000000
11
-282.9389381190
21
5.5707847969
31
0.0000000000
11
-282.5448731463
21
5.6201903178
31
0.0000000000
11
-282.1066941486
21
5.4863368983
31
0.0000000000
0
SPLINE
5
540
100
AcDbEntity
8
0
100
AcDbSpline
62
7
6
CONTINUOUS
70
0
71
3
72
9
73
5
74
3
42
0.0000001000
43
0.0000001000
44
0.0000000001
12
1.2326630214
22
0.6163315107
32
0.0000000000
13
1.2530346746
23
-0.6114393937
33
0.0000000000
40
0.0000000000
40
0.0000000000
40
0.0000000000
40
0.0000000000
40
0.6080938427
40
1.0000000000
40
1.0000000000
40
1.0000000000
40
1.0000000000
10
-264.7825780096
20
-2.6989653034
30
0.0000000000
10
-264.5327197451
20
-2.5740361712
30
0.0000000000
10
-264.0742913380
20
-2.4286252429
30
0.0000000000
10
-263.6039614632
20
-2.5364629731
30
0.0000000000
10
-263.4402707952
20
-2.6163385942
30
0.0000000000
11
-264.7825780096
21
-2.6989653034
31
0.0000000000
11
-263.9707838593
21
-2.4908350041
31
0.0000000000
11
-263.4402707952
21
-2.6163385942
31
0.0000000000
0
SPLINE
5
541
100
AcDbEntity
8
0
100
AcDbSpline
62
7
6
CONTINUOUS
70
0
71
3
72
9
73
5
74
3
42
0.0000001000
43
0.0000001000
44
0.0000000001
12
-0.0000000000
22
-1.4596537964
32
0.0000000000
13
0.5172367360
23
-1.3675615079
33
0.0000000000
40
0.0000000000
40
0.0000000000
40
0.0000000000
40
0.0000000000
40
0.6584522938
40
1.0000000000
40
1.0000000000
40
1.0000000000
40
1.0000000000
10
13.5346510655
20
-162.2529199958
30
0.0000000000
10
13.5346510655
20
-162.5732907926
30
0.0000000000
10
13.6066454418
20
-163.0606907921
30
0.0000000000
10
13.7550342963
20
-163.5257869082
30
0.0000000000
10
13.8139213032
20
-163.6814827402
30
0.0000000000
11
13.5346510655
21
-162.2529199958
31
0.0000000000
11
13.6625823359
21
-163.2054800292
31
0.0000000000
11
13.8139213032
21
-163.6814827402
31
0.0000000000
0
SPLINE
5
542
100
AcDbEntity
8
0
100
AcDbSpline
62
7
6
CONTINUOUS
70
0
71
3
72
10
73
6
74
4
42
0.0000001000
43
0.0000001000
44
0.0000000001
12
0.8294356848
22
-0.4194917342
32
0.0000000000
13
0.8249996675
23
0.4124998338
33
0.0000000000
40
0.0000000000
40
0.0000000000
40
0.0000000000
40
0.0000000000
40
0.0737661057
40
0.5036910083
40
1.0000000000
40
1.0000000000
40
1.0000000000
40
1.0000000000
10
16.1056981280
20
-208.9201447392
30
0.0000000000
10
16.1260928749
20
-208.9304594964
30
0.0000000000
10
16.2684243643
20
-208.9944048720
30
0.0000000000
10
16.5868930236
20
-209.0258076994
30
0.0000000000
10
16.8629893755
20
-208.9315845061
30
0.0000000000
10
16.9994742933
20
-208.8633420473
30
0.0000000000
11
16.1056981280
21
-208.9201447392
31
0.0000000000
11
16.1681698255
21
-208.9481569915
31
0.0000000000
11
16.5616840757
21
-208.9971561685
31
0.0000000000
11
16.9994742933
21
-208.8633420473
31
0.0000000000
0
SPLINE
5
543
100
AcDbEntity
8
0
100
AcDbSpline
62
7
6
CONTINUOUS
70
0
71
3
72
10
73
6
74
4
42
0.0000001000
43
0.0000001000
44
0.0000000001
12
0.6394647732
22
0.3114125097
32
0.0000000000
13
0.2326700027
23
0.6713774152
33
0.0000000000
40
0.0000000000
40
0.0000000000
40
0.0000000000
40
0.0000000000
40
0.1727069757
40
0.8996699553
40
1.0000000000
40
1.0000000000
40
1.0000000000
40
1.0000000000
10
-235.0377930686
20
-39.9813277871
30
0.0000000000
10
-235.0009797262
20
-39.9634000828
30
0.0000000000
10
-234.8173410455
20
-39.8551794037
30
0.0000000000
10
-234.6779742187
20
-39.6497387513
30
0.0000000000
10
-234.6085433048
20
-39.4660361477
30
0.0000000000
10
-234.6007620409
20
-39.4435830391
30
0.0000000000
11
-235.0377930686
21
-39.9813277871
31
0.0000000000
11
-234.9326213371
21
-39.9190273650
31
0.0000000000
11
-234.6260583723
21
-39.5103911242
31
0.0000000000
11
-234.6007620409
21
-39.4435830391
31
0.0000000000
0
SPLINE
5
544
100
AcDbEntity
8
0
100
AcDbSpline
62
7
6
CONTINUOUS
70
0
71
3
72
10
73
6
74
4
42
0.0000001000
43
0.0000001000
44
0.0000000001
12
0.6394647732
22
0.3114125097
32
0.0000000000
13
0.2326700027
23
0.6713774152
33
0.0000000000
40
0.0000000000
40
0.0000000000
40
0.0000000000
40
0.0000000000
40
0.1727069757
40
0.8996699553
40
1.0000000000
40
1.0000000000
40
1.0000000000
40
1.0000000000
10
-197.7025550219
20
-58.6489468104
30
0.0000000000
10
-197.6657416796
20
-58.6310191061
30
0.0000000000
10
-197.4821029988
20
-58.5227984270
30
0.0000000000
10
-197.3427361721
20
-58.3173577746
30
0.0000000000
10
-197.2733052582
20
-58.1336551711
30
0.0000000000
10
-197.2655239942
20
-58.1112020624
30
0.0000000000
11
-197.7025550219
21
-58.6489468104
31
0.0000000000
11
-197.5973832905
21
-58.5866463884
31
0.0000000000
11
-197.2908203256
21
-58.1780101475
31
0.0000000000
11
-197.2655239942
21
-58.1112020624
31
0.0000000000
0
SPLINE
5
545
100
AcDbEntity
8
0
100
AcDbSpline
62
7
6
CONTINUOUS
70
0
71
3
72
10
73
6
74
4
42
0.0000001000
43
0.0000001000
44
0.0000000001
12
0.6394647732
22
0.3114125097
32
0.0000000000
13
0.2326700027
23
0.6713774152
33
0.0000000000
40
0.0000000000
40
0.0000000000
40
0.0000000000
40
0.0000000000
40
0.1727069757
40
0.8996699553
40
1.0000000000
40
1.0000000000
40
1.0000000000
40
1.0000000000
10
-160.3673169753
20
-77.3165658337
30
0.0000000000
10
-160.3305036329
20
-77.2986381295
30
0.0000000000
10
-160.1468649522
20
-77.1904174504
30
0.0000000000
10
-160.0074981254
20
-76.9849767979
30
0.0000000000
10
-159.9380672115
20
-76.8012741944
30
0.0000000000
10
-159.9302859476
20
-76.7788210857
30
0.0000000000
11
-160.3673169753
21
-77.3165658337
31
0.0000000000
11
-160.2621452439
21
-77.2542654117
31
0.0000000000
11
-159.9555822790
21
-76.8456291708
31
0.0000000000
11
-159.9302859476
21
-76.7788210857
31
0.0000000000
0
SPLINE
5
546
100
AcDbEntity
8
0
100
AcDbSpline
62
7
6
CONTINUOUS
70
0
71
3
72
10
73
6
74
4
42
0.0000001000
43
0.0000001000
44
0.0000000001
12
0.6394647732
22
0.3114125097
32
0.0000000000
13
0.2326700027
23
0.6713774152
33
0.0000000000
40
0.0000000000
40
0.0000000000
40
0.0000000000
40
0.0000000000
40
0.1727069757
40
0.8996699553
40
1.0000000000
40
1.0000000000
40
1.0000000000
40
1.0000000000
10
-48.2201814791
20
-133.3901335818
30
0.0000000000
10
-48.1833681367
20
-133.3722058776
30
0.0000000000
10
-47.9997294560
20
-133.2639851984
30
0.0000000000
10
-47.8603626293
20
-133.0585445460
30
0.0000000000
10
-47.7909317153
20
-132.8748419425
30
0.0000000000
10
-47.7831504514
20
-132.8523888338
30
0.0000000000
11
-48.2201814791
21
-133.3901335818
31
0.0000000000
11
-48.1150097477
21
-133.3278331598
31
0.0000000000
11
-47.8084467828
21
-132.9191969189
31
0.0000000000
11
-47.7831504514
21
-132.8523888338
31
0.0000000000
0
SPLINE
5
547
100
AcDbEntity
8
0
100
AcDbSpline
62
7
6
CONTINUOUS
70
0
71
3
72
10
73
6
74
4
42
0.0000001000
43
0.0000001000
44
0.0000000001
12
0.6394647732
22
0.3114125097
32
0.0000000000
13
0.2326700027
23
0.6713774152
33
0.0000000000
40
0.0000000000
40
0.0000000000
40
0.0000000000
40
0.0000000000
40
0.1727069757
40
0.8996699553
40
1.0000000000
40
1.0000000000
40
1.0000000000
40
1.0000000000
10
-235.0377930686
20
-71.1582423233
30
0.0000000000
10
-235.0009797262
20
-71.1403146191
30
0.0000000000
10
-234.8173410455
20
-71.0320939399
30
0.0000000000
10
-234.6779742187
20
-70.8266532875
30
0.0000000000
10
-234.6085433048
20
-70.6429506840
30
0.0000000000
10
-234.6007620409
20
-70.6204975753
30
0.0000000000
11
-235.0377930686
21
-71.1582423233
31
0.0000000000
11
-234.9326213371
21
-71.0959419013
31
0.0000000000
11
-234.6260583723
21
-70.6873056604
31
0.0000000000
11
-234.6007620409
21
-70.6204975753
31
0.0000000000
0
SPLINE
5
548
100
AcDbEntity
8
0
100
AcDbSpline
62
7
6
CONTINUOUS
70
0
71
3
72
10
73
6
74
4
42
0.0000001000
43
0.0000001000
44
0.0000000001
12
0.6394647732
22
0.3114125097
32
0.0000000000
13
0.2326700027
23
0.6713774152
33
0.0000000000
40
0.0000000000
40
0.0000000000
40
0.0000000000
40
0.0000000000
40
0.1727069757
40
0.8996699553
40
1.0000000000
40
1.0000000000
40
1.0000000000
40
1.0000000000
10
-197.7025550219
20
-89.8258613466
30
0.0000000000
10
-197.6657416796
20
-89.8079336424
30
0.0000000000
10
-197.4821029988
20
-89.6997129633
30
0.0000000000
10
-197.3427361721
20
-89.4942723108
30
0.0000000000
10
-197.2733052582
20
-89.3105697073
30
0.0000000000
10
-197.2655239942
20
-89.2881165986
30
0.0000000000
11
-197.7025550219
21
-89.8258613466
31
0.0000000000
11
-197.5973832905
21
-89.7635609246
31
0.0000000000
11
-197.2908203256
21
-89.3549246837
31
0.0000000000
11
-197.2655239942
21
-89.2881165986
31
0.0000000000
0
SPLINE
5
549
100
AcDbEntity
8
0
100
AcDbSpline
62
7
6
CONTINUOUS
70
0
71
3
72
10
73
6
74
4
42
0.0000001000
43
0.0000001000
44
0.0000000001
12
0.6394647732
22
0.3114125097
32
0.0000000000
13
0.2326700027
23
0.6713774152
33
0.0000000000
40
0.0000000000
40
0.0000000000
40
0.0000000000
40
0.0000000000
40
0.1727069757
40
0.8996699553
40
1.0000000000
40
1.0000000000
40
1.0000000000
40
1.0000000000
10
-160.3673169753
20
-108.4934803700
30
0.0000000000
10
-160.3305036329
20
-108.4755526657
30
0.0000000000
10
-160.1468649522
20
-108.3673319866
30
0.0000000000
10
-160.0074981254
20
-108.1618913342
30
0.0000000000
10
-159.9380672115
20
-107.9781887306
30
0.0000000000
10
-159.9302859476
20
-107.9557356220
30
0.0000000000
11
-160.3673169753
21
-108.4934803700
31
0.0000000000
11
-160.2621452439
21
-108.4311799479
31
0.0000000000
11
-159.9555822790
21
-108.0225437070
31
0.0000000000
11
-159.9302859476
21
-107.9557356220
31
0.0000000000
0
SPLINE
5
54A
100
AcDbEntity
8
0
100
AcDbSpline
62
7
6
CONTINUOUS
70
0
71
3
72
10
73
6
74
4
42
0.0000001000
43
0.0000001000
44
0.0000000001
12
0.6394647732
22
0.3114125097
32
0.0000000000
13
0.2326700027
23
0.6713774152
33
0.0000000000
40
0.0000000000
40
0.0000000000
40
0.0000000000
40
0.0000000000
40
0.1727069757
40
0.8996699553
40
1.0000000000
40
1.0000000000
40
1.0000000000
40
1.0000000000
10
-48.2201814791
20
-164.5670481180
30
0.0000000000
10
-48.1833681367
20
-164.5491204138
30
0.0000000000
10
-47.9997294560
20
-164.4408997347
30
0.0000000000
10
-47.8603626293
20
-164.2354590823
30
0.0000000000
10
-47.7909317153
20
-164.0517564787
30
0.0000000000
10
-47.7831504514
20
-164.0293033700
30
0.0000000000
11
-48.2201814791
21
-164.5670481180
31
0.0000000000
11
-48.1150097477
21
-164.5047476960
31
0.0000000000
11
-47.8084467828
21
-164.0961114551
31
0.0000000000
11
-47.7831504514
21
-164.0293033700
31
0.0000000000
0
SPLINE
5
54B
100
AcDbEntity
8
0
100
AcDbSpline
62
7
6
CONTINUOUS
70
0
71
3
72
8
73
4
74
2
42
0.0000001000
43
0.0000001000
44
0.0000000001
12
-0.2272940166
22
-0.7340659968
32
0.0000000000
13
0.0000000000
23
-0.7619005822
33
0.0000000000
40
0.0000000000
40
0.0000000000
40
0.0000000000
40
0.0000000000
40
1.0000000000
40
1.0000000000
40
1.0000000000
40
1.0000000000
10
13.6396437756
20
-161.4979017797
30
0.0000000000
10
13.5638791034
20
-161.7425904453
30
0.0000000000
10
13.5346510655
20
-161.9989531350
30
0.0000000000
10
13.5346510655
20
-162.2529199958
30
0.0000000000
11
13.6396437756
21
-161.4979017797
31
0.0000000000
11
13.5346510655
21
-162.2529199958
31
0.0000000000
0
SPLINE
5
54C
100
AcDbEntity
8
0
100
AcDbSpline
62
7
6
CONTINUOUS
70
0
71
3
72
10
73
6
74
4
42
0.0000001000
43
0.0000001000
44
0.0000000001
12
1.7057338218
22
-0.8323415743
32
0.0000000000
13
-0.0000000000
23
-1.8760635515
33
0.0000000000
40
0.0000000000
40
0.0000000000
40
0.0000000000
40
0.0000000000
40
0.0970802368
40
0.5055259762
40
1.0000000000
40
1.0000000000
40
1.0000000000
40
1.0000000000
10
19.4024416795
20
-144.0376948315
30
0.0000000000
10
19.4576393606
20
-144.0646294705
30
0.0000000000
10
19.7328522671
20
-144.2271576830
30
0.0000000000
10
20.1052078091
20
-144.7754344709
30
0.0000000000
10
20.1814548086
20
-145.3485160159
30
0.0000000000
10
20.1814548086
20
-145.6577375803
30
0.0000000000
11
19.4024416795
21
-144.0376948315
31
0.0000000000
11
19.5601344651
21
-144.1312804450
31
0.0000000000
11
20.0199789124
21
-144.7442348063
31
0.0000000000
11
20.1814548086
21
-145.6577375803
31
0.0000000000
0
SPLINE
5
54D
100
AcDbEntity
8
0
100
AcDbSpline
62
7
6
CONTINUOUS
70
0
71
3
72
10
73
6
74
4
42
0.0000001000
43
0.0000001000
44
0.0000000001
12
0.0000000000
22
-1.4626667332
32
0.0000000000
13
-1.2849913078
23
-0.6424956539
33
0.0000000000
40
0.0000000000
40
0.0000000000
40
0.0000000000
40
0.0000000000
40
0.1639323906
40
0.5334517413
40
1.0000000000
40
1.0000000000
40
1.0000000000
40
1.0000000000
10
33.7851889855
20
-192.9195273569
30
0.0000000000
10
33.7851889855
20
-192.9994535083
30
0.0000000000
10
33.7479386312
20
-193.2595408802
30
0.0000000000
10
33.4508797369
20
-193.6624809283
30
0.0000000000
10
33.1092136890
20
-193.8802691191
30
0.0000000000
10
32.9093768700
20
-193.9801875286
30
0.0000000000
11
33.7851889855
21
-192.9195273569
31
0.0000000000
11
33.7508473244
21
-193.1550431138
31
0.0000000000
11
33.4614768750
21
-193.6001196797
31
0.0000000000
11
32.9093768700
21
-193.9801875286
31
0.0000000000
0
SPLINE
5
54E
100
AcDbEntity
8
0
100
AcDbSpline
62
7
6
CONTINUOUS
70
0
71
3
72
13
73
9
74
7
42
0.0000001000
43
0.0000001000
44
0.0000000001
12
0.8044491080
22
-3.1376318530
32
0.0000000000
13
2.9325269283
23
1.4281092702
33
0.0000000000
40
0.0000000000
40
0.0000000000
40
0.0000000000
40
0.0000000000
40
0.0285506421
40
0.2700133200
40
0.5055960442
40
0.7148780553
40
0.8882484650
40
1.0000000000
40
1.0000000000
40
1.0000000000
40
1.0000000000
10
-199.9282812490
20
-87.9591736143
30
0.0000000000
10
-199.9206254028
20
-87.9890340823
30
0.0000000000
10
-199.8438262867
20
-88.2702554687
30
0.0000000000
10
-199.6266670555
20
-88.7727413228
30
0.0000000000
10
-199.1816197530
20
-89.3704779764
30
0.0000000000
10
-198.6519522573
20
-89.7852227172
30
0.0000000000
10
-198.1255657888
20
-89.9508262169
30
0.0000000000
10
-197.8117931505
20
-89.8790591476
30
0.0000000000
10
-197.7025550219
20
-89.8258613466
30
0.0000000000
11
-199.9282812490
21
-87.9591736143
31
0.0000000000
11
-199.9039462554
21
-88.0483617188
31
0.0000000000
11
-199.5973832905
21
-88.7635609246
31
0.0000000000
11
-199.1385793906
21
-89.3684242935
31
0.0000000000
11
-198.5973832905
21
-89.7708668608
31
0.0000000000
11
-198.0561871904
21
-89.9096203937
31
0.0000000000
11
-197.7025550219
21
-89.8258613466
31
0.0000000000
0
SPLINE
5
54F
100
AcDbEntity
8
0
100
AcDbSpline
62
7
6
CONTINUOUS
70
0
71
3
72
13
73
9
74
7
42
0.0000001000
43
0.0000001000
44
0.0000000001
12
0.8044491080
22
-3.1376318530
32
0.0000000000
13
2.9325269283
23
1.4281092702
33
0.0000000000
40
0.0000000000
40
0.0000000000
40
0.0000000000
40
0.0000000000
40
0.0285506421
40
0.2700133200
40
0.5055960442
40
0.7148780553
40
0.8882484650
40
1.0000000000
40
1.0000000000
40
1.0000000000
40
1.0000000000
10
-237.2635192956
20
-69.2915545909
30
0.0000000000
10
-237.2558634494
20
-69.3214150590
30
0.0000000000
10
-237.1790643334
20
-69.6026364454
30
0.0000000000
10
-236.9619051021
20
-70.1051222995
30
0.0000000000
10
-236.5168577997
20
-70.7028589531
30
0.0000000000
10
-235.9871903040
20
-71.1176036939
30
0.0000000000
10
-235.4608038354
20
-71.2832071936
30
0.0000000000
10
-235.1470311971
20
-71.2114401243
30
0.0000000000
10
-235.0377930686
20
-71.1582423233
30
0.0000000000
11
-237.2635192956
21
-69.2915545909
31
0.0000000000
11
-237.2391843020
21
-69.3807426955
31
0.0000000000
11
-236.9326213371
21
-70.0959419013
31
0.0000000000
11
-236.4738174373
21
-70.7008052702
31
0.0000000000
11
-235.9326213371
21
-71.1032478375
31
0.0000000000
11
-235.3914252370
21
-71.2420013703
31
0.0000000000
11
-235.0377930686
21
-71.1582423233
31
0.0000000000
0
SPLINE
5
550
100
AcDbEntity
8
0
100
AcDbSpline
62
7
6
CONTINUOUS
70
0
71
3
72
10
73
6
74
4
42
0.0000001000
43
0.0000001000
44
0.0000000001
12
0.0000000000
22
-1.2556565174
32
0.0000000000
13
1.1291321965
23
-0.5710649203
33
0.0000000000
40
0.0000000000
40
0.0000000000
40
0.0000000000
40
0.0000000000
40
0.4035040787
40
0.7473664620
40
1.0000000000
40
1.0000000000
40
1.0000000000
40
1.0000000000
10
15.5852607309
20
-207.8383980209
30
0.0000000000
10
15.5852607309
20
-208.0072855296
30
0.0000000000
10
15.6217417197
20
-208.3227120447
30
0.0000000000
10
15.8091928555
20
-208.7097580657
30
0.0000000000
10
16.0106125742
20
-208.8720546888
30
0.0000000000
10
16.1056981280
20
-208.9201447392
30
0.0000000000
11
15.5852607309
21
-207.8383980209
31
0.0000000000
11
15.6548556983
21
-208.3402580173
31
0.0000000000
11
15.8560714886
21
-208.7222791765
31
0.0000000000
11
16.1056981280
21
-208.9201447392
31
0.0000000000
0
SPLINE
5
551
100
AcDbEntity
8
0
100
AcDbSpline
62
7
6
CONTINUOUS
70
0
71
3
72
13
73
9
74
7
42
0.0000001000
43
0.0000001000
44
0.0000000001
12
0.8044491080
22
-3.1376318530
32
0.0000000000
13
2.9325269283
23
1.4281092702
33
0.0000000000
40
0.0000000000
40
0.0000000000
40
0.0000000000
40
0.0000000000
40
0.0285506421
40
0.2700133200
40
0.5055960442
40
0.7148780553
40
0.8882484650
40
1.0000000000
40
1.0000000000
40
1.0000000000
40
1.0000000000
10
-50.4459077061
20
-131.5234458494
30
0.0000000000
10
-50.4382518599
20
-131.5533063175
30
0.0000000000
10
-50.3614527439
20
-131.8345277039
30
0.0000000000
10
-50.1442935126
20
-132.3370135580
30
0.0000000000
10
-49.6992462102
20
-132.9347502116
30
0.0000000000
10
-49.1695787145
20
-133.3494949524
30
0.0000000000
10
-48.6431922459
20
-133.5150984521
30
0.0000000000
10
-48.3294196076
20
-133.4433313828
30
0.0000000000
10
-48.2201814791
20
-133.3901335818
30
0.0000000000
11
-50.4459077061
21
-131.5234458494
31
0.0000000000
11
-50.4215727125
21
-131.6126339540
31
0.0000000000
11
-50.1150097477
21
-132.3278331598
31
0.0000000000
11
-49.6562058478
21
-132.9326965287
31
0.0000000000
11
-49.1150097477
21
-133.3351390960
31
0.0000000000
11
-48.5738136475
21
-133.4738926288
31
0.0000000000
11
-48.2201814791
21
-133.3901335818
31
0.0000000000
0
SPLINE
5
552
100
AcDbEntity
8
0
100
AcDbSpline
62
7
6
CONTINUOUS
70
0
71
3
72
13
73
9
74
7
42
0.0000001000
43
0.0000001000
44
0.0000000001
12
0.8044491080
22
-3.1376318530
32
0.0000000000
13
2.9325269283
23
1.4281092702
33
0.0000000000
40
0.0000000000
40
0.0000000000
40
0.0000000000
40
0.0000000000
40
0.0285506421
40
0.2700133200
40
0.5055960442
40
0.7148780553
40
0.8882484650
40
1.0000000000
40
1.0000000000
40
1.0000000000
40
1.0000000000
10
-162.5930432023
20
-75.4498781013
30
0.0000000000
10
-162.5853873561
20
-75.4797385694
30
0.0000000000
10
-162.5085882401
20
-75.7609599558
30
0.0000000000
10
-162.2914290088
20
-76.2634458099
30
0.0000000000
10
-161.8463817064
20
-76.8611824635
30
0.0000000000
10
-161.3167142107
20
-77.2759272043
30
0.0000000000
10
-160.7903277421
20
-77.4415307040
30
0.0000000000
10
-160.4765551038
20
-77.3697636347
30
0.0000000000
10
-160.3673169753
20
-77.3165658337
30
0.0000000000
11
-162.5930432023
21
-75.4498781013
31
0.0000000000
11
-162.5687082087
21
-75.5390662059
31
0.0000000000
11
-162.2621452439
21
-76.2542654117
31
0.0000000000
11
-161.8033413440
21
-76.8591287806
31
0.0000000000
11
-161.2621452439
21
-77.2615713479
31
0.0000000000
11
-160.7209491437
21
-77.4003248807
31
0.0000000000
11
-160.3673169753
21
-77.3165658337
31
0.0000000000
0
SPLINE
5
553
100
AcDbEntity
8
0
100
AcDbSpline
62
7
6
CONTINUOUS
70
0
71
3
72
13
73
9
74
7
42
0.0000001000
43
0.0000001000
44
0.0000000001
12
0.8044491080
22
-3.1376318530
32
0.0000000000
13
2.9325269283
23
1.4281092702
33
0.0000000000
40
0.0000000000
40
0.0000000000
40
0.0000000000
40
0.0000000000
40
0.0285506421
40
0.2700133200
40
0.5055960442
40
0.7148780553
40
0.8882484650
40
1.0000000000
40
1.0000000000
40
1.0000000000
40
1.0000000000
10
-199.9282812490
20
-56.7822590780
30
0.0000000000
10
-199.9206254028
20
-56.8121195461
30
0.0000000000
10
-199.8438262867
20
-57.0933409325
30
0.0000000000
10
-199.6266670555
20
-57.5958267866
30
0.0000000000
10
-199.1816197530
20
-58.1935634401
30
0.0000000000
10
-198.6519522573
20
-58.6083081809
30
0.0000000000
10
-198.1255657888
20
-58.7739116807
30
0.0000000000
10
-197.8117931505
20
-58.7021446114
30
0.0000000000
10
-197.7025550219
20
-58.6489468104
30
0.0000000000
11
-199.9282812490
21
-56.7822590780
31
0.0000000000
11
-199.9039462554
21
-56.8714471826
31
0.0000000000
11
-199.5973832905
21
-57.5866463884
31
0.0000000000
11
-199.1385793906
21
-58.1915097573
31
0.0000000000
11
-198.5973832905
21
-58.5939523245
31
0.0000000000
11
-198.0561871904
21
-58.7327058574
31
0.0000000000
11
-197.7025550219
21
-58.6489468104
31
0.0000000000
0
SPLINE
5
554
100
AcDbEntity
8
0
100
AcDbSpline
62
7
6
CONTINUOUS
70
0
71
3
72
13
73
9
74
7
42
0.0000001000
43
0.0000001000
44
0.0000000001
12
0.8044491080
22
-3.1376318530
32
0.0000000000
13
2.9325269283
23
1.4281092702
33
0.0000000000
40
0.0000000000
40
0.0000000000
40
0.0000000000
40
0.0000000000
40
0.0285506421
40
0.2700133200
40
0.5055960442
40
0.7148780553
40
0.8882484650
40
1.0000000000
40
1.0000000000
40
1.0000000000
40
1.0000000000
10
-237.2635192956
20
-38.1146400547
30
0.0000000000
10
-237.2558634494
20
-38.1445005228
30
0.0000000000
10
-237.1790643334
20
-38.4257219091
30
0.0000000000
10
-236.9619051021
20
-38.9282077632
30
0.0000000000
10
-236.5168577997
20
-39.5259444168
30
0.0000000000
10
-235.9871903040
20
-39.9406891576
30
0.0000000000
10
-235.4608038354
20
-40.1062926574
30
0.0000000000
10
-235.1470311971
20
-40.0345255881
30
0.0000000000
10
-235.0377930686
20
-39.9813277871
30
0.0000000000
11
-237.2635192956
21
-38.1146400547
31
0.0000000000
11
-237.2391843020
21
-38.2038281593
31
0.0000000000
11
-236.9326213371
21
-38.9190273650
31
0.0000000000
11
-236.4738174373
21
-39.5238907340
31
0.0000000000
11
-235.9326213371
21
-39.9263333012
31
0.0000000000
11
-235.3914252370
21
-40.0650868341
31
0.0000000000
11
-235.0377930686
21
-39.9813277871
31
0.0000000000
0
SPLINE
5
555
100
AcDbEntity
8
0
100
AcDbSpline
62
7
6
CONTINUOUS
70
0
71
3
72
12
73
8
74
6
42
0.0000001000
43
0.0000001000
44
0.0000000001
12
-2.6293908968
22
-1.3146954484
32
0.0000000000
13
0.0000000000
23
-2.9397483923
33
0.0000000000
40
0.0000000000
40
0.0000000000
40
0.0000000000
40
0.0000000000
40
0.1814757701
40
0.3832809679
40
0.5948581460
40
0.8043620409
40
1.0000000000
40
1.0000000000
40
1.0000000000
40
1.0000000000
10
16.9994742933
20
-155.1697670126
30
0.0000000000
10
16.8404173806
20
-155.2492954690
30
0.0000000000
10
16.5313331925
20
-155.4720129958
30
0.0000000000
10
16.1455614610
20
-155.9138527485
30
0.0000000000
10
15.8385490334
20
-156.4458610552
30
0.0000000000
10
15.6381916375
20
-157.0195514007
30
0.0000000000
10
15.5852607309
20
-157.4172158095
30
0.0000000000
10
15.5852607309
20
-157.6089246014
30
0.0000000000
11
16.9994742933
21
-155.1697670126
31
0.0000000000
11
16.5612952956
21
-155.4740925908
31
0.0000000000
11
16.1672303229
21
-155.9175630845
31
0.0000000000
11
15.8553882467
21
-156.4557249600
31
0.0000000000
11
15.6547290663
21
-157.0380091100
31
0.0000000000
11
15.5852607309
21
-157.6089246014
31
0.0000000000
0
SPLINE
5
556
100
AcDbEntity
8
0
100
AcDbSpline
62
7
6
CONTINUOUS
70
0
71
3
72
10
73
6
74
4
42
0.0000001000
43
0.0000001000
44
0.0000000001
12
0.0000000000
22
-1.4626667332
32
0.0000000000
13
-1.2849913078
23
-0.6424956539
33
0.0000000000
40
0.0000000000
40
0.0000000000
40
0.0000000000
40
0.0000000000
40
0.1639323906
40
0.5334517413
40
1.0000000000
40
1.0000000000
40
1.0000000000
40
1.0000000000
10
33.7851889855
20
-153.0823587828
30
0.0000000000
10
33.7851889855
20
-153.1622849342
30
0.0000000000
10
33.7479386312
20
-153.4223723061
30
0.0000000000
10
33.4508797369
20
-153.8253123542
30
0.0000000000
10
33.1092136890
20
-154.0431005450
30
0.0000000000
10
32.9093768700
20
-154.1430189546
30
0.0000000000
11
33.7851889855
21
-153.0823587828
31
0.0000000000
11
33.7508473244
21
-153.3178745398
31
0.0000000000
11
33.4614768750
21
-153.7629511057
31
0.0000000000
11
32.9093768700
21
-154.1430189546
31
0.0000000000
0
SPLINE
5
557
100
AcDbEntity
8
0
100
AcDbSpline
62
7
6
CONTINUOUS
70
0
71
3
72
13
73
9
74
7
42
0.0000001000
43
0.0000001000
44
0.0000000001
12
0.8044491080
22
-3.1376318530
32
0.0000000000
13
2.9325269283
23
1.4281092702
33
0.0000000000
40
0.0000000000
40
0.0000000000
40
0.0000000000
40
0.0000000000
40
0.0285506421
40
0.2700133200
40
0.5055960442
40
0.7148780553
40
0.8882484650
40
1.0000000000
40
1.0000000000
40
1.0000000000
40
1.0000000000
10
-50.4459077061
20
-162.7003603857
30
0.0000000000
10
-50.4382518599
20
-162.7302208537
30
0.0000000000
10
-50.3614527439
20
-163.0114422401
30
0.0000000000
10
-50.1442935126
20
-163.5139280942
30
0.0000000000
10
-49.6992462102
20
-164.1116647478
30
0.0000000000
10
-49.1695787145
20
-164.5264094886
30
0.0000000000
10
-48.6431922459
20
-164.6920129883
30
0.0000000000
10
-48.3294196076
20
-164.6202459191
30
0.0000000000
10
-48.2201814791
20
-164.5670481180
30
0.0000000000
11
-50.4459077061
21
-162.7003603857
31
0.0000000000
11
-50.4215727125
21
-162.7895484903
31
0.0000000000
11
-50.1150097477
21
-163.5047476960
31
0.0000000000
11
-49.6562058478
21
-164.1096110649
31
0.0000000000
11
-49.1150097477
21
-164.5120536322
31
0.0000000000
11
-48.5738136475
21
-164.6508071651
31
0.0000000000
11
-48.2201814791
21
-164.5670481180
31
0.0000000000
0
SPLINE
5
558
100
AcDbEntity
8
0
100
AcDbSpline
62
7
6
CONTINUOUS
70
0
71
3
72
10
73
6
74
4
42
0.0000001000
43
0.0000001000
44
0.0000000001
12
-0.8294356848
22
0.4194917342
32
0.0000000000
13
-0.8249996675
23
-0.4124998338
33
0.0000000000
40
0.0000000000
40
0.0000000000
40
0.0000000000
40
0.0000000000
40
0.0737661057
40
0.5036910083
40
1.0000000000
40
1.0000000000
40
1.0000000000
40
1.0000000000
10
30.3383298074
20
-148.8904246463
30
0.0000000000
10
30.3179350606
20
-148.8801098891
30
0.0000000000
10
30.1756035711
20
-148.8161645135
30
0.0000000000
10
29.8571349118
20
-148.7847616861
30
0.0000000000
10
29.5810385599
20
-148.8789848793
30
0.0000000000
10
29.4445536422
20
-148.9472273382
30
0.0000000000
11
30.3383298074
21
-148.8904246463
31
0.0000000000
11
30.2758581099
21
-148.8624123939
31
0.0000000000
11
29.8823438597
21
-148.8134132169
31
0.0000000000
11
29.4445536422
21
-148.9472273382
31
0.0000000000
0
SPLINE
5
559
100
AcDbEntity
8
0
100
AcDbSpline
62
7
6
CONTINUOUS
70
0
71
3
72
9
73
5
74
3
42
0.0000001000
43
0.0000001000
44
0.0000000001
12
1.2326630214
22
0.6163315107
32
0.0000000000
13
1.2530346746
23
-0.6114393937
33
0.0000000000
40
0.0000000000
40
0.0000000000
40
0.0000000000
40
0.0000000000
40
0.6080938427
40
1.0000000000
40
1.0000000000
40
1.0000000000
40
1.0000000000
10
18.0601344651
20
-144.1203215407
30
0.0000000000
10
18.3099927296
20
-143.9953924085
30
0.0000000000
10
18.7684211366
20
-143.8499814802
30
0.0000000000
10
19.2387510114
20
-143.9578192104
30
0.0000000000
10
19.4024416795
20
-144.0376948315
30
0.0000000000
11
18.0601344651
21
-144.1203215407
31
0.0000000000
11
18.8719286153
21
-143.9121912414
31
0.0000000000
11
19.4024416795
21
-144.0376948315
31
0.0000000000
0
SPLINE
5
55A
100
AcDbEntity
8
0
100
AcDbSpline
62
7
6
CONTINUOUS
70
0
71
3
72
13
73
9
74
7
42
0.0000001000
43
0.0000001000
44
0.0000000001
12
0.8044491080
22
-3.1376318530
32
0.0000000000
13
2.9325269283
23
1.4281092702
33
0.0000000000
40
0.0000000000
40
0.0000000000
40
0.0000000000
40
0.0000000000
40
0.0285506421
40
0.2700133200
40
0.5055960442
40
0.7148780553
40
0.8882484650
40
1.0000000000
40
1.0000000000
40
1.0000000000
40
1.0000000000
10
-162.5930432023
20
-106.6267926376
30
0.0000000000
10
-162.5853873561
20
-106.6566531056
30
0.0000000000
10
-162.5085882401
20
-106.9378744920
30
0.0000000000
10
-162.2914290088
20
-107.4403603461
30
0.0000000000
10
-161.8463817064
20
-108.0380969997
30
0.0000000000
10
-161.3167142107
20
-108.4528417405
30
0.0000000000
10
-160.7903277421
20
-108.6184452402
30
0.0000000000
10
-160.4765551038
20
-108.5466781710
30
0.0000000000
10
-160.3673169753
20
-108.4934803700
30
0.0000000000
11
-162.5930432023
21
-106.6267926376
31
0.0000000000
11
-162.5687082087
21
-106.7159807422
31
0.0000000000
11
-162.2621452439
21
-107.4311799479
31
0.0000000000
11
-161.8033413440
21
-108.0360433168
31
0.0000000000
11
-161.2621452439
21
-108.4384858841
31
0.0000000000
11
-160.7209491437
21
-108.5772394170
31
0.0000000000
11
-160.3673169753
21
-108.4934803700
31
0.0000000000
0
SPLINE
5
55B
100
AcDbEntity
8
0
100
AcDbSpline
62
7
6
CONTINUOUS
70
0
71
3
72
11
73
7
74
5
42
0.0000001000
43
0.0000001000
44
0.0000000001
12
0.0000000000
22
3.0279448470
32
0.0000000000
13
1.9316833885
23
2.3317481174
33
0.0000000000
40
0.0000000000
40
0.0000000000
40
0.0000000000
40
0.0000000000
40
0.2352255441
40
0.4870808209
40
0.7456501518
40
1.0000000000
40
1.0000000000
40
1.0000000000
40
1.0000000000
10
-291.4758589994
20
6.4752523691
30
0.0000000000
10
-291.4758589994
20
6.7126690272
30
0.0000000000
10
-291.4214887766
20
7.2049725445
30
0.0000000000
10
-291.2084971203
20
7.9301341029
30
0.0000000000
10
-290.8745983935
20
8.6295079506
30
0.0000000000
10
-290.5789732864
20
9.0578891951
30
0.0000000000
10
-290.4151988276
20
9.2555824550
30
0.0000000000
11
-291.4758589994
21
6.4752523691
31
0.0000000000
11
-291.4035767615
21
7.1838250922
31
0.0000000000
11
-291.1916559629
21
7.9163919930
31
0.0000000000
11
-290.8545386558
21
8.6230298480
31
0.0000000000
11
-290.4151988276
21
9.2555824550
31
0.0000000000
0
SPLINE
5
55C
100
AcDbEntity
8
0
100
AcDbSpline
62
7
6
CONTINUOUS
70
0
71
3
72
8
73
4
74
2
42
0.0000001000
43
0.0000001000
44
0.0000000001
12
-0.2917223201
22
0.0604176707
32
0.0000000000
13
-0.2690109070
23
0.1346209886
33
0.0000000000
40
0.0000000000
40
0.0000000000
40
0.0000000000
40
0.0000000000
40
1.0000000000
40
1.0000000000
40
1.0000000000
40
1.0000000000
10
63.1381917657
20
-204.4669475066
30
0.0000000000
10
63.0409509923
20
-204.4468082830
30
0.0000000000
10
62.9454790086
20
-204.4135779673
30
0.0000000000
10
62.8558087063
20
-204.3687043044
30
0.0000000000
11
63.1381917657
21
-204.4669475066
31
0.0000000000
11
62.8558087063
21
-204.3687043044
31
0.0000000000
0
SPLINE
5
55D
100
AcDbEntity
8
0
100
AcDbSpline
62
7
6
CONTINUOUS
70
0
71
3
72
14
73
10
74
8
42
0.0000001000
43
0.0000001000
44
0.0000000001
12
6.1254187515
22
3.0745491257
32
0.0000000000
13
0.0000000000
23
-6.7538146573
33
0.0000000000
40
0.0000000000
40
0.0000000000
40
0.0000000000
40
0.0000000000
40
0.0507960502
40
0.1705604119
40
0.3128454192
40
0.4774474587
40
0.6554510913
40
0.8339756351
40
1.0000000000
40
1.0000000000
40
1.0000000000
40
1.0000000000
10
37.1791779972
20
-171.7287773902
30
0.0000000000
10
37.2828936900
20
-171.6767190730
30
0.0000000000
10
37.6524106198
20
-171.5451060502
30
0.0000000000
10
38.3835254804
20
-171.6150231828
30
0.0000000000
10
39.2430684008
20
-172.0782060040
30
0.0000000000
10
40.0336648529
20
-172.8468731797
30
0.0000000000
10
40.6766315770
20
-173.8389740645
30
0.0000000000
10
41.1031061714
20
-174.9437430767
30
0.0000000000
10
41.2178815489
20
-175.7207693079
30
0.0000000000
10
41.2178815489
20
-176.0945352375
30
0.0000000000
11
37.1791779972
21
-171.7287773902
31
0.0000000000
11
37.5055709477
21
-171.6133799369
31
0.0000000000
11
38.3132505009
21
-171.6571798517
31
0.0000000000
11
39.1727651287
21
-172.0869371655
31
0.0000000000
11
39.9804446818
21
-172.8508168040
31
0.0000000000
11
40.6388710862
21
-173.8566836089
31
0.0000000000
11
41.0686284001
21
-174.9832151986
31
0.0000000000
11
41.2178815489
21
-176.0945352375
31
0.0000000000
0
SPLINE
5
55E
100
AcDbEntity
8
0
100
AcDbSpline
62
7
6
CONTINUOUS
70
0
71
3
72
12
73
8
74
6
42
0.0000001000
43
0.0000001000
44
0.0000000001
12
-1.6280896303
22
-2.8080392401
32
0.0000000000
13
-3.1784326788
23
0.6582749613
33
0.0000000000
40
0.0000000000
40
0.0000000000
40
0.0000000000
40
0.0000000000
40
0.2372720071
40
0.4609986861
40
0.6637828746
40
0.8423739769
40
1.0000000000
40
1.0000000000
40
1.0000000000
40
1.0000000000
10
71.5376867023
20
-203.9829970018
30
0.0000000000
10
71.4089200042
20
-204.2050867040
30
0.0000000000
10
71.1241705360
20
-204.6178018615
30
0.0000000000
10
70.6192794327
20
-205.1339070219
30
0.0000000000
10
70.0733010403
20
-205.5049729380
30
0.0000000000
10
69.5180543106
20
-205.7062679076
30
0.0000000000
10
69.1440277648
20
-205.7107968687
30
0.0000000000
10
68.9770265305
20
-205.6762097806
30
0.0000000000
11
71.5376867023
21
-203.9829970018
31
0.0000000000
11
71.0983468741
21
-204.6155496089
31
0.0000000000
11
70.5867248080
21
-205.1309095531
31
0.0000000000
11
70.0376867023
21
-205.4939559061
31
0.0000000000
11
69.4886485966
21
-205.6799476588
31
0.0000000000
11
68.9770265305
21
-205.6762097806
31
0.0000000000
0
SPLINE
5
55F
100
AcDbEntity
8
0
100
AcDbSpline
62
7
6
CONTINUOUS
70
0
71
3
72
10
73
6
74
4
42
0.0000001000
43
0.0000001000
44
0.0000000001
12
0.0000000000
22
-2.1936301704
32
0.0000000000
13
-1.9895280018
23
-0.9986095362
33
0.0000000000
40
0.0000000000
40
0.0000000000
40
0.0000000000
40
0.0000000000
40
0.4438193307
40
0.8170129252
40
1.0000000000
40
1.0000000000
40
1.0000000000
40
1.0000000000
10
41.2178815489
20
-176.0945352375
30
0.0000000000
10
41.2178815489
20
-176.4190603955
30
0.0000000000
10
41.1425775180
20
-177.0226411518
30
0.0000000000
10
40.7706826647
20
-177.6858550160
30
0.0000000000
10
40.4281902688
20
-177.9245084713
30
0.0000000000
10
40.3068376324
20
-177.9854193506
30
0.0000000000
11
41.2178815489
21
-176.0945352375
31
0.0000000000
11
41.0686284001
21
-177.0566021277
31
0.0000000000
11
40.6388710862
21
-177.7533764035
31
0.0000000000
11
40.3068376324
21
-177.9854193506
31
0.0000000000
0
SPLINE
5
560
100
AcDbEntity
8
0
100
AcDbSpline
62
7
6
CONTINUOUS
70
0
71
3
72
10
73
6
74
4
42
0.0000001000
43
0.0000001000
44
0.0000000001
12
0.0000000000
22
2.1936301704
32
0.0000000000
13
1.9895280018
23
0.9986095362
33
0.0000000000
40
0.0000000000
40
0.0000000000
40
0.0000000000
40
0.0000000000
40
0.4438193307
40
0.8170129252
40
1.0000000000
40
1.0000000000
40
1.0000000000
40
1.0000000000
10
36.2681340806
20
-173.6196615034
30
0.0000000000
10
36.2681340806
20
-173.2951363454
30
0.0000000000
10
36.3434381115
20
-172.6915555891
30
0.0000000000
10
36.7153329648
20
-172.0283417248
30
0.0000000000
10
37.0578253607
20
-171.7896882695
30
0.0000000000
10
37.1791779972
20
-171.7287773902
30
0.0000000000
11
36.2681340806
21
-173.6196615034
31
0.0000000000
11
36.4173872294
21
-172.6575946132
31
0.0000000000
11
36.8471445433
21
-171.9608203374
31
0.0000000000
11
37.1791779972
21
-171.7287773902
31
0.0000000000
0
SPLINE
5
561
100
AcDbEntity
8
0
100
AcDbSpline
62
7
6
CONTINUOUS
70
0
71
3
72
8
73
4
74
2
42
0.0000001000
43
0.0000001000
44
0.0000000001
12
0.0000000000
22
0.3500188043
32
0.0000000000
13
0.0354230370
23
0.3496124978
33
0.0000000000
40
0.0000000000
40
0.0000000000
40
0.0000000000
40
0.0000000000
40
1.0000000000
40
1.0000000000
40
1.0000000000
40
1.0000000000
10
13.6407170826
20
-162.3059530044
30
0.0000000000
10
13.6407170826
20
-162.1892800696
30
0.0000000000
10
13.6460044443
20
-162.0721737286
30
0.0000000000
10
13.6578121233
20
-161.9556362293
30
0.0000000000
11
13.6407170826
21
-162.3059530044
31
0.0000000000
11
13.6578121233
21
-161.9556362293
31
0.0000000000
0
SPLINE
5
562
100
AcDbEntity
8
0
100
AcDbSpline
62
7
6
CONTINUOUS
70
0
71
3
72
8
73
4
74
2
42
0.0000001000
43
0.0000001000
44
0.0000000001
12
0.0327235477
22
0.3229695199
32
0.0000000000
13
0.0690259482
23
0.3176864535
33
0.0000000000
40
0.0000000000
40
0.0000000000
40
0.0000000000
40
0.0000000000
40
1.0000000000
40
1.0000000000
40
1.0000000000
40
1.0000000000
10
13.6578121233
20
-161.9556362293
30
0.0000000000
10
13.6687199725
20
-161.8479797227
30
0.0000000000
10
13.6851922163
20
-161.7408086617
30
0.0000000000
10
13.7082008656
20
-161.6349131772
30
0.0000000000
11
13.6578121233
21
-161.9556362293
31
0.0000000000
11
13.7082008656
21
-161.6349131772
31
0.0000000000
0
SPLINE
5
563
100
AcDbEntity
8
0
100
AcDbSpline
62
7
6
CONTINUOUS
70
0
71
3
72
8
73
4
74
2
42
0.0000001000
43
0.0000001000
44
0.0000000001
12
0.0225224055
22
0.1036575855
32
0.0000000000
13
0.0267990738
23
0.1027604208
33
0.0000000000
40
0.0000000000
40
0.0000000000
40
0.0000000000
40
0.0000000000
40
1.0000000000
40
1.0000000000
40
1.0000000000
40
1.0000000000
10
13.7082008656
20
-161.6349131772
30
0.0000000000
10
13.7157083341
20
-161.6003606487
30
0.0000000000
10
13.7239116977
20
-161.5659439238
30
0.0000000000
10
13.7328447224
20
-161.5316904502
30
0.0000000000
11
13.7082008656
21
-161.6349131772
31
0.0000000000
11
13.7328447224
21
-161.5316904502
31
0.0000000000
0
SPLINE
5
564
100
AcDbEntity
8
0
100
AcDbSpline
62
7
6
CONTINUOUS
70
0
71
3
72
8
73
4
74
2
42
0.0000001000
43
0.0000001000
44
0.0000000001
12
-0.1307827423
22
0.7332279251
32
0.0000000000
13
0.0000000000
23
0.7418846080
33
0.0000000000
40
0.0000000000
40
0.0000000000
40
0.0000000000
40
0.0000000000
40
1.0000000000
40
1.0000000000
40
1.0000000000
40
1.0000000000
10
13.7085216467
20
-163.0452374642
30
0.0000000000
10
13.6649273992
20
-162.8008281559
30
0.0000000000
10
13.6407170826
20
-162.5532478737
30
0.0000000000
10
13.6407170826
20
-162.3059530044
30
0.0000000000
11
13.7085216467
21
-163.0452374642
31
0.0000000000
11
13.6407170826
21
-162.3059530044
31
0.0000000000
0
SPLINE
5
565
100
AcDbEntity
8
0
100
AcDbSpline
62
7
6
CONTINUOUS
70
0
71
3
72
11
73
7
74
5
42
0.0000001000
43
0.0000001000
44
0.0000000001
12
0.0000000000
22
3.0279448470
32
0.0000000000
13
1.9316833885
23
2.3317481174
33
0.0000000000
40
0.0000000000
40
0.0000000000
40
0.0000000000
40
0.0000000000
40
0.2352255441
40
0.4870808209
40
0.7456501518
40
1.0000000000
40
1.0000000000
40
1.0000000000
40
1.0000000000
10
62.0775315939
20
-170.3014429275
30
0.0000000000
10
62.0775315939
20
-170.0640262694
30
0.0000000000
10
62.1319018167
20
-169.5717227521
30
0.0000000000
10
62.3448934730
20
-168.8465611937
30
0.0000000000
10
62.6787921998
20
-168.1471873460
30
0.0000000000
10
62.9744173068
20
-167.7188061015
30
0.0000000000
10
63.1381917657
20
-167.5211128416
30
0.0000000000
11
62.0775315939
21
-170.3014429275
31
0.0000000000
11
62.1498138318
21
-169.5928702044
31
0.0000000000
11
62.3617346304
21
-168.8603033036
31
0.0000000000
11
62.6988519375
21
-168.1536654486
31
0.0000000000
11
63.1381917657
21
-167.5211128416
31
0.0000000000
0
SPLINE
5
566
100
AcDbEntity
8
0
100
AcDbSpline
62
7
6
CONTINUOUS
70
0
71
3
72
8
73
4
74
2
42
0.0000001000
43
0.0000001000
44
0.0000000001
12
-0.1643752558
22
0.0822582239
32
0.0000000000
13
-0.1486182218
23
0.1073506421
33
0.0000000000
40
0.0000000000
40
0.0000000000
40
0.0000000000
40
0.0000000000
40
1.0000000000
40
1.0000000000
40
1.0000000000
40
1.0000000000
10
62.8558087063
20
-204.3687043044
30
0.0000000000
10
62.8010169544
20
-204.3412848965
30
0.0000000000
10
62.7483913447
20
-204.3095182752
30
0.0000000000
10
62.6988519375
20
-204.2737347278
30
0.0000000000
11
62.8558087063
21
-204.3687043044
31
0.0000000000
11
62.6988519375
21
-204.2737347278
31
0.0000000000
0
SPLINE
5
567
100
AcDbEntity
8
0
100
AcDbSpline
62
7
6
CONTINUOUS
70
0
71
3
72
10
73
6
74
4
42
0.0000001000
43
0.0000001000
44
0.0000000001
12
-1.3901255686
22
1.0041223120
32
0.0000000000
13
0.0000000000
23
1.7026998755
33
0.0000000000
40
0.0000000000
40
0.0000000000
40
0.0000000000
40
0.0000000000
40
0.2937649105
40
0.6239014613
40
1.0000000000
40
1.0000000000
40
1.0000000000
40
1.0000000000
10
62.6988519375
20
-204.2737347278
30
0.0000000000
10
62.5627285664
20
-204.1754094274
30
0.0000000000
10
62.3231166060
20
-203.9021719416
30
0.0000000000
10
62.1172681081
20
-203.3638263838
30
0.0000000000
10
62.0775315939
20
-202.9607385708
30
0.0000000000
10
62.0775315939
20
-202.7472775925
30
0.0000000000
11
62.6988519375
21
-204.2737347278
31
0.0000000000
11
62.3617346304
21
-203.9042141799
31
0.0000000000
11
62.1498138318
21
-203.3835680777
31
0.0000000000
11
62.0775315939
21
-202.7472775925
31
0.0000000000
0
SPLINE
5
568
100
AcDbEntity
8
0
100
AcDbSpline
62
7
6
CONTINUOUS
70
0
71
3
72
14
73
10
74
8
42
0.0000001000
43
0.0000001000
44
0.0000000001
12
-6.1254187515
22
-3.0745491257
32
0.0000000000
13
0.0000000000
23
6.7538146573
33
0.0000000000
40
0.0000000000
40
0.0000000000
40
0.0000000000
40
0.0000000000
40
0.0507960502
40
0.1705604119
40
0.3128454192
40
0.4774474587
40
0.6554510913
40
0.8339756351
40
1.0000000000
40
1.0000000000
40
1.0000000000
40
1.0000000000
10
40.3068376324
20
-177.9854193506
30
0.0000000000
10
40.2031219395
20
-178.0374776679
30
0.0000000000
10
39.8336050098
20
-178.1690906906
30
0.0000000000
10
39.1024901491
20
-178.0991735581
30
0.0000000000
10
38.2429472287
20
-177.6359907369
30
0.0000000000
10
37.4523507766
20
-176.8673235611
30
0.0000000000
10
36.8093840525
20
-175.8752226763
30
0.0000000000
10
36.3829094581
20
-174.7704536642
30
0.0000000000
10
36.2681340806
20
-173.9934274330
30
0.0000000000
10
36.2681340806
20
-173.6196615034
30
0.0000000000
11
40.3068376324
21
-177.9854193506
31
0.0000000000
11
39.9804446818
21
-178.1008168040
31
0.0000000000
11
39.1727651287
21
-178.0570168892
31
0.0000000000
11
38.3132505009
21
-177.6272595753
31
0.0000000000
11
37.5055709477
21
-176.8633799369
31
0.0000000000
11
36.8471445433
21
-175.8575131320
31
0.0000000000
11
36.4173872294
21
-174.7309815423
31
0.0000000000
11
36.2681340806
21
-173.6196615034
31
0.0000000000
0
SPLINE
5
569
100
AcDbEntity
8
0
100
AcDbSpline
62
7
6
CONTINUOUS
70
0
71
3
72
9
73
5
74
3
42
0.0000001000
43
0.0000001000
44
0.0000000001
12
0.0000000000
22
-1.2407119359
32
0.0000000000
13
-0.5353097378
23
-1.1218445422
33
0.0000000000
40
0.0000000000
40
0.0000000000
40
0.0000000000
40
0.0000000000
40
0.5826951974
40
1.0000000000
40
1.0000000000
40
1.0000000000
40
1.0000000000
10
399.7210196105
20
-18.6356549892
30
0.0000000000
10
399.7210196105
20
-18.8766406180
30
0.0000000000
10
399.6523552556
20
-19.2909197966
30
0.0000000000
10
399.5037468253
20
-19.6792446364
30
0.0000000000
10
399.4292843838
20
-19.8352950081
30
0.0000000000
11
399.7210196105
21
-18.6356549892
31
0.0000000000
11
399.6138551237
21
-19.3506252210
31
0.0000000000
11
399.4292843838
21
-19.8352950081
31
0.0000000000
0
SPLINE
5
56A
100
AcDbEntity
8
0
100
AcDbSpline
62
7
6
CONTINUOUS
70
0
71
3
72
9
73
5
74
3
42
0.0000001000
43
0.0000001000
44
0.0000000001
12
-0.1768365259
22
-0.3705949610
32
0.0000000000
13
-0.2218628229
23
-0.3455206632
33
0.0000000000
40
0.0000000000
40
0.0000000000
40
0.0000000000
40
0.0000000000
40
0.6326135221
40
1.0000000000
40
1.0000000000
40
1.0000000000
40
1.0000000000
10
399.4292843838
20
-19.8352950081
30
0.0000000000
10
399.3919946580
20
-19.9134428026
30
0.0000000000
10
399.3281146278
20
-20.0345961011
30
0.0000000000
10
399.2568970438
20
-20.1515254792
30
0.0000000000
10
399.2297272435
20
-20.1938386857
30
0.0000000000
11
399.4292843838
21
-19.8352950081
31
0.0000000000
11
399.3082354282
21
-20.0650388200
31
0.0000000000
11
399.2297272435
21
-20.1938386857
31
0.0000000000
0
SPLINE
5
56B
100
AcDbEntity
8
0
100
AcDbSpline
62
7
6
CONTINUOUS
70
0
71
3
72
9
73
5
74
3
42
0.0000001000
43
0.0000001000
44
0.0000000001
12
-0.8217938267
22
-0.4108969133
32
0.0000000000
13
-0.8354352374
23
0.4078155139
33
0.0000000000
40
0.0000000000
40
0.0000000000
40
0.0000000000
40
0.0000000000
40
0.6105998696
40
1.0000000000
40
1.0000000000
40
1.0000000000
40
1.0000000000
10
90.0082494508
20
-175.2240908766
30
0.0000000000
10
89.8409870497
20
-175.3077220772
30
0.0000000000
10
89.5350823609
20
-175.4045093736
30
0.0000000000
10
89.2217805628
20
-175.3320652099
30
0.0000000000
10
89.1133410327
20
-175.2791307384
30
0.0000000000
11
90.0082494508
21
-175.2240908766
31
0.0000000000
11
89.4646584430
21
-175.3628237606
31
0.0000000000
11
89.1133410327
21
-175.2791307384
31
0.0000000000
0
SPLINE
5
56C
100
AcDbEntity
8
0
100
AcDbSpline
62
7
6
CONTINUOUS
70
0
71
3
72
9
73
5
74
3
42
0.0000001000
43
0.0000001000
44
0.0000000001
12
0.5601534599
22
0.2734014128
32
0.0000000000
13
0.3514183503
23
0.5186551613
33
0.0000000000
40
0.0000000000
40
0.0000000000
40
0.0000000000
40
0.0000000000
40
0.2956056173
40
1.0000000000
40
1.0000000000
40
1.0000000000
40
1.0000000000
10
81.8046320943
20
-184.2553507160
30
0.0000000000
10
81.8598269307
20
-184.2284110516
30
0.0000000000
10
82.0385991687
20
-184.1227893725
30
0.0000000000
10
82.1806229181
20
-183.9686886416
30
0.0000000000
10
82.2631352888
20
-183.8469093809
30
0.0000000000
11
81.8046320943
21
-184.2553507160
31
0.0000000000
11
81.9623079048
21
-184.1617300988
31
0.0000000000
11
82.2631352888
21
-183.8469093809
31
0.0000000000
0
SPLINE
5
56D
100
AcDbEntity
8
0
100
AcDbSpline
62
7
6
CONTINUOUS
70
0
71
3
72
9
73
5
74
3
42
0.0000001000
43
0.0000001000
44
0.0000000001
12
0.5323971187
22
0.7857600869
32
0.0000000000
13
0.1021867117
23
0.9329592876
33
0.0000000000
40
0.0000000000
40
0.0000000000
40
0.0000000000
40
0.0000000000
40
0.3559881278
40
1.0000000000
40
1.0000000000
40
1.0000000000
40
1.0000000000
10
82.2631352888
20
-183.8469093809
30
0.0000000000
10
82.3263109733
20
-183.7536689601
30
0.0000000000
10
82.4749119449
20
-183.4699599113
30
0.0000000000
10
82.5449271254
20
-183.1633740970
30
0.0000000000
10
82.5668636106
20
-182.9630951445
30
0.0000000000
11
82.2631352888
21
-183.8469093809
31
0.0000000000
11
82.4221523521
21
-183.5487757375
31
0.0000000000
11
82.5668636106
21
-182.9630951445
31
0.0000000000
0
SPLINE
5
56E
100
AcDbEntity
8
0
100
AcDbSpline
62
7
6
CONTINUOUS
70
0
71
3
72
12
73
8
74
6
42
0.0000001000
43
0.0000001000
44
0.0000000001
12
0.5179559165
22
4.7289101958
32
0.0000000000
13
-4.2317088499
23
2.1158544250
33
0.0000000000
40
0.0000000000
40
0.0000000000
40
0.0000000000
40
0.0000000000
40
0.0690180113
40
0.2987779497
40
0.5454808364
40
0.7861761630
40
1.0000000000
40
1.0000000000
40
1.0000000000
40
1.0000000000
10
82.5668636106
20
-182.9630951445
30
0.0000000000
10
82.5787797064
20
-182.8543018188
30
0.0000000000
10
82.6007877045
20
-182.3797169657
30
0.0000000000
10
82.4589770967
20
-181.5211443295
30
0.0000000000
10
82.0056629084
20
-180.4731514682
30
0.0000000000
10
81.3402846532
20
-179.5782939213
30
0.0000000000
10
80.7639213125
20
-179.1273432842
30
0.0000000000
10
80.4623079048
20
-178.9765365803
30
0.0000000000
11
82.5668636106
21
-182.9630951445
31
0.0000000000
11
82.5836282483
21
-182.6352729635
31
0.0000000000
11
82.4221523521
21
-181.5602942933
31
0.0000000000
11
81.9623079048
21
-180.4874954846
31
0.0000000000
11
81.2741020550
21
-179.5802004312
31
0.0000000000
11
80.4623079048
21
-178.9765365803
31
0.0000000000
0
SPLINE
5
56F
100
AcDbEntity
8
0
100
AcDbSpline
62
7
6
CONTINUOUS
70
0
71
3
72
9
73
5
74
3
42
0.0000001000
43
0.0000001000
44
0.0000000001
12
0.8184226633
22
0.4092113317
32
0.0000000000
13
0.8383897788
23
-0.4171701239
33
0.0000000000
40
0.0000000000
40
0.0000000000
40
0.0000000000
40
0.0000000000
40
0.6866907283
40
1.0000000000
40
1.0000000000
40
1.0000000000
40
1.0000000000
10
-93.1324068765
20
228.1088954995
30
0.0000000000
10
-92.9450724583
20
228.2025627087
30
0.0000000000
10
-92.6313985482
20
228.2964180357
30
0.0000000000
10
-92.3273188222
20
228.2051556132
30
0.0000000000
10
-92.2397603919
20
228.1615878573
30
0.0000000000
11
-93.1324068765
21
228.1088954995
31
0.0000000000
11
-92.5188026082
21
228.2441706814
31
0.0000000000
11
-92.2397603919
21
228.1615878573
31
0.0000000000
0
SPLINE
5
570
100
AcDbEntity
8
0
100
AcDbSpline
62
7
6
CONTINUOUS
70
0
71
3
72
9
73
5
74
3
42
0.0000001000
43
0.0000001000
44
0.0000000001
12
-1.0181359521
22
0.5090679761
32
0.0000000000
13
-1.0278408397
23
-0.5415626794
33
0.0000000000
40
0.0000000000
40
0.0000000000
40
0.0000000000
40
0.0000000000
40
0.7878668781
40
1.0000000000
40
1.0000000000
40
1.0000000000
40
1.0000000000
10
-104.0925619849
20
222.6288179453
30
0.0000000000
10
-104.3599471829
20
222.7625105443
30
0.0000000000
10
-104.7706752004
20
222.8713251404
30
0.0000000000
10
-105.1319461034
20
222.7332108608
30
0.0000000000
10
-105.2046257988
20
222.6949164002
30
0.0000000000
11
-104.0925619849
21
222.6288179453
31
0.0000000000
11
-104.9764454614
21
222.7806961741
31
0.0000000000
11
-105.2046257988
21
222.6949164002
31
0.0000000000
0
SPLINE
5
571
100
AcDbEntity
8
0
100
AcDbSpline
62
7
6
CONTINUOUS
70
0
71
3
72
9
73
5
74
3
42
0.0000001000
43
0.0000001000
44
0.0000000001
12
1.1199617721
22
0.5901006018
32
0.0000000000
13
0.0000000000
23
1.2403324592
33
0.0000000000
40
0.0000000000
40
0.0000000000
40
0.0000000000
40
0.0000000000
40
0.3596702216
40
1.0000000000
40
1.0000000000
40
1.0000000000
40
1.0000000000
10
374.4477197577
20
-61.6398586151
30
0.0000000000
10
374.5819920573
20
-61.5691114103
30
0.0000000000
10
374.9083654987
20
-61.2657038774
30
0.0000000000
10
374.9722822690
20
-60.8267764277
30
0.0000000000
10
374.9722822690
20
-60.5620358248
30
0.0000000000
11
374.4477197577
21
-61.6398586151
31
0.0000000000
11
374.7828135780
21
-61.3333268831
31
0.0000000000
11
374.9722822690
21
-60.5620358248
31
0.0000000000
0
SPLINE
5
572
100
AcDbEntity
8
0
100
AcDbSpline
62
7
6
CONTINUOUS
70
0
71
3
72
10
73
6
74
4
42
0.0000001000
43
0.0000001000
44
0.0000000001
12
0.0000000000
22
3.6617250388
32
0.0000000000
13
-3.2751464407
23
1.6375732203
33
0.0000000000
40
0.0000000000
40
0.0000000000
40
0.0000000000
40
0.0000000000
40
0.3342904765
40
0.6865843886
40
1.0000000000
40
1.0000000000
40
1.0000000000
40
1.0000000000
10
401.4887865635
20
-23.4880850735
30
0.0000000000
10
401.4887865635
20
-23.0800584709
30
0.0000000000
10
401.3026452518
20
-22.2402076889
30
0.0000000000
10
400.6900814701
20
-21.1699940690
30
0.0000000000
10
400.0631802853
20
-20.6102184249
30
0.0000000000
10
399.7210196105
20
-20.4391380875
30
0.0000000000
11
401.4887865635
21
-23.4880850735
31
0.0000000000
11
401.2519506997
21
-22.2871353869
31
0.0000000000
11
400.6049030870
21
-21.1711433352
31
0.0000000000
11
399.7210196105
21
-20.4391380875
31
0.0000000000
0
SPLINE
5
573
100
AcDbEntity
8
0
100
AcDbSpline
62
7
6
CONTINUOUS
70
0
71
3
72
9
73
5
74
3
42
0.0000001000
43
0.0000001000
44
0.0000000001
12
-0.7668011769
22
-0.4040225722
32
0.0000000000
13
-0.2921645903
23
-0.8081250250
33
0.0000000000
40
0.0000000000
40
0.0000000000
40
0.0000000000
40
0.0000000000
40
0.6566514744
40
1.0000000000
40
1.0000000000
40
1.0000000000
40
1.0000000000
10
-391.5828721793
20
79.5057932099
30
0.0000000000
10
-391.7507125538
20
79.4173592040
30
0.0000000000
10
-391.9741697693
20
79.2096259946
30
0.0000000000
10
-392.0992016849
20
78.9510707261
30
0.0000000000
10
-392.1326397786
20
78.8585812142
30
0.0000000000
11
-391.5828721793
21
79.5057932099
31
0.0000000000
11
-392.0017394547
21
79.1226285449
31
0.0000000000
11
-392.1326397786
21
78.8585812142
31
0.0000000000
0
SPLINE
5
574
100
AcDbEntity
8
0
100
AcDbSpline
62
7
6
CONTINUOUS
70
0
71
3
72
8
73
4
74
2
42
0.0000001000
43
0.0000001000
44
0.0000000001
12
-0.0977922517
22
-0.2704926212
32
0.0000000000
13
-0.0495405355
23
-0.2853486790
33
0.0000000000
40
0.0000000000
40
0.0000000000
40
0.0000000000
40
0.0000000000
40
1.0000000000
40
1.0000000000
40
1.0000000000
40
1.0000000000
10
-392.1326397786
20
78.8585812142
30
0.0000000000
10
-392.1652371959
20
78.7684170071
30
0.0000000000
10
-392.1888144370
20
78.6747223069
30
0.0000000000
10
-392.2053279489
20
78.5796060806
30
0.0000000000
11
-392.1326397786
21
78.8585812142
31
0.0000000000
11
-392.2053279489
21
78.5796060806
31
0.0000000000
0
SPLINE
5
575
100
AcDbEntity
8
0
100
AcDbSpline
62
7
6
CONTINUOUS
70
0
71
3
72
13
73
9
74
7
42
0.0000001000
43
0.0000001000
44
0.0000000001
12
-3.3607468712
22
1.6722570145
32
0.0000000000
13
2.7693860662
23
2.4529896192
33
0.0000000000
40
0.0000000000
40
0.0000000000
40
0.0000000000
40
0.0000000000
40
0.0704584205
40
0.2398178817
40
0.4499725373
40
0.6884592328
40
0.9277160312
40
1.0000000000
40
1.0000000000
40
1.0000000000
40
1.0000000000
10
-402.3236099585
20
70.4428232279
30
0.0000000000
10
-402.4025409306
20
70.4820980906
30
0.0000000000
10
-402.6498639251
20
70.6571958722
30
0.0000000000
10
-402.8698625722
20
71.1993352421
30
0.0000000000
10
-402.8433155867
20
71.9650707967
30
0.0000000000
10
-402.5704979000
20
72.7729693020
30
0.0000000000
10
-402.1945221612
20
73.3384605664
30
0.0000000000
10
-401.9208347135
20
73.6098621579
30
0.0000000000
10
-401.8541073082
20
73.6689660996
30
0.0000000000
11
-402.3236099585
21
70.4428232279
31
0.0000000000
11
-402.5366401599
21
70.5948120355
31
0.0000000000
11
-402.8097197496
21
71.1527706921
31
0.0000000000
11
-402.8097197496
21
71.9236058188
31
0.0000000000
11
-402.5366401599
21
72.7546440651
31
0.0000000000
11
-402.0445677422
21
73.4812881144
31
0.0000000000
11
-401.8541073082
21
73.6689660996
31
0.0000000000
0
SPLINE
5
576
100
AcDbEntity
8
0
100
AcDbSpline
62
7
6
CONTINUOUS
70
0
71
3
72
8
73
4
74
2
42
0.0000001000
43
0.0000001000
44
0.0000000001
12
0.3872389022
22
0.3429976841
32
0.0000000000
13
0.4587361364
23
0.2293680682
33
0.0000000000
40
0.0000000000
40
0.0000000000
40
0.0000000000
40
0.0000000000
40
1.0000000000
40
1.0000000000
40
1.0000000000
40
1.0000000000
10
-401.8541073082
20
73.6689660996
30
0.0000000000
10
-401.7250276741
20
73.7832986610
30
0.0000000000
10
-401.5838755193
20
73.8831611781
30
0.0000000000
10
-401.4309634739
20
73.9596172009
30
0.0000000000
11
-401.8541073082
21
73.6689660996
31
0.0000000000
11
-401.4309634739
21
73.9596172009
31
0.0000000000
0
SPLINE
5
577
100
AcDbEntity
8
0
100
AcDbSpline
62
7
6
CONTINUOUS
70
0
71
3
72
10
73
6
74
4
42
0.0000001000
43
0.0000001000
44
0.0000000001
12
1.1372222440
22
-0.5551320475
32
0.0000000000
13
-0.0000000000
23
-1.2506921894
33
0.0000000000
40
0.0000000000
40
0.0000000000
40
0.0000000000
40
0.0000000000
40
0.0984286346
40
0.5065286782
40
1.0000000000
40
1.0000000000
40
1.0000000000
40
1.0000000000
10
399.2017144662
20
-17.5556711010
30
0.0000000000
10
399.2390262105
20
-17.5738847308
30
0.0000000000
10
399.4227764782
20
-17.6826784581
30
0.0000000000
10
399.6703359229
20
-18.0485084476
30
0.0000000000
10
399.7210196105
20
-18.4299280799
30
0.0000000000
10
399.7210196105
20
-18.6356549892
30
0.0000000000
11
399.2017144662
21
-17.5556711010
31
0.0000000000
11
399.3082354282
21
-17.6190553407
31
0.0000000000
11
399.6138551237
21
-18.0278492442
31
0.0000000000
11
399.7210196105
21
-18.6356549892
31
0.0000000000
0
SPLINE
5
578
100
AcDbEntity
8
0
100
AcDbSpline
62
7
6
CONTINUOUS
70
0
71
3
72
8
73
4
74
2
42
0.0000001000
43
0.0000001000
44
0.0000000001
12
0.2403824849
22
-0.1201912425
32
0.0000000000
13
0.2672797295
23
-0.0746032809
33
0.0000000000
40
0.0000000000
40
0.0000000000
40
0.0000000000
40
0.0000000000
40
1.0000000000
40
1.0000000000
40
1.0000000000
40
1.0000000000
10
122.5351613854
20
-187.0984335118
30
0.0000000000
10
122.6152888803
20
-187.1384972593
30
0.0000000000
10
122.7017265501
20
-187.1731772144
30
0.0000000000
10
122.7908197932
20
-187.1980449746
30
0.0000000000
11
122.5351613854
21
-187.0984335118
31
0.0000000000
11
122.7908197932
21
-187.1980449746
31
0.0000000000
0
SPLINE
5
579
100
AcDbEntity
8
0
100
AcDbSpline
62
7
6
CONTINUOUS
70
0
71
3
72
8
73
4
74
2
42
0.0000001000
43
0.0000001000
44
0.0000000001
12
0.4462495620
22
-0.1245574495
32
0.0000000000
13
0.4396383192
23
0.1013854190
33
0.0000000000
40
0.0000000000
40
0.0000000000
40
0.0000000000
40
0.0000000000
40
1.0000000000
40
1.0000000000
40
1.0000000000
40
1.0000000000
10
122.7908197932
20
-187.1980449746
30
0.0000000000
10
122.9395696472
20
-187.2395641245
30
0.0000000000
10
123.0957220602
20
-187.2537312345
30
0.0000000000
10
123.2422681666
20
-187.2199360948
30
0.0000000000
11
122.7908197932
21
-187.1980449746
31
0.0000000000
11
123.2422681666
21
-187.2199360948
31
0.0000000000
0
SPLINE
5
57A
100
AcDbEntity
8
0
100
AcDbSpline
62
7
6
CONTINUOUS
70
0
71
3
72
8
73
4
74
2
42
0.0000001000
43
0.0000001000
44
0.0000000001
12
0.1892714819
22
0.0436480799
32
0.0000000000
13
0.1744312689
23
0.0919067055
33
0.0000000000
40
0.0000000000
40
0.0000000000
40
0.0000000000
40
0.0000000000
40
1.0000000000
40
1.0000000000
40
1.0000000000
40
1.0000000000
10
123.2422681666
20
-187.2199360948
30
0.0000000000
10
123.3053586605
20
-187.2053867348
30
0.0000000000
10
123.3666686801
20
-187.1819478442
30
0.0000000000
10
123.4248124365
20
-187.1513122757
30
0.0000000000
11
123.2422681666
21
-187.2199360948
31
0.0000000000
11
123.4248124365
21
-187.1513122757
31
0.0000000000
0
SPLINE
5
57B
100
AcDbEntity
8
0
100
AcDbSpline
62
7
6
CONTINUOUS
70
0
71
3
72
10
73
6
74
4
42
0.0000001000
43
0.0000001000
44
0.0000000001
12
-1.1372222440
22
0.5551320475
32
0.0000000000
13
0.0000000000
23
1.2506921894
33
0.0000000000
40
0.0000000000
40
0.0000000000
40
0.0000000000
40
0.0000000000
40
0.0984286346
40
0.5065286782
40
1.0000000000
40
1.0000000000
40
1.0000000000
40
1.0000000000
10
89.1133410327
20
-175.2791307384
30
0.0000000000
10
89.0760292884
20
-175.2609171086
30
0.0000000000
10
88.8922790207
20
-175.1521233813
30
0.0000000000
10
88.6447195760
20
-174.7862933918
30
0.0000000000
10
88.5940358884
20
-174.4048737595
30
0.0000000000
10
88.5940358884
20
-174.1991468502
30
0.0000000000
11
89.1133410327
21
-175.2791307384
31
0.0000000000
11
89.0068200707
21
-175.2157464987
31
0.0000000000
11
88.7012003752
21
-174.8069525952
31
0.0000000000
11
88.5940358884
21
-174.1991468502
31
0.0000000000
0
SPLINE
5
57C
100
AcDbEntity
8
0
100
AcDbSpline
62
7
6
CONTINUOUS
70
0
71
3
72
9
73
5
74
3
42
0.0000001000
43
0.0000001000
44
0.0000000001
12
0.8217938267
22
0.4108969133
32
0.0000000000
13
0.8354352374
23
-0.4078155139
33
0.0000000000
40
0.0000000000
40
0.0000000000
40
0.0000000000
40
0.0000000000
40
0.6105998696
40
1.0000000000
40
1.0000000000
40
1.0000000000
40
1.0000000000
10
398.3068060481
20
-17.6107109628
30
0.0000000000
10
398.4740684493
20
-17.5270797622
30
0.0000000000
10
398.7799731380
20
-17.4302924658
30
0.0000000000
10
399.0932749361
20
-17.5027366295
30
0.0000000000
10
399.2017144662
20
-17.5556711010
30
0.0000000000
11
398.3068060481
21
-17.6107109628
31
0.0000000000
11
398.8503970559
21
-17.4719780788
31
0.0000000000
11
399.2017144662
21
-17.5556711010
31
0.0000000000
0
SPLINE
5
57D
100
AcDbEntity
8
0
100
AcDbSpline
62
7
6
CONTINUOUS
70
0
71
3
72
9
73
5
74
3
42
0.0000001000
43
0.0000001000
44
0.0000000001
12
0.0000000000
22
1.2407119359
32
0.0000000000
13
0.5353097378
23
1.1218445422
33
0.0000000000
40
0.0000000000
40
0.0000000000
40
0.0000000000
40
0.0000000000
40
0.5826951974
40
1.0000000000
40
1.0000000000
40
1.0000000000
40
1.0000000000
10
88.5940358884
20
-174.1991468502
30
0.0000000000
10
88.5940358884
20
-173.9581612214
30
0.0000000000
10
88.6627002434
20
-173.5438820428
30
0.0000000000
10
88.8113086736
20
-173.1555572030
30
0.0000000000
10
88.8857711151
20
-172.9995068313
30
0.0000000000
11
88.5940358884
21
-174.1991468502
31
0.0000000000
11
88.7012003752
21
-173.4841766184
31
0.0000000000
11
88.8857711151
21
-172.9995068313
31
0.0000000000
0
SPLINE
5
57E
100
AcDbEntity
8
0
100
AcDbSpline
62
7
6
CONTINUOUS
70
0
71
3
72
10
73
6
74
4
42
0.0000001000
43
0.0000001000
44
0.0000000001
12
0.6360459315
22
1.3329566164
32
0.0000000000
13
1.2302796840
23
0.8199185463
33
0.0000000000
40
0.0000000000
40
0.0000000000
40
0.0000000000
40
0.0000000000
40
0.1758822310
40
0.6904979475
40
1.0000000000
40
1.0000000000
40
1.0000000000
40
1.0000000000
10
88.8857711151
20
-172.9995068313
30
0.0000000000
10
88.9230608409
20
-172.9213590368
30
0.0000000000
10
89.0817122777
20
-172.6204646131
30
0.0000000000
10
89.3770221606
20
-172.2224323251
30
0.0000000000
10
89.6897999586
20
-171.9561022048
30
0.0000000000
10
89.8167246544
20
-171.8715133804
30
0.0000000000
11
88.8857711151
21
-172.9995068313
31
0.0000000000
11
89.0068200707
21
-172.7697630194
31
0.0000000000
11
89.4646584430
21
-172.1648473852
31
0.0000000000
11
89.8167246544
21
-171.8715133804
31
0.0000000000
0
SPLINE
5
57F
100
AcDbEntity
8
0
100
AcDbSpline
62
7
6
CONTINUOUS
70
0
71
3
72
8
73
4
74
2
42
0.0000001000
43
0.0000001000
44
0.0000000001
12
0.1848731355
22
0.1232084984
32
0.0000000000
13
0.1981386701
23
0.0990693351
33
0.0000000000
40
0.0000000000
40
0.0000000000
40
0.0000000000
40
0.0000000000
40
1.0000000000
40
1.0000000000
40
1.0000000000
40
1.0000000000
10
89.8167246544
20
-171.8715133804
30
0.0000000000
10
89.8783490329
20
-171.8304438809
30
0.0000000000
10
89.9422032274
20
-171.7930123731
30
0.0000000000
10
90.0082494508
20
-171.7599892615
30
0.0000000000
11
89.8167246544
21
-171.8715133804
31
0.0000000000
11
90.0082494508
21
-171.7599892615
31
0.0000000000
0
SPLINE
5
580
100
AcDbEntity
8
0
100
AcDbSpline
62
7
6
CONTINUOUS
70
0
71
3
72
9
73
5
74
3
42
0.0000001000
43
0.0000001000
44
0.0000000001
12
1.2326647241
22
-0.6163323620
32
0.0000000000
13
1.2529849245
23
0.6115607116
33
0.0000000000
40
0.0000000000
40
0.0000000000
40
0.0000000000
40
0.0000000000
40
0.6080930028
40
1.0000000000
40
1.0000000000
40
1.0000000000
40
1.0000000000
10
80.4623079048
20
-184.1726890031
30
0.0000000000
10
80.7121661693
20
-184.2976181353
30
0.0000000000
10
81.1705782782
20
-184.4429894487
30
0.0000000000
10
81.6409475745
20
-184.3352423567
30
0.0000000000
10
81.8046320943
20
-184.2553507160
30
0.0000000000
11
80.4623079048
21
-184.1726890031
31
0.0000000000
11
81.2741020550
21
-184.3808193024
31
0.0000000000
11
81.8046320943
21
-184.2553507160
31
0.0000000000
0
SPLINE
5
581
100
AcDbEntity
8
0
100
AcDbSpline
62
7
6
CONTINUOUS
70
0
71
3
72
9
73
5
74
3
42
0.0000001000
43
0.0000001000
44
0.0000000001
12
-1.0181359521
22
0.5090679761
32
0.0000000000
13
-1.0278408397
23
-0.5415626794
33
0.0000000000
40
0.0000000000
40
0.0000000000
40
0.0000000000
40
0.0000000000
40
0.7878668781
40
1.0000000000
40
1.0000000000
40
1.0000000000
40
1.0000000000
10
-390.4708083655
20
79.4396947551
30
0.0000000000
10
-390.7381935635
20
79.5733873541
30
0.0000000000
10
-391.1489215810
20
79.6822019502
30
0.0000000000
10
-391.5101924839
20
79.5440876705
30
0.0000000000
10
-391.5828721793
20
79.5057932099
30
0.0000000000
11
-390.4708083655
21
79.4396947551
31
0.0000000000
11
-391.3546918420
21
79.5915729838
31
0.0000000000
11
-391.5828721793
21
79.5057932099
31
0.0000000000
0
SPLINE
5
582
100
AcDbEntity
8
0
100
AcDbSpline
62
7
6
CONTINUOUS
70
0
71
3
72
9
73
5
74
3
42
0.0000001000
43
0.0000001000
44
0.0000000001
12
1.1199617721
22
0.5901006018
32
0.0000000000
13
0.0000000000
23
1.2403324592
33
0.0000000000
40
0.0000000000
40
0.0000000000
40
0.0000000000
40
0.0000000000
40
0.3596702216
40
1.0000000000
40
1.0000000000
40
1.0000000000
40
1.0000000000
10
123.4248124365
20
-187.1513122757
30
0.0000000000
10
123.5590847360
20
-187.0805650709
30
0.0000000000
10
123.8854581775
20
-186.7771575380
30
0.0000000000
10
123.9493749477
20
-186.3382300883
30
0.0000000000
10
123.9493749477
20
-186.0734894854
30
0.0000000000
11
123.4248124365
21
-187.1513122757
31
0.0000000000
11
123.7599062568
21
-186.8447805437
31
0.0000000000
11
123.9493749477
21
-186.0734894854
31
0.0000000000
0
SPLINE
5
583
100
AcDbEntity
8
0
100
AcDbSpline
62
7
6
CONTINUOUS
70
0
71
3
72
8
73
4
74
2
42
0.0000001000
43
0.0000001000
44
0.0000000001
12
0.0000000000
22
1.2240798079
32
0.0000000000
13
-0.4386170467
23
1.1520265991
33
0.0000000000
40
0.0000000000
40
0.0000000000
40
0.0000000000
40
0.0000000000
40
1.0000000000
40
1.0000000000
40
1.0000000000
40
1.0000000000
10
97.4328706532
20
-175.5160430286
30
0.0000000000
10
97.4328706532
20
-175.1080164260
30
0.0000000000
10
97.3422404717
20
-174.6991022084
30
0.0000000000
10
97.1960347895
20
-174.3150933420
30
0.0000000000
11
97.4328706532
21
-175.5160430286
31
0.0000000000
11
97.1960347895
21
-174.3150933420
31
0.0000000000
0
SPLINE
5
584
100
AcDbEntity
8
0
100
AcDbSpline
62
7
6
CONTINUOUS
70
0
71
3
72
9
73
5
74
3
42
0.0000001000
43
0.0000001000
44
0.0000000001
12
-0.7376381838
22
1.9374048835
32
0.0000000000
13
-1.6732044100
23
1.2148964801
33
0.0000000000
40
0.0000000000
40
0.0000000000
40
0.0000000000
40
0.0000000000
40
0.6266474123
40
1.0000000000
40
1.0000000000
40
1.0000000000
40
1.0000000000
10
97.1960347895
20
-174.3150933420
30
0.0000000000
10
97.0419551032
20
-173.9104034231
30
0.0000000000
10
96.6975788449
20
-173.3087417301
30
0.0000000000
10
96.1969383164
20
-172.8159640986
30
0.0000000000
10
95.9887065844
20
-172.6647691837
30
0.0000000000
11
97.1960347895
21
-174.3150933420
31
0.0000000000
11
96.5489871768
21
-173.1991012904
31
0.0000000000
11
95.9887065844
21
-172.6647691837
31
0.0000000000
0
SPLINE
5
585
100
AcDbEntity
8
0
100
AcDbSpline
62
7
6
CONTINUOUS
70
0
71
3
72
8
73
4
74
2
42
0.0000001000
43
0.0000001000
44
0.0000000001
12
-0.3081030867
22
0.2237104764
32
0.0000000000
13
-0.3390468078
23
0.1695234039
33
0.0000000000
40
0.0000000000
40
0.0000000000
40
0.0000000000
40
0.0000000000
40
1.0000000000
40
1.0000000000
40
1.0000000000
40
1.0000000000
10
95.9887065844
20
-172.6647691837
30
0.0000000000
10
95.8860055554
20
-172.5901990249
30
0.0000000000
10
95.7781193029
20
-172.5236038439
30
0.0000000000
10
95.6651037003
20
-172.4670960426
30
0.0000000000
11
95.9887065844
21
-172.6647691837
31
0.0000000000
11
95.6651037003
21
-172.4670960426
31
0.0000000000
0
ENDSEC
0
SECTION
2
OBJECTS
0
DICTIONARY
5
586
100
AcDbDictionary
3
ACAD_GROUP
350
587
3
ACAD_MLINESTYLE
350
588
0
DICTIONARY
5
587
102
{ACAD_REACTORS
330
586
102
}
100
AcDbDictionary
0
DICTIONARY
5
588
102
{ACAD_REACTORS
330
586
102
}
100
AcDbDictionary
3
STANDARD
350
589
0
MLINESTYLE
5
589
102
{ACAD_REACTORS
330
588
102
}
100
AcDbMlineStyle
2
STANDARD
70
0
3

62
256
51
90.0
52
90.0
71
2
49
0.5
62
256
6
BYLAYER
49
-0.5
62
256
6
BYLAYER
0
ENDSEC
0
EOF
