0
SECTION
2
HEADER
9
$ACADVER
1
AC1014
9
$HANDSEED
5
       30B
9
$EXTMAX
10
297.0000000000
20
210.0000000000
9
$EXTMIN
10
0.0000000000
20
0.0000000000
9
$LIMMIN
10
0.0000000000
20
0.0000000000
9
$LIMMAX
10
297.0000000000
20
210.0000000000
9
$VIEWCTR
10
148.5000000000
20
105.0000000000
9
$VIEWSIZE
40
210.0000000000
9
$CLAYER
8
0
9
$LTSCALE
40
16.3350000000
9
$CELTYPE
6
BYLAYER
9
$DIMSCALE
40
1
9
$DIMASZ
40
3.0000000000
9
$DIMEXO
40
1.8562500000
9
$DIMDLI
40
11.2860000000
9
$DIMEXE
40
5.3460000000
9
$DIMCEN
40
2.6730000000
9
$DIMLFAC
40
1.0000000000
9
$DIMTXT
40
3.0000000000
9
$DIMTOL
70
1
9
$DIMLIM
70
0
9
$DIMTFAC
40
1.0000000000
9
$DIMTP
40
0.0100000000
9
$DIMTM
40
0.0100000000
9
$MEASUREMENT
70
1
0
ENDSEC
0
SECTION
2
CLASSES
0
ENDSEC
0
SECTION
2
TABLES
0
TABLE
2
VPORT
5
8
100
AcDbSymbolTable
70
2
0
VPORT
5
1F4
100
AcDbSymbolTableRecord
100
AcDbViewportTableRecord
2
*ACTIVE
70
0
10
0.0
20
0.0
11
1.0
21
1.0
12
148.5000000000
22
105.0000000000
13
0.0
23
0.0
14
1.0
24
1.0
15
0.0
25
0.0
16
0.0
26
0.0
36
1.0
17
0.0
27
0.0
37
0.0
40
210.0000000000
41
1.4142857143
42
50.0
43
0.0
44
0.0
50
0.0
51
0.0
71
0
72
100
73
1
74
1
75
0
76
0
77
0
78
0
0
ENDTAB
0
TABLE
2
LTYPE
5
5
100
AcDbSymbolTable
70
6
0
LTYPE
5
14
100
AcDbSymbolTableRecord
100
AcDbLinetypeTableRecord
2
BYBLOCK
70
0
3

72
65
73
0
40
0.0
0
LTYPE
5
15
100
AcDbSymbolTableRecord
100
AcDbLinetypeTableRecord
2
BYLAYER
70
0
3

72
65
73
0
40
0.0
0
LTYPE
5
16
100
AcDbSymbolTableRecord
100
AcDbLinetypeTableRecord
2
CONTINUOUS
70
64
3
Solid line
72
65
73
0
40
0
0
LTYPE
5
1F5
100
AcDbSymbolTableRecord
100
AcDbLinetypeTableRecord
2
CENTER
70
64
3
____ _ ____ _ ____ _ ____ _ ____ _ ____ _ ____
72
65
73
4
40
0.6
49
0.375
74
0
49
-0.075
74
0
49
0.075
74
0
49
-0.075
74
0
0
LTYPE
5
1F6
100
AcDbSymbolTableRecord
100
AcDbLinetypeTableRecord
2
HIDDEN
70
64
3
- - - - - - - - - - - - - - - - - - - -
72
65
73
2
40
0.2
49
0.1
74
0
49
-0.1
74
0
0
LTYPE
5
1F7
100
AcDbSymbolTableRecord
100
AcDbLinetypeTableRecord
2
PHANTOM
70
64
3
_____ _ _ _____ _ _ _____ _ _ _____
72
65
73
6
40
0.8
49
0.45
74
0
49
-0.05
74
0
49
0.1
74
0
49
-0.05
74
0
49
0.1
74
0
49
-0.05
74
0
0
LTYPE
5
1F8
100
AcDbSymbolTableRecord
100
AcDbLinetypeTableRecord
2
DOT
70
64
3
. . . . . . . . . . . . . . . . . . . .
72
65
73
2
40
0.2
49
0.1
74
0
49
-0.1
74
0
0
LTYPE
5
1F9
100
AcDbSymbolTableRecord
100
AcDbLinetypeTableRecord
2
DASHED
70
64
3
- - - - - - - - - - - - - - - - - - - -
72
65
73
2
40
0.2
49
0.1
74
0
49
-0.1
74
0
0
ENDTAB
0
TABLE
2
LAYER
5
2
100
AcDbSymbolTable
70
36
0
LAYER
5
10
100
AcDbSymbolTableRecord
100
AcDbLayerTableRecord
2
0
70
0
62
7
6
CONTINUOUS
0
LAYER
5
1FA
100
AcDbSymbolTableRecord
100
AcDbLayerTableRecord
2
DEFAULT_1
70
0
62
7
6
CENTER
0
LAYER
5
1FB
100
AcDbSymbolTableRecord
100
AcDbLayerTableRecord
2
DEFAULT_2
70
0
62
8
6
HIDDEN
0
LAYER
5
1FC
100
AcDbSymbolTableRecord
100
AcDbLayerTableRecord
2
DEFAULT_3
70
0
62
7
6
PHANTOM
0
LAYER
5
1FD
100
AcDbSymbolTableRecord
100
AcDbLayerTableRecord
2
ASSI
70
0
62
7
6
CONTINUOUS
0
LAYER
5
1FE
100
AcDbSymbolTableRecord
100
AcDbLayerTableRecord
2
COORDINATE
70
0
62
7
6
CONTINUOUS
0
LAYER
5
1FF
100
AcDbSymbolTableRecord
100
AcDbLayerTableRecord
2
COORD_ORIGINE
70
0
62
7
6
CONTINUOUS
0
LAYER
5
200
100
AcDbSymbolTableRecord
100
AcDbLayerTableRecord
2
PIANI
70
0
62
7
6
CONTINUOUS
0
LAYER
5
201
100
AcDbSymbolTableRecord
100
AcDbLayerTableRecord
2
PIANI_ORIGINE
70
0
62
7
6
CONTINUOUS
0
LAYER
5
202
100
AcDbSymbolTableRecord
100
AcDbLayerTableRecord
2
TRASH
70
0
62
7
6
CONTINUOUS
0
ENDTAB
0
TABLE
2
STYLE
5
3
100
AcDbSymbolTable
70
1
0
STYLE
5
11
100
AcDbSymbolTableRecord
100
AcDbTextStyleTableRecord
2
STANDARD
70
0
40
0.0
41
0.8000000000
50
0.0
71
0
42
0.2
3
txt
4

0
ENDTAB
0
TABLE
2
VIEW
5
6
100
AcDbSymbolTable
70
0
0
ENDTAB
0
TABLE
2
UCS
5
7
100
AcDbSymbolTable
70
0
0
ENDTAB
0
TABLE
2
APPID
5
9
100
AcDbSymbolTable
70
1
0
APPID
5
203
100
AcDbSymbolTableRecord
100
AcDbRegAppTableRecord
2
ACAD
70
0
0
ENDTAB
0
TABLE
2
DIMSTYLE
5
A
100
AcDbSymbolTable
70
1
0
DIMSTYLE
105
204
100
AcDbSymbolTableRecord
100
AcDbDimStyleTableRecord
2
STANDARD
70
0
3

4

5

6

7

40
1.0
41
3.0000000000
42
0.0625
43
0.38
44
0.18
45
0.0
46
0.0
47
0.0100000000
48
0.0100000000
140
3.0000000000
141
0.09
142
0.0
143
25.4
144
1.0000000000
145
0.0
146
1.0000000000
147
0.09
71
1
72
0
73
0
74
0
75
0
76
0
77
1
78
8
170
0
171
2
172
0
173
0
174
0
175
0
176
0
177
0
178
0
270
2
271
2
272
2
273
2
274
2
340
11
275
0
280
0
281
0
282
0
283
1
284
8
285
0
286
0
287
3
288
0
0
ENDTAB
0
TABLE
2
BLOCK_RECORD
5
1
100
AcDbSymbolTable
70
0
0
BLOCK_RECORD
5
1B
100
AcDbSymbolTableRecord
100
AcDbBlockTableRecord
2
*MODEL_SPACE
0
BLOCK_RECORD
5
1C
100
AcDbSymbolTableRecord
100
AcDbBlockTableRecord
2
*PAPER_SPACE
0
ENDTAB
0
ENDSEC
0
SECTION
2
BLOCKS
0
BLOCK
5
1E
100
AcDbEntity
8
0
100
AcDbBlockBegin
2
*MODEL_SPACE
70
0
10
0.0
20
0.0
30
0.0
3
*MODEL_SPACE
1

0
ENDBLK
5
1F
100
AcDbEntity
8
0
100
AcDbBlockEnd
0
BLOCK
5
20
100
AcDbEntity
8
0
100
AcDbBlockBegin
2
*PAPER_SPACE
70
0
10
0.0
20
0.0
30
0.0
3
*PAPER_SPACE
1

0
ENDBLK
5
21
100
AcDbEntity
8
0
100
AcDbBlockEnd
0
ENDSEC
0
SECTION
2
ENTITIES
0
LINE
5
205
100
AcDbEntity
8
0
100
AcDbLine
62
7
6
CONTINUOUS
10
-177.9430445944
20
110.8344943550
11
-179.0894912038
21
108.8571664451
0
LINE
5
206
100
AcDbEntity
8
0
100
AcDbLine
62
7
6
CONTINUOUS
10
-179.6323844226
20
100.7046631486
11
-178.7800595852
21
102.1747060407
0
LINE
5
207
100
AcDbEntity
8
0
100
AcDbLine
62
7
6
CONTINUOUS
10
-186.0191376594
20
74.0188419128
11
-185.2678196829
21
75.8619074389
0
LINE
5
208
100
AcDbEntity
8
0
100
AcDbLine
62
7
6
CONTINUOUS
10
-179.0894912038
20
67.2879470634
11
-178.0894912038
21
69.0126919348
0
LINE
5
209
100
AcDbEntity
8
0
100
AcDbLine
62
7
6
CONTINUOUS
10
-180.5037047662
20
95.4775158523
11
-180.5037047662
21
76.4249569691
0
LINE
5
20A
100
AcDbEntity
8
0
100
AcDbLine
62
7
6
CONTINUOUS
10
-180.1501513756
20
96.9427548509
11
-180.1501513756
21
98.9148485828
0
LINE
5
20B
100
AcDbEntity
8
0
100
AcDbLine
62
7
6
CONTINUOUS
10
-176.0894912038
20
68.4709597653
11
-175.7479431963
21
68.8832446813
0
LINE
5
20C
100
AcDbEntity
8
0
100
AcDbLine
62
9
6
CONTINUOUS
10
-163.1795886271
20
77.2891783412
11
-161.7653750647
21
77.9962851224
0
LINE
5
20D
100
AcDbEntity
8
0
100
AcDbLine
62
9
6
CONTINUOUS
10
-140.5521716292
20
65.9754698422
11
-139.1379580668
21
66.6825766234
0
LINE
5
20E
100
AcDbEntity
8
0
100
AcDbLine
62
7
6
CONTINUOUS
10
-186.0191376594
20
106.5103336391
11
-185.2678196829
21
105.4185860895
0
LINE
5
20F
100
AcDbEntity
8
0
100
AcDbLine
62
7
6
CONTINUOUS
10
-179.0894912038
20
67.2879470634
11
-177.9430445944
21
66.4570657630
0
LINE
5
210
100
AcDbEntity
8
0
100
AcDbLine
62
9
6
CONTINUOUS
10
-50.0425036373
20
20.7206358463
11
-48.6282900749
21
21.4277426274
0
LINE
5
211
100
AcDbEntity
8
0
100
AcDbLine
62
7
6
CONTINUOUS
10
183.3027341543
20
-67.3118038275
11
177.4638993895
21
-66.1025415534
0
LINE
5
212
100
AcDbEntity
8
0
100
AcDbLine
62
7
6
CONTINUOUS
10
184.0098409355
20
-65.4582504369
11
178.1710061706
21
-64.2489881628
0
LINE
5
213
100
AcDbEntity
8
0
100
AcDbLine
62
9
6
CONTINUOUS
10
-27.4150866393
20
9.4069273473
11
-26.0008730769
21
10.1140341285
0
LINE
5
214
100
AcDbEntity
8
0
100
AcDbLine
62
7
6
CONTINUOUS
10
179.5377893863
20
-98.7580392940
11
179.5550682140
21
-98.7660539021
0
LINE
5
215
100
AcDbEntity
8
0
100
AcDbLine
62
7
6
CONTINUOUS
10
180.4315529123
20
-96.9692251057
11
180.4574711538
21
-96.9812470178
0
LINE
5
216
100
AcDbEntity
8
0
100
AcDbLine
62
7
6
CONTINUOUS
10
-177.7846853809
20
66.3609014970
11
175.7687052124
21
-110.4157937996
0
LINE
5
217
100
AcDbEntity
8
0
100
AcDbLine
62
9
6
CONTINUOUS
10
-177.7778915172
20
66.3744892244
11
-177.9430445944
21
66.4570657630
0
LINE
5
218
100
AcDbEntity
8
0
100
AcDbLine
62
7
6
CONTINUOUS
10
174.4638993895
20
-109.4887482332
11
-179.0894912038
21
67.2879470634
0
LINE
5
219
100
AcDbEntity
8
0
100
AcDbLine
62
7
6
CONTINUOUS
10
175.4638993895
20
-107.7640033618
11
-178.0894912038
21
69.0126919348
0
LINE
5
21A
100
AcDbEntity
8
0
100
AcDbLine
62
9
6
CONTINUOUS
10
177.4638993895
20
-108.3057355313
11
-176.0894912038
21
68.4709597653
0
LINE
5
21B
100
AcDbEntity
8
0
100
AcDbLine
62
7
6
CONTINUOUS
10
162.5845054655
20
-100.2829796497
11
-186.0191376594
21
74.0188419128
0
LINE
5
21C
100
AcDbEntity
8
0
100
AcDbLine
62
7
6
CONTINUOUS
10
163.3358234420
20
-98.4399141236
11
-185.2678196829
21
75.8619074389
0
LINE
5
21D
100
AcDbEntity
8
0
100
AcDbLine
62
9
6
CONTINUOUS
10
164.4935576027
20
-97.8610470433
11
-184.1100855223
21
76.4407745192
0
LINE
5
21E
100
AcDbEntity
8
0
100
AcDbLine
62
7
6
CONTINUOUS
10
-179.8539718020
20
75.0727724681
11
173.6994187913
21
-101.7039228286
0
LINE
5
21F
100
AcDbEntity
8
0
100
AcDbLine
62
9
6
CONTINUOUS
10
173.0496858271
20
-100.3517383276
11
-180.5037047662
21
76.4249569691
0
LINE
5
220
100
AcDbEntity
8
0
100
AcDbLine
62
7
6
CONTINUOUS
10
-179.0894912038
20
108.8571664451
11
-178.0894912038
21
108.1324215737
0
LINE
5
221
100
AcDbEntity
8
0
100
AcDbLine
62
7
6
CONTINUOUS
10
175.0689717565
20
-79.9811161589
11
175.0430535150
21
-79.9690942467
0
LINE
5
222
100
AcDbEntity
8
0
100
AcDbLine
62
9
6
CONTINUOUS
10
175.0430535150
20
-99.6884558372
11
174.4638993895
21
-99.3988787744
0
LINE
5
223
100
AcDbEntity
8
0
100
AcDbLine
62
9
6
CONTINUOUS
10
183.3027341543
20
-101.2576384924
11
178.1950626791
21
-98.7038027549
0
LINE
5
224
100
AcDbEntity
8
0
100
AcDbLine
62
9
6
CONTINUOUS
10
183.6562875449
20
-100.3308617971
11
179.7323600168
21
-98.3688980331
0
LINE
5
225
100
AcDbEntity
8
0
100
AcDbLine
62
7
6
CONTINUOUS
10
174.4638993895
20
-93.9842822658
11
180.4335439074
21
-96.9691045248
0
LINE
5
226
100
AcDbEntity
8
0
100
AcDbLine
62
9
6
CONTINUOUS
10
134.5034826080
20
-71.3805261473
11
131.1989442136
21
-69.7282569501
0
LINE
5
227
100
AcDbEntity
8
0
100
AcDbLine
62
9
6
CONTINUOUS
10
111.8760656101
20
-60.0668176483
11
108.5715272156
21
-58.4145484511
0
LINE
5
228
100
AcDbEntity
8
0
100
AcDbLine
62
9
6
CONTINUOUS
10
-22.4742228154
20
7.1083265644
11
-25.7787612098
21
8.7605957616
0
LINE
5
229
100
AcDbEntity
8
0
100
AcDbLine
62
9
6
CONTINUOUS
10
-45.1016398134
20
18.4220350634
11
-48.4061782078
21
20.0743042606
0
LINE
5
22A
100
AcDbEntity
8
0
100
AcDbLine
62
9
6
CONTINUOUS
10
-135.6113078052
20
63.6768690594
11
-138.9158461997
21
65.3291382566
0
LINE
5
22B
100
AcDbEntity
8
0
100
AcDbLine
62
9
6
CONTINUOUS
10
-158.2387248032
20
74.9905775583
11
-161.5432631976
21
76.6428467556
0
LINE
5
22C
100
AcDbEntity
8
0
100
AcDbLine
62
9
6
CONTINUOUS
10
134.4916219019
20
-71.1719629669
11
131.1271680353
21
-69.4897360337
0
LINE
5
22D
100
AcDbEntity
8
0
100
AcDbLine
62
9
6
CONTINUOUS
10
111.8642049039
20
-59.8582544680
11
108.4997510374
21
-58.1760275347
0
LINE
5
22E
100
AcDbEntity
8
0
100
AcDbLine
62
9
6
CONTINUOUS
10
-22.4860835215
20
7.3168897448
11
-25.8505373881
21
8.9991166780
0
LINE
5
22F
100
AcDbEntity
8
0
100
AcDbLine
62
9
6
CONTINUOUS
10
-45.1135005195
20
18.6305982437
11
-48.4779543860
21
20.3128251770
0
LINE
5
230
100
AcDbEntity
8
0
100
AcDbLine
62
9
6
CONTINUOUS
10
-135.6231685114
20
63.8854322397
11
-138.9876223779
21
65.5676591730
0
LINE
5
231
100
AcDbEntity
8
0
100
AcDbLine
62
9
6
CONTINUOUS
10
-158.2505855093
20
75.1991407387
11
-161.6150393759
21
76.8813676719
0
LINE
5
232
100
AcDbEntity
8
0
100
AcDbLine
62
9
6
CONTINUOUS
10
134.4453749535
20
-70.8276140479
11
131.0484613641
21
-69.1291572532
0
LINE
5
233
100
AcDbEntity
8
0
100
AcDbLine
62
9
6
CONTINUOUS
10
111.8179579556
20
-59.5139055490
11
108.4210443661
21
-57.8154487542
0
LINE
5
234
100
AcDbEntity
8
0
100
AcDbLine
62
9
6
CONTINUOUS
10
-22.5323304699
20
7.6612386638
11
-25.9292440594
21
9.3596954585
0
LINE
5
235
100
AcDbEntity
8
0
100
AcDbLine
62
9
6
CONTINUOUS
10
-45.1597474678
20
18.9749471627
11
-48.5566610573
21
20.6734039575
0
LINE
5
236
100
AcDbEntity
8
0
100
AcDbLine
62
9
6
CONTINUOUS
10
-135.6694154597
20
64.2297811587
11
-139.0663290492
21
65.9282379534
0
LINE
5
237
100
AcDbEntity
8
0
100
AcDbLine
62
9
6
CONTINUOUS
10
-158.2968324577
20
75.5434896577
11
-161.6937460472
21
77.2419464524
0
LINE
5
238
100
AcDbEntity
8
0
100
AcDbLine
62
9
6
CONTINUOUS
10
134.0783026811
20
-69.6309137755
11
130.9920651903
21
-68.0877950301
0
LINE
5
239
100
AcDbEntity
8
0
100
AcDbLine
62
9
6
CONTINUOUS
10
111.4508856832
20
-58.3172052765
11
108.3646481924
21
-56.7740865311
0
LINE
5
23A
100
AcDbEntity
8
0
100
AcDbLine
62
9
6
CONTINUOUS
10
-22.8994027423
20
8.8579389362
11
-25.9856402331
21
10.4010576816
0
LINE
5
23B
100
AcDbEntity
8
0
100
AcDbLine
62
9
6
CONTINUOUS
10
-45.5268197402
20
20.1716474352
11
-48.6130572310
21
21.7147661806
0
LINE
5
23C
100
AcDbEntity
8
0
100
AcDbLine
62
9
6
CONTINUOUS
10
-136.0364877321
20
65.4264814312
11
-139.1227252229
21
66.9696001766
0
LINE
5
23D
100
AcDbEntity
8
0
100
AcDbLine
62
9
6
CONTINUOUS
10
-158.6639047301
20
76.7401899301
11
-161.7501422209
21
78.2833086755
0
LINE
5
23E
100
AcDbEntity
8
0
100
AcDbLine
62
7
6
CONTINUOUS
10
177.9994332954
20
-88.6407332721
11
177.2443415720
21
-88.2631874104
0
LINE
5
23F
100
AcDbEntity
8
0
100
AcDbLine
62
7
6
CONTINUOUS
10
175.9627352825
20
-78.1923019705
11
175.9454564548
21
-78.1842873624
0
LINE
5
240
100
AcDbEntity
8
0
100
AcDbLine
62
9
6
CONTINUOUS
10
173.0496858271
20
-81.2991794443
11
-180.5037047662
21
95.4775158523
0
LINE
5
241
100
AcDbEntity
8
0
100
AcDbLine
62
9
6
CONTINUOUS
10
-179.0203599679
20
98.3499528790
11
-180.1501513756
21
98.9148485828
0
LINE
5
242
100
AcDbEntity
8
0
100
AcDbLine
62
7
6
CONTINUOUS
10
-177.6179038245
20
98.5974673063
11
175.5777271508
21
-78.0003481813
0
LINE
5
243
100
AcDbEntity
8
0
100
AcDbLine
62
9
6
CONTINUOUS
10
-175.7244201902
20
98.7506810323
11
-179.6323844226
21
100.7046631486
0
LINE
5
244
100
AcDbEntity
8
0
100
AcDbLine
62
7
6
CONTINUOUS
10
163.3358234420
20
-68.8832354730
11
-185.2678196829
21
105.4185860895
0
LINE
5
245
100
AcDbEntity
8
0
100
AcDbLine
62
7
6
CONTINUOUS
10
179.5550682140
20
-76.3794814828
11
163.7611762873
21
-68.4825355195
0
LINE
5
246
100
AcDbEntity
8
0
100
AcDbLine
62
7
6
CONTINUOUS
10
162.5845054655
20
-67.7914879234
11
-186.0191376594
21
106.5103336391
0
LINE
5
247
100
AcDbEntity
8
0
100
AcDbLine
62
7
6
CONTINUOUS
10
170.5041014148
20
-70.2480474789
11
166.5011908581
21
-68.2465922006
0
LINE
5
248
100
AcDbEntity
8
0
100
AcDbLine
62
7
6
CONTINUOUS
10
170.5815134263
20
-70.2093414732
11
176.0470693054
21
-72.9421194128
0
LINE
5
249
100
AcDbEntity
8
0
100
AcDbLine
62
7
6
CONTINUOUS
10
177.1233701606
20
-73.4802698404
11
177.9994332954
21
-73.9183014077
0
LINE
5
24A
100
AcDbEntity
8
0
100
AcDbLine
62
9
6
CONTINUOUS
10
165.2448755792
20
-66.4613028666
11
-183.3587675458
21
107.8405186959
0
LINE
5
24B
100
AcDbEntity
8
0
100
AcDbLine
62
7
6
CONTINUOUS
10
174.4638993895
20
-109.4887482332
11
175.6103459989
21
-110.3196295337
0
LINE
5
24C
100
AcDbEntity
8
0
100
AcDbLine
62
7
6
CONTINUOUS
10
175.4638993895
20
-107.7640033618
11
176.6103459989
21
-108.5948846623
0
LINE
5
24D
100
AcDbEntity
8
0
100
AcDbLine
62
7
6
CONTINUOUS
10
175.4638993895
20
-68.6442737229
11
-178.0894912038
21
108.1324215737
0
LINE
5
24E
100
AcDbEntity
8
0
100
AcDbLine
62
7
6
CONTINUOUS
10
174.4638993895
20
-67.9195288515
11
-179.0894912038
21
108.8571664451
0
LINE
5
24F
100
AcDbEntity
8
0
100
AcDbLine
62
9
6
CONTINUOUS
10
-178.4797035574
20
109.9088945608
11
-178.8508596867
21
110.0944726255
0
LINE
5
250
100
AcDbEntity
8
0
100
AcDbLine
62
9
6
CONTINUOUS
10
175.6103459989
20
-65.9422009416
11
-177.9430445944
21
110.8344943550
0
LINE
5
251
100
AcDbEntity
8
0
100
AcDbLine
62
9
6
CONTINUOUS
10
183.6562875449
20
-67.8850271322
11
181.9491807637
21
-67.0314737416
0
LINE
5
252
100
AcDbEntity
8
0
100
AcDbLine
62
9
6
CONTINUOUS
10
178.1710061706
20
-64.2489881628
11
-175.3823844226
21
112.5277071338
0
LINE
5
253
100
AcDbEntity
8
0
100
AcDbLine
62
9
6
CONTINUOUS
10
184.0098409355
20
-65.4582504369
11
-169.5435496578
21
111.3184448598
0
LINE
5
254
100
AcDbEntity
8
0
100
AcDbLine
62
7
6
CONTINUOUS
10
-169.2625690431
20
111.2213963469
11
184.0272176533
21
-65.4234970013
0
LINE
5
255
100
AcDbEntity
8
0
100
AcDbLine
62
7
6
CONTINUOUS
10
174.4638993895
20
-67.9195288515
11
175.4638993895
21
-68.6442737229
0
LINE
5
256
100
AcDbEntity
8
0
100
AcDbLine
62
9
6
CONTINUOUS
10
175.6103459989
20
-65.9422009416
11
176.6103459989
21
-66.6669458130
0
LINE
5
257
100
AcDbEntity
8
0
100
AcDbLine
62
9
6
CONTINUOUS
10
175.9454564548
20
-100.5708597817
11
175.0430535150
21
-99.6884558372
0
LINE
5
258
100
AcDbEntity
8
0
100
AcDbLine
62
7
6
CONTINUOUS
10
-169.5435496578
20
111.3184448598
11
-175.3823844226
21
112.5277071338
0
LINE
5
259
100
AcDbEntity
8
0
100
AcDbLine
62
7
6
CONTINUOUS
10
179.5550682140
20
-76.3794814828
11
180.4574711538
21
-77.2618854273
0
LINE
5
25A
100
AcDbEntity
8
0
100
AcDbLine
62
9
6
CONTINUOUS
10
165.2448755792
20
-98.9527945928
11
164.4935576027
21
-97.8610470433
0
LINE
5
25B
100
AcDbEntity
8
0
100
AcDbLine
62
9
6
CONTINUOUS
10
106.9352017861
20
-57.7682168655
11
108.3494153485
21
-57.0611100843
0
LINE
5
25C
100
AcDbEntity
8
0
100
AcDbLine
62
7
6
CONTINUOUS
10
162.5845054655
20
-67.7914879234
11
163.3358234420
21
-68.8832354730
0
LINE
5
25D
100
AcDbEntity
8
0
100
AcDbLine
62
9
6
CONTINUOUS
10
178.1710061706
20
-109.4521821407
11
177.4638993895
21
-108.3057355313
0
LINE
5
25E
100
AcDbEntity
8
0
100
AcDbLine
62
9
6
CONTINUOUS
10
184.0098409355
20
-102.4040851019
11
183.3027341543
21
-101.2576384924
0
LINE
5
25F
100
AcDbEntity
8
0
100
AcDbLine
62
9
6
CONTINUOUS
10
129.5626187841
20
-69.0819253644
11
130.9768323465
21
-68.3748185833
0
LINE
5
260
100
AcDbEntity
8
0
100
AcDbLine
62
7
6
CONTINUOUS
10
171.9183149772
20
-69.5409406978
11
170.5041014148
21
-70.2480474789
0
LINE
5
261
100
AcDbEntity
8
0
100
AcDbLine
62
9
6
CONTINUOUS
10
185.0705011073
20
-67.1779203510
11
183.6562875449
21
-67.8850271322
0
LINE
5
262
100
AcDbEntity
8
0
100
AcDbLine
62
7
6
CONTINUOUS
10
175.6460711825
20
-73.0216470628
11
174.2427352782
21
-73.7233150149
0
LINE
5
263
100
AcDbEntity
8
0
100
AcDbLine
62
7
6
CONTINUOUS
10
178.3403182875
20
-75.7721065196
11
177.8395677634
21
-74.5537649400
0
LINE
5
264
100
AcDbEntity
8
0
100
AcDbLine
62
7
6
CONTINUOUS
10
179.4608057482
20
-78.4982873162
11
180.8278604201
21
-81.8243737965
0
LINE
5
265
100
AcDbEntity
8
0
100
AcDbLine
62
9
6
CONTINUOUS
10
177.8395677634
20
-74.5537649400
11
176.8716014459
21
-75.0377480988
0
LINE
5
266
100
AcDbEntity
8
0
100
AcDbLine
62
7
6
CONTINUOUS
10
178.2061316167
20
-75.4456261815
11
177.9994332954
21
-75.5489753422
0
LINE
5
267
100
AcDbEntity
8
0
100
AcDbLine
62
9
6
CONTINUOUS
10
173.0496858271
20
-81.2991794443
11
174.4638993895
21
-80.5920726631
0
LINE
5
268
100
AcDbEntity
8
0
100
AcDbLine
62
7
6
CONTINUOUS
10
179.9577167816
20
-79.7072872954
11
174.4638993895
21
-82.4541959914
0
LINE
5
269
100
AcDbEntity
8
0
100
AcDbLine
62
9
6
CONTINUOUS
10
180.7740609053
20
-81.6934779058
11
174.4638993895
21
-84.8485586637
0
LINE
5
26A
100
AcDbEntity
8
0
100
AcDbLine
62
7
6
CONTINUOUS
10
180.8278604201
20
-81.8243737965
11
174.4638993895
21
-85.0063543118
0
LINE
5
26B
100
AcDbEntity
8
0
100
AcDbLine
62
7
6
CONTINUOUS
10
180.8278604201
20
-83.5630880081
11
174.4638993895
21
-86.7450685234
0
LINE
5
26C
100
AcDbEntity
8
0
100
AcDbLine
62
9
6
CONTINUOUS
10
180.7740609053
20
-83.6401843840
11
174.4638993895
21
-86.7952651419
0
LINE
5
26D
100
AcDbEntity
8
0
100
AcDbLine
62
7
6
CONTINUOUS
10
179.9577167816
20
-84.8100308706
11
174.4638993895
21
-87.5569395667
0
LINE
5
26E
100
AcDbEntity
8
0
100
AcDbLine
62
7
6
CONTINUOUS
10
178.7497829635
20
-86.5410375528
11
174.4638993895
21
-88.6839793398
0
LINE
5
26F
100
AcDbEntity
8
0
100
AcDbLine
62
7
6
CONTINUOUS
10
178.2061316167
20
-87.3201068197
11
174.4638993895
21
-89.1912229333
0
LINE
5
270
100
AcDbEntity
8
0
100
AcDbLine
62
9
6
CONTINUOUS
10
177.8395677634
20
-87.8454042078
11
174.4638993895
21
-89.5332383948
0
LINE
5
271
100
AcDbEntity
8
0
100
AcDbLine
62
7
6
CONTINUOUS
10
177.5243682836
20
-88.1231740546
11
174.4638993895
21
-89.6534085017
0
LINE
5
272
100
AcDbEntity
8
0
100
AcDbLine
62
7
6
CONTINUOUS
10
165.9786180152
20
-69.5912563834
11
165.9786180152
21
-68.3532289116
0
LINE
5
273
100
AcDbEntity
8
0
100
AcDbLine
62
7
6
CONTINUOUS
10
167.3928315776
20
-70.2983631646
11
167.3928315776
21
-68.6924125603
0
LINE
5
274
100
AcDbEntity
8
0
100
AcDbLine
62
7
6
CONTINUOUS
10
170.5041014148
20
-70.2480474789
11
170.5041014148
21
-66.1643747356
0
LINE
5
275
100
AcDbEntity
8
0
100
AcDbLine
62
7
6
CONTINUOUS
10
171.9183149772
20
-69.5409406978
11
171.9183149772
21
-66.8714815168
0
LINE
5
276
100
AcDbEntity
8
0
100
AcDbLine
62
7
6
CONTINUOUS
10
173.0496858271
20
-81.2991794443
11
173.0496858271
21
-100.3517383276
0
LINE
5
277
100
AcDbEntity
8
0
100
AcDbLine
62
7
6
CONTINUOUS
10
174.4638993895
20
-80.5920726631
11
174.4638993895
21
-99.6446315464
0
LINE
5
278
100
AcDbEntity
8
0
100
AcDbLine
62
9
6
CONTINUOUS
10
173.0496858271
20
-100.3517383276
11
174.4638993895
21
-99.6446315464
0
LINE
5
279
100
AcDbEntity
8
0
100
AcDbLine
62
9
6
CONTINUOUS
10
185.0705011073
20
-99.6237550160
11
183.6562875449
21
-100.3308617971
0
LINE
5
27A
100
AcDbEntity
8
0
100
AcDbLine
62
7
6
CONTINUOUS
10
177.9994332954
20
-73.9183014077
11
177.9994332954
21
-75.1842881010
0
LINE
5
27B
100
AcDbEntity
8
0
100
AcDbLine
62
7
6
CONTINUOUS
10
177.9994332954
20
-87.6163119347
11
177.9994332954
21
-88.6407332721
0
LINE
5
27C
100
AcDbEntity
8
0
100
AcDbLine
62
7
6
CONTINUOUS
10
183.6562875449
20
-100.3308617971
11
183.6562875449
21
-67.8850271322
0
LINE
5
27D
100
AcDbEntity
8
0
100
AcDbLine
62
7
6
CONTINUOUS
10
185.0705011073
20
-99.6237550160
11
185.0705011073
21
-67.1779203510
0
LINE
5
27E
100
AcDbEntity
8
0
100
AcDbLine
62
9
6
CONTINUOUS
10
165.2448755792
20
-66.4613028666
11
164.4935576027
21
-68.3043683927
0
LINE
5
27F
100
AcDbEntity
8
0
100
AcDbLine
62
7
6
CONTINUOUS
10
162.5845054655
20
-100.2829796497
11
163.3358234420
21
-98.4399141236
0
LINE
5
280
100
AcDbEntity
8
0
100
AcDbLine
62
7
6
CONTINUOUS
10
175.6103459989
20
-65.9422009416
11
174.4638993895
21
-67.9195288515
0
LINE
5
281
100
AcDbEntity
8
0
100
AcDbLine
62
7
6
CONTINUOUS
10
176.6103459989
20
-66.6669458130
11
175.4638993895
21
-68.6442737229
0
LINE
5
282
100
AcDbEntity
8
0
100
AcDbLine
62
9
6
CONTINUOUS
10
178.1710061706
20
-64.2489881628
11
177.4638993895
21
-66.1025415534
0
LINE
5
283
100
AcDbEntity
8
0
100
AcDbLine
62
9
6
CONTINUOUS
10
184.0098409355
20
-65.4582504369
11
183.3027341543
21
-67.3118038275
0
LINE
5
284
100
AcDbEntity
8
0
100
AcDbLine
62
9
6
CONTINUOUS
10
175.9454564548
20
-78.1842873624
11
175.0430535150
21
-79.9690942467
0
LINE
5
285
100
AcDbEntity
8
0
100
AcDbLine
62
7
6
CONTINUOUS
10
179.5550682140
20
-98.7660539021
11
180.4574711538
21
-96.9812470178
0
LINE
5
286
100
AcDbEntity
8
0
100
AcDbLine
62
7
6
CONTINUOUS
10
174.4638993895
20
-109.4887482332
11
175.4638993895
21
-107.7640033618
0
LINE
5
287
100
AcDbEntity
8
0
100
AcDbLine
62
9
6
CONTINUOUS
10
175.6103459989
20
-110.3196295337
11
176.6103459989
21
-108.5948846623
0
LINE
5
288
100
AcDbEntity
8
0
100
AcDbLine
62
7
6
CONTINUOUS
10
177.8395677634
20
-87.8454042078
11
180.8278604201
21
-83.5630880081
0
LINE
5
289
100
AcDbEntity
8
0
100
AcDbLine
62
7
6
CONTINUOUS
10
177.4638993895
20
-108.3057355313
11
183.3027341543
21
-101.2576384924
0
LINE
5
28A
100
AcDbEntity
8
0
100
AcDbLine
62
7
6
CONTINUOUS
10
178.1710061706
20
-109.4521821407
11
184.0098409355
21
-102.4040851019
0
SPLINE
5
28B
100
AcDbEntity
8
0
100
AcDbSpline
62
7
6
CONTINUOUS
70
0
71
3
72
9
73
5
74
3
42
0.0000001000
43
0.0000001000
44
0.0000000001
12
-0.5157667802
22
-0.8815183235
32
0.0000000000
13
-0.1023065066
23
-1.0097280281
33
0.0000000000
40
0.0000000000
40
0.0000000000
40
0.0000000000
40
0.0000000000
40
0.3831677249
40
1.0000000000
40
1.0000000000
40
1.0000000000
40
1.0000000000
10
-161.4533588492
20
79.3144627252
30
0.0000000000
10
-161.5192339104
20
79.2018729350
30
0.0000000000
10
-161.6595942190
20
78.8878620495
30
0.0000000000
10
-161.7272447057
20
78.5542128430
30
0.0000000000
10
-161.7482800241
20
78.3466018974
30
0.0000000000
11
-161.4533588492
21
79.3144627252
31
0.0000000000
11
-161.6161219160
21
78.9583520125
31
0.0000000000
11
-161.7482800241
21
78.3466018974
31
0.0000000000
0
SPLINE
5
28C
100
AcDbEntity
8
0
100
AcDbSpline
62
7
6
CONTINUOUS
70
0
71
3
72
8
73
4
74
2
42
0.0000001000
43
0.0000001000
44
0.0000000001
12
-0.0354230370
22
-0.3496124978
32
0.0000000000
13
0.0000000000
23
-0.3500188043
33
0.0000000000
40
0.0000000000
40
0.0000000000
40
0.0000000000
40
0.0000000000
40
1.0000000000
40
1.0000000000
40
1.0000000000
40
1.0000000000
10
-161.7482800241
20
78.3466018974
30
0.0000000000
10
-161.7600877031
20
78.2300643982
30
0.0000000000
10
-161.7653750647
20
78.1129580571
30
0.0000000000
10
-161.7653750647
20
77.9962851224
30
0.0000000000
11
-161.7482800241
21
78.3466018974
31
0.0000000000
11
-161.7653750647
21
77.9962851224
31
0.0000000000
0
SPLINE
5
28D
100
AcDbEntity
8
0
100
AcDbSpline
62
7
6
CONTINUOUS
70
0
71
3
72
9
73
5
74
3
42
0.0000001000
43
0.0000001000
44
0.0000000001
12
0.0000000000
22
-0.3116957632
32
0.0000000000
13
0.2782534722
23
-0.1406541107
33
0.0000000000
40
0.0000000000
40
0.0000000000
40
0.0000000000
40
0.0000000000
40
0.5620920747
40
1.0000000000
40
1.0000000000
40
1.0000000000
40
1.0000000000
10
174.4638993895
20
-99.6446315464
30
0.0000000000
10
174.4638993895
20
-99.7030321191
30
0.0000000000
10
174.4787625270
20
-99.8099272196
30
0.0000000000
10
174.5533939870
20
-99.8945968829
30
0.0000000000
10
174.5940104539
20
-99.9151280662
30
0.0000000000
11
174.4638993895
21
-99.6446315464
31
0.0000000000
11
174.4994919452
21
-99.8161798254
31
0.0000000000
11
174.5940104539
21
-99.9151280662
31
0.0000000000
0
SPLINE
5
28E
100
AcDbEntity
8
0
100
AcDbSpline
62
7
6
CONTINUOUS
70
0
71
3
72
9
73
5
74
3
42
0.0000001000
43
0.0000001000
44
0.0000000001
12
-0.5157667802
22
-0.8815183235
32
0.0000000000
13
-0.1023065066
23
-1.0097280281
33
0.0000000000
40
0.0000000000
40
0.0000000000
40
0.0000000000
40
0.0000000000
40
0.3831677249
40
1.0000000000
40
1.0000000000
40
1.0000000000
40
1.0000000000
10
-138.8259418512
20
68.0007542262
30
0.0000000000
10
-138.8918169124
20
67.8881644360
30
0.0000000000
10
-139.0321772210
20
67.5741535505
30
0.0000000000
10
-139.0998277077
20
67.2405043440
30
0.0000000000
10
-139.1208630261
20
67.0328933985
30
0.0000000000
11
-138.8259418512
21
68.0007542262
31
0.0000000000
11
-138.9887049180
21
67.6446435135
31
0.0000000000
11
-139.1208630261
21
67.0328933985
31
0.0000000000
0
SPLINE
5
28F
100
AcDbEntity
8
0
100
AcDbSpline
62
7
6
CONTINUOUS
70
0
71
3
72
8
73
4
74
2
42
0.0000001000
43
0.0000001000
44
0.0000000001
12
-0.0354230370
22
-0.3496124978
32
0.0000000000
13
0.0000000000
23
-0.3500188043
33
0.0000000000
40
0.0000000000
40
0.0000000000
40
0.0000000000
40
0.0000000000
40
1.0000000000
40
1.0000000000
40
1.0000000000
40
1.0000000000
10
-139.1208630261
20
67.0328933985
30
0.0000000000
10
-139.1326707051
20
66.9163558992
30
0.0000000000
10
-139.1379580668
20
66.7992495581
30
0.0000000000
10
-139.1379580668
20
66.6825766234
30
0.0000000000
11
-139.1208630261
21
67.0328933985
31
0.0000000000
11
-139.1379580668
21
66.6825766234
31
0.0000000000
0
SPLINE
5
290
100
AcDbEntity
8
0
100
AcDbSpline
62
7
6
CONTINUOUS
70
0
71
3
72
9
73
5
74
3
42
0.0000001000
43
0.0000001000
44
0.0000000001
12
-0.5157667802
22
-0.8815183235
32
0.0000000000
13
-0.1023065066
23
-1.0097280281
33
0.0000000000
40
0.0000000000
40
0.0000000000
40
0.0000000000
40
0.0000000000
40
0.3831677249
40
1.0000000000
40
1.0000000000
40
1.0000000000
40
1.0000000000
10
-48.3162738593
20
22.7459202303
30
0.0000000000
10
-48.3821489206
20
22.6333304401
30
0.0000000000
10
-48.5225092291
20
22.3193195546
30
0.0000000000
10
-48.5901597159
20
21.9856703481
30
0.0000000000
10
-48.6111950343
20
21.7780594025
30
0.0000000000
11
-48.3162738593
21
22.7459202303
31
0.0000000000
11
-48.4790369261
21
22.3898095176
31
0.0000000000
11
-48.6111950343
21
21.7780594025
31
0.0000000000
0
SPLINE
5
291
100
AcDbEntity
8
0
100
AcDbSpline
62
7
6
CONTINUOUS
70
0
71
3
72
8
73
4
74
2
42
0.0000001000
43
0.0000001000
44
0.0000000001
12
-0.0354230370
22
-0.3496124978
32
0.0000000000
13
0.0000000000
23
-0.3500188043
33
0.0000000000
40
0.0000000000
40
0.0000000000
40
0.0000000000
40
0.0000000000
40
1.0000000000
40
1.0000000000
40
1.0000000000
40
1.0000000000
10
-48.6111950343
20
21.7780594025
30
0.0000000000
10
-48.6230027133
20
21.6615219032
30
0.0000000000
10
-48.6282900749
20
21.5444155622
30
0.0000000000
10
-48.6282900749
20
21.4277426274
30
0.0000000000
11
-48.6111950343
21
21.7780594025
31
0.0000000000
11
-48.6282900749
21
21.4277426274
31
0.0000000000
0
SPLINE
5
292
100
AcDbEntity
8
0
100
AcDbSpline
62
7
6
CONTINUOUS
70
0
71
3
72
10
73
6
74
4
42
0.0000001000
43
0.0000001000
44
0.0000000001
12
-3.5707280255
22
-5.4096393411
32
0.0000000000
13
-5.8049060225
23
2.8841880599
33
0.0000000000
40
0.0000000000
40
0.0000000000
40
0.0000000000
40
0.0000000000
40
0.4001847512
40
0.7348132415
40
1.0000000000
40
1.0000000000
40
1.0000000000
40
1.0000000000
10
180.4574711538
20
-77.2618854273
30
0.0000000000
10
179.9811541850
20
-77.9835038186
30
0.0000000000
10
178.9199301501
20
-79.1964888895
30
0.0000000000
10
176.9940352748
20
-80.3126063695
30
0.0000000000
10
175.5816672190
20
-80.2369363486
30
0.0000000000
10
175.0685391484
20
-79.9819868544
30
0.0000000000
11
180.4574711538
21
-77.2618854273
31
0.0000000000
11
178.7202728883
21
-79.1881877927
31
0.0000000000
11
176.7802517805
21
-80.1581983466
31
0.0000000000
11
175.0685391484
21
-79.9819868544
31
0.0000000000
0
SPLINE
5
293
100
AcDbEntity
8
0
100
AcDbSpline
62
7
6
CONTINUOUS
70
0
71
3
72
9
73
5
74
3
42
0.0000001000
43
0.0000001000
44
0.0000000001
12
-0.5157667802
22
-0.8815183235
32
0.0000000000
13
-0.1023065066
23
-1.0097280281
33
0.0000000000
40
0.0000000000
40
0.0000000000
40
0.0000000000
40
0.0000000000
40
0.3831677249
40
1.0000000000
40
1.0000000000
40
1.0000000000
40
1.0000000000
10
-25.6888568613
20
11.4322117313
30
0.0000000000
10
-25.7547319226
20
11.3196219411
30
0.0000000000
10
-25.8950922312
20
11.0056110556
30
0.0000000000
10
-25.9627427179
20
10.6719618491
30
0.0000000000
10
-25.9837780363
20
10.4643509035
30
0.0000000000
11
-25.6888568613
21
11.4322117313
31
0.0000000000
11
-25.8516199281
21
11.0761010186
31
0.0000000000
11
-25.9837780363
21
10.4643509035
31
0.0000000000
0
SPLINE
5
294
100
AcDbEntity
8
0
100
AcDbSpline
62
7
6
CONTINUOUS
70
0
71
3
72
8
73
4
74
2
42
0.0000001000
43
0.0000001000
44
0.0000000001
12
-0.0354230370
22
-0.3496124978
32
0.0000000000
13
0.0000000000
23
-0.3500188043
33
0.0000000000
40
0.0000000000
40
0.0000000000
40
0.0000000000
40
0.0000000000
40
1.0000000000
40
1.0000000000
40
1.0000000000
40
1.0000000000
10
-25.9837780363
20
10.4643509035
30
0.0000000000
10
-25.9955857153
20
10.3478134043
30
0.0000000000
10
-26.0008730769
20
10.2307070632
30
0.0000000000
10
-26.0008730769
20
10.1140341285
30
0.0000000000
11
-25.9837780363
21
10.4643509035
31
0.0000000000
11
-26.0008730769
21
10.1140341285
31
0.0000000000
0
SPLINE
5
295
100
AcDbEntity
8
0
100
AcDbSpline
62
7
6
CONTINUOUS
70
0
71
3
72
9
73
5
74
3
42
0.0000001000
43
0.0000001000
44
0.0000000001
12
-0.5157667802
22
-0.8815183235
32
0.0000000000
13
-0.1023065066
23
-1.0097280281
33
0.0000000000
40
0.0000000000
40
0.0000000000
40
0.0000000000
40
0.0000000000
40
0.3831677249
40
1.0000000000
40
1.0000000000
40
1.0000000000
40
1.0000000000
10
108.6614315641
20
-55.7429324814
30
0.0000000000
10
108.5955565029
20
-55.8555222716
30
0.0000000000
10
108.4551961943
20
-56.1695331571
30
0.0000000000
10
108.3875457075
20
-56.5031823636
30
0.0000000000
10
108.3665103891
20
-56.7107933092
30
0.0000000000
11
108.6614315641
21
-55.7429324814
31
0.0000000000
11
108.4986684973
21
-56.0990431941
31
0.0000000000
11
108.3665103891
21
-56.7107933092
31
0.0000000000
0
SPLINE
5
296
100
AcDbEntity
8
0
100
AcDbSpline
62
7
6
CONTINUOUS
70
0
71
3
72
8
73
4
74
2
42
0.0000001000
43
0.0000001000
44
0.0000000001
12
-0.0354230370
22
-0.3496124978
32
0.0000000000
13
0.0000000000
23
-0.3500188043
33
0.0000000000
40
0.0000000000
40
0.0000000000
40
0.0000000000
40
0.0000000000
40
1.0000000000
40
1.0000000000
40
1.0000000000
40
1.0000000000
10
108.3665103891
20
-56.7107933092
30
0.0000000000
10
108.3547027101
20
-56.8273308085
30
0.0000000000
10
108.3494153485
20
-56.9444371495
30
0.0000000000
10
108.3494153485
20
-57.0611100843
30
0.0000000000
11
108.3665103891
21
-56.7107933092
31
0.0000000000
11
108.3494153485
21
-57.0611100843
31
0.0000000000
0
SPLINE
5
297
100
AcDbEntity
8
0
100
AcDbSpline
62
7
6
CONTINUOUS
70
0
71
3
72
9
73
5
74
3
42
0.0000001000
43
0.0000001000
44
0.0000000001
12
-0.5157667802
22
-0.8815183235
32
0.0000000000
13
-0.1023065066
23
-1.0097280281
33
0.0000000000
40
0.0000000000
40
0.0000000000
40
0.0000000000
40
0.0000000000
40
0.3831677249
40
1.0000000000
40
1.0000000000
40
1.0000000000
40
1.0000000000
10
131.2888485621
20
-67.0566409804
30
0.0000000000
10
131.2229735008
20
-67.1692307706
30
0.0000000000
10
131.0826131922
20
-67.4832416561
30
0.0000000000
10
131.0149627055
20
-67.8168908626
30
0.0000000000
10
130.9939273871
20
-68.0245018082
30
0.0000000000
11
131.2888485621
21
-67.0566409804
31
0.0000000000
11
131.1260854953
21
-67.4127516931
31
0.0000000000
11
130.9939273871
21
-68.0245018082
31
0.0000000000
0
SPLINE
5
298
100
AcDbEntity
8
0
100
AcDbSpline
62
7
6
CONTINUOUS
70
0
71
3
72
8
73
4
74
2
42
0.0000001000
43
0.0000001000
44
0.0000000001
12
-0.0354230370
22
-0.3496124978
32
0.0000000000
13
0.0000000000
23
-0.3500188043
33
0.0000000000
40
0.0000000000
40
0.0000000000
40
0.0000000000
40
0.0000000000
40
1.0000000000
40
1.0000000000
40
1.0000000000
40
1.0000000000
10
130.9939273871
20
-68.0245018082
30
0.0000000000
10
130.9821197081
20
-68.1410393075
30
0.0000000000
10
130.9768323465
20
-68.2581456485
30
0.0000000000
10
130.9768323465
20
-68.3748185833
30
0.0000000000
11
130.9939273871
21
-68.0245018082
31
0.0000000000
11
130.9768323465
21
-68.3748185833
31
0.0000000000
0
SPLINE
5
299
100
AcDbEntity
8
0
100
AcDbSpline
62
7
6
CONTINUOUS
70
0
71
3
72
10
73
6
74
4
42
0.0000001000
43
0.0000001000
44
0.0000000001
12
-1.3099792013
22
0.3510822316
32
0.0000000000
13
-0.8398203403
23
-1.0648971956
33
0.0000000000
40
0.0000000000
40
0.0000000000
40
0.0000000000
40
0.0000000000
40
0.2777576355
40
0.6112136868
40
1.0000000000
40
1.0000000000
40
1.0000000000
40
1.0000000000
10
164.4935576027
20
-68.3043683927
30
0.0000000000
10
164.3722720275
20
-68.2718631358
30
0.0000000000
10
164.0812735798
20
-68.2891938309
30
0.0000000000
10
163.6776266259
20
-68.5104916460
30
0.0000000000
10
163.4446603266
20
-68.7452296548
30
0.0000000000
10
163.3358234420
20
-68.8832354730
30
0.0000000000
11
164.4935576027
21
-68.3043683927
31
0.0000000000
11
164.1169367301
21
-68.3119684282
31
0.0000000000
11
163.7124443146
21
-68.5142146360
31
0.0000000000
11
163.3358234420
21
-68.8832354730
31
0.0000000000
0
SPLINE
5
29A
100
AcDbEntity
8
0
100
AcDbSpline
62
7
6
CONTINUOUS
70
0
71
3
72
10
73
6
74
4
42
0.0000001000
43
0.0000001000
44
0.0000000001
12
-4.2102636059
22
-4.6304906685
32
0.0000000000
13
-6.0301889748
23
1.6161265769
33
0.0000000000
40
0.0000000000
40
0.0000000000
40
0.0000000000
40
0.0000000000
40
0.3106631933
40
0.6867403895
40
1.0000000000
40
1.0000000000
40
1.0000000000
40
1.0000000000
10
169.9879928650
20
-65.9089482209
30
0.0000000000
10
169.5520015529
20
-66.3884558934
30
0.0000000000
10
168.4920857758
20
-67.3644555529
30
0.0000000000
10
166.6339895487
20
-68.3831493178
30
0.0000000000
10
165.1232291525
20
-68.4731241200
30
0.0000000000
10
164.4935576027
20
-68.3043683927
30
0.0000000000
11
169.9879928650
21
-65.9089482209
31
0.0000000000
11
168.5488198554
21
-67.2149213656
31
0.0000000000
11
166.4488391620
21
-68.2649117123
31
0.0000000000
11
164.4935576027
21
-68.3043683927
31
0.0000000000
0
SPLINE
5
29B
100
AcDbEntity
8
0
100
AcDbSpline
62
7
6
CONTINUOUS
70
0
71
3
72
9
73
5
74
3
42
0.0000001000
43
0.0000001000
44
0.0000000001
12
2.8568564840
22
3.6225110447
32
0.0000000000
13
4.3614431168
23
1.5922498109
33
0.0000000000
40
0.0000000000
40
0.0000000000
40
0.0000000000
40
0.0000000000
40
0.5933539692
40
1.0000000000
40
1.0000000000
40
1.0000000000
40
1.0000000000
10
-184.1100855223
20
76.4407745192
30
0.0000000000
10
-183.5450431443
20
77.1572516215
30
0.0000000000
10
-182.4477765021
20
78.2628629806
30
0.0000000000
10
-181.1002629951
20
79.0483949763
30
0.0000000000
10
-180.5090751511
20
79.2642223315
30
0.0000000000
11
-184.1100855223
21
76.4407745192
31
0.0000000000
11
-182.1548039629
21
78.3565993982
31
0.0000000000
11
-180.5090751511
21
79.2642223315
31
0.0000000000
0
SPLINE
5
29C
100
AcDbEntity
8
0
100
AcDbSpline
62
7
6
CONTINUOUS
70
0
71
3
72
10
73
6
74
4
42
0.0000001000
43
0.0000001000
44
0.0000000001
12
1.3099792013
22
-0.3510822316
32
0.0000000000
13
0.8398203403
23
1.0648971956
33
0.0000000000
40
0.0000000000
40
0.0000000000
40
0.0000000000
40
0.0000000000
40
0.2777576355
40
0.6112136868
40
1.0000000000
40
1.0000000000
40
1.0000000000
40
1.0000000000
10
-185.2678196829
20
75.8619074389
30
0.0000000000
10
-185.1465341078
20
75.8294021821
30
0.0000000000
10
-184.8555356601
20
75.8467328771
30
0.0000000000
10
-184.4518887061
20
76.0680306922
30
0.0000000000
10
-184.2189224069
20
76.3027687010
30
0.0000000000
10
-184.1100855223
20
76.4407745192
30
0.0000000000
11
-185.2678196829
21
75.8619074389
31
0.0000000000
11
-184.8911988104
21
75.8695074745
31
0.0000000000
11
-184.4867063948
21
76.0717536823
31
0.0000000000
11
-184.1100855223
21
76.4407745192
31
0.0000000000
0
SPLINE
5
29D
100
AcDbEntity
8
0
100
AcDbSpline
62
7
6
CONTINUOUS
70
0
71
3
72
8
73
4
74
2
42
0.0000001000
43
0.0000001000
44
0.0000000001
12
0.3887780980
22
0.1946974419
32
0.0000000000
13
0.2410547679
23
0.3454389701
33
0.0000000000
40
0.0000000000
40
0.0000000000
40
0.0000000000
40
0.0000000000
40
1.0000000000
40
1.0000000000
40
1.0000000000
40
1.0000000000
10
177.5145726783
20
-88.1223190478
30
0.0000000000
10
177.6441653777
20
-88.0574199005
30
0.0000000000
10
177.7592161741
20
-87.9605505312
30
0.0000000000
10
177.8395677634
20
-87.8454042078
30
0.0000000000
11
177.5145726783
21
-88.1223190478
31
0.0000000000
11
177.8395677634
21
-87.8454042078
31
0.0000000000
0
SPLINE
5
29E
100
AcDbEntity
8
0
100
AcDbSpline
62
7
6
CONTINUOUS
70
0
71
3
72
12
73
8
74
6
42
0.0000001000
43
0.0000001000
44
0.0000000001
12
-1.0594775596
22
0.2194249871
32
0.0000000000
13
-0.5426965434
23
-0.9360130800
33
0.0000000000
40
0.0000000000
40
0.0000000000
40
0.0000000000
40
0.0000000000
40
0.1576260231
40
0.3362171254
40
0.5390013139
40
0.7627279929
40
1.0000000000
40
1.0000000000
40
1.0000000000
40
1.0000000000
10
177.4638993895
20
-66.1025415534
30
0.0000000000
10
177.4082323114
20
-66.0910125241
30
0.0000000000
10
177.2835567961
20
-66.0925221778
30
0.0000000000
10
177.0984745529
20
-66.1596205010
30
0.0000000000
10
176.9164817554
20
-66.2833091397
30
0.0000000000
10
176.7481847210
20
-66.4553441931
30
0.0000000000
10
176.6532682316
20
-66.5929159123
30
0.0000000000
10
176.6103459989
20
-66.6669458130
30
0.0000000000
11
177.4638993895
21
-66.1025415534
31
0.0000000000
11
177.2933587008
21
-66.1012955940
31
0.0000000000
11
177.1103459989
21
-66.1632928449
31
0.0000000000
11
176.9273332970
21
-66.2843082959
31
0.0000000000
11
176.7567926083
21
-66.4560949440
31
0.0000000000
11
176.6103459989
21
-66.6669458130
31
0.0000000000
0
SPLINE
5
29F
100
AcDbEntity
8
0
100
AcDbSpline
62
7
6
CONTINUOUS
70
0
71
3
72
9
73
5
74
3
42
0.0000001000
43
0.0000001000
44
0.0000000001
12
0.3998868300
22
0.2073645545
32
0.0000000000
13
0.2865956657
23
0.3459515715
33
0.0000000000
40
0.0000000000
40
0.0000000000
40
0.0000000000
40
0.0000000000
40
0.4611748893
40
1.0000000000
40
1.0000000000
40
1.0000000000
40
1.0000000000
10
-176.4321193572
20
68.1837211587
30
0.0000000000
10
-176.3706467691
20
68.2155982672
30
0.0000000000
10
-176.2463656360
20
68.3010719715
30
0.0000000000
10
-176.1409661843
20
68.4088239674
30
0.0000000000
10
-176.0894912038
20
68.4709597653
30
0.0000000000
11
-176.4321193572
21
68.1837211587
31
0.0000000000
11
-176.2600318925
21
68.2991731172
31
0.0000000000
11
-176.0894912038
21
68.4709597653
31
0.0000000000
0
SPLINE
5
2A0
100
AcDbEntity
8
0
100
AcDbSpline
62
7
6
CONTINUOUS
70
0
71
3
72
8
73
4
74
2
42
0.0000001000
43
0.0000001000
44
0.0000000001
12
-0.0896703023
22
0.0448736629
32
0.0000000000
13
-0.0972407734
23
0.0201392236
33
0.0000000000
40
0.0000000000
40
0.0000000000
40
0.0000000000
40
0.0000000000
40
1.0000000000
40
1.0000000000
40
1.0000000000
40
1.0000000000
10
183.3968618408
20
-67.3445515615
30
0.0000000000
10
183.3669717400
20
-67.3295936739
30
0.0000000000
10
183.3351477454
20
-67.3185169020
30
0.0000000000
10
183.3027341543
20
-67.3118038275
30
0.0000000000
11
183.3968618408
21
-67.3445515615
31
0.0000000000
11
183.3027341543
21
-67.3118038275
31
0.0000000000
0
SPLINE
5
2A1
100
AcDbEntity
8
0
100
AcDbSpline
62
7
6
CONTINUOUS
70
0
71
3
72
8
73
4
74
2
42
0.0000001000
43
0.0000001000
44
0.0000000001
12
0.0503912200
22
-0.0365207783
32
0.0000000000
13
0.0562182932
23
-0.0278370878
33
0.0000000000
40
0.0000000000
40
0.0000000000
40
0.0000000000
40
0.0000000000
40
1.0000000000
40
1.0000000000
40
1.0000000000
40
1.0000000000
10
176.6103459989
20
-108.5948846623
30
0.0000000000
10
176.6271430722
20
-108.6070582551
30
0.0000000000
10
176.6450771545
20
-108.6178401307
30
0.0000000000
10
176.6638165856
20
-108.6271191600
30
0.0000000000
11
176.6103459989
21
-108.5948846623
31
0.0000000000
11
176.6638165856
21
-108.6271191600
31
0.0000000000
0
SPLINE
5
2A2
100
AcDbEntity
8
0
100
AcDbSpline
62
7
6
CONTINUOUS
70
0
71
3
72
12
73
8
74
6
42
0.0000001000
43
0.0000001000
44
0.0000000001
12
-0.8614793235
22
0.4281033288
32
0.0000000000
13
-0.0000000000
23
-0.9619348088
33
0.0000000000
40
0.0000000000
40
0.0000000000
40
0.0000000000
40
0.0000000000
40
0.1458673686
40
0.3290641142
40
0.5482752550
40
0.7815065174
40
1.0000000000
40
1.0000000000
40
1.0000000000
40
1.0000000000
10
175.0409343123
20
-79.9680220979
30
0.0000000000
10
174.9990470716
20
-79.9472066625
30
0.0000000000
10
174.8844175837
20
-79.9400454569
30
0.0000000000
10
174.7263767539
20
-80.0286237705
30
0.0000000000
10
174.5882702402
20
-80.1820813739
30
0.0000000000
10
174.4916856477
20
-80.3769597486
30
0.0000000000
10
174.4638993895
20
-80.5220138343
30
0.0000000000
10
174.4638993895
20
-80.5920726631
30
0.0000000000
11
175.0409343123
21
-79.9680220979
31
0.0000000000
11
174.9013072825
21
-79.9527113339
31
0.0000000000
11
174.7426776251
21
-80.0294660902
31
0.0000000000
11
174.5991033395
21
-80.1839045671
31
0.0000000000
11
174.4994919452
21
-80.3849318283
31
0.0000000000
11
174.4638993895
21
-80.5920726631
31
0.0000000000
0
SPLINE
5
2A3
100
AcDbEntity
8
0
100
AcDbSpline
62
7
6
CONTINUOUS
70
0
71
3
72
12
73
8
74
6
42
0.0000001000
43
0.0000001000
44
0.0000000001
12
0.0000000000
22
-4.9775753277
32
0.0000000000
13
4.3356352645
23
-2.4894536748
33
0.0000000000
40
0.0000000000
40
0.0000000000
40
0.0000000000
40
0.0000000000
40
0.2252698784
40
0.4675006035
40
0.7090245311
40
0.9323645298
40
1.0000000000
40
1.0000000000
40
1.0000000000
40
1.0000000000
10
130.9768323465
20
-68.3748185833
30
0.0000000000
10
130.9768323465
20
-68.7485845129
30
0.0000000000
10
131.0916077240
20
-69.5256107441
30
0.0000000000
10
131.5180823184
20
-70.6303797562
30
0.0000000000
10
132.1610490425
20
-71.6224806410
30
0.0000000000
10
132.8009295014
20
-72.2446123290
30
0.0000000000
10
133.2081502881
20
-72.5096960795
30
0.0000000000
10
133.3058978647
20
-72.5658212028
30
0.0000000000
11
130.9768323465
21
-68.3748185833
31
0.0000000000
11
131.1260854953
21
-69.4861386222
31
0.0000000000
11
131.5558428092
21
-70.6126702119
31
0.0000000000
11
132.2142692136
21
-71.6185370168
31
0.0000000000
11
133.0219487667
21
-72.3824166552
31
0.0000000000
11
133.3058978647
21
-72.5658212028
31
0.0000000000
0
SPLINE
5
2A4
100
AcDbEntity
8
0
100
AcDbSpline
62
7
6
CONTINUOUS
70
0
71
3
72
8
73
4
74
2
42
0.0000001000
43
0.0000001000
44
0.0000000001
12
0.5437914212
22
-0.3122364935
32
0.0000000000
13
0.6072194024
23
-0.1712431522
33
0.0000000000
40
0.0000000000
40
0.0000000000
40
0.0000000000
40
0.0000000000
40
1.0000000000
40
1.0000000000
40
1.0000000000
40
1.0000000000
10
133.3058978647
20
-72.5658212028
30
0.0000000000
10
133.4871616718
20
-72.6699000340
30
0.0000000000
10
133.6790569270
20
-72.7550929184
30
0.0000000000
10
133.8814633945
20
-72.8121739691
30
0.0000000000
11
133.3058978647
21
-72.5658212028
31
0.0000000000
11
133.8814633945
21
-72.8121739691
31
0.0000000000
0
SPLINE
5
2A5
100
AcDbEntity
8
0
100
AcDbSpline
62
7
6
CONTINUOUS
70
0
71
3
72
12
73
8
74
6
42
0.0000001000
43
0.0000001000
44
0.0000000001
12
0.0000000000
22
-4.9775753277
32
0.0000000000
13
4.3356352645
23
-2.4894536748
33
0.0000000000
40
0.0000000000
40
0.0000000000
40
0.0000000000
40
0.0000000000
40
0.2252698784
40
0.4675006035
40
0.7090245311
40
0.9323645298
40
1.0000000000
40
1.0000000000
40
1.0000000000
40
1.0000000000
10
108.3494153485
20
-57.0611100843
30
0.0000000000
10
108.3494153485
20
-57.4348760139
30
0.0000000000
10
108.4641907260
20
-58.2119022451
30
0.0000000000
10
108.8906653205
20
-59.3166712573
30
0.0000000000
10
109.5336320445
20
-60.3087721420
30
0.0000000000
10
110.1735125035
20
-60.9309038300
30
0.0000000000
10
110.5807332901
20
-61.1959875805
30
0.0000000000
10
110.6784808667
20
-61.2521127038
30
0.0000000000
11
108.3494153485
21
-57.0611100843
31
0.0000000000
11
108.4986684973
21
-58.1724301232
31
0.0000000000
11
108.9284258112
21
-59.2989617129
31
0.0000000000
11
109.5868522156
21
-60.3048285178
31
0.0000000000
11
110.3945317688
21
-61.0687081562
31
0.0000000000
11
110.6784808667
21
-61.2521127038
31
0.0000000000
0
SPLINE
5
2A6
100
AcDbEntity
8
0
100
AcDbSpline
62
7
6
CONTINUOUS
70
0
71
3
72
8
73
4
74
2
42
0.0000001000
43
0.0000001000
44
0.0000000001
12
0.5437914212
22
-0.3122364935
32
0.0000000000
13
0.6072194024
23
-0.1712431522
33
0.0000000000
40
0.0000000000
40
0.0000000000
40
0.0000000000
40
0.0000000000
40
1.0000000000
40
1.0000000000
40
1.0000000000
40
1.0000000000
10
110.6784808667
20
-61.2521127038
30
0.0000000000
10
110.8597446738
20
-61.3561915350
30
0.0000000000
10
111.0516399291
20
-61.4413844194
30
0.0000000000
10
111.2540463966
20
-61.4984654701
30
0.0000000000
11
110.6784808667
21
-61.2521127038
31
0.0000000000
11
111.2540463966
21
-61.4984654701
31
0.0000000000
0
SPLINE
5
2A7
100
AcDbEntity
8
0
100
AcDbSpline
62
7
6
CONTINUOUS
70
0
71
3
72
12
73
8
74
6
42
0.0000001000
43
0.0000001000
44
0.0000000001
12
0.0000000000
22
-4.9775753277
32
0.0000000000
13
4.3356352645
23
-2.4894536748
33
0.0000000000
40
0.0000000000
40
0.0000000000
40
0.0000000000
40
0.0000000000
40
0.2252698784
40
0.4675006035
40
0.7090245311
40
0.9323645298
40
1.0000000000
40
1.0000000000
40
1.0000000000
40
1.0000000000
10
-26.0008730769
20
10.1140341285
30
0.0000000000
10
-26.0008730769
20
9.7402681988
30
0.0000000000
10
-25.8860976995
20
8.9632419676
30
0.0000000000
10
-25.4596231050
20
7.8584729555
30
0.0000000000
10
-24.8166563809
20
6.8663720707
30
0.0000000000
10
-24.1767759220
20
6.2442403827
30
0.0000000000
10
-23.7695551353
20
5.9791566322
30
0.0000000000
10
-23.6718075587
20
5.9230315089
30
0.0000000000
11
-26.0008730769
21
10.1140341285
31
0.0000000000
11
-25.8516199281
21
9.0027140895
31
0.0000000000
11
-25.4218626142
21
7.8761824998
31
0.0000000000
11
-24.7634362099
21
6.8703156949
31
0.0000000000
11
-23.9557566567
21
6.1064360565
31
0.0000000000
11
-23.6718075587
21
5.9230315089
31
0.0000000000
0
SPLINE
5
2A8
100
AcDbEntity
8
0
100
AcDbSpline
62
7
6
CONTINUOUS
70
0
71
3
72
8
73
4
74
2
42
0.0000001000
43
0.0000001000
44
0.0000000001
12
0.5437914212
22
-0.3122364935
32
0.0000000000
13
0.6072194024
23
-0.1712431522
33
0.0000000000
40
0.0000000000
40
0.0000000000
40
0.0000000000
40
0.0000000000
40
1.0000000000
40
1.0000000000
40
1.0000000000
40
1.0000000000
10
-23.6718075587
20
5.9230315089
30
0.0000000000
10
-23.4905437516
20
5.8189526777
30
0.0000000000
10
-23.2986484964
20
5.7337597933
30
0.0000000000
10
-23.0962420289
20
5.6766787426
30
0.0000000000
11
-23.6718075587
21
5.9230315089
31
0.0000000000
11
-23.0962420289
21
5.6766787426
31
0.0000000000
0
SPLINE
5
2A9
100
AcDbEntity
8
0
100
AcDbSpline
62
7
6
CONTINUOUS
70
0
71
3
72
12
73
8
74
6
42
0.0000001000
43
0.0000001000
44
0.0000000001
12
0.0000000000
22
-4.9775753277
32
0.0000000000
13
4.3356352645
23
-2.4894536748
33
0.0000000000
40
0.0000000000
40
0.0000000000
40
0.0000000000
40
0.0000000000
40
0.2252698784
40
0.4675006035
40
0.7090245311
40
0.9323645298
40
1.0000000000
40
1.0000000000
40
1.0000000000
40
1.0000000000
10
-48.6282900749
20
21.4277426274
30
0.0000000000
10
-48.6282900749
20
21.0539766978
30
0.0000000000
10
-48.5135146974
20
20.2769504666
30
0.0000000000
10
-48.0870401030
20
19.1721814544
30
0.0000000000
10
-47.4440733789
20
18.1800805697
30
0.0000000000
10
-46.8041929199
20
17.5579488817
30
0.0000000000
10
-46.3969721333
20
17.2928651312
30
0.0000000000
10
-46.2992245567
20
17.2367400079
30
0.0000000000
11
-48.6282900749
21
21.4277426274
31
0.0000000000
11
-48.4790369261
21
20.3164225885
31
0.0000000000
11
-48.0492796122
21
19.1898909988
31
0.0000000000
11
-47.3908532078
21
18.1840241939
31
0.0000000000
11
-46.5831736546
21
17.4201445555
31
0.0000000000
11
-46.2992245567
21
17.2367400079
31
0.0000000000
0
SPLINE
5
2AA
100
AcDbEntity
8
0
100
AcDbSpline
62
7
6
CONTINUOUS
70
0
71
3
72
8
73
4
74
2
42
0.0000001000
43
0.0000001000
44
0.0000000001
12
0.5437914212
22
-0.3122364935
32
0.0000000000
13
0.6072194024
23
-0.1712431522
33
0.0000000000
40
0.0000000000
40
0.0000000000
40
0.0000000000
40
0.0000000000
40
1.0000000000
40
1.0000000000
40
1.0000000000
40
1.0000000000
10
-46.2992245567
20
17.2367400079
30
0.0000000000
10
-46.1179607496
20
17.1326611767
30
0.0000000000
10
-45.9260654943
20
17.0474682923
30
0.0000000000
10
-45.7236590269
20
16.9903872416
30
0.0000000000
11
-46.2992245567
21
17.2367400079
31
0.0000000000
11
-45.7236590269
21
16.9903872416
31
0.0000000000
0
SPLINE
5
2AB
100
AcDbEntity
8
0
100
AcDbSpline
62
7
6
CONTINUOUS
70
0
71
3
72
12
73
8
74
6
42
0.0000001000
43
0.0000001000
44
0.0000000001
12
0.0000000000
22
-4.9775753277
32
0.0000000000
13
4.3356352645
23
-2.4894536748
33
0.0000000000
40
0.0000000000
40
0.0000000000
40
0.0000000000
40
0.0000000000
40
0.2252698784
40
0.4675006035
40
0.7090245311
40
0.9323645298
40
1.0000000000
40
1.0000000000
40
1.0000000000
40
1.0000000000
10
-139.1379580668
20
66.6825766234
30
0.0000000000
10
-139.1379580668
20
66.3088106937
30
0.0000000000
10
-139.0231826893
20
65.5317844625
30
0.0000000000
10
-138.5967080948
20
64.4270154504
30
0.0000000000
10
-137.9537413708
20
63.4349145656
30
0.0000000000
10
-137.3138609118
20
62.8127828777
30
0.0000000000
10
-136.9066401252
20
62.5476991271
30
0.0000000000
10
-136.8088925486
20
62.4915740038
30
0.0000000000
11
-139.1379580668
21
66.6825766234
31
0.0000000000
11
-138.9887049180
21
65.5712565844
31
0.0000000000
11
-138.5589476041
21
64.4447249947
31
0.0000000000
11
-137.9005211997
21
63.4388581898
31
0.0000000000
11
-137.0928416465
21
62.6749785514
31
0.0000000000
11
-136.8088925486
21
62.4915740038
31
0.0000000000
0
SPLINE
5
2AC
100
AcDbEntity
8
0
100
AcDbSpline
62
7
6
CONTINUOUS
70
0
71
3
72
8
73
4
74
2
42
0.0000001000
43
0.0000001000
44
0.0000000001
12
0.5437914212
22
-0.3122364935
32
0.0000000000
13
0.6072194024
23
-0.1712431522
33
0.0000000000
40
0.0000000000
40
0.0000000000
40
0.0000000000
40
0.0000000000
40
1.0000000000
40
1.0000000000
40
1.0000000000
40
1.0000000000
10
-136.8088925486
20
62.4915740038
30
0.0000000000
10
-136.6276287415
20
62.3874951726
30
0.0000000000
10
-136.4357334862
20
62.3023022883
30
0.0000000000
10
-136.2333270187
20
62.2452212375
30
0.0000000000
11
-136.8088925486
21
62.4915740038
31
0.0000000000
11
-136.2333270187
21
62.2452212375
31
0.0000000000
0
SPLINE
5
2AD
100
AcDbEntity
8
0
100
AcDbSpline
62
7
6
CONTINUOUS
70
0
71
3
72
12
73
8
74
6
42
0.0000001000
43
0.0000001000
44
0.0000000001
12
0.0000000000
22
-4.9775753277
32
0.0000000000
13
4.3356352645
23
-2.4894536748
33
0.0000000000
40
0.0000000000
40
0.0000000000
40
0.0000000000
40
0.0000000000
40
0.2252698784
40
0.4675006035
40
0.7090245311
40
0.9323645298
40
1.0000000000
40
1.0000000000
40
1.0000000000
40
1.0000000000
10
-161.7653750647
20
77.9962851224
30
0.0000000000
10
-161.7653750647
20
77.6225191927
30
0.0000000000
10
-161.6505996873
20
76.8454929615
30
0.0000000000
10
-161.2241250928
20
75.7407239494
30
0.0000000000
10
-160.5811583688
20
74.7486230646
30
0.0000000000
10
-159.9412779098
20
74.1264913767
30
0.0000000000
10
-159.5340571232
20
73.8614076261
30
0.0000000000
10
-159.4363095465
20
73.8052825028
30
0.0000000000
11
-161.7653750647
21
77.9962851224
31
0.0000000000
11
-161.6161219160
21
76.8849650834
31
0.0000000000
11
-161.1863646021
21
75.7584334937
31
0.0000000000
11
-160.5279381977
21
74.7525666888
31
0.0000000000
11
-159.7202586445
21
73.9886870504
31
0.0000000000
11
-159.4363095465
21
73.8052825028
31
0.0000000000
0
SPLINE
5
2AE
100
AcDbEntity
8
0
100
AcDbSpline
62
7
6
CONTINUOUS
70
0
71
3
72
8
73
4
74
2
42
0.0000001000
43
0.0000001000
44
0.0000000001
12
0.5437914212
22
-0.3122364935
32
0.0000000000
13
0.6072194024
23
-0.1712431522
33
0.0000000000
40
0.0000000000
40
0.0000000000
40
0.0000000000
40
0.0000000000
40
1.0000000000
40
1.0000000000
40
1.0000000000
40
1.0000000000
10
-159.4363095465
20
73.8052825028
30
0.0000000000
10
-159.2550457395
20
73.7012036716
30
0.0000000000
10
-159.0631504842
20
73.6160107873
30
0.0000000000
10
-158.8607440167
20
73.5589297365
30
0.0000000000
11
-159.4363095465
21
73.8052825028
31
0.0000000000
11
-158.8607440167
21
73.5589297365
31
0.0000000000
0
SPLINE
5
2AF
100
AcDbEntity
8
0
100
AcDbSpline
62
7
6
CONTINUOUS
70
0
71
3
72
8
73
4
74
2
42
0.0000001000
43
0.0000001000
44
0.0000000001
12
-0.1927071523
22
0.2716047415
32
0.0000000000
13
-0.2226625862
23
0.2484324782
33
0.0000000000
40
0.0000000000
40
0.0000000000
40
0.0000000000
40
0.0000000000
40
1.0000000000
40
1.0000000000
40
1.0000000000
40
1.0000000000
10
178.2061316167
20
-75.4456261815
30
0.0000000000
10
178.1418958993
20
-75.3550912676
30
0.0000000000
10
178.0727898532
20
-75.2678735771
30
0.0000000000
10
177.9985689911
20
-75.1850627510
30
0.0000000000
11
178.2061316167
21
-75.4456261815
31
0.0000000000
11
177.9985689911
21
-75.1850627510
31
0.0000000000
0
SPLINE
5
2B0
100
AcDbEntity
8
0
100
AcDbSpline
62
7
6
CONTINUOUS
70
0
71
3
72
8
73
4
74
2
42
0.0000001000
43
0.0000001000
44
0.0000000001
12
-0.1393251216
22
0.3389823486
32
0.0000000000
13
-0.1757502784
23
0.3233130753
33
0.0000000000
40
0.0000000000
40
0.0000000000
40
0.0000000000
40
0.0000000000
40
1.0000000000
40
1.0000000000
40
1.0000000000
40
1.0000000000
10
177.8395677634
20
-74.5537649400
30
0.0000000000
10
177.7931260562
20
-74.4407708238
30
0.0000000000
10
177.7404621941
20
-74.3299583417
30
0.0000000000
10
177.6818787679
20
-74.2221873166
30
0.0000000000
11
177.8395677634
21
-74.5537649400
31
0.0000000000
11
177.6818787679
21
-74.2221873166
31
0.0000000000
0
SPLINE
5
2B1
100
AcDbEntity
8
0
100
AcDbSpline
62
7
6
CONTINUOUS
70
0
71
3
72
8
73
4
74
2
42
0.0000001000
43
0.0000001000
44
0.0000000001
12
-0.1655203725
22
0.3044939737
32
0.0000000000
13
-0.1962650634
23
0.2861530663
33
0.0000000000
40
0.0000000000
40
0.0000000000
40
0.0000000000
40
0.0000000000
40
1.0000000000
40
1.0000000000
40
1.0000000000
40
1.0000000000
10
177.6818787679
20
-74.2221873166
30
0.0000000000
10
177.6267053104
20
-74.1206893253
30
0.0000000000
10
177.5662813538
20
-74.0218890272
30
0.0000000000
10
177.5008596660
20
-73.9265046718
30
0.0000000000
11
177.6818787679
21
-74.2221873166
31
0.0000000000
11
177.5008596660
21
-73.9265046718
31
0.0000000000
0
SPLINE
5
2B2
100
AcDbEntity
8
0
100
AcDbSpline
62
7
6
CONTINUOUS
70
0
71
3
72
8
73
4
74
2
42
0.0000001000
43
0.0000001000
44
0.0000000001
12
-0.1864755999
22
0.2718800983
32
0.0000000000
13
-0.2128948209
23
0.2515299136
33
0.0000000000
40
0.0000000000
40
0.0000000000
40
0.0000000000
40
0.0000000000
40
1.0000000000
40
1.0000000000
40
1.0000000000
40
1.0000000000
10
177.5008596660
20
-73.9265046718
30
0.0000000000
10
177.4387011327
20
-73.8358779724
30
0.0000000000
10
177.3720309960
20
-73.7483349479
30
0.0000000000
10
177.3010660557
20
-73.6644916434
30
0.0000000000
11
177.5008596660
21
-73.9265046718
31
0.0000000000
11
177.3010660557
21
-73.6644916434
31
0.0000000000
0
SPLINE
5
2B3
100
AcDbEntity
8
0
100
AcDbSpline
62
7
6
CONTINUOUS
70
0
71
3
72
8
73
4
74
2
42
0.0000001000
43
0.0000001000
44
0.0000000001
12
-0.1656515390
22
0.1957131560
32
0.0000000000
13
-0.1821583546
23
0.1799309087
33
0.0000000000
40
0.0000000000
40
0.0000000000
40
0.0000000000
40
0.0000000000
40
1.0000000000
40
1.0000000000
40
1.0000000000
40
1.0000000000
10
177.3010660557
20
-73.6644916434
30
0.0000000000
10
177.2458488760
20
-73.5992539247
30
0.0000000000
10
177.1880315125
20
-73.5362561111
30
0.0000000000
10
177.1273120609
20
-73.4762791415
30
0.0000000000
11
177.3010660557
21
-73.6644916434
31
0.0000000000
11
177.1273120609
21
-73.4762791415
31
0.0000000000
0
SPLINE
5
2B4
100
AcDbEntity
8
0
100
AcDbSpline
62
7
6
CONTINUOUS
70
0
71
3
72
8
73
4
74
2
42
0.0000001000
43
0.0000001000
44
0.0000000001
12
-0.2743778914
22
0.2710227781
32
0.0000000000
13
-0.3169789947
23
0.2218938476
33
0.0000000000
40
0.0000000000
40
0.0000000000
40
0.0000000000
40
0.0000000000
40
1.0000000000
40
1.0000000000
40
1.0000000000
40
1.0000000000
10
177.1273120609
20
-73.4762791415
30
0.0000000000
10
177.0358527638
20
-73.3859382155
30
0.0000000000
10
176.9378091514
20
-73.3024510409
30
0.0000000000
10
176.8321494865
20
-73.2284864250
30
0.0000000000
11
177.1273120609
21
-73.4762791415
31
0.0000000000
11
176.8321494865
21
-73.2284864250
31
0.0000000000
0
SPLINE
5
2B5
100
AcDbEntity
8
0
100
AcDbSpline
62
7
6
CONTINUOUS
70
0
71
3
72
9
73
5
74
3
42
0.0000001000
43
0.0000001000
44
0.0000000001
12
-0.6878605012
22
0.4815209076
32
0.0000000000
13
-0.8387549018
23
0.0174883326
33
0.0000000000
40
0.0000000000
40
0.0000000000
40
0.0000000000
40
0.0000000000
40
0.3402678618
40
1.0000000000
40
1.0000000000
40
1.0000000000
40
1.0000000000
10
176.8321494865
20
-73.2284864250
30
0.0000000000
10
176.7541305459
20
-73.1738710618
30
0.0000000000
10
176.5126400370
20
-73.0286226813
30
0.0000000000
10
176.2316970568
20
-72.9374971709
30
0.0000000000
10
176.0472458685
20
-72.9336512992
30
0.0000000000
11
176.8321494865
21
-73.2284864250
31
0.0000000000
11
176.5852197330
21
-73.0812908160
31
0.0000000000
11
176.0472458685
21
-72.9336512992
31
0.0000000000
0
SPLINE
5
2B6
100
AcDbEntity
8
0
100
AcDbSpline
62
7
6
CONTINUOUS
70
0
71
3
72
9
73
5
74
3
42
0.0000001000
43
0.0000001000
44
0.0000000001
12
-0.4014432903
22
0.0083702328
32
0.0000000000
13
-0.3684483414
23
-0.1845164373
33
0.0000000000
40
0.0000000000
40
0.0000000000
40
0.0000000000
40
0.0000000000
40
0.4452985115
40
1.0000000000
40
1.0000000000
40
1.0000000000
40
1.0000000000
10
176.0472458685
20
-72.9336512992
30
0.0000000000
10
175.9876585020
20
-72.9324088818
30
0.0000000000
10
175.8540540460
20
-72.9428071665
30
0.0000000000
10
175.7239930688
20
-72.9883848889
30
0.0000000000
10
175.6558667877
20
-73.0225020697
30
0.0000000000
11
176.0472458685
21
-72.9336512992
31
0.0000000000
11
175.8693734104
21
-72.9486453208
31
0.0000000000
11
175.6558667877
21
-73.0225020697
31
0.0000000000
0
SPLINE
5
2B7
100
AcDbEntity
8
0
100
AcDbSpline
62
7
6
CONTINUOUS
70
0
71
3
72
8
73
4
74
2
42
0.0000001000
43
0.0000001000
44
0.0000000001
12
0.0625300734
22
0.0896075376
32
0.0000000000
13
0.0528573672
23
0.0958630262
33
0.0000000000
40
0.0000000000
40
0.0000000000
40
0.0000000000
40
0.0000000000
40
1.0000000000
40
1.0000000000
40
1.0000000000
40
1.0000000000
10
180.7740609053
20
-83.6401843840
30
0.0000000000
10
180.7949042631
20
-83.6103152048
30
0.0000000000
10
180.8140862487
20
-83.5793019494
30
0.0000000000
10
180.8317053711
20
-83.5473476073
30
0.0000000000
11
180.7740609053
21
-83.6401843840
31
0.0000000000
11
180.8317053711
21
-83.5473476073
31
0.0000000000
0
SPLINE
5
2B8
100
AcDbEntity
8
0
100
AcDbSpline
62
7
6
CONTINUOUS
70
0
71
3
72
8
73
4
74
2
42
0.0000001000
43
0.0000001000
44
0.0000000001
12
0.2222990484
22
0.4031653606
32
0.0000000000
13
0.0784244246
23
0.4577383961
33
0.0000000000
40
0.0000000000
40
0.0000000000
40
0.0000000000
40
0.0000000000
40
1.0000000000
40
1.0000000000
40
1.0000000000
40
1.0000000000
10
180.8317053711
20
-83.5473476073
30
0.0000000000
10
180.9058050539
20
-83.4129591538
30
0.0000000000
10
180.9522617411
20
-83.2619253177
30
0.0000000000
10
180.9784032160
20
-83.1093458523
30
0.0000000000
11
180.8317053711
21
-83.5473476073
31
0.0000000000
11
180.9784032160
21
-83.1093458523
31
0.0000000000
0
SPLINE
5
2B9
100
AcDbEntity
8
0
100
AcDbSpline
62
7
6
CONTINUOUS
70
0
71
3
72
8
73
4
74
2
42
0.0000001000
43
0.0000001000
44
0.0000000001
12
0.0364838028
22
0.2129443404
32
0.0000000000
13
0.0117354128
23
0.2142541876
33
0.0000000000
40
0.0000000000
40
0.0000000000
40
0.0000000000
40
0.0000000000
40
1.0000000000
40
1.0000000000
40
1.0000000000
40
1.0000000000
10
180.9784032160
20
-83.1093458523
30
0.0000000000
10
180.9905644836
20
-83.0383644055
30
0.0000000000
10
180.9983291317
20
-82.9670484535
30
0.0000000000
10
181.0022409359
20
-82.8956303909
30
0.0000000000
11
180.9784032160
21
-83.1093458523
31
0.0000000000
11
181.0022409359
21
-82.8956303909
31
0.0000000000
0
SPLINE
5
2BA
100
AcDbEntity
8
0
100
AcDbSpline
62
7
6
CONTINUOUS
70
0
71
3
72
8
73
4
74
2
42
0.0000001000
43
0.0000001000
44
0.0000000001
12
0.0256301569
22
0.4679314276
32
0.0000000000
13
-0.0676408764
23
0.4635909138
33
0.0000000000
40
0.0000000000
40
0.0000000000
40
0.0000000000
40
0.0000000000
40
1.0000000000
40
1.0000000000
40
1.0000000000
40
1.0000000000
10
181.0022409359
20
-82.8956303909
30
0.0000000000
10
181.0107843215
20
-82.7396532484
30
0.0000000000
10
181.0009501748
20
-82.5831890527
30
0.0000000000
10
180.9784032160
20
-82.4286587481
30
0.0000000000
11
181.0022409359
21
-82.8956303909
31
0.0000000000
11
180.9784032160
21
-82.4286587481
31
0.0000000000
0
SPLINE
5
2BB
100
AcDbEntity
8
0
100
AcDbSpline
62
7
6
CONTINUOUS
70
0
71
3
72
8
73
4
74
2
42
0.0000001000
43
0.0000001000
44
0.0000000001
12
-0.0876409512
22
0.6006656154
32
0.0000000000
13
-0.2036372336
23
0.5707798695
33
0.0000000000
40
0.0000000000
40
0.0000000000
40
0.0000000000
40
0.0000000000
40
1.0000000000
40
1.0000000000
40
1.0000000000
40
1.0000000000
10
180.9784032160
20
-82.4286587481
30
0.0000000000
10
180.9491895656
20
-82.2284368763
30
0.0000000000
10
180.8986338058
20
-82.0314615966
30
0.0000000000
10
180.8307547280
20
-81.8412016401
30
0.0000000000
11
180.9784032160
21
-82.4286587481
31
0.0000000000
11
180.8307547280
21
-81.8412016401
31
0.0000000000
0
SPLINE
5
2BC
100
AcDbEntity
8
0
100
AcDbSpline
62
7
6
CONTINUOUS
70
0
71
3
72
8
73
4
74
2
42
0.0000001000
43
0.0000001000
44
0.0000000001
12
-0.0532163632
22
0.1491614687
32
0.0000000000
13
-0.0600995589
23
0.1462240937
33
0.0000000000
40
0.0000000000
40
0.0000000000
40
0.0000000000
40
0.0000000000
40
1.0000000000
40
1.0000000000
40
1.0000000000
40
1.0000000000
10
180.8307547280
20
-81.8412016401
30
0.0000000000
10
180.8130159402
20
-81.7914811505
30
0.0000000000
10
180.7940940916
20
-81.7422192703
30
0.0000000000
10
180.7740609053
20
-81.6934779058
30
0.0000000000
11
180.8307547280
21
-81.8412016401
31
0.0000000000
11
180.7740609053
21
-81.6934779058
31
0.0000000000
0
SPLINE
5
2BD
100
AcDbEntity
8
0
100
AcDbSpline
62
7
6
CONTINUOUS
70
0
71
3
72
11
73
7
74
5
42
0.0000001000
43
0.0000001000
44
0.0000000001
12
0.0000000000
22
1.8825342611
32
0.0000000000
13
0.9442527537
23
1.6285950943
33
0.0000000000
40
0.0000000000
40
0.0000000000
40
0.0000000000
40
0.0000000000
40
0.2340873963
40
0.4823711787
40
0.7396675581
40
1.0000000000
40
1.0000000000
40
1.0000000000
40
1.0000000000
10
-180.1501513756
20
98.9148485828
30
0.0000000000
10
-180.1501513756
20
99.0617410974
30
0.0000000000
10
-180.1251693202
20
99.3647388752
30
0.0000000000
10
-180.0235707683
20
99.8188956029
30
0.0000000000
10
-179.8604469572
20
100.2722207538
30
0.0000000000
10
-179.7143242977
20
100.5633377693
30
0.0000000000
10
-179.6323844226
20
100.7046631486
30
0.0000000000
11
-180.1501513756
21
98.9148485828
31
0.0000000000
11
-180.1161842293
21
99.3542150933
31
0.0000000000
11
-180.0155881287
21
99.8106641414
31
0.0000000000
11
-179.8522289257
21
100.2666546463
31
0.0000000000
11
-179.6323844226
21
100.7046631486
31
0.0000000000
0
SPLINE
5
2BE
100
AcDbEntity
8
0
100
AcDbSpline
62
7
6
CONTINUOUS
70
0
71
3
72
8
73
4
74
2
42
0.0000001000
43
0.0000001000
44
0.0000000001
12
0.4340872168
22
0.5504251775
32
0.0000000000
13
0.4680394136
23
0.5240059228
33
0.0000000000
40
0.0000000000
40
0.0000000000
40
0.0000000000
40
0.0000000000
40
1.0000000000
40
1.0000000000
40
1.0000000000
40
1.0000000000
10
164.4935576027
20
-97.8610470433
30
0.0000000000
10
164.6382533416
20
-97.6775719841
30
0.0000000000
10
164.7885903238
20
-97.4980615740
30
0.0000000000
10
164.9446034617
20
-97.3233929331
30
0.0000000000
11
164.4935576027
21
-97.8610470433
31
0.0000000000
11
164.9446034617
21
-97.3233929331
31
0.0000000000
0
SPLINE
5
2BF
100
AcDbEntity
8
0
100
AcDbSpline
62
7
6
CONTINUOUS
70
0
71
3
72
10
73
6
74
4
42
0.0000001000
43
0.0000001000
44
0.0000000001
12
0.4169124507
22
-0.2064386490
32
0.0000000000
13
0.4140993543
23
0.2070199297
33
0.0000000000
40
0.0000000000
40
0.0000000000
40
0.0000000000
40
0.0000000000
40
0.2117968143
40
0.5813238971
40
1.0000000000
40
1.0000000000
40
1.0000000000
40
1.0000000000
10
176.6638165856
20
-108.6271191600
30
0.0000000000
10
176.6932501619
20
-108.6416935094
30
0.0000000000
10
176.7794904761
20
-108.6715198596
30
0.0000000000
10
176.9369350963
20
-108.6691999513
30
0.0000000000
10
177.0525548309
20
-108.6274290628
30
0.0000000000
10
177.1103459989
20
-108.5985376304
30
0.0000000000
11
176.6638165856
21
-108.6271191600
31
0.0000000000
11
176.7567926083
21
-108.6592889219
31
0.0000000000
11
176.9273332970
21
-108.6605348813
31
0.0000000000
11
177.1103459989
21
-108.5985376304
31
0.0000000000
0
SPLINE
5
2C0
100
AcDbEntity
8
0
100
AcDbSpline
62
7
6
CONTINUOUS
70
0
71
3
72
9
73
5
74
3
42
0.0000001000
43
0.0000001000
44
0.0000000001
12
0.4140502105
22
0.2069953613
32
0.0000000000
13
0.2943945531
23
0.3553656614
33
0.0000000000
40
0.0000000000
40
0.0000000000
40
0.0000000000
40
0.0000000000
40
0.4754490542
40
1.0000000000
40
1.0000000000
40
1.0000000000
40
1.0000000000
10
177.1103459989
20
-108.5985376304
30
0.0000000000
10
177.1759659259
20
-108.5657323808
30
0.0000000000
10
177.3041568104
20
-108.4785554898
30
0.0000000000
10
177.4124244090
20
-108.3678713292
30
0.0000000000
10
177.4638993895
20
-108.3057355313
30
0.0000000000
11
177.1103459989
21
-108.5985376304
31
0.0000000000
11
177.2933587008
21
-108.4775221794
31
0.0000000000
11
177.4638993895
21
-108.3057355313
31
0.0000000000
0
SPLINE
5
2C1
100
AcDbEntity
8
0
100
AcDbSpline
62
7
6
CONTINUOUS
70
0
71
3
72
10
73
6
74
4
42
0.0000001000
43
0.0000001000
44
0.0000000001
12
1.3099792013
22
-0.3510822316
32
0.0000000000
13
0.8398203403
23
1.0648971956
33
0.0000000000
40
0.0000000000
40
0.0000000000
40
0.0000000000
40
0.0000000000
40
0.2777576355
40
0.6112136868
40
1.0000000000
40
1.0000000000
40
1.0000000000
40
1.0000000000
10
163.3358234420
20
-98.4399141236
30
0.0000000000
10
163.4571090172
20
-98.4724193804
30
0.0000000000
10
163.7481074649
20
-98.4550886853
30
0.0000000000
10
164.1517544188
20
-98.2337908703
30
0.0000000000
10
164.3847207181
20
-97.9990528615
30
0.0000000000
10
164.4935576027
20
-97.8610470433
30
0.0000000000
11
163.3358234420
21
-98.4399141236
31
0.0000000000
11
163.7124443146
21
-98.4323140880
31
0.0000000000
11
164.1169367301
21
-98.2300678802
31
0.0000000000
11
164.4935576027
21
-97.8610470433
31
0.0000000000
0
SPLINE
5
2C2
100
AcDbEntity
8
0
100
AcDbSpline
62
7
6
CONTINUOUS
70
0
71
3
72
11
73
7
74
5
42
0.0000001000
43
0.0000001000
44
0.0000000001
12
0.0000000000
22
0.6282451311
32
0.0000000000
13
-0.5672956320
23
0.2838914586
33
0.0000000000
40
0.0000000000
40
0.0000000000
40
0.0000000000
40
0.0000000000
40
0.3397733906
40
0.6380239917
40
0.9034158755
40
1.0000000000
40
1.0000000000
40
1.0000000000
40
1.0000000000
10
183.6562875449
20
-67.8850271322
30
0.0000000000
10
183.6562875449
20
-67.8138734727
30
0.0000000000
10
183.6430420402
20
-67.6795108684
30
0.0000000000
10
183.5744258742
20
-67.5000623491
30
0.0000000000
10
183.4808688196
20
-67.3933761289
30
0.0000000000
10
183.4151257581
20
-67.3536913642
30
0.0000000000
10
183.3968618408
20
-67.3445515615
30
0.0000000000
11
183.6562875449
21
-67.8850271322
31
0.0000000000
11
183.6321934656
21
-67.6729303038
31
0.0000000000
11
183.5615531994
21
-67.4993816030
31
0.0000000000
11
183.4491807637
21
-67.3762080871
31
0.0000000000
11
183.3968618408
21
-67.3445515615
31
0.0000000000
0
SPLINE
5
2C3
100
AcDbEntity
8
0
100
AcDbSpline
62
7
6
CONTINUOUS
70
0
71
3
72
10
73
6
74
4
42
0.0000001000
43
0.0000001000
44
0.0000000001
12
3.5707280255
22
5.4096393411
32
0.0000000000
13
5.8049060225
23
-2.8841880599
33
0.0000000000
40
0.0000000000
40
0.0000000000
40
0.0000000000
40
0.0000000000
40
0.4001847512
40
0.7348132415
40
1.0000000000
40
1.0000000000
40
1.0000000000
40
1.0000000000
10
175.0430535150
20
-99.6884558372
30
0.0000000000
10
175.5193704838
20
-98.9668374460
30
0.0000000000
10
176.5805945187
20
-97.7538523751
30
0.0000000000
10
178.5064893940
20
-96.6377348950
30
0.0000000000
10
179.9188574498
20
-96.7134049159
30
0.0000000000
10
180.4319855204
20
-96.9683544101
30
0.0000000000
11
175.0430535150
21
-99.6884558372
31
0.0000000000
11
176.7802517805
21
-97.7621534718
31
0.0000000000
11
178.7202728883
21
-96.7921429179
31
0.0000000000
11
180.4319855204
21
-96.9683544101
31
0.0000000000
0
SPLINE
5
2C4
100
AcDbEntity
8
0
100
AcDbSpline
62
7
6
CONTINUOUS
70
0
71
3
72
11
73
7
74
5
42
0.0000001000
43
0.0000001000
44
0.0000000001
12
0.6438944628
22
0.7772493725
32
0.0000000000
13
0.0000000000
23
1.0093149490
33
0.0000000000
40
0.0000000000
40
0.0000000000
40
0.0000000000
40
0.0000000000
40
0.2543498482
40
0.5129191791
40
0.7647744559
40
1.0000000000
40
1.0000000000
40
1.0000000000
40
1.0000000000
10
183.3027341543
20
-101.2576384924
30
0.0000000000
10
183.3573256406
20
-101.1917407392
30
0.0000000000
10
183.4558673429
20
-101.0489469910
30
0.0000000000
10
183.5671669185
20
-100.8158223751
30
0.0000000000
10
183.6381641373
20
-100.5741018556
30
0.0000000000
10
183.6562875449
20
-100.4100006832
30
0.0000000000
10
183.6562875449
20
-100.3308617971
30
0.0000000000
11
183.3027341543
21
-101.2576384924
31
0.0000000000
11
183.4491807637
21
-101.0467876234
31
0.0000000000
11
183.5615531994
21
-100.8112416718
31
0.0000000000
11
183.6321934656
21
-100.5670527048
31
0.0000000000
11
183.6562875449
21
-100.3308617971
31
0.0000000000
0
SPLINE
5
2C5
100
AcDbEntity
8
0
100
AcDbSpline
62
7
6
CONTINUOUS
70
0
71
3
72
11
73
7
74
5
42
0.0000001000
43
0.0000001000
44
0.0000000001
12
0.3516059468
22
-0.1777329907
32
0.0000000000
13
0.2804169863
23
0.2793673674
33
0.0000000000
40
0.0000000000
40
0.0000000000
40
0.0000000000
40
0.0000000000
40
0.0143689654
40
0.3799384666
40
0.8331731846
40
1.0000000000
40
1.0000000000
40
1.0000000000
40
1.0000000000
10
174.5940104539
20
-99.9151280662
30
0.0000000000
10
174.5956945251
20
-99.9159793459
30
0.0000000000
10
174.6405847599
20
-99.9377363930
30
0.0000000000
10
174.7595543834
20
-99.9404922458
30
0.0000000000
10
174.8739705202
20
-99.8728417654
30
0.0000000000
10
174.9348871929
20
-99.8179323889
30
0.0000000000
10
174.9504808838
20
-99.8023970661
30
0.0000000000
11
174.5940104539
21
-99.9151280662
31
0.0000000000
11
174.5991033395
21
-99.9175956923
31
0.0000000000
11
174.7426776251
21
-99.9284598836
31
0.0000000000
11
174.9013072825
21
-99.8465849826
31
0.0000000000
11
174.9504808838
21
-99.8023970661
31
0.0000000000
0
SPLINE
5
2C6
100
AcDbEntity
8
0
100
AcDbSpline
62
7
6
CONTINUOUS
70
0
71
3
72
8
73
4
74
2
42
0.0000001000
43
0.0000001000
44
0.0000000001
12
0.1044116066
22
0.1040207872
32
0.0000000000
13
0.0807884366
23
0.1223941733
33
0.0000000000
40
0.0000000000
40
0.0000000000
40
0.0000000000
40
0.0000000000
40
1.0000000000
40
1.0000000000
40
1.0000000000
40
1.0000000000
10
174.9504808838
20
-99.8023970661
30
0.0000000000
10
174.9852847527
20
-99.7677234704
30
0.0000000000
10
175.0161240361
20
-99.7292538950
30
0.0000000000
10
175.0430535150
20
-99.6884558372
30
0.0000000000
11
174.9504808838
21
-99.8023970661
31
0.0000000000
11
175.0430535150
21
-99.6884558372
31
0.0000000000
0
SPLINE
5
2C7
100
AcDbEntity
8
0
100
AcDbSpline
62
7
6
CONTINUOUS
70
0
71
3
72
10
73
6
74
4
42
0.0000001000
43
0.0000001000
44
0.0000000001
12
1.9895280018
22
0.9986095362
32
0.0000000000
13
0.0000000000
23
2.1936301704
33
0.0000000000
40
0.0000000000
40
0.0000000000
40
0.0000000000
40
0.0000000000
40
0.1829870748
40
0.5561806693
40
1.0000000000
40
1.0000000000
40
1.0000000000
40
1.0000000000
10
-159.1408850754
20
72.9234204939
30
0.0000000000
10
-159.0195324389
20
72.9843313732
30
0.0000000000
10
-158.6770400430
20
73.2229848285
30
0.0000000000
10
-158.3051451898
20
73.8861986928
30
0.0000000000
10
-158.2298411588
20
74.4897794490
30
0.0000000000
10
-158.2298411588
20
74.8143046070
30
0.0000000000
11
-159.1408850754
21
72.9234204939
31
0.0000000000
11
-158.8088516215
21
73.1554634411
31
0.0000000000
11
-158.3790943076
21
73.8522377169
31
0.0000000000
11
-158.2298411588
21
74.8143046070
31
0.0000000000
0
SPLINE
5
2C8
100
AcDbEntity
8
0
100
AcDbSpline
62
7
6
CONTINUOUS
70
0
71
3
72
14
73
10
74
8
42
0.0000001000
43
0.0000001000
44
0.0000000001
12
0.0000000000
22
6.7538146573
32
0.0000000000
13
-6.1254187515
23
-3.0745491257
33
0.0000000000
40
0.0000000000
40
0.0000000000
40
0.0000000000
40
0.0000000000
40
0.1660243649
40
0.3445489087
40
0.5225525413
40
0.6871545808
40
0.8294395881
40
0.9492039498
40
1.0000000000
40
1.0000000000
40
1.0000000000
40
1.0000000000
10
134.5123662524
20
-71.5567990986
30
0.0000000000
10
134.5123662524
20
-71.1830331690
30
0.0000000000
10
134.3975908749
20
-70.4060069377
30
0.0000000000
10
133.9711162805
20
-69.3012379256
30
0.0000000000
10
133.3281495564
20
-68.3091370408
30
0.0000000000
10
132.5375531043
20
-67.5404698651
30
0.0000000000
10
131.6780101839
20
-67.0772870439
30
0.0000000000
10
130.9468953232
20
-67.0073699113
30
0.0000000000
10
130.5773783935
20
-67.1389829340
30
0.0000000000
10
130.4736627007
20
-67.1910412513
30
0.0000000000
11
134.5123662524
21
-71.5567990986
31
0.0000000000
11
134.3631131036
21
-70.4454790597
31
0.0000000000
11
133.9333557897
21
-69.3189474700
31
0.0000000000
11
133.2749293853
21
-68.3130806651
31
0.0000000000
11
132.4672498322
21
-67.5492010266
31
0.0000000000
11
131.6077352044
21
-67.1194437127
31
0.0000000000
11
130.8000556512
21
-67.0756437980
31
0.0000000000
11
130.4736627007
21
-67.1910412513
31
0.0000000000
0
SPLINE
5
2C9
100
AcDbEntity
8
0
100
AcDbSpline
62
7
6
CONTINUOUS
70
0
71
3
72
14
73
10
74
8
42
0.0000001000
43
0.0000001000
44
0.0000000001
12
0.0000000000
22
6.7538146573
32
0.0000000000
13
-6.1254187515
23
-3.0745491257
33
0.0000000000
40
0.0000000000
40
0.0000000000
40
0.0000000000
40
0.0000000000
40
0.1660243649
40
0.3445489087
40
0.5225525413
40
0.6871545808
40
0.8294395881
40
0.9492039498
40
1.0000000000
40
1.0000000000
40
1.0000000000
40
1.0000000000
10
111.8849492544
20
-60.2430905996
30
0.0000000000
10
111.8849492544
20
-59.8693246700
30
0.0000000000
10
111.7701738770
20
-59.0922984388
30
0.0000000000
10
111.3436992825
20
-57.9875294266
30
0.0000000000
10
110.7007325585
20
-56.9954285418
30
0.0000000000
10
109.9101361063
20
-56.2267613661
30
0.0000000000
10
109.0505931860
20
-55.7635785449
30
0.0000000000
10
108.3194783253
20
-55.6936614123
30
0.0000000000
10
107.9499613955
20
-55.8252744351
30
0.0000000000
10
107.8462457027
20
-55.8773327523
30
0.0000000000
11
111.8849492544
21
-60.2430905996
31
0.0000000000
11
111.7356961057
21
-59.1317705607
31
0.0000000000
11
111.3059387918
21
-58.0052389710
31
0.0000000000
11
110.6475123874
21
-56.9993721661
31
0.0000000000
11
109.8398328342
21
-56.2354925276
31
0.0000000000
11
108.9803182064
21
-55.8057352138
31
0.0000000000
11
108.1726386532
21
-55.7619352990
31
0.0000000000
11
107.8462457027
21
-55.8773327523
31
0.0000000000
0
SPLINE
5
2CA
100
AcDbEntity
8
0
100
AcDbSpline
62
7
6
CONTINUOUS
70
0
71
3
72
14
73
10
74
8
42
0.0000001000
43
0.0000001000
44
0.0000000001
12
0.0000000000
22
6.7538146573
32
0.0000000000
13
-6.1254187515
23
-3.0745491257
33
0.0000000000
40
0.0000000000
40
0.0000000000
40
0.0000000000
40
0.0000000000
40
0.1660243649
40
0.3445489087
40
0.5225525413
40
0.6871545808
40
0.8294395881
40
0.9492039498
40
1.0000000000
40
1.0000000000
40
1.0000000000
40
1.0000000000
10
-22.4653391710
20
6.9320536131
30
0.0000000000
10
-22.4653391710
20
7.3058195427
30
0.0000000000
10
-22.5801145485
20
8.0828457740
30
0.0000000000
10
-23.0065891429
20
9.1876147861
30
0.0000000000
10
-23.6495558670
20
10.1797156709
30
0.0000000000
10
-24.4401523191
20
10.9483828466
30
0.0000000000
10
-25.2996952395
20
11.4115656678
30
0.0000000000
10
-26.0308101002
20
11.4814828004
30
0.0000000000
10
-26.4003270299
20
11.3498697777
30
0.0000000000
10
-26.5040427228
20
11.2978114604
30
0.0000000000
11
-22.4653391710
21
6.9320536131
31
0.0000000000
11
-22.6145923198
21
8.0433736521
31
0.0000000000
11
-23.0443496337
21
9.1699052417
31
0.0000000000
11
-23.7027760381
21
10.1757720467
31
0.0000000000
11
-24.5104555913
21
10.9396516851
31
0.0000000000
11
-25.3699702190
21
11.3694089990
31
0.0000000000
11
-26.1776497722
21
11.4132089137
31
0.0000000000
11
-26.5040427228
21
11.2978114604
31
0.0000000000
0
SPLINE
5
2CB
100
AcDbEntity
8
0
100
AcDbSpline
62
7
6
CONTINUOUS
70
0
71
3
72
14
73
10
74
8
42
0.0000001000
43
0.0000001000
44
0.0000000001
12
0.0000000000
22
6.7538146573
32
0.0000000000
13
-6.1254187515
23
-3.0745491257
33
0.0000000000
40
0.0000000000
40
0.0000000000
40
0.0000000000
40
0.0000000000
40
0.1660243649
40
0.3445489087
40
0.5225525413
40
0.6871545808
40
0.8294395881
40
0.9492039498
40
1.0000000000
40
1.0000000000
40
1.0000000000
40
1.0000000000
10
-45.0927561690
20
18.2457621121
30
0.0000000000
10
-45.0927561690
20
18.6195280417
30
0.0000000000
10
-45.2075315464
20
19.3965542729
30
0.0000000000
10
-45.6340061409
20
20.5013232851
30
0.0000000000
10
-46.2769728650
20
21.4934241699
30
0.0000000000
10
-47.0675693171
20
22.2620913456
30
0.0000000000
10
-47.9271122374
20
22.7252741668
30
0.0000000000
10
-48.6582270981
20
22.7951912994
30
0.0000000000
10
-49.0277440279
20
22.6635782766
30
0.0000000000
10
-49.1314597207
20
22.6115199594
30
0.0000000000
11
-45.0927561690
21
18.2457621121
31
0.0000000000
11
-45.2420093178
21
19.3570821510
31
0.0000000000
11
-45.6717666317
21
20.4836137407
31
0.0000000000
11
-46.3301930360
21
21.4894805456
31
0.0000000000
11
-47.1378725892
21
22.2533601841
31
0.0000000000
11
-47.9973872170
21
22.6831174980
31
0.0000000000
11
-48.8050667702
21
22.7269174127
31
0.0000000000
11
-49.1314597207
21
22.6115199594
31
0.0000000000
0
SPLINE
5
2CC
100
AcDbEntity
8
0
100
AcDbSpline
62
7
6
CONTINUOUS
70
0
71
3
72
14
73
10
74
8
42
0.0000001000
43
0.0000001000
44
0.0000000001
12
0.0000000000
22
6.7538146573
32
0.0000000000
13
-6.1254187515
23
-3.0745491257
33
0.0000000000
40
0.0000000000
40
0.0000000000
40
0.0000000000
40
0.0000000000
40
0.1660243649
40
0.3445489087
40
0.5225525413
40
0.6871545808
40
0.8294395881
40
0.9492039498
40
1.0000000000
40
1.0000000000
40
1.0000000000
40
1.0000000000
10
-135.6024241608
20
63.5005961080
30
0.0000000000
10
-135.6024241608
20
63.8743620377
30
0.0000000000
10
-135.7171995383
20
64.6513882689
30
0.0000000000
10
-136.1436741328
20
65.7561572810
30
0.0000000000
10
-136.7866408568
20
66.7482581658
30
0.0000000000
10
-137.5772373089
20
67.5169253416
30
0.0000000000
10
-138.4367802293
20
67.9801081627
30
0.0000000000
10
-139.1678950900
20
68.0500252953
30
0.0000000000
10
-139.5374120198
20
67.9184122726
30
0.0000000000
10
-139.6411277126
20
67.8663539553
30
0.0000000000
11
-135.6024241608
21
63.5005961080
31
0.0000000000
11
-135.7516773096
21
64.6119161470
31
0.0000000000
11
-136.1814346235
21
65.7384477367
31
0.0000000000
11
-136.8398610279
21
66.7443145416
31
0.0000000000
11
-137.6475405811
21
67.5081941800
31
0.0000000000
11
-138.5070552089
21
67.9379514939
31
0.0000000000
11
-139.3147347621
21
67.9817514087
31
0.0000000000
11
-139.6411277126
21
67.8663539553
31
0.0000000000
0
SPLINE
5
2CD
100
AcDbEntity
8
0
100
AcDbSpline
62
7
6
CONTINUOUS
70
0
71
3
72
14
73
10
74
8
42
0.0000001000
43
0.0000001000
44
0.0000000001
12
0.0000000000
22
6.7538146573
32
0.0000000000
13
-6.1254187515
23
-3.0745491257
33
0.0000000000
40
0.0000000000
40
0.0000000000
40
0.0000000000
40
0.0000000000
40
0.1660243649
40
0.3445489087
40
0.5225525413
40
0.6871545808
40
0.8294395881
40
0.9492039498
40
1.0000000000
40
1.0000000000
40
1.0000000000
40
1.0000000000
10
-158.2298411588
20
74.8143046070
30
0.0000000000
10
-158.2298411588
20
75.1880705367
30
0.0000000000
10
-158.3446165363
20
75.9650967679
30
0.0000000000
10
-158.7710911308
20
77.0698657800
30
0.0000000000
10
-159.4140578548
20
78.0619666648
30
0.0000000000
10
-160.2046543069
20
78.8306338406
30
0.0000000000
10
-161.0641972273
20
79.2938166617
30
0.0000000000
10
-161.7953120880
20
79.3637337943
30
0.0000000000
10
-162.1648290177
20
79.2321207716
30
0.0000000000
10
-162.2685447106
20
79.1800624543
30
0.0000000000
11
-158.2298411588
21
74.8143046070
31
0.0000000000
11
-158.3790943076
21
75.9256246460
31
0.0000000000
11
-158.8088516215
21
77.0521562357
31
0.0000000000
11
-159.4672780259
21
78.0580230406
31
0.0000000000
11
-160.2749575791
21
78.8219026790
31
0.0000000000
11
-161.1344722069
21
79.2516599929
31
0.0000000000
11
-161.9421517600
21
79.2954599076
31
0.0000000000
11
-162.2685447106
21
79.1800624543
31
0.0000000000
0
SPLINE
5
2CE
100
AcDbEntity
8
0
100
AcDbSpline
62
7
6
CONTINUOUS
70
0
71
3
72
10
73
6
74
4
42
0.0000001000
43
0.0000001000
44
0.0000000001
12
2.3804853503
22
3.6064262274
32
0.0000000000
13
3.8699373484
23
-1.9227920399
33
0.0000000000
40
0.0000000000
40
0.0000000000
40
0.0000000000
40
0.0000000000
40
0.4001847512
40
0.7348132415
40
1.0000000000
40
1.0000000000
40
1.0000000000
40
1.0000000000
10
175.9454564548
20
-100.5708597817
30
0.0000000000
10
176.2630011007
20
-100.0897808542
30
0.0000000000
10
176.9704837906
20
-99.2811241403
30
0.0000000000
10
178.2544137075
20
-98.5370458203
30
0.0000000000
10
179.1959924114
20
-98.5874925009
30
0.0000000000
10
179.5380777917
20
-98.7574588303
30
0.0000000000
11
175.9454564548
21
-100.5708597817
31
0.0000000000
11
177.1035886318
21
-99.2866582048
31
0.0000000000
11
178.3969360370
21
-98.6399845022
31
0.0000000000
11
179.5380777917
21
-98.7574588303
31
0.0000000000
0
SPLINE
5
2CF
100
AcDbEntity
8
0
100
AcDbSpline
62
7
6
CONTINUOUS
70
0
71
3
72
10
73
6
74
4
42
0.0000001000
43
0.0000001000
44
0.0000000001
12
1.9895280018
22
0.9986095362
32
0.0000000000
13
0.0000000000
23
2.1936301704
33
0.0000000000
40
0.0000000000
40
0.0000000000
40
0.0000000000
40
0.0000000000
40
0.1829870748
40
0.5561806693
40
1.0000000000
40
1.0000000000
40
1.0000000000
40
1.0000000000
10
-136.5134680774
20
61.6097119949
30
0.0000000000
10
-136.3921154409
20
61.6706228742
30
0.0000000000
10
-136.0496230450
20
61.9092763295
30
0.0000000000
10
-135.6777281918
20
62.5724901938
30
0.0000000000
10
-135.6024241608
20
63.1760709500
30
0.0000000000
10
-135.6024241608
20
63.5005961080
30
0.0000000000
11
-136.5134680774
21
61.6097119949
31
0.0000000000
11
-136.1814346235
21
61.8417549421
31
0.0000000000
11
-135.7516773096
21
62.5385292179
31
0.0000000000
11
-135.6024241608
21
63.5005961080
31
0.0000000000
0
SPLINE
5
2D0
100
AcDbEntity
8
0
100
AcDbSpline
62
7
6
CONTINUOUS
70
0
71
3
72
9
73
5
74
3
42
0.0000001000
43
0.0000001000
44
0.0000000001
12
0.0000000000
22
-1.5584788159
32
0.0000000000
13
1.3912673609
23
-0.7032705537
33
0.0000000000
40
0.0000000000
40
0.0000000000
40
0.0000000000
40
0.0000000000
40
0.5620920747
40
1.0000000000
40
1.0000000000
40
1.0000000000
40
1.0000000000
10
-180.5037047662
20
76.4249569691
30
0.0000000000
10
-180.5037047662
20
76.1329541054
30
0.0000000000
10
-180.4293890784
20
75.5984786029
30
0.0000000000
10
-180.0562317787
20
75.1751302864
30
0.0000000000
10
-179.8531494442
20
75.0724743700
30
0.0000000000
11
-180.5037047662
21
76.4249569691
31
0.0000000000
11
-180.3257419876
21
75.5672155739
31
0.0000000000
11
-179.8531494442
21
75.0724743700
31
0.0000000000
0
SPLINE
5
2D1
100
AcDbEntity
8
0
100
AcDbSpline
62
7
6
CONTINUOUS
70
0
71
3
72
10
73
6
74
4
42
0.0000001000
43
0.0000001000
44
0.0000000001
12
1.9895280018
22
0.9986095362
32
0.0000000000
13
-0.0000000000
23
2.1936301704
33
0.0000000000
40
0.0000000000
40
0.0000000000
40
0.0000000000
40
0.0000000000
40
0.1829870748
40
0.5561806693
40
1.0000000000
40
1.0000000000
40
1.0000000000
40
1.0000000000
10
-46.0038000855
20
16.3548779990
30
0.0000000000
10
-45.8824474491
20
16.4157888783
30
0.0000000000
10
-45.5399550532
20
16.6544423336
30
0.0000000000
10
-45.1680601999
20
17.3176561979
30
0.0000000000
10
-45.0927561690
20
17.9212369541
30
0.0000000000
10
-45.0927561690
20
18.2457621121
30
0.0000000000
11
-46.0038000855
21
16.3548779990
31
0.0000000000
11
-45.6717666317
21
16.5869209461
31
0.0000000000
11
-45.2420093178
21
17.2836952220
31
0.0000000000
11
-45.0927561690
21
18.2457621121
31
0.0000000000
0
SPLINE
5
2D2
100
AcDbEntity
8
0
100
AcDbSpline
62
7
6
CONTINUOUS
70
0
71
3
72
10
73
6
74
4
42
0.0000001000
43
0.0000001000
44
0.0000000001
12
-2.3602072160
22
-2.9455863943
32
0.0000000000
13
-3.3712709594
23
1.6750278833
33
0.0000000000
40
0.0000000000
40
0.0000000000
40
0.0000000000
40
0.0000000000
40
0.3114622166
40
0.6955877610
40
1.0000000000
40
1.0000000000
40
1.0000000000
40
1.0000000000
10
-174.3262123035
20
99.9463902524
30
0.0000000000
10
-174.5712507606
20
99.6405772965
30
0.0000000000
10
-175.1887923664
20
99.0115988815
30
0.0000000000
10
-176.3072796319
20
98.3633998524
30
0.0000000000
10
-177.2488583358
20
98.4138465330
30
0.0000000000
10
-177.5909437162
20
98.5838128624
30
0.0000000000
11
-174.3262123035
21
99.9463902524
31
0.0000000000
11
-175.1564545562
21
99.1130122369
31
0.0000000000
11
-176.4498019615
21
98.4663385343
31
0.0000000000
11
-177.5909437162
21
98.5838128624
31
0.0000000000
0
SPLINE
5
2D3
100
AcDbEntity
8
0
100
AcDbSpline
62
7
6
CONTINUOUS
70
0
71
3
72
10
73
6
74
4
42
0.0000001000
43
0.0000001000
44
0.0000000001
12
1.9895280018
22
0.9986095362
32
0.0000000000
13
0.0000000000
23
2.1936301704
33
0.0000000000
40
0.0000000000
40
0.0000000000
40
0.0000000000
40
0.0000000000
40
0.1829870748
40
0.5561806693
40
1.0000000000
40
1.0000000000
40
1.0000000000
40
1.0000000000
10
-23.3763830875
20
5.0411695000
30
0.0000000000
10
-23.2550304511
20
5.1020803793
30
0.0000000000
10
-22.9125380552
20
5.3407338346
30
0.0000000000
10
-22.5406432019
20
6.0039476989
30
0.0000000000
10
-22.4653391710
20
6.6075284551
30
0.0000000000
10
-22.4653391710
20
6.9320536131
30
0.0000000000
11
-23.3763830875
21
5.0411695000
31
0.0000000000
11
-23.0443496337
21
5.2732124472
31
0.0000000000
11
-22.6145923198
21
5.9699867230
31
0.0000000000
11
-22.4653391710
21
6.9320536131
31
0.0000000000
0
SPLINE
5
2D4
100
AcDbEntity
8
0
100
AcDbSpline
62
7
6
CONTINUOUS
70
0
71
3
72
10
73
6
74
4
42
0.0000001000
43
0.0000001000
44
0.0000000001
12
1.9895280018
22
0.9986095362
32
0.0000000000
13
-0.0000000000
23
2.1936301704
33
0.0000000000
40
0.0000000000
40
0.0000000000
40
0.0000000000
40
0.0000000000
40
0.1829870748
40
0.5561806693
40
1.0000000000
40
1.0000000000
40
1.0000000000
40
1.0000000000
10
110.9739053379
20
-62.1339747127
30
0.0000000000
10
111.0952579743
20
-62.0730638334
30
0.0000000000
10
111.4377503703
20
-61.8344103781
30
0.0000000000
10
111.8096452235
20
-61.1711965139
30
0.0000000000
10
111.8849492544
20
-60.5676157576
30
0.0000000000
10
111.8849492544
20
-60.2430905996
30
0.0000000000
11
110.9739053379
21
-62.1339747127
31
0.0000000000
11
111.3059387918
21
-61.9019317656
31
0.0000000000
11
111.7356961057
21
-61.2051574898
31
0.0000000000
11
111.8849492544
21
-60.2430905996
31
0.0000000000
0
SPLINE
5
2D5
100
AcDbEntity
8
0
100
AcDbSpline
62
7
6
CONTINUOUS
70
0
71
3
72
10
73
6
74
4
42
0.0000001000
43
0.0000001000
44
0.0000000001
12
1.9895280018
22
0.9986095362
32
0.0000000000
13
0.0000000000
23
2.1936301704
33
0.0000000000
40
0.0000000000
40
0.0000000000
40
0.0000000000
40
0.0000000000
40
0.1829870748
40
0.5561806693
40
1.0000000000
40
1.0000000000
40
1.0000000000
40
1.0000000000
10
133.6013223359
20
-73.4476832117
30
0.0000000000
10
133.7226749723
20
-73.3867723324
30
0.0000000000
10
134.0651673682
20
-73.1481188771
30
0.0000000000
10
134.4370622215
20
-72.4849050128
30
0.0000000000
10
134.5123662524
20
-71.8813242566
30
0.0000000000
10
134.5123662524
20
-71.5567990986
30
0.0000000000
11
133.6013223359
21
-73.4476832117
31
0.0000000000
11
133.9333557897
21
-73.2156402645
31
0.0000000000
11
134.3631131036
21
-72.5188659887
31
0.0000000000
11
134.5123662524
21
-71.5567990986
31
0.0000000000
0
SPLINE
5
2D6
100
AcDbEntity
8
0
100
AcDbSpline
62
7
6
CONTINUOUS
70
0
71
3
72
10
73
6
74
4
42
0.0000001000
43
0.0000001000
44
0.0000000001
12
-3.0102156740
22
0.8067557374
32
0.0000000000
13
-1.9298324348
23
-2.4470390265
33
0.0000000000
40
0.0000000000
40
0.0000000000
40
0.0000000000
40
0.0000000000
40
0.2777576355
40
0.6112136868
40
1.0000000000
40
1.0000000000
40
1.0000000000
40
1.0000000000
10
-183.3587675458
20
107.8405186959
30
0.0000000000
10
-183.6374710084
20
107.9152128846
30
0.0000000000
10
-184.3061595551
20
107.8753884890
30
0.0000000000
10
-185.2337043485
20
107.3668657957
30
0.0000000000
10
-185.7690401803
20
106.8274587328
30
0.0000000000
10
-186.0191376594
20
106.5103336391
30
0.0000000000
11
-183.3587675458
21
107.8405186959
31
0.0000000000
11
-184.2242088082
21
107.8230544902
31
0.0000000000
11
-185.1536963971
21
107.3583106958
31
0.0000000000
11
-186.0191376594
21
106.5103336391
31
0.0000000000
0
SPLINE
5
2D7
100
AcDbEntity
8
0
100
AcDbSpline
62
7
6
CONTINUOUS
70
0
71
3
72
8
73
4
74
2
42
0.0000001000
43
0.0000001000
44
0.0000000001
12
-0.4507114304
22
-0.5715047794
32
0.0000000000
13
-0.4995726665
23
-0.5320754498
33
0.0000000000
40
0.0000000000
40
0.0000000000
40
0.0000000000
40
0.0000000000
40
1.0000000000
40
1.0000000000
40
1.0000000000
40
1.0000000000
10
-178.8508596867
20
110.0944726255
30
0.0000000000
10
-179.0010968302
20
109.9039710323
30
0.0000000000
10
-179.1594427760
20
109.7191682815
30
0.0000000000
10
-179.3259669981
20
109.5418097983
30
0.0000000000
11
-178.8508596867
21
110.0944726255
31
0.0000000000
11
-179.3259669981
21
109.5418097983
31
0.0000000000
0
SPLINE
5
2D8
100
AcDbEntity
8
0
100
AcDbSpline
62
7
6
CONTINUOUS
70
0
71
3
72
8
73
4
74
2
42
0.0000001000
43
0.0000001000
44
0.0000000001
12
-0.2123595346
22
-0.2261758948
32
0.0000000000
13
-0.2212421866
23
-0.2177028425
33
0.0000000000
40
0.0000000000
40
0.0000000000
40
0.0000000000
40
0.0000000000
40
1.0000000000
40
1.0000000000
40
1.0000000000
40
1.0000000000
10
-179.3259669981
20
109.5418097983
30
0.0000000000
10
-179.3967535097
20
109.4664178333
30
0.0000000000
10
-179.4690177950
20
109.3923710105
30
0.0000000000
10
-179.5427651906
20
109.3198033963
30
0.0000000000
11
-179.3259669981
21
109.5418097983
31
0.0000000000
11
-179.5427651906
21
109.3198033963
31
0.0000000000
0
SPLINE
5
2D9
100
AcDbEntity
8
0
100
AcDbSpline
62
7
6
CONTINUOUS
70
0
71
3
72
10
73
6
74
4
42
0.0000001000
43
0.0000001000
44
0.0000000001
12
-3.0344354262
22
-2.9858917408
32
0.0000000000
13
-4.0988274690
23
1.0985101851
33
0.0000000000
40
0.0000000000
40
0.0000000000
40
0.0000000000
40
0.0000000000
40
0.2393865239
40
0.6543496895
40
1.0000000000
40
1.0000000000
40
1.0000000000
40
1.0000000000
10
-179.5427651906
20
109.3198033963
30
0.0000000000
10
-179.7848995068
20
109.0815426481
30
0.0000000000
10
-180.4904622954
20
108.4738574026
30
0.0000000000
10
-181.7534435863
20
107.7814330020
30
0.0000000000
10
-182.8865138834
20
107.7139519004
30
0.0000000000
10
-183.3587675458
20
107.8405186959
30
0.0000000000
11
-179.5427651906
21
109.3198033963
31
0.0000000000
11
-180.3173208562
21
108.6576039662
31
0.0000000000
11
-181.8923063762
21
107.8701112062
31
0.0000000000
11
-183.3587675458
21
107.8405186959
31
0.0000000000
0
SPLINE
5
2DA
100
AcDbEntity
8
0
100
AcDbSpline
62
7
6
CONTINUOUS
70
0
71
3
72
8
73
4
74
2
42
0.0000001000
43
0.0000001000
44
0.0000000001
12
0.8519300644
22
1.0802523980
32
0.0000000000
13
1.0271651914
23
0.9227247350
33
0.0000000000
40
0.0000000000
40
0.0000000000
40
0.0000000000
40
0.0000000000
40
1.0000000000
40
1.0000000000
40
1.0000000000
40
1.0000000000
10
165.2448755792
20
-98.9527945928
30
0.0000000000
10
165.5288522673
20
-98.5927104601
30
0.0000000000
10
165.8418002205
20
-98.2529872470
30
0.0000000000
10
166.1841886176
20
-97.9454123353
30
0.0000000000
11
165.2448755792
21
-98.9527945928
31
0.0000000000
11
166.1841886176
21
-97.9454123353
31
0.0000000000
0
SPLINE
5
2DB
100
AcDbEntity
8
0
100
AcDbSpline
62
7
6
CONTINUOUS
70
0
71
3
72
10
73
6
74
4
42
0.0000001000
43
0.0000001000
44
0.0000000001
12
3.0102156740
22
-0.8067557374
32
0.0000000000
13
1.9298324348
23
2.4470390265
33
0.0000000000
40
0.0000000000
40
0.0000000000
40
0.0000000000
40
0.0000000000
40
0.2777576355
40
0.6112136868
40
1.0000000000
40
1.0000000000
40
1.0000000000
40
1.0000000000
10
162.5845054655
20
-100.2829796497
30
0.0000000000
10
162.8632089281
20
-100.3576738383
30
0.0000000000
10
163.5318974749
20
-100.3178494427
30
0.0000000000
10
164.4594422682
20
-99.8093267495
30
0.0000000000
10
164.9947781001
20
-99.2699196866
30
0.0000000000
10
165.2448755792
20
-98.9527945928
30
0.0000000000
11
162.5845054655
21
-100.2829796497
31
0.0000000000
11
163.4499467279
21
-100.2655154440
31
0.0000000000
11
164.3794343168
21
-99.8007716495
31
0.0000000000
11
165.2448755792
21
-98.9527945928
31
0.0000000000
0
SPLINE
5
2DC
100
AcDbEntity
8
0
100
AcDbSpline
62
7
6
CONTINUOUS
70
0
71
3
72
12
73
8
74
6
42
0.0000001000
43
0.0000001000
44
0.0000000001
12
-2.8006107345
22
0.5800254746
32
0.0000000000
13
-1.6322238339
23
-2.3531450802
33
0.0000000000
40
0.0000000000
40
0.0000000000
40
0.0000000000
40
0.0000000000
40
0.1788908743
40
0.3815751634
40
0.6117163550
40
0.8656253251
40
1.0000000000
40
1.0000000000
40
1.0000000000
40
1.0000000000
10
-175.3823844226
20
112.5277071338
30
0.0000000000
10
-175.5493856569
20
112.5622942219
30
0.0000000000
10
-175.9234122027
20
112.5577652607
30
0.0000000000
10
-176.4786589324
20
112.3564702912
30
0.0000000000
10
-177.0246373248
20
111.9854043751
30
0.0000000000
10
-177.4391123145
20
111.5617235465
30
0.0000000000
10
-177.6630485957
20
111.2658159126
30
0.0000000000
10
-177.7361584447
20
111.1604148776
30
0.0000000000
11
-175.3823844226
21
112.5277071338
31
0.0000000000
11
-175.8940064887
21
112.5314450120
31
0.0000000000
11
-176.4430445944
21
112.3454532593
31
0.0000000000
11
-176.9920827001
21
111.9824069063
31
0.0000000000
11
-177.5037047662
21
111.4670469620
31
0.0000000000
11
-177.7361584447
21
111.1604148776
31
0.0000000000
0
SPLINE
5
2DD
100
AcDbEntity
8
0
100
AcDbSpline
62
7
6
CONTINUOUS
70
0
71
3
72
8
73
4
74
2
42
0.0000001000
43
0.0000001000
44
0.0000000001
12
-0.2201983928
22
-0.3174557030
32
0.0000000000
13
-0.1935318604
23
-0.3337930838
33
0.0000000000
40
0.0000000000
40
0.0000000000
40
0.0000000000
40
0.0000000000
40
1.0000000000
40
1.0000000000
40
1.0000000000
40
1.0000000000
10
-177.7361584447
20
111.1604148776
30
0.0000000000
10
-177.8095579090
20
111.0545963099
30
0.0000000000
10
-177.8785339743
20
110.9457587162
30
0.0000000000
10
-177.9430445944
20
110.8344943550
30
0.0000000000
11
-177.7361584447
21
111.1604148776
31
0.0000000000
11
-177.9430445944
21
110.8344943550
31
0.0000000000
0
SPLINE
5
2DE
100
AcDbEntity
8
0
100
AcDbSpline
62
7
6
CONTINUOUS
70
0
71
3
72
11
73
7
74
5
42
0.0000001000
43
0.0000001000
44
0.0000000001
12
0.0000000000
22
1.8847353933
32
0.0000000000
13
-1.7018868959
23
0.8516743759
33
0.0000000000
40
0.0000000000
40
0.0000000000
40
0.0000000000
40
0.0000000000
40
0.3397733906
40
0.6380239917
40
0.9034158755
40
1.0000000000
40
1.0000000000
40
1.0000000000
40
1.0000000000
10
185.0705011073
20
-67.1779203510
30
0.0000000000
10
185.0705011073
20
-66.9644593726
30
0.0000000000
10
185.0307645931
20
-66.5613715596
30
0.0000000000
10
184.8249160952
20
-66.0230260019
30
0.0000000000
10
184.5442449314
20
-65.7029673412
30
0.0000000000
10
184.3470157468
20
-65.5839130470
30
0.0000000000
10
184.2922239949
20
-65.5564936390
30
0.0000000000
11
185.0705011073
21
-67.1779203510
31
0.0000000000
11
184.9982188694
21
-66.5416298658
31
0.0000000000
11
184.7862980708
21
-66.0209837635
31
0.0000000000
11
184.4491807637
21
-65.6514632157
31
0.0000000000
11
184.2922239949
21
-65.5564936390
31
0.0000000000
0
SPLINE
5
2DF
100
AcDbEntity
8
0
100
AcDbSpline
62
7
6
CONTINUOUS
70
0
71
3
72
8
73
4
74
2
42
0.0000001000
43
0.0000001000
44
0.0000000001
12
0.2649021866
22
-0.1311691446
32
0.0000000000
13
0.2890985036
23
-0.0605575832
33
0.0000000000
40
0.0000000000
40
0.0000000000
40
0.0000000000
40
0.0000000000
40
1.0000000000
40
1.0000000000
40
1.0000000000
40
1.0000000000
10
175.7707577591
20
-110.4163330268
30
0.0000000000
10
175.8590584879
20
-110.4600560750
30
0.0000000000
10
175.9533196592
20
-110.4926564514
30
0.0000000000
10
176.0496858271
20
-110.5128423125
30
0.0000000000
11
175.7707577591
21
-110.4163330268
31
0.0000000000
11
176.0496858271
21
-110.5128423125
31
0.0000000000
0
SPLINE
5
2E0
100
AcDbEntity
8
0
100
AcDbSpline
62
7
6
CONTINUOUS
70
0
71
3
72
11
73
7
74
5
42
0.0000001000
43
0.0000001000
44
0.0000000001
12
2.4407003376
22
-0.5112545100
32
0.0000000000
13
1.5793944570
23
1.9064977592
33
0.0000000000
40
0.0000000000
40
0.0000000000
40
0.0000000000
40
0.0000000000
40
0.2066608602
40
0.4408086875
40
0.7066756681
40
1.0000000000
40
1.0000000000
40
1.0000000000
40
1.0000000000
10
176.0496858271
20
-110.5128423125
30
0.0000000000
10
176.2178182375
20
-110.5480610781
30
0.0000000000
10
176.5901132911
20
-110.5425754008
30
0.0000000000
10
177.1461752895
20
-110.3416823283
30
0.0000000000
10
177.6917784334
20
-109.9706420162
30
0.0000000000
10
178.0165812293
20
-109.6385895345
30
0.0000000000
10
178.1710061706
20
-109.4521821407
30
0.0000000000
11
176.0496858271
21
-110.5128423125
31
0.0000000000
11
176.5613078932
21
-110.5165801907
31
0.0000000000
11
177.1103459989
21
-110.3305884380
31
0.0000000000
11
177.6593841045
21
-109.9675420850
31
0.0000000000
11
178.1710061706
21
-109.4521821407
31
0.0000000000
0
SPLINE
5
2E1
100
AcDbEntity
8
0
100
AcDbSpline
62
7
6
CONTINUOUS
70
0
71
3
72
11
73
7
74
5
42
0.0000001000
43
0.0000001000
44
0.0000000001
12
1.9316833885
22
2.3317481174
32
0.0000000000
13
0.0000000000
23
3.0279448470
33
0.0000000000
40
0.0000000000
40
0.0000000000
40
0.0000000000
40
0.0000000000
40
0.2543498482
40
0.5129191791
40
0.7647744559
40
1.0000000000
40
1.0000000000
40
1.0000000000
40
1.0000000000
10
184.0098409355
20
-102.4040851019
30
0.0000000000
10
184.1736153943
20
-102.2063918420
30
0.0000000000
10
184.4692405014
20
-101.7780105974
30
0.0000000000
10
184.8031392282
20
-101.0786367498
30
0.0000000000
10
185.0161308845
20
-100.3534751914
30
0.0000000000
10
185.0705011073
20
-99.8611716740
30
0.0000000000
10
185.0705011073
20
-99.6237550160
30
0.0000000000
11
184.0098409355
21
-102.4040851019
31
0.0000000000
11
184.4491807637
21
-101.7715324948
31
0.0000000000
11
184.7862980708
21
-101.0648946399
31
0.0000000000
11
184.9982188694
21
-100.3323277390
31
0.0000000000
11
185.0705011073
21
-99.6237550160
31
0.0000000000
0
SPLINE
5
2E2
100
AcDbEntity
8
0
100
AcDbSpline
62
7
6
CONTINUOUS
70
0
71
3
72
8
73
4
74
2
42
0.0000001000
43
0.0000001000
44
0.0000000001
12
-0.2690109070
22
0.1346209886
32
0.0000000000
13
-0.2917223201
23
0.0604176707
33
0.0000000000
40
0.0000000000
40
0.0000000000
40
0.0000000000
40
0.0000000000
40
1.0000000000
40
1.0000000000
40
1.0000000000
40
1.0000000000
10
-169.2611665984
20
111.2202016576
30
0.0000000000
10
-169.3508369007
20
111.2650753205
30
0.0000000000
10
-169.4463088844
20
111.2983056362
30
0.0000000000
10
-169.5435496578
20
111.3184448598
30
0.0000000000
11
-169.2611665984
21
111.2202016576
31
0.0000000000
11
-169.5435496578
21
111.3184448598
31
0.0000000000
0
SPLINE
5
2E3
100
AcDbEntity
8
0
100
AcDbSpline
62
7
6
CONTINUOUS
70
0
71
3
72
8
73
4
74
2
42
0.0000001000
43
0.0000001000
44
0.0000000001
12
0.1511736600
22
-0.1095623348
32
0.0000000000
13
0.1686548795
23
-0.0835112634
33
0.0000000000
40
0.0000000000
40
0.0000000000
40
0.0000000000
40
0.0000000000
40
1.0000000000
40
1.0000000000
40
1.0000000000
40
1.0000000000
10
-177.9430445944
20
66.4570657630
30
0.0000000000
10
-177.8926533744
20
66.4205449847
30
0.0000000000
10
-177.8388511274
20
66.3881993576
30
0.0000000000
10
-177.7826328342
20
66.3603622698
30
0.0000000000
11
-177.9430445944
21
66.4570657630
31
0.0000000000
11
-177.7826328342
21
66.3603622698
31
0.0000000000
0
SPLINE
5
2E4
100
AcDbEntity
8
0
100
AcDbSpline
62
7
6
CONTINUOUS
70
0
71
3
72
8
73
4
74
2
42
0.0000001000
43
0.0000001000
44
0.0000000001
12
-0.3320592570
22
-0.1300211528
32
0.0000000000
13
-0.2970558770
23
-0.1992852121
33
0.0000000000
40
0.0000000000
40
0.0000000000
40
0.0000000000
40
0.0000000000
40
1.0000000000
40
1.0000000000
40
1.0000000000
40
1.0000000000
10
-177.9734458392
20
110.7931011195
30
0.0000000000
10
-178.0841322582
20
110.7497607353
30
0.0000000000
10
-178.1893382342
20
110.6912898919
30
0.0000000000
10
-178.2883568599
20
110.6248614879
30
0.0000000000
11
-177.9734458392
21
110.7931011195
31
0.0000000000
11
-178.2883568599
21
110.6248614879
31
0.0000000000
0
SPLINE
5
2E5
100
AcDbEntity
8
0
100
AcDbSpline
62
7
6
CONTINUOUS
70
0
71
3
72
8
73
4
74
2
42
0.0000001000
43
0.0000001000
44
0.0000000001
12
-0.4153583749
22
-0.2786505444
32
0.0000000000
13
-0.3446468564
23
-0.3573646648
33
0.0000000000
40
0.0000000000
40
0.0000000000
40
0.0000000000
40
0.0000000000
40
1.0000000000
40
1.0000000000
40
1.0000000000
40
1.0000000000
10
-178.2883568599
20
110.6248614879
30
0.0000000000
10
-178.4268096515
20
110.5319779731
30
0.0000000000
10
-178.5531655358
20
110.4235366075
30
0.0000000000
10
-178.6680478213
20
110.3044150525
30
0.0000000000
11
-178.2883568599
21
110.6248614879
31
0.0000000000
11
-178.6680478213
21
110.3044150525
31
0.0000000000
0
SPLINE
5
2E6
100
AcDbEntity
8
0
100
AcDbSpline
62
7
6
CONTINUOUS
70
0
71
3
72
8
73
4
74
2
42
0.0000001000
43
0.0000001000
44
0.0000000001
12
-0.1935580801
22
-0.2007005639
32
0.0000000000
13
-0.1721760621
23
-0.2183202726
33
0.0000000000
40
0.0000000000
40
0.0000000000
40
0.0000000000
40
0.0000000000
40
1.0000000000
40
1.0000000000
40
1.0000000000
40
1.0000000000
10
-178.6680478213
20
110.3044150525
30
0.0000000000
10
-178.7325671813
20
110.2375148646
30
0.0000000000
10
-178.7934676660
20
110.1672460497
30
0.0000000000
10
-178.8508596867
20
110.0944726255
30
0.0000000000
11
-178.6680478213
21
110.3044150525
31
0.0000000000
11
-178.8508596867
21
110.0944726255
31
0.0000000000
0
SPLINE
5
2E7
100
AcDbEntity
8
0
100
AcDbSpline
62
7
6
CONTINUOUS
70
0
71
3
72
9
73
5
74
3
42
0.0000001000
43
0.0000001000
44
0.0000000001
12
-1.4174096526
22
0.7043672135
32
0.0000000000
13
-1.2632981841
23
-0.9769082236
33
0.0000000000
40
0.0000000000
40
0.0000000000
40
0.0000000000
40
0.0000000000
40
0.4432794774
40
1.0000000000
40
1.0000000000
40
1.0000000000
40
1.0000000000
10
-177.6185301521
20
98.5977686785
30
0.0000000000
10
-177.8279663555
20
98.7018458553
30
0.0000000000
10
-178.4011137952
20
98.7376518836
30
0.0000000000
10
-178.8753789127
20
98.4718370027
30
0.0000000000
10
-179.1098135878
20
98.2905487171
30
0.0000000000
11
-177.6185301521
21
98.5977686785
31
0.0000000000
11
-178.3166653010
21
98.6743224985
31
0.0000000000
11
-179.1098135878
21
98.2905487171
31
0.0000000000
0
SPLINE
5
2E8
100
AcDbEntity
8
0
100
AcDbSpline
62
7
6
CONTINUOUS
70
0
71
3
72
8
73
4
74
2
42
0.0000001000
43
0.0000001000
44
0.0000000001
12
-0.5522032860
22
-0.4270186864
32
0.0000000000
13
-0.4456438788
23
-0.5318580555
33
0.0000000000
40
0.0000000000
40
0.0000000000
40
0.0000000000
40
0.0000000000
40
1.0000000000
40
1.0000000000
40
1.0000000000
40
1.0000000000
10
-179.1098135878
20
98.2905487171
30
0.0000000000
10
-179.2938813498
20
98.1482091549
30
0.0000000000
10
-179.4597025635
20
97.9853388779
30
0.0000000000
10
-179.6082505231
20
97.8080528594
30
0.0000000000
11
-179.1098135878
21
98.2905487171
31
0.0000000000
11
-179.6082505231
21
97.8080528594
31
0.0000000000
0
SPLINE
5
2E9
100
AcDbEntity
8
0
100
AcDbSpline
62
7
6
CONTINUOUS
70
0
71
3
72
10
73
6
74
4
42
0.0000001000
43
0.0000001000
44
0.0000000001
12
-1.6330729342
22
-1.9490069011
32
0.0000000000
13
-0.0000000000
23
-2.5351690160
33
0.0000000000
40
0.0000000000
40
0.0000000000
40
0.0000000000
40
0.0000000000
40
0.1429964759
40
0.5854783545
40
1.0000000000
40
1.0000000000
40
1.0000000000
40
1.0000000000
10
-179.6082505231
20
97.8080528594
30
0.0000000000
10
-179.6860917480
20
97.7151524866
30
0.0000000000
10
-179.9853815277
20
97.3185781523
30
0.0000000000
10
-180.3647734750
20
96.5530804250
30
0.0000000000
10
-180.5037047662
20
95.8278099964
30
0.0000000000
10
-180.5037047662
20
95.4775158523
30
0.0000000000
11
-179.6082505231
21
97.8080528594
31
0.0000000000
11
-179.8276850158
21
97.5183563323
31
0.0000000000
11
-180.3257419876
21
96.5132200262
31
0.0000000000
11
-180.5037047662
21
95.4775158523
31
0.0000000000
0
SPLINE
5
2EA
100
AcDbEntity
8
0
100
AcDbSpline
62
7
6
CONTINUOUS
70
0
71
3
72
11
73
7
74
5
42
0.0000001000
43
0.0000001000
44
0.0000000001
12
2.4126217091
22
-1.2195540936
32
0.0000000000
13
1.4888048077
23
2.2555336059
33
0.0000000000
40
0.0000000000
40
0.0000000000
40
0.0000000000
40
0.0000000000
40
0.0104703809
40
0.2768536480
40
0.6071168251
40
1.0000000000
40
1.0000000000
40
1.0000000000
40
1.0000000000
10
173.7002411491
20
-101.7042209266
30
0.0000000000
10
173.7086615052
20
-101.7084773253
30
0.0000000000
10
173.9331126791
20
-101.8172625605
30
0.0000000000
10
174.5279607967
20
-101.8310418246
30
0.0000000000
10
175.3161577069
20
-101.3650070402
30
0.0000000000
10
175.7504810016
20
-100.8662468498
30
0.0000000000
10
175.9454564548
20
-100.5708597817
30
0.0000000000
11
173.7002411491
21
-101.7042209266
31
0.0000000000
11
173.7257055775
21
-101.7165590571
31
0.0000000000
11
174.4435770054
21
-101.7708800139
31
0.0000000000
11
175.2367252922
21
-101.3615055085
31
0.0000000000
11
175.9454564548
21
-100.5708597817
31
0.0000000000
0
SPLINE
5
2EB
100
AcDbEntity
8
0
100
AcDbSpline
62
7
6
CONTINUOUS
70
0
71
3
72
14
73
10
74
8
42
0.0000001000
43
0.0000001000
44
0.0000000001
12
0.0000000000
22
-6.7538146573
32
0.0000000000
13
6.1254187515
23
3.0745491257
33
0.0000000000
40
0.0000000000
40
0.0000000000
40
0.0000000000
40
0.0000000000
40
0.1660243649
40
0.3445489087
40
0.5225525413
40
0.6871545808
40
0.8294395881
40
0.9492039498
40
1.0000000000
40
1.0000000000
40
1.0000000000
40
1.0000000000
10
-163.1795886271
20
77.2891783412
30
0.0000000000
10
-163.1795886271
20
76.9154124115
30
0.0000000000
10
-163.0648132496
20
76.1383861803
30
0.0000000000
10
-162.6383386552
20
75.0336171682
30
0.0000000000
10
-161.9953719311
20
74.0415162834
30
0.0000000000
10
-161.2047754790
20
73.2728491076
30
0.0000000000
10
-160.3452325587
20
72.8096662865
30
0.0000000000
10
-159.6141176980
20
72.7397491539
30
0.0000000000
10
-159.2446007682
20
72.8713621766
30
0.0000000000
10
-159.1408850754
20
72.9234204939
30
0.0000000000
11
-163.1795886271
21
77.2891783412
31
0.0000000000
11
-163.0303354783
21
76.1778583022
31
0.0000000000
11
-162.6005781644
21
75.0513267125
31
0.0000000000
11
-161.9421517600
21
74.0454599076
31
0.0000000000
11
-161.1344722069
21
73.2815802692
31
0.0000000000
11
-160.2749575791
21
72.8518229553
31
0.0000000000
11
-159.4672780259
21
72.8080230406
31
0.0000000000
11
-159.1408850754
21
72.9234204939
31
0.0000000000
0
SPLINE
5
2EC
100
AcDbEntity
8
0
100
AcDbSpline
62
7
6
CONTINUOUS
70
0
71
3
72
8
73
4
74
2
42
0.0000001000
43
0.0000001000
44
0.0000000001
12
-0.1364026138
22
-0.0684649579
32
0.0000000000
13
-0.1281508944
23
-0.0827412509
33
0.0000000000
40
0.0000000000
40
0.0000000000
40
0.0000000000
40
0.0000000000
40
1.0000000000
40
1.0000000000
40
1.0000000000
40
1.0000000000
10
130.4736627007
20
-67.1910412513
30
0.0000000000
10
130.4281951627
20
-67.2138629039
30
0.0000000000
10
130.3839447733
20
-67.2391563164
30
0.0000000000
10
130.3412278085
20
-67.2667367333
30
0.0000000000
11
130.4736627007
21
-67.1910412513
31
0.0000000000
11
130.3412278085
21
-67.2667367333
31
0.0000000000
0
SPLINE
5
2ED
100
AcDbEntity
8
0
100
AcDbSpline
62
7
6
CONTINUOUS
70
0
71
3
72
10
73
6
74
4
42
0.0000001000
43
0.0000001000
44
0.0000000001
12
-1.7410199806
22
-1.1240980539
32
0.0000000000
13
0.0000000000
23
-2.0432342530
33
0.0000000000
40
0.0000000000
40
0.0000000000
40
0.0000000000
40
0.0000000000
40
0.1228493749
40
0.5235125524
40
1.0000000000
40
1.0000000000
40
1.0000000000
40
1.0000000000
10
130.3412278085
20
-67.2667367333
30
0.0000000000
10
130.2699334031
20
-67.3127683144
30
0.0000000000
10
129.9843204499
20
-67.5360757198
30
0.0000000000
10
129.6379228150
20
-68.1538194502
30
0.0000000000
10
129.5626187841
20
-68.7574002064
30
0.0000000000
10
129.5626187841
20
-69.0819253644
30
0.0000000000
11
130.3412278085
21
-67.2667367333
31
0.0000000000
11
130.1416292468
21
-67.4230841985
31
0.0000000000
11
129.7118719329
21
-68.1198584743
31
0.0000000000
11
129.5626187841
21
-69.0819253644
31
0.0000000000
0
SPLINE
5
2EE
100
AcDbEntity
8
0
100
AcDbSpline
62
7
6
CONTINUOUS
70
0
71
3
72
8
73
4
74
2
42
0.0000001000
43
0.0000001000
44
0.0000000001
12
-0.1364026138
22
-0.0684649579
32
0.0000000000
13
-0.1281508944
23
-0.0827412509
33
0.0000000000
40
0.0000000000
40
0.0000000000
40
0.0000000000
40
0.0000000000
40
1.0000000000
40
1.0000000000
40
1.0000000000
40
1.0000000000
10
-162.2685447106
20
79.1800624543
30
0.0000000000
10
-162.3140122485
20
79.1572408017
30
0.0000000000
10
-162.3582626379
20
79.1319473893
30
0.0000000000
10
-162.4009796027
20
79.1043669723
30
0.0000000000
11
-162.2685447106
21
79.1800624543
31
0.0000000000
11
-162.4009796027
21
79.1043669723
31
0.0000000000
0
SPLINE
5
2EF
100
AcDbEntity
8
0
100
AcDbSpline
62
7
6
CONTINUOUS
70
0
71
3
72
10
73
6
74
4
42
0.0000001000
43
0.0000001000
44
0.0000000001
12
-1.7410199806
22
-1.1240980539
32
0.0000000000
13
-0.0000000000
23
-2.0432342530
33
0.0000000000
40
0.0000000000
40
0.0000000000
40
0.0000000000
40
0.0000000000
40
0.1228493749
40
0.5235125524
40
1.0000000000
40
1.0000000000
40
1.0000000000
40
1.0000000000
10
-162.4009796027
20
79.1043669723
30
0.0000000000
10
-162.4722740082
20
79.0583353912
30
0.0000000000
10
-162.7578869614
20
78.8350279858
30
0.0000000000
10
-163.1042845962
20
78.2172842554
30
0.0000000000
10
-163.1795886271
20
77.6137034992
30
0.0000000000
10
-163.1795886271
20
77.2891783412
30
0.0000000000
11
-162.4009796027
21
79.1043669723
31
0.0000000000
11
-162.6005781644
21
78.9480195071
31
0.0000000000
11
-163.0303354783
21
78.2512452313
31
0.0000000000
11
-163.1795886271
21
77.2891783412
31
0.0000000000
0
SPLINE
5
2F0
100
AcDbEntity
8
0
100
AcDbSpline
62
7
6
CONTINUOUS
70
0
71
3
72
14
73
10
74
8
42
0.0000001000
43
0.0000001000
44
0.0000000001
12
0.0000000000
22
-6.7538146573
32
0.0000000000
13
6.1254187515
23
3.0745491257
33
0.0000000000
40
0.0000000000
40
0.0000000000
40
0.0000000000
40
0.0000000000
40
0.1660243649
40
0.3445489087
40
0.5225525413
40
0.6871545808
40
0.8294395881
40
0.9492039498
40
1.0000000000
40
1.0000000000
40
1.0000000000
40
1.0000000000
10
-27.4150866393
20
9.4069273473
30
0.0000000000
10
-27.4150866393
20
9.0331614176
30
0.0000000000
10
-27.3003112618
20
8.2561351864
30
0.0000000000
10
-26.8738366674
20
7.1513661743
30
0.0000000000
10
-26.2308699433
20
6.1592652895
30
0.0000000000
10
-25.4402734912
20
5.3905981137
30
0.0000000000
10
-24.5807305708
20
4.9274152926
30
0.0000000000
10
-23.8496157101
20
4.8574981600
30
0.0000000000
10
-23.4800987804
20
4.9891111827
30
0.0000000000
10
-23.3763830875
20
5.0411695000
30
0.0000000000
11
-27.4150866393
21
9.4069273473
31
0.0000000000
11
-27.2658334905
21
8.2956073083
31
0.0000000000
11
-26.8360761766
21
7.1690757186
31
0.0000000000
11
-26.1776497722
21
6.1632089137
31
0.0000000000
11
-25.3699702190
21
5.3993292753
31
0.0000000000
11
-24.5104555913
21
4.9695719614
31
0.0000000000
11
-23.7027760381
21
4.9257720467
31
0.0000000000
11
-23.3763830875
21
5.0411695000
31
0.0000000000
0
SPLINE
5
2F1
100
AcDbEntity
8
0
100
AcDbSpline
62
7
6
CONTINUOUS
70
0
71
3
72
12
73
8
74
6
42
0.0000001000
43
0.0000001000
44
0.0000000001
12
-3.1784326788
22
0.6582749613
32
0.0000000000
13
-1.6280896303
23
-2.8080392401
33
0.0000000000
40
0.0000000000
40
0.0000000000
40
0.0000000000
40
0.0000000000
40
0.1576260231
40
0.3362171254
40
0.5390013139
40
0.7627279929
40
1.0000000000
40
1.0000000000
40
1.0000000000
40
1.0000000000
10
178.1710061706
20
-64.2489881628
30
0.0000000000
10
178.0040049363
20
-64.2144010748
30
0.0000000000
10
177.6299783906
20
-64.2189300359
30
0.0000000000
10
177.0747316609
20
-64.4202250054
30
0.0000000000
10
176.5287532685
20
-64.7912909215
30
0.0000000000
10
176.0238621651
20
-65.3073960819
30
0.0000000000
10
175.7391126970
20
-65.7201112394
30
0.0000000000
10
175.6103459989
20
-65.9422009416
30
0.0000000000
11
178.1710061706
21
-64.2489881628
31
0.0000000000
11
177.6593841045
21
-64.2452502847
31
0.0000000000
11
177.1103459989
21
-64.4312420374
31
0.0000000000
11
176.5613078932
21
-64.7942883904
31
0.0000000000
11
176.0496858271
21
-65.3096483346
31
0.0000000000
11
175.6103459989
21
-65.9422009416
31
0.0000000000
0
SPLINE
5
2F2
100
AcDbEntity
8
0
100
AcDbSpline
62
7
6
CONTINUOUS
70
0
71
3
72
8
73
4
74
2
42
0.0000001000
43
0.0000001000
44
0.0000000001
12
-0.1364026138
22
-0.0684649579
32
0.0000000000
13
-0.1281508944
23
-0.0827412509
33
0.0000000000
40
0.0000000000
40
0.0000000000
40
0.0000000000
40
0.0000000000
40
1.0000000000
40
1.0000000000
40
1.0000000000
40
1.0000000000
10
-49.1314597207
20
22.6115199594
30
0.0000000000
10
-49.1769272587
20
22.5886983067
30
0.0000000000
10
-49.2211776480
20
22.5634048943
30
0.0000000000
10
-49.2638946129
20
22.5358244774
30
0.0000000000
11
-49.1314597207
21
22.6115199594
31
0.0000000000
11
-49.2638946129
21
22.5358244774
31
0.0000000000
0
SPLINE
5
2F3
100
AcDbEntity
8
0
100
AcDbSpline
62
7
6
CONTINUOUS
70
0
71
3
72
10
73
6
74
4
42
0.0000001000
43
0.0000001000
44
0.0000000001
12
-1.7410199806
22
-1.1240980539
32
0.0000000000
13
-0.0000000000
23
-2.0432342530
33
0.0000000000
40
0.0000000000
40
0.0000000000
40
0.0000000000
40
0.0000000000
40
0.1228493749
40
0.5235125524
40
1.0000000000
40
1.0000000000
40
1.0000000000
40
1.0000000000
10
-49.2638946129
20
22.5358244774
30
0.0000000000
10
-49.3351890183
20
22.4897928963
30
0.0000000000
10
-49.6208019715
20
22.2664854909
30
0.0000000000
10
-49.9671996063
20
21.6487417605
30
0.0000000000
10
-50.0425036373
20
21.0451610042
30
0.0000000000
10
-50.0425036373
20
20.7206358463
30
0.0000000000
11
-49.2638946129
21
22.5358244774
31
0.0000000000
11
-49.4634931746
21
22.3794770122
31
0.0000000000
11
-49.8932504885
21
21.6827027364
31
0.0000000000
11
-50.0425036373
21
20.7206358463
31
0.0000000000
0
SPLINE
5
2F4
100
AcDbEntity
8
0
100
AcDbSpline
62
7
6
CONTINUOUS
70
0
71
3
72
14
73
10
74
8
42
0.0000001000
43
0.0000001000
44
0.0000000001
12
0.0000000000
22
-6.7538146573
32
0.0000000000
13
6.1254187515
23
3.0745491257
33
0.0000000000
40
0.0000000000
40
0.0000000000
40
0.0000000000
40
0.0000000000
40
0.1660243649
40
0.3445489087
40
0.5225525413
40
0.6871545808
40
0.8294395881
40
0.9492039498
40
1.0000000000
40
1.0000000000
40
1.0000000000
40
1.0000000000
10
129.5626187841
20
-69.0819253644
30
0.0000000000
10
129.5626187841
20
-69.4556912941
30
0.0000000000
10
129.6773941616
20
-70.2327175253
30
0.0000000000
10
130.1038687560
20
-71.3374865374
30
0.0000000000
10
130.7468354801
20
-72.3295874222
30
0.0000000000
10
131.5374319322
20
-73.0982545980
30
0.0000000000
10
132.3969748526
20
-73.5614374191
30
0.0000000000
10
133.1280897133
20
-73.6313545517
30
0.0000000000
10
133.4976066430
20
-73.4997415290
30
0.0000000000
10
133.6013223359
20
-73.4476832117
30
0.0000000000
11
129.5626187841
21
-69.0819253644
31
0.0000000000
11
129.7118719329
21
-70.1932454034
31
0.0000000000
11
130.1416292468
21
-71.3197769931
31
0.0000000000
11
130.8000556512
21
-72.3256437980
31
0.0000000000
11
131.6077352044
21
-73.0895234364
31
0.0000000000
11
132.4672498322
21
-73.5192807503
31
0.0000000000
11
133.2749293853
21
-73.5630806651
31
0.0000000000
11
133.6013223359
21
-73.4476832117
31
0.0000000000
0
SPLINE
5
2F5
100
AcDbEntity
8
0
100
AcDbSpline
62
7
6
CONTINUOUS
70
0
71
3
72
8
73
4
74
2
42
0.0000001000
43
0.0000001000
44
0.0000000001
12
-0.2690109070
22
0.1346209886
32
0.0000000000
13
-0.2917223201
23
0.0604176707
33
0.0000000000
40
0.0000000000
40
0.0000000000
40
0.0000000000
40
0.0000000000
40
1.0000000000
40
1.0000000000
40
1.0000000000
40
1.0000000000
10
184.2922239949
20
-65.5564936390
30
0.0000000000
10
184.2025536925
20
-65.5116199762
30
0.0000000000
10
184.1070817088
20
-65.4783896604
30
0.0000000000
10
184.0098409355
20
-65.4582504369
30
0.0000000000
11
184.2922239949
21
-65.5564936390
31
0.0000000000
11
184.0098409355
21
-65.4582504369
31
0.0000000000
0
SPLINE
5
2F6
100
AcDbEntity
8
0
100
AcDbSpline
62
7
6
CONTINUOUS
70
0
71
3
72
10
73
6
74
4
42
0.0000001000
43
0.0000001000
44
0.0000000001
12
-2.3804853503
22
-3.6064262274
32
0.0000000000
13
-3.8699373484
23
1.9227920399
33
0.0000000000
40
0.0000000000
40
0.0000000000
40
0.0000000000
40
0.0000000000
40
0.4001847512
40
0.7348132415
40
1.0000000000
40
1.0000000000
40
1.0000000000
40
1.0000000000
10
179.5550682140
20
-76.3794814828
30
0.0000000000
10
179.2375235681
20
-76.8605604103
30
0.0000000000
10
178.5300408782
20
-77.6692171242
30
0.0000000000
10
177.2461109613
20
-78.4132954443
30
0.0000000000
10
176.3045322574
20
-78.3628487637
30
0.0000000000
10
175.9624468771
20
-78.1928824342
30
0.0000000000
11
179.5550682140
21
-76.3794814828
31
0.0000000000
11
178.3969360370
21
-77.6636830597
31
0.0000000000
11
177.1035886318
21
-78.3103567624
31
0.0000000000
11
175.9624468771
21
-78.1928824342
31
0.0000000000
0
SPLINE
5
2F7
100
AcDbEntity
8
0
100
AcDbSpline
62
7
6
CONTINUOUS
70
0
71
3
72
14
73
10
74
8
42
0.0000001000
43
0.0000001000
44
0.0000000001
12
0.0000000000
22
-6.7538146573
32
0.0000000000
13
6.1254187515
23
3.0745491257
33
0.0000000000
40
0.0000000000
40
0.0000000000
40
0.0000000000
40
0.0000000000
40
0.1660243649
40
0.3445489087
40
0.5225525413
40
0.6871545808
40
0.8294395881
40
0.9492039498
40
1.0000000000
40
1.0000000000
40
1.0000000000
40
1.0000000000
10
-50.0425036373
20
20.7206358463
30
0.0000000000
10
-50.0425036373
20
20.3468699166
30
0.0000000000
10
-49.9277282598
20
19.5698436854
30
0.0000000000
10
-49.5012536653
20
18.4650746733
30
0.0000000000
10
-48.8582869413
20
17.4729737885
30
0.0000000000
10
-48.0676904892
20
16.7043066127
30
0.0000000000
10
-47.2081475688
20
16.2411237915
30
0.0000000000
10
-46.4770327081
20
16.1712066590
30
0.0000000000
10
-46.1075157784
20
16.3028196817
30
0.0000000000
10
-46.0038000855
20
16.3548779990
30
0.0000000000
11
-50.0425036373
21
20.7206358463
31
0.0000000000
11
-49.8932504885
21
19.6093158073
31
0.0000000000
11
-49.4634931746
21
18.4827842176
31
0.0000000000
11
-48.8050667702
21
17.4769174127
31
0.0000000000
11
-47.9973872170
21
16.7130377743
31
0.0000000000
11
-47.1378725892
21
16.2832804604
31
0.0000000000
11
-46.3301930360
21
16.2394805456
31
0.0000000000
11
-46.0038000855
21
16.3548779990
31
0.0000000000
0
SPLINE
5
2F8
100
AcDbEntity
8
0
100
AcDbSpline
62
7
6
CONTINUOUS
70
0
71
3
72
8
73
4
74
2
42
0.0000001000
43
0.0000001000
44
0.0000000001
12
0.1511736600
22
-0.1095623348
32
0.0000000000
13
0.1686548795
23
-0.0835112634
33
0.0000000000
40
0.0000000000
40
0.0000000000
40
0.0000000000
40
0.0000000000
40
1.0000000000
40
1.0000000000
40
1.0000000000
40
1.0000000000
10
175.6103459989
20
-110.3196295337
30
0.0000000000
10
175.6607372189
20
-110.3561503120
30
0.0000000000
10
175.7145394659
20
-110.3884959390
30
0.0000000000
10
175.7707577591
20
-110.4163330268
30
0.0000000000
11
175.6103459989
21
-110.3196295337
31
0.0000000000
11
175.7707577591
21
-110.4163330268
31
0.0000000000
0
SPLINE
5
2F9
100
AcDbEntity
8
0
100
AcDbSpline
62
7
6
CONTINUOUS
70
0
71
3
72
14
73
10
74
8
42
0.0000001000
43
0.0000001000
44
0.0000000001
12
0.0000000000
22
-6.7538146573
32
0.0000000000
13
6.1254187515
23
3.0745491257
33
0.0000000000
40
0.0000000000
40
0.0000000000
40
0.0000000000
40
0.0000000000
40
0.1660243649
40
0.3445489087
40
0.5225525413
40
0.6871545808
40
0.8294395881
40
0.9492039498
40
1.0000000000
40
1.0000000000
40
1.0000000000
40
1.0000000000
10
-140.5521716292
20
65.9754698422
30
0.0000000000
10
-140.5521716292
20
65.6017039126
30
0.0000000000
10
-140.4373962517
20
64.8246776813
30
0.0000000000
10
-140.0109216572
20
63.7199086692
30
0.0000000000
10
-139.3679549332
20
62.7278077844
30
0.0000000000
10
-138.5773584811
20
61.9591406087
30
0.0000000000
10
-137.7178155607
20
61.4959577875
30
0.0000000000
10
-136.9867007000
20
61.4260406549
30
0.0000000000
10
-136.6171837702
20
61.5576536776
30
0.0000000000
10
-136.5134680774
20
61.6097119949
30
0.0000000000
11
-140.5521716292
21
65.9754698422
31
0.0000000000
11
-140.4029184804
21
64.8641498033
31
0.0000000000
11
-139.9731611665
21
63.7376182136
31
0.0000000000
11
-139.3147347621
21
62.7317514087
31
0.0000000000
11
-138.5070552089
21
61.9678717702
31
0.0000000000
11
-137.6475405811
21
61.5381144563
31
0.0000000000
11
-136.8398610279
21
61.4943145416
31
0.0000000000
11
-136.5134680774
21
61.6097119949
31
0.0000000000
0
SPLINE
5
2FA
100
AcDbEntity
8
0
100
AcDbSpline
62
7
6
CONTINUOUS
70
0
71
3
72
8
73
4
74
2
42
0.0000001000
43
0.0000001000
44
0.0000000001
12
-0.1364026138
22
-0.0684649579
32
0.0000000000
13
-0.1281508944
23
-0.0827412509
33
0.0000000000
40
0.0000000000
40
0.0000000000
40
0.0000000000
40
0.0000000000
40
1.0000000000
40
1.0000000000
40
1.0000000000
40
1.0000000000
10
-139.6411277126
20
67.8663539553
30
0.0000000000
10
-139.6865952505
20
67.8435323027
30
0.0000000000
10
-139.7308456399
20
67.8182388903
30
0.0000000000
10
-139.7735626047
20
67.7906584733
30
0.0000000000
11
-139.6411277126
21
67.8663539553
31
0.0000000000
11
-139.7735626047
21
67.7906584733
31
0.0000000000
0
SPLINE
5
2FB
100
AcDbEntity
8
0
100
AcDbSpline
62
7
6
CONTINUOUS
70
0
71
3
72
10
73
6
74
4
42
0.0000001000
43
0.0000001000
44
0.0000000001
12
-1.7410199806
22
-1.1240980539
32
0.0000000000
13
0.0000000000
23
-2.0432342530
33
0.0000000000
40
0.0000000000
40
0.0000000000
40
0.0000000000
40
0.0000000000
40
0.1228493749
40
0.5235125524
40
1.0000000000
40
1.0000000000
40
1.0000000000
40
1.0000000000
10
-139.7735626047
20
67.7906584733
30
0.0000000000
10
-139.8448570102
20
67.7446268922
30
0.0000000000
10
-140.1304699634
20
67.5213194868
30
0.0000000000
10
-140.4768675982
20
66.9035757564
30
0.0000000000
10
-140.5521716292
20
66.2999950002
30
0.0000000000
10
-140.5521716292
20
65.9754698422
30
0.0000000000
11
-139.7735626047
21
67.7906584733
31
0.0000000000
11
-139.9731611665
21
67.6343110081
31
0.0000000000
11
-140.4029184804
21
66.9375367323
31
0.0000000000
11
-140.5521716292
21
65.9754698422
31
0.0000000000
0
SPLINE
5
2FC
100
AcDbEntity
8
0
100
AcDbSpline
62
7
6
CONTINUOUS
70
0
71
3
72
10
73
6
74
4
42
0.0000001000
43
0.0000001000
44
0.0000000001
12
-3.0102156740
22
0.8067557374
32
0.0000000000
13
-1.9298324348
23
-2.4470390265
33
0.0000000000
40
0.0000000000
40
0.0000000000
40
0.0000000000
40
0.0000000000
40
0.2777576355
40
0.6112136868
40
1.0000000000
40
1.0000000000
40
1.0000000000
40
1.0000000000
10
165.2448755792
20
-66.4613028666
30
0.0000000000
10
164.9661721166
20
-66.3866086779
30
0.0000000000
10
164.2974835698
20
-66.4264330735
30
0.0000000000
10
163.3699387765
20
-66.9349557668
30
0.0000000000
10
162.8346029446
20
-67.4743628297
30
0.0000000000
10
162.5845054655
20
-67.7914879234
30
0.0000000000
11
165.2448755792
21
-66.4613028666
31
0.0000000000
11
164.3794343168
21
-66.4787670723
31
0.0000000000
11
163.4499467279
21
-66.9435108667
31
0.0000000000
11
162.5845054655
21
-67.7914879234
31
0.0000000000
0
SPLINE
5
2FD
100
AcDbEntity
8
0
100
AcDbSpline
62
7
6
CONTINUOUS
70
0
71
3
72
8
73
4
74
2
42
0.0000001000
43
0.0000001000
44
0.0000000001
12
-0.1364026138
22
-0.0684649579
32
0.0000000000
13
-0.1281508944
23
-0.0827412509
33
0.0000000000
40
0.0000000000
40
0.0000000000
40
0.0000000000
40
0.0000000000
40
1.0000000000
40
1.0000000000
40
1.0000000000
40
1.0000000000
10
-26.5040427228
20
11.2978114604
30
0.0000000000
10
-26.5495102607
20
11.2749898078
30
0.0000000000
10
-26.5937606501
20
11.2496963954
30
0.0000000000
10
-26.6364776149
20
11.2221159784
30
0.0000000000
11
-26.5040427228
21
11.2978114604
31
0.0000000000
11
-26.6364776149
21
11.2221159784
31
0.0000000000
0
SPLINE
5
2FE
100
AcDbEntity
8
0
100
AcDbSpline
62
7
6
CONTINUOUS
70
0
71
3
72
10
73
6
74
4
42
0.0000001000
43
0.0000001000
44
0.0000000001
12
-1.7410199806
22
-1.1240980539
32
0.0000000000
13
0.0000000000
23
-2.0432342530
33
0.0000000000
40
0.0000000000
40
0.0000000000
40
0.0000000000
40
0.0000000000
40
0.1228493749
40
0.5235125524
40
1.0000000000
40
1.0000000000
40
1.0000000000
40
1.0000000000
10
-26.6364776149
20
11.2221159784
30
0.0000000000
10
-26.7077720203
20
11.1760843973
30
0.0000000000
10
-26.9933849735
20
10.9527769919
30
0.0000000000
10
-27.3397826084
20
10.3350332615
30
0.0000000000
10
-27.4150866393
20
9.7314525053
30
0.0000000000
10
-27.4150866393
20
9.4069273473
30
0.0000000000
11
-26.6364776149
21
11.2221159784
31
0.0000000000
11
-26.8360761766
21
11.0657685132
31
0.0000000000
11
-27.2658334905
21
10.3689942374
31
0.0000000000
11
-27.4150866393
21
9.4069273473
31
0.0000000000
0
SPLINE
5
2FF
100
AcDbEntity
8
0
100
AcDbSpline
62
7
6
CONTINUOUS
70
0
71
3
72
14
73
10
74
8
42
0.0000001000
43
0.0000001000
44
0.0000000001
12
0.0000000000
22
-6.7538146573
32
0.0000000000
13
6.1254187515
23
3.0745491257
33
0.0000000000
40
0.0000000000
40
0.0000000000
40
0.0000000000
40
0.0000000000
40
0.1660243649
40
0.3445489087
40
0.5225525413
40
0.6871545808
40
0.8294395881
40
0.9492039498
40
1.0000000000
40
1.0000000000
40
1.0000000000
40
1.0000000000
10
106.9352017861
20
-57.7682168655
30
0.0000000000
10
106.9352017861
20
-58.1419827951
30
0.0000000000
10
107.0499771636
20
-58.9190090263
30
0.0000000000
10
107.4764517581
20
-60.0237780384
30
0.0000000000
10
108.1194184821
20
-61.0158789232
30
0.0000000000
10
108.9100149342
20
-61.7845460990
30
0.0000000000
10
109.7695578546
20
-62.2477289202
30
0.0000000000
10
110.5006727153
20
-62.3176460527
30
0.0000000000
10
110.8701896450
20
-62.1860330300
30
0.0000000000
10
110.9739053379
20
-62.1339747127
30
0.0000000000
11
106.9352017861
21
-57.7682168655
31
0.0000000000
11
107.0844549349
21
-58.8795369044
31
0.0000000000
11
107.5142122488
21
-60.0060684941
31
0.0000000000
11
108.1726386532
21
-61.0119352990
31
0.0000000000
11
108.9803182064
21
-61.7758149374
31
0.0000000000
11
109.8398328342
21
-62.2055722513
31
0.0000000000
11
110.6475123874
21
-62.2493721661
31
0.0000000000
11
110.9739053379
21
-62.1339747127
31
0.0000000000
0
SPLINE
5
300
100
AcDbEntity
8
0
100
AcDbSpline
62
7
6
CONTINUOUS
70
0
71
3
72
9
73
5
74
3
42
0.0000001000
43
0.0000001000
44
0.0000000001
12
0.0000000000
22
-1.5584788159
32
0.0000000000
13
1.3912673609
23
-0.7032705537
33
0.0000000000
40
0.0000000000
40
0.0000000000
40
0.0000000000
40
0.0000000000
40
0.5620920747
40
1.0000000000
40
1.0000000000
40
1.0000000000
40
1.0000000000
10
173.0496858271
20
-100.3517383276
30
0.0000000000
10
173.0496858271
20
-100.6437411912
30
0.0000000000
10
173.1240015149
20
-101.1782166937
30
0.0000000000
10
173.4971588146
20
-101.6015650103
30
0.0000000000
10
173.7002411491
20
-101.7042209266
30
0.0000000000
11
173.0496858271
21
-100.3517383276
31
0.0000000000
11
173.2276486057
21
-101.2094797228
31
0.0000000000
11
173.7002411491
21
-101.7042209266
31
0.0000000000
0
SPLINE
5
301
100
AcDbEntity
8
0
100
AcDbSpline
62
7
6
CONTINUOUS
70
0
71
3
72
10
73
6
74
4
42
0.0000001000
43
0.0000001000
44
0.0000000001
12
-2.8757383868
22
-2.5110411242
32
0.0000000000
13
-3.6737491174
23
0.9845866540
33
0.0000000000
40
0.0000000000
40
0.0000000000
40
0.0000000000
40
0.0000000000
40
0.1513782490
40
0.6143555420
40
1.0000000000
40
1.0000000000
40
1.0000000000
40
1.0000000000
10
168.7371675753
20
-65.2823129372
30
0.0000000000
10
168.5920594949
20
-65.4090186066
30
0.0000000000
10
167.9822004433
20
-65.8997736286
30
0.0000000000
10
166.8501995387
20
-66.5203885605
30
0.0000000000
10
165.7171292416
20
-66.5878696621
30
0.0000000000
10
165.2448755792
20
-66.4613028666
30
0.0000000000
11
168.7371675753
21
-65.2823129372
31
0.0000000000
11
168.2863222688
21
-65.6442175963
31
0.0000000000
11
166.7113367487
21
-66.4317103563
31
0.0000000000
11
165.2448755792
21
-66.4613028666
31
0.0000000000
0
SPLINE
5
302
100
AcDbEntity
8
0
100
AcDbSpline
62
7
6
CONTINUOUS
70
0
71
3
72
10
73
6
74
4
42
0.0000001000
43
0.0000001000
44
0.0000000001
12
-2.0172048255
22
1.0024292831
32
0.0000000000
13
-1.4617180722
23
-1.7225906895
33
0.0000000000
40
0.0000000000
40
0.0000000000
40
0.0000000000
40
0.0000000000
40
0.3114748696
40
0.7026602528
40
1.0000000000
40
1.0000000000
40
1.0000000000
40
1.0000000000
10
175.9348604411
20
-78.1789266181
30
0.0000000000
10
175.7254242378
20
-78.0748494413
30
0.0000000000
10
175.1522767981
20
-78.0390434131
30
0.0000000000
10
174.4773202801
20
-78.4173412887
30
0.0000000000
10
174.1042902602
20
-78.7809820256
30
0.0000000000
10
173.9594146329
20
-78.9517135857
30
0.0000000000
11
175.9348604411
21
-78.1789266181
31
0.0000000000
11
175.2367252922
21
-78.1023727982
31
0.0000000000
11
174.4435770054
21
-78.4861465796
31
0.0000000000
11
173.9594146329
21
-78.9517135857
31
0.0000000000
0
SPLINE
5
303
100
AcDbEntity
8
0
100
AcDbSpline
62
7
6
CONTINUOUS
70
0
71
3
72
8
73
4
74
2
42
0.0000001000
43
0.0000001000
44
0.0000000001
12
-0.0955750906
22
-0.1126323635
32
0.0000000000
13
-0.0908979227
23
-0.1164283251
33
0.0000000000
40
0.0000000000
40
0.0000000000
40
0.0000000000
40
0.0000000000
40
1.0000000000
40
1.0000000000
40
1.0000000000
40
1.0000000000
10
173.9594146329
20
-78.9517135857
30
0.0000000000
10
173.9275562693
20
-78.9892577068
30
0.0000000000
10
173.8964821289
20
-79.0274639863
30
0.0000000000
10
173.8661828213
20
-79.0662734279
30
0.0000000000
11
173.9594146329
21
-78.9517135857
31
0.0000000000
11
173.8661828213
21
-79.0662734279
31
0.0000000000
0
SPLINE
5
304
100
AcDbEntity
8
0
100
AcDbSpline
62
7
6
CONTINUOUS
70
0
71
3
72
10
73
6
74
4
42
0.0000001000
43
0.0000001000
44
0.0000000001
12
-1.4874208132
22
-1.9051911065
32
0.0000000000
13
0.0000000000
23
-2.4099707870
33
0.0000000000
40
0.0000000000
40
0.0000000000
40
0.0000000000
40
0.0000000000
40
0.0984750551
40
0.5639439126
40
1.0000000000
40
1.0000000000
40
1.0000000000
40
1.0000000000
10
173.8661828213
20
-79.0662734279
30
0.0000000000
10
173.8173582057
20
-79.1288113610
30
0.0000000000
10
173.5492729578
20
-79.4959209196
30
0.0000000000
10
173.1886171183
20
-80.2236148717
30
0.0000000000
10
173.0496858271
20
-80.9488853002
30
0.0000000000
10
173.0496858271
20
-81.2991794443
30
0.0000000000
11
173.8661828213
21
-79.0662734279
31
0.0000000000
11
173.7257055775
21
-79.2583389643
31
0.0000000000
11
173.2276486057
21
-80.2634752705
31
0.0000000000
11
173.0496858271
21
-81.2991794443
31
0.0000000000
0
SPLINE
5
305
100
AcDbEntity
8
0
100
AcDbSpline
62
7
6
CONTINUOUS
70
0
71
3
72
8
73
4
74
2
42
0.0000001000
43
0.0000001000
44
0.0000000001
12
-0.1364026138
22
-0.0684649579
32
0.0000000000
13
-0.1281508944
23
-0.0827412509
33
0.0000000000
40
0.0000000000
40
0.0000000000
40
0.0000000000
40
0.0000000000
40
1.0000000000
40
1.0000000000
40
1.0000000000
40
1.0000000000
10
107.8462457027
20
-55.8773327523
30
0.0000000000
10
107.8007781648
20
-55.9001544050
30
0.0000000000
10
107.7565277754
20
-55.9254478174
30
0.0000000000
10
107.7138108106
20
-55.9530282343
30
0.0000000000
11
107.8462457027
21
-55.8773327523
31
0.0000000000
11
107.7138108106
21
-55.9530282343
31
0.0000000000
0
SPLINE
5
306
100
AcDbEntity
8
0
100
AcDbSpline
62
7
6
CONTINUOUS
70
0
71
3
72
10
73
6
74
4
42
0.0000001000
43
0.0000001000
44
0.0000000001
12
-1.7410199806
22
-1.1240980539
32
0.0000000000
13
-0.0000000000
23
-2.0432342530
33
0.0000000000
40
0.0000000000
40
0.0000000000
40
0.0000000000
40
0.0000000000
40
0.1228493749
40
0.5235125524
40
1.0000000000
40
1.0000000000
40
1.0000000000
40
1.0000000000
10
107.7138108106
20
-55.9530282343
30
0.0000000000
10
107.6425164051
20
-55.9990598154
30
0.0000000000
10
107.3569034519
20
-56.2223672208
30
0.0000000000
10
107.0105058171
20
-56.8401109512
30
0.0000000000
10
106.9352017861
20
-57.4436917075
30
0.0000000000
10
106.9352017861
20
-57.7682168655
30
0.0000000000
11
107.7138108106
21
-55.9530282343
31
0.0000000000
11
107.5142122488
21
-56.1093756995
31
0.0000000000
11
107.0844549349
21
-56.8061499753
31
0.0000000000
11
106.9352017861
21
-57.7682168655
31
0.0000000000
0
ENDSEC
0
SECTION
2
OBJECTS
0
DICTIONARY
5
307
100
AcDbDictionary
3
ACAD_GROUP
350
308
3
ACAD_MLINESTYLE
350
309
0
DICTIONARY
5
308
102
{ACAD_REACTORS
330
307
102
}
100
AcDbDictionary
0
DICTIONARY
5
309
102
{ACAD_REACTORS
330
307
102
}
100
AcDbDictionary
3
STANDARD
350
30A
0
MLINESTYLE
5
30A
102
{ACAD_REACTORS
330
309
102
}
100
AcDbMlineStyle
2
STANDARD
70
0
3

62
256
51
90.0
52
90.0
71
2
49
0.5
62
256
6
BYLAYER
49
-0.5
62
256
6
BYLAYER
0
ENDSEC
0
EOF
